ISO-10303-21;
HEADER;
FILE_DESCRIPTION(('OneSpaceDesigner STEP Export'),'2;1');
FILE_NAME(
'Y:/datenaustausch/DIV02_CAD-Files//Zubehoer/T4000_Betaetiger.stp',
'2010-05-03T11:28:19',('SICK AG'),('SICK AG'),
'CoCreate Modeling STEP processor for AP214 (Solid Model)',
'CoCreate Modeling 16.00B  02-Dec-2008 (C) Parametric Technology GmbH',
'');
FILE_SCHEMA(('AUTOMOTIVE_DESIGN { 1 0 10303 214 1 1 1 1 }'));
ENDSEC;
DATA;
#10=CARTESIAN_POINT('',(0.,6.,-1.46952762458685E-15));
#20=DIRECTION('',(0.,1.,-2.44921270764475E-16));
#30=DIRECTION('',(1.,0.,0.));
#40=AXIS2_PLACEMENT_3D('',#10,#20,#30);
#50=CYLINDRICAL_SURFACE('',#40,2.25);
#60=CARTESIAN_POINT('',(-2.25,6.,-1.745073154395E-15));
#70=DIRECTION('',(0.,1.,-2.44921270764475E-16));
#80=VECTOR('',#70,1.);
#90=LINE('',#60,#80);
#100=CARTESIAN_POINT('',(-2.25,4.6,-1.40218337532474E-15));
#110=VERTEX_POINT('',#100);
#120=CARTESIAN_POINT('',(-2.25,12.,-3.21460077898185E-15));
#130=VERTEX_POINT('',#120);
#140=EDGE_CURVE('',#110,#130,#90,.T.);
#150=ORIENTED_EDGE('',*,*,#140,.T.);
#160=CARTESIAN_POINT('',(0.,4.6,-1.12663784551659E-15));
#170=DIRECTION('',(-2.22044604925031E-16,-1.,2.44921270764475E-16));
#180=DIRECTION('',(1.,-2.22044604925031E-16,5.43834468046346E-32));
#190=AXIS2_PLACEMENT_3D('',#160,#170,#180);
#200=CIRCLE('',#190,2.25);
#210=CARTESIAN_POINT('',(2.25,4.6,-1.12663784551658E-15));
#220=VERTEX_POINT('',#210);
#230=EDGE_CURVE('',#220,#110,#200,.T.);
#240=ORIENTED_EDGE('',*,*,#230,.T.);
#250=CARTESIAN_POINT('',(2.25,6.,-1.46952762458685E-15));
#260=DIRECTION('',(0.,1.,-2.44921270764475E-16));
#270=VECTOR('',#260,1.);
#280=LINE('',#250,#270);
#290=CARTESIAN_POINT('',(2.25,12.,-2.9390552491737E-15));
#300=VERTEX_POINT('',#290);
#310=EDGE_CURVE('',#220,#300,#280,.T.);
#320=ORIENTED_EDGE('',*,*,#310,.F.);
#330=CARTESIAN_POINT('',(0.,12.,-2.93905524917371E-15));
#340=DIRECTION('',(0.,-1.,0.));
#350=DIRECTION('',(1.,0.,0.));
#360=AXIS2_PLACEMENT_3D('',#330,#340,#350);
#370=CIRCLE('',#360,2.25);
#380=EDGE_CURVE('',#300,#130,#370,.T.);
#390=ORIENTED_EDGE('',*,*,#380,.F.);
#400=EDGE_LOOP('',(#390,#320,#240,#150));
#410=FACE_OUTER_BOUND('',#400,.T.);
#420=ADVANCED_FACE('',(#410),#50,.F.);
#430=CARTESIAN_POINT('',(-32.,6.,-1.46952762458685E-15));
#440=DIRECTION('',(0.,1.,-2.44921270764475E-16));
#450=DIRECTION('',(1.,0.,0.));
#460=AXIS2_PLACEMENT_3D('',#430,#440,#450);
#470=CYLINDRICAL_SURFACE('',#460,2.25);
#480=CARTESIAN_POINT('',(-29.75,6.,-1.46952762458685E-15));
#490=DIRECTION('',(0.,1.,-2.44921270764475E-16));
#500=VECTOR('',#490,1.);
#510=LINE('',#480,#500);
#520=CARTESIAN_POINT('',(-29.75,4.6,-1.12663784551658E-15));
#530=VERTEX_POINT('',#520);
#540=CARTESIAN_POINT('',(-29.75,12.,-2.9390552491737E-15));
#550=VERTEX_POINT('',#540);
#560=EDGE_CURVE('',#530,#550,#510,.T.);
#570=ORIENTED_EDGE('',*,*,#560,.F.);
#580=CARTESIAN_POINT('',(-32.,12.,-2.93905524917371E-15));
#590=DIRECTION('',(0.,-1.,0.));
#600=DIRECTION('',(1.,0.,0.));
#610=AXIS2_PLACEMENT_3D('',#580,#590,#600);
#620=CIRCLE('',#610,2.25);
#630=CARTESIAN_POINT('',(-34.25,12.,-3.21460077898185E-15));
#640=VERTEX_POINT('',#630);
#650=EDGE_CURVE('',#550,#640,#620,.T.);
#660=ORIENTED_EDGE('',*,*,#650,.F.);
#670=CARTESIAN_POINT('',(-34.25,6.,-1.745073154395E-15));
#680=DIRECTION('',(0.,1.,-2.44921270764475E-16));
#690=VECTOR('',#680,1.);
#700=LINE('',#670,#690);
#710=CARTESIAN_POINT('',(-34.25,4.6,-1.40218337532474E-15));
#720=VERTEX_POINT('',#710);
#730=EDGE_CURVE('',#720,#640,#700,.T.);
#740=ORIENTED_EDGE('',*,*,#730,.T.);
#750=CARTESIAN_POINT('',(-32.,4.6,-1.12663784551659E-15));
#760=DIRECTION('',(-2.22044604925031E-16,-1.,2.44921270764475E-16));
#770=DIRECTION('',(1.,-2.22044604925031E-16,5.43834468046346E-32));
#780=AXIS2_PLACEMENT_3D('',#750,#760,#770);
#790=CIRCLE('',#780,2.25);
#800=EDGE_CURVE('',#530,#720,#790,.T.);
#810=ORIENTED_EDGE('',*,*,#800,.T.);
#820=EDGE_LOOP('',(#810,#740,#660,#570));
#830=FACE_OUTER_BOUND('',#820,.T.);
#840=ADVANCED_FACE('',(#830),#470,.F.);
#850=CARTESIAN_POINT('',(0.,2.3,-5.63318922758294E-16));
#860=DIRECTION('',(0.,1.,-2.44921270764475E-16));
#870=DIRECTION('',(1.,0.,0.));
#880=AXIS2_PLACEMENT_3D('',#850,#860,#870);
#890=CYLINDRICAL_SURFACE('',#880,4.);
#900=CARTESIAN_POINT('',(-4.,2.3,-1.05317764241724E-15));
#910=DIRECTION('',(0.,1.,-2.44921270764475E-16));
#920=VECTOR('',#910,1.);
#930=LINE('',#900,#920);
#940=CARTESIAN_POINT('',(-4.,0.,-4.89858719658943E-16));
#950=VERTEX_POINT('',#940);
#960=CARTESIAN_POINT('',(-4.,4.6,-1.61649656517553E-15));
#970=VERTEX_POINT('',#960);
#980=EDGE_CURVE('',#950,#970,#930,.T.);
#990=ORIENTED_EDGE('',*,*,#980,.T.);
#1000=CARTESIAN_POINT('',(0.,0.,0.));
#1010=DIRECTION('',(0.,1.,0.));
#1020=DIRECTION('',(1.,0.,0.));
#1030=AXIS2_PLACEMENT_3D('',#1000,#1010,#1020);
#1040=CIRCLE('',#1030,4.);
#1050=CARTESIAN_POINT('',(4.,0.,-1.57772181044202E-30));
#1060=VERTEX_POINT('',#1050);
#1070=EDGE_CURVE('',#950,#1060,#1040,.T.);
#1080=ORIENTED_EDGE('',*,*,#1070,.F.);
#1090=CARTESIAN_POINT('',(4.,2.3,-5.63318922758294E-16));
#1100=DIRECTION('',(0.,1.,-2.44921270764475E-16));
#1110=VECTOR('',#1100,1.);
#1120=LINE('',#1090,#1110);
#1130=CARTESIAN_POINT('',(4.,4.6,-1.12663784551659E-15));
#1140=VERTEX_POINT('',#1130);
#1150=EDGE_CURVE('',#1060,#1140,#1120,.T.);
#1160=ORIENTED_EDGE('',*,*,#1150,.F.);
#1170=CARTESIAN_POINT('',(0.,4.6,-1.12663784551659E-15));
#1180=DIRECTION('',(0.,-1.,2.44921270764475E-16));
#1190=DIRECTION('',(1.,0.,0.));
#1200=AXIS2_PLACEMENT_3D('',#1170,#1180,#1190);
#1210=CIRCLE('',#1200,4.);
#1220=EDGE_CURVE('',#1140,#970,#1210,.T.);
#1230=ORIENTED_EDGE('',*,*,#1220,.F.);
#1240=EDGE_LOOP('',(#1230,#1160,#1080,#990));
#1250=FACE_OUTER_BOUND('',#1240,.T.);
#1260=ADVANCED_FACE('',(#1250),#890,.F.);
#1270=CARTESIAN_POINT('',(-32.,2.3,-5.63318922758294E-16));
#1280=DIRECTION('',(0.,1.,-2.44921270764475E-16));
#1290=DIRECTION('',(1.,0.,0.));
#1300=AXIS2_PLACEMENT_3D('',#1270,#1280,#1290);
#1310=CYLINDRICAL_SURFACE('',#1300,4.);
#1320=CARTESIAN_POINT('',(-28.,2.3,-5.63318922758294E-16));
#1330=DIRECTION('',(0.,1.,-2.44921270764475E-16));
#1340=VECTOR('',#1330,1.);
#1350=LINE('',#1320,#1340);
#1360=CARTESIAN_POINT('',(-28.,0.,-1.57772181044202E-30));
#1370=VERTEX_POINT('',#1360);
#1380=CARTESIAN_POINT('',(-28.,4.6,-1.12663784551659E-15));
#1390=VERTEX_POINT('',#1380);
#1400=EDGE_CURVE('',#1370,#1390,#1350,.T.);
#1410=ORIENTED_EDGE('',*,*,#1400,.F.);
#1420=CARTESIAN_POINT('',(-32.,4.6,-1.12663784551659E-15));
#1430=DIRECTION('',(0.,-1.,2.44921270764475E-16));
#1440=DIRECTION('',(1.,0.,0.));
#1450=AXIS2_PLACEMENT_3D('',#1420,#1430,#1440);
#1460=CIRCLE('',#1450,4.);
#1470=CARTESIAN_POINT('',(-36.,4.6,-1.61649656517553E-15));
#1480=VERTEX_POINT('',#1470);
#1490=EDGE_CURVE('',#1390,#1480,#1460,.T.);
#1500=ORIENTED_EDGE('',*,*,#1490,.F.);
#1510=CARTESIAN_POINT('',(-36.,2.3,-1.05317764241724E-15));
#1520=DIRECTION('',(0.,1.,-2.44921270764475E-16));
#1530=VECTOR('',#1520,1.);
#1540=LINE('',#1510,#1530);
#1550=CARTESIAN_POINT('',(-36.,0.,-4.89858719658943E-16));
#1560=VERTEX_POINT('',#1550);
#1570=EDGE_CURVE('',#1560,#1480,#1540,.T.);
#1580=ORIENTED_EDGE('',*,*,#1570,.T.);
#1590=CARTESIAN_POINT('',(-32.,0.,0.));
#1600=DIRECTION('',(0.,1.,0.));
#1610=DIRECTION('',(1.,0.,0.));
#1620=AXIS2_PLACEMENT_3D('',#1590,#1600,#1610);
#1630=CIRCLE('',#1620,4.);
#1640=EDGE_CURVE('',#1560,#1370,#1630,.T.);
#1650=ORIENTED_EDGE('',*,*,#1640,.F.);
#1660=EDGE_LOOP('',(#1650,#1580,#1500,#1410));
#1670=FACE_OUTER_BOUND('',#1660,.T.);
#1680=ADVANCED_FACE('',(#1670),#1310,.F.);
#1690=CARTESIAN_POINT('',(-30.,4.6,-1.12663784551659E-15));
#1700=DIRECTION('',(2.22044604925031E-16,1.,-2.44921270764475E-16));
#1710=DIRECTION('',(0.,2.44921270764475E-16,1.));
#1720=AXIS2_PLACEMENT_3D('',#1690,#1700,#1710);
#1730=PLANE('',#1720);
#1740=EDGE_CURVE('',#720,#530,#790,.T.);
#1750=ORIENTED_EDGE('',*,*,#1740,.F.);
#1760=ORIENTED_EDGE('',*,*,#800,.F.);
#1770=EDGE_LOOP('',(#1760,#1750));
#1780=FACE_BOUND('',#1770,.T.);
#1790=EDGE_CURVE('',#1480,#1390,#1460,.T.);
#1800=ORIENTED_EDGE('',*,*,#1790,.T.);
#1810=ORIENTED_EDGE('',*,*,#1490,.T.);
#1820=EDGE_LOOP('',(#1810,#1800));
#1830=FACE_OUTER_BOUND('',#1820,.T.);
#1840=ADVANCED_FACE('',(#1780,#1830),#1730,.F.);
#1850=CARTESIAN_POINT('',(-16.,12.,0.));
#1860=DIRECTION('',(0.,-1.,0.));
#1870=DIRECTION('',(0.,0.,-1.));
#1880=AXIS2_PLACEMENT_3D('',#1850,#1860,#1870);
#1890=PLANE('',#1880);
#1900=EDGE_CURVE('',#640,#550,#620,.T.);
#1910=ORIENTED_EDGE('',*,*,#1900,.T.);
#1920=ORIENTED_EDGE('',*,*,#650,.T.);
#1930=EDGE_LOOP('',(#1920,#1910));
#1940=FACE_BOUND('',#1930,.T.);
#1950=EDGE_CURVE('',#130,#300,#370,.T.);
#1960=ORIENTED_EDGE('',*,*,#1950,.T.);
#1970=ORIENTED_EDGE('',*,*,#380,.T.);
#1980=EDGE_LOOP('',(#1970,#1960));
#1990=FACE_BOUND('',#1980,.T.);
#2000=CARTESIAN_POINT('',(-16.,12.,12.5));
#2010=DIRECTION('',(-1.,0.,0.));
#2020=VECTOR('',#2010,1.);
#2030=LINE('',#2000,#2020);
#2040=CARTESIAN_POINT('',(5.,12.,12.5));
#2050=VERTEX_POINT('',#2040);
#2060=CARTESIAN_POINT('',(-37.,12.,12.5));
#2070=VERTEX_POINT('',#2060);
#2080=EDGE_CURVE('',#2050,#2070,#2030,.T.);
#2090=ORIENTED_EDGE('',*,*,#2080,.F.);
#2100=CARTESIAN_POINT('',(-37.,12.,0.));
#2110=DIRECTION('',(0.,0.,-1.));
#2120=VECTOR('',#2110,1.);
#2130=LINE('',#2100,#2120);
#2140=CARTESIAN_POINT('',(-37.,12.,-12.5));
#2150=VERTEX_POINT('',#2140);
#2160=EDGE_CURVE('',#2070,#2150,#2130,.T.);
#2170=ORIENTED_EDGE('',*,*,#2160,.F.);
#2180=CARTESIAN_POINT('',(-16.,12.,-12.5));
#2190=DIRECTION('',(1.,0.,0.));
#2200=VECTOR('',#2190,1.);
#2210=LINE('',#2180,#2200);
#2220=CARTESIAN_POINT('',(5.,12.,-12.5));
#2230=VERTEX_POINT('',#2220);
#2240=EDGE_CURVE('',#2150,#2230,#2210,.T.);
#2250=ORIENTED_EDGE('',*,*,#2240,.F.);
#2260=CARTESIAN_POINT('',(5.,12.,0.));
#2270=DIRECTION('',(0.,0.,-1.));
#2280=VECTOR('',#2270,1.);
#2290=LINE('',#2260,#2280);
#2300=EDGE_CURVE('',#2050,#2230,#2290,.T.);
#2310=ORIENTED_EDGE('',*,*,#2300,.T.);
#2320=EDGE_LOOP('',(#2310,#2250,#2170,#2090));
#2330=FACE_OUTER_BOUND('',#2320,.T.);
#2340=ADVANCED_FACE('',(#1940,#1990,#2330),#1890,.F.);
#2350=CARTESIAN_POINT('',(2.,4.6,-1.12663784551659E-15));
#2360=DIRECTION('',(2.22044604925031E-16,1.,-2.44921270764475E-16));
#2370=DIRECTION('',(0.,2.44921270764475E-16,1.));
#2380=AXIS2_PLACEMENT_3D('',#2350,#2360,#2370);
#2390=PLANE('',#2380);
#2400=EDGE_CURVE('',#110,#220,#200,.T.);
#2410=ORIENTED_EDGE('',*,*,#2400,.F.);
#2420=ORIENTED_EDGE('',*,*,#230,.F.);
#2430=EDGE_LOOP('',(#2420,#2410));
#2440=FACE_BOUND('',#2430,.T.);
#2450=EDGE_CURVE('',#970,#1140,#1210,.T.);
#2460=ORIENTED_EDGE('',*,*,#2450,.T.);
#2470=ORIENTED_EDGE('',*,*,#1220,.T.);
#2480=EDGE_LOOP('',(#2470,#2460));
#2490=FACE_OUTER_BOUND('',#2480,.T.);
#2500=ADVANCED_FACE('',(#2440,#2490),#2390,.F.);
#2510=CARTESIAN_POINT('',(-37.,2.,0.249999999999994));
#2520=DIRECTION('',(-1.,6.12303176911189E-17,-1.83690953073357E-16));
#2530=DIRECTION('',(-6.12303176911189E-17,-1.,-1.1247455413666E-32));
#2540=AXIS2_PLACEMENT_3D('',#2510,#2520,#2530);
#2550=PLANE('',#2540);
#2560=CARTESIAN_POINT('',(-37.,6.,-12.5));
#2570=DIRECTION('',(0.,1.,0.));
#2580=VECTOR('',#2570,1.);
#2590=LINE('',#2560,#2580);
#2600=CARTESIAN_POINT('',(-37.,0.5,-12.5));
#2610=VERTEX_POINT('',#2600);
#2620=EDGE_CURVE('',#2610,#2150,#2590,.T.);
#2630=ORIENTED_EDGE('',*,*,#2620,.F.);
#2640=ORIENTED_EDGE('',*,*,#2160,.T.);
#2650=CARTESIAN_POINT('',(-37.,6.,12.5));
#2660=DIRECTION('',(0.,-1.,0.));
#2670=VECTOR('',#2660,1.);
#2680=LINE('',#2650,#2670);
#2690=CARTESIAN_POINT('',(-37.,0.5,12.5));
#2700=VERTEX_POINT('',#2690);
#2710=EDGE_CURVE('',#2070,#2700,#2680,.T.);
#2720=ORIENTED_EDGE('',*,*,#2710,.F.);
#2730=CARTESIAN_POINT('',(-37.,0.499999999999996,-2.375));
#2740=DIRECTION('',(-1.83690953073357E-16,1.83690953073357E-16,1.));
#2750=VECTOR('',#2740,1.);
#2760=LINE('',#2730,#2750);
#2770=EDGE_CURVE('',#2610,#2700,#2760,.T.);
#2780=ORIENTED_EDGE('',*,*,#2770,.T.);
#2790=EDGE_LOOP('',(#2780,#2720,#2640,#2630));
#2800=FACE_OUTER_BOUND('',#2790,.T.);
#2810=ADVANCED_FACE('',(#2800),#2550,.T.);
#2820=CARTESIAN_POINT('',(-15.75,5.,12.5));
#2830=DIRECTION('',(0.,6.12303176911189E-17,1.));
#2840=DIRECTION('',(0.,-1.,6.12303176911189E-17));
#2850=AXIS2_PLACEMENT_3D('',#2820,#2830,#2840);
#2860=PLANE('',#2850);
#2870=ORIENTED_EDGE('',*,*,#2710,.T.);
#2880=ORIENTED_EDGE('',*,*,#2080,.T.);
#2890=CARTESIAN_POINT('',(5.,6.,12.5));
#2900=DIRECTION('',(0.,1.,0.));
#2910=VECTOR('',#2900,1.);
#2920=LINE('',#2890,#2910);
#2930=CARTESIAN_POINT('',(5.,0.5,12.5));
#2940=VERTEX_POINT('',#2930);
#2950=EDGE_CURVE('',#2940,#2050,#2920,.T.);
#2960=ORIENTED_EDGE('',*,*,#2950,.T.);
#2970=CARTESIAN_POINT('',(-16.375,0.5,12.5));
#2980=DIRECTION('',(1.,0.,0.));
#2990=VECTOR('',#2980,1.);
#3000=LINE('',#2970,#2990);
#3010=EDGE_CURVE('',#2700,#2940,#3000,.T.);
#3020=ORIENTED_EDGE('',*,*,#3010,.T.);
#3030=EDGE_LOOP('',(#3020,#2960,#2880,#2870));
#3040=FACE_OUTER_BOUND('',#3030,.T.);
#3050=ADVANCED_FACE('',(#3040),#2860,.T.);
#3060=CARTESIAN_POINT('',(-15.75,5.,-12.5));
#3070=DIRECTION('',(0.,-6.12303176911189E-17,-1.));
#3080=DIRECTION('',(0.,1.,-6.12303176911189E-17));
#3090=AXIS2_PLACEMENT_3D('',#3060,#3070,#3080);
#3100=PLANE('',#3090);
#3110=CARTESIAN_POINT('',(5.,6.,-12.5));
#3120=DIRECTION('',(0.,-1.,0.));
#3130=VECTOR('',#3120,1.);
#3140=LINE('',#3110,#3130);
#3150=CARTESIAN_POINT('',(5.,0.5,-12.5));
#3160=VERTEX_POINT('',#3150);
#3170=EDGE_CURVE('',#2230,#3160,#3140,.T.);
#3180=ORIENTED_EDGE('',*,*,#3170,.T.);
#3190=ORIENTED_EDGE('',*,*,#2240,.T.);
#3200=ORIENTED_EDGE('',*,*,#2620,.T.);
#3210=CARTESIAN_POINT('',(-16.375,0.499999999999998,-12.5));
#3220=DIRECTION('',(-1.,0.,0.));
#3230=VECTOR('',#3220,1.);
#3240=LINE('',#3210,#3230);
#3250=EDGE_CURVE('',#3160,#2610,#3240,.T.);
#3260=ORIENTED_EDGE('',*,*,#3250,.T.);
#3270=EDGE_LOOP('',(#3260,#3200,#3190,#3180));
#3280=FACE_OUTER_BOUND('',#3270,.T.);
#3290=ADVANCED_FACE('',(#3280),#3100,.T.);
#3300=CARTESIAN_POINT('',(-54.1776695296637,17.6776695296637,-5.));
#3310=DIRECTION('',(-0.707106781186548,-0.707106781186547,-0.));
#3320=DIRECTION('',(0.,0.,-1.));
#3330=AXIS2_PLACEMENT_3D('',#3300,#3310,#3320);
#3340=PLANE('',#3330);
#3350=CARTESIAN_POINT('',(-36.5,0.,-2.5));
#3360=DIRECTION('',(0.,0.,-1.));
#3370=VECTOR('',#3360,1.);
#3380=LINE('',#3350,#3370);
#3390=CARTESIAN_POINT('',(-36.5,0.,12.));
#3400=VERTEX_POINT('',#3390);
#3410=CARTESIAN_POINT('',(-36.5,0.,-12.));
#3420=VERTEX_POINT('',#3410);
#3430=EDGE_CURVE('',#3400,#3420,#3380,.T.);
#3440=ORIENTED_EDGE('',*,*,#3430,.F.);
#3450=CARTESIAN_POINT('',(-43.8684463531091,7.36844635310913,
-19.3684463531091));
#3460=DIRECTION('',(-0.577350269189626,0.577350269189626,
-0.577350269189626));
#3470=VECTOR('',#3460,1.);
#3480=LINE('',#3450,#3470);
#3490=EDGE_CURVE('',#3420,#2610,#3480,.T.);
#3500=ORIENTED_EDGE('',*,*,#3490,.F.);
#3510=ORIENTED_EDGE('',*,*,#2770,.F.);
#3520=CARTESIAN_POINT('',(-42.2017796864425,5.70177968644246,
17.7017796864425));
#3530=DIRECTION('',(0.577350269189626,-0.577350269189626,
-0.577350269189626));
#3540=VECTOR('',#3530,1.);
#3550=LINE('',#3520,#3540);
#3560=EDGE_CURVE('',#2700,#3400,#3550,.T.);
#3570=ORIENTED_EDGE('',*,*,#3560,.F.);
#3580=EDGE_LOOP('',(#3570,#3510,#3500,#3440));
#3590=FACE_OUTER_BOUND('',#3580,.T.);
#3600=ADVANCED_FACE('',(#3590),#3340,.T.);
#3610=CARTESIAN_POINT('',(-17.,17.6776695296637,29.6776695296637));
#3620=DIRECTION('',(0.,-0.707106781186548,0.707106781186548));
#3630=DIRECTION('',(1.,0.,0.));
#3640=AXIS2_PLACEMENT_3D('',#3610,#3620,#3630);
#3650=PLANE('',#3640);
#3660=ORIENTED_EDGE('',*,*,#3010,.F.);
#3670=CARTESIAN_POINT('',(11.5351130197758,7.03511301977579,
19.0351130197758));
#3680=DIRECTION('',(0.577350269189626,0.577350269189626,
0.577350269189626));
#3690=VECTOR('',#3680,1.);
#3700=LINE('',#3670,#3690);
#3710=CARTESIAN_POINT('',(4.5,0.,12.));
#3720=VERTEX_POINT('',#3710);
#3730=EDGE_CURVE('',#3720,#2940,#3700,.T.);
#3740=ORIENTED_EDGE('',*,*,#3730,.T.);
#3750=CARTESIAN_POINT('',(-16.5,0.,12.));
#3760=DIRECTION('',(-1.,0.,0.));
#3770=VECTOR('',#3760,1.);
#3780=LINE('',#3750,#3770);
#3790=EDGE_CURVE('',#3720,#3400,#3780,.T.);
#3800=ORIENTED_EDGE('',*,*,#3790,.F.);
#3810=ORIENTED_EDGE('',*,*,#3560,.T.);
#3820=EDGE_LOOP('',(#3810,#3800,#3740,#3660));
#3830=FACE_OUTER_BOUND('',#3820,.T.);
#3840=ADVANCED_FACE('',(#3830),#3650,.T.);
#3850=CARTESIAN_POINT('',(-16.,0.,0.));
#3860=DIRECTION('',(0.,1.,0.));
#3870=DIRECTION('',(0.,0.,1.));
#3880=AXIS2_PLACEMENT_3D('',#3850,#3860,#3870);
#3890=PLANE('',#3880);
#3900=EDGE_CURVE('',#1370,#1560,#1630,.T.);
#3910=ORIENTED_EDGE('',*,*,#3900,.T.);
#3920=ORIENTED_EDGE('',*,*,#1640,.T.);
#3930=EDGE_LOOP('',(#3920,#3910));
#3940=FACE_BOUND('',#3930,.T.);
#3950=ORIENTED_EDGE('',*,*,#1070,.T.);
#3960=EDGE_CURVE('',#1060,#950,#1040,.T.);
#3970=ORIENTED_EDGE('',*,*,#3960,.T.);
#3980=EDGE_LOOP('',(#3970,#3950));
#3990=FACE_BOUND('',#3980,.T.);
#4000=ORIENTED_EDGE('',*,*,#3790,.T.);
#4010=CARTESIAN_POINT('',(4.5,-4.44089209850063E-16,2.5));
#4020=DIRECTION('',(0.,0.,1.));
#4030=VECTOR('',#4020,1.);
#4040=LINE('',#4010,#4030);
#4050=CARTESIAN_POINT('',(4.5,0.,-12.));
#4060=VERTEX_POINT('',#4050);
#4070=EDGE_CURVE('',#4060,#3720,#4040,.T.);
#4080=ORIENTED_EDGE('',*,*,#4070,.T.);
#4090=CARTESIAN_POINT('',(-16.5,0.,-12.));
#4100=DIRECTION('',(1.,0.,0.));
#4110=VECTOR('',#4100,1.);
#4120=LINE('',#4090,#4110);
#4130=EDGE_CURVE('',#3420,#4060,#4120,.T.);
#4140=ORIENTED_EDGE('',*,*,#4130,.T.);
#4150=ORIENTED_EDGE('',*,*,#3430,.T.);
#4160=EDGE_LOOP('',(#4150,#4140,#4080,#4000));
#4170=FACE_OUTER_BOUND('',#4160,.T.);
#4180=ADVANCED_FACE('',(#3940,#3990,#4170),#3890,.F.);
#4190=CARTESIAN_POINT('',(22.1776695296637,17.6776695296637,5.));
#4200=DIRECTION('',(0.707106781186547,-0.707106781186548,0.));
#4210=DIRECTION('',(0.,0.,-1.));
#4220=AXIS2_PLACEMENT_3D('',#4190,#4200,#4210);
#4230=PLANE('',#4220);
#4240=CARTESIAN_POINT('',(5.,0.5,2.625));
#4250=DIRECTION('',(1.83690953073357E-16,1.83690953073356E-16,-1.));
#4260=VECTOR('',#4250,1.);
#4270=LINE('',#4240,#4260);
#4280=EDGE_CURVE('',#2940,#3160,#4270,.T.);
#4290=ORIENTED_EDGE('',*,*,#4280,.F.);
#4300=CARTESIAN_POINT('',(9.86844635310912,5.36844635310912,
-17.3684463531091));
#4310=DIRECTION('',(-0.577350269189626,-0.577350269189626,
0.577350269189626));
#4320=VECTOR('',#4310,1.);
#4330=LINE('',#4300,#4320);
#4340=EDGE_CURVE('',#3160,#4060,#4330,.T.);
#4350=ORIENTED_EDGE('',*,*,#4340,.F.);
#4360=ORIENTED_EDGE('',*,*,#4070,.F.);
#4370=ORIENTED_EDGE('',*,*,#3730,.F.);
#4380=EDGE_LOOP('',(#4370,#4360,#4350,#4290));
#4390=FACE_OUTER_BOUND('',#4380,.T.);
#4400=ADVANCED_FACE('',(#4390),#4230,.T.);
#4410=CARTESIAN_POINT('',(5.,2.,0.25));
#4420=DIRECTION('',(1.,-6.12303176911189E-17,1.83690953073357E-16));
#4430=DIRECTION('',(6.12303176911189E-17,1.,1.1247455413666E-32));
#4440=AXIS2_PLACEMENT_3D('',#4410,#4420,#4430);
#4450=PLANE('',#4440);
#4460=ORIENTED_EDGE('',*,*,#2950,.F.);
#4470=ORIENTED_EDGE('',*,*,#2300,.F.);
#4480=ORIENTED_EDGE('',*,*,#3170,.F.);
#4490=ORIENTED_EDGE('',*,*,#4280,.T.);
#4500=EDGE_LOOP('',(#4490,#4480,#4470,#4460));
#4510=FACE_OUTER_BOUND('',#4500,.T.);
#4520=ADVANCED_FACE('',(#4510),#4450,.T.);
#4530=CARTESIAN_POINT('',(-17.,17.6776695296637,-29.6776695296637));
#4540=DIRECTION('',(0.,-0.707106781186548,-0.707106781186548));
#4550=DIRECTION('',(0.,0.707106781186548,-0.707106781186548));
#4560=AXIS2_PLACEMENT_3D('',#4530,#4540,#4550);
#4570=PLANE('',#4560);
#4580=ORIENTED_EDGE('',*,*,#4130,.F.);
#4590=ORIENTED_EDGE('',*,*,#4340,.T.);
#4600=ORIENTED_EDGE('',*,*,#3250,.F.);
#4610=ORIENTED_EDGE('',*,*,#3490,.T.);
#4620=EDGE_LOOP('',(#4610,#4600,#4590,#4580));
#4630=FACE_OUTER_BOUND('',#4620,.T.);
#4640=ADVANCED_FACE('',(#4630),#4570,.T.);
#4650=ORIENTED_EDGE('',*,*,#1790,.F.);
#4660=ORIENTED_EDGE('',*,*,#1400,.T.);
#4670=ORIENTED_EDGE('',*,*,#3900,.F.);
#4680=ORIENTED_EDGE('',*,*,#1570,.F.);
#4690=EDGE_LOOP('',(#4680,#4670,#4660,#4650));
#4700=FACE_OUTER_BOUND('',#4690,.T.);
#4710=ADVANCED_FACE('',(#4700),#1310,.F.);
#4720=ORIENTED_EDGE('',*,*,#980,.F.);
#4730=ORIENTED_EDGE('',*,*,#2450,.F.);
#4740=ORIENTED_EDGE('',*,*,#1150,.T.);
#4750=ORIENTED_EDGE('',*,*,#3960,.F.);
#4760=EDGE_LOOP('',(#4750,#4740,#4730,#4720));
#4770=FACE_OUTER_BOUND('',#4760,.T.);
#4780=ADVANCED_FACE('',(#4770),#890,.F.);
#4790=ORIENTED_EDGE('',*,*,#1950,.F.);
#4800=ORIENTED_EDGE('',*,*,#310,.T.);
#4810=ORIENTED_EDGE('',*,*,#2400,.T.);
#4820=ORIENTED_EDGE('',*,*,#140,.F.);
#4830=EDGE_LOOP('',(#4820,#4810,#4800,#4790));
#4840=FACE_OUTER_BOUND('',#4830,.T.);
#4850=ADVANCED_FACE('',(#4840),#50,.F.);
#4860=ORIENTED_EDGE('',*,*,#1740,.T.);
#4870=ORIENTED_EDGE('',*,*,#730,.F.);
#4880=ORIENTED_EDGE('',*,*,#1900,.F.);
#4890=ORIENTED_EDGE('',*,*,#560,.T.);
#4900=EDGE_LOOP('',(#4890,#4880,#4870,#4860));
#4910=FACE_OUTER_BOUND('',#4900,.T.);
#4920=ADVANCED_FACE('',(#4910),#470,.F.);
#4930=CLOSED_SHELL('',(#420,#840,#1260,#1680,#1840,#2340,#2500,#2810,
#3050,#3290,#3600,#3840,#4180,#4400,#4520,#4640,#4710,#4780,#4850,#4920)
);
#4940=MANIFOLD_SOLID_BREP('',#4930);
#4950=CARTESIAN_POINT('',(0.,0.,0.));
#4960=DIRECTION('',(0.,0.,1.));
#4970=DIRECTION('',(1.,0.,0.));
#4980=AXIS2_PLACEMENT_3D('',#4950,#4960,#4970);
#4990=APPLICATION_CONTEXT(' ');
#5000=APPLICATION_PROTOCOL_DEFINITION(' ','automotive_design',1998,#4990
);
#5010=PRODUCT_CONTEXT('',#4990,'mechanical');
#5020=PRODUCT_DEFINITION_CONTEXT('part definition',#4990,'design');
#5030=PRODUCT('T4000_Betaetiger','T4000_Betaetiger','',(#5010));
#5040=PRODUCT_RELATED_PRODUCT_CATEGORY('part',' ',(#5030));
#5050=PRODUCT_DEFINITION_FORMATION_WITH_SPECIFIED_SOURCE('','',#5030,
.BOUGHT.);
#5060=PRODUCT_DEFINITION('',' ',#5050,#5020);
#5070=PRODUCT_DEFINITION_SHAPE('','',#5060);
#5080=DIMENSIONAL_EXPONENTS(1.,0.,0.,0.,0.,0.,0.);
#5090=DIMENSIONAL_EXPONENTS(0.,0.,0.,0.,0.,0.,0.);
#5100=DIMENSIONAL_EXPONENTS(0.,0.,0.,0.,0.,0.,0.);
#5110=(LENGTH_UNIT() NAMED_UNIT(*) SI_UNIT(.MILLI.,.METRE.));
#5120=(NAMED_UNIT(*) PLANE_ANGLE_UNIT() SI_UNIT($,.RADIAN.));
#5130=(NAMED_UNIT(*) SI_UNIT($,.STERADIAN.) SOLID_ANGLE_UNIT());
#5140=(GEOMETRIC_REPRESENTATION_CONTEXT(3) 
GLOBAL_UNCERTAINTY_ASSIGNED_CONTEXT((#5150)) 
GLOBAL_UNIT_ASSIGNED_CONTEXT((#5110,#5120,#5130)) REPRESENTATION_CONTEXT
('',''));
#5150=UNCERTAINTY_MEASURE_WITH_UNIT(LENGTH_MEASURE(1.E-6),#5110,
'distance_accuracy_value','maximum gap value');
#5160=ADVANCED_BREP_SHAPE_REPRESENTATION('',(#4980,#4940),#5140);
#5170=SHAPE_DEFINITION_REPRESENTATION(#5070,#5160);
#5180=COLOUR_RGB('',0.600000023841858,0.600000023841858,
0.600000023841858);
#5190=FILL_AREA_STYLE_COLOUR('',#5180);
#5200=FILL_AREA_STYLE('',(#5190));
#5210=SURFACE_STYLE_FILL_AREA(#5200);
#5220=SURFACE_SIDE_STYLE('',(#5210));
#5230=SURFACE_STYLE_USAGE(.BOTH.,#5220);
#5240=PRESENTATION_STYLE_ASSIGNMENT((#5230));
#5250=STYLED_ITEM('',(#5240),#4940);
#5260=DRAUGHTING_MODEL('',(#5250),#5140);
ENDSEC;
END-ISO-10303-21;
