ISO-10303-21;
HEADER;
FILE_DESCRIPTION((''),'2;1');
FILE_NAME('5930Z02_65_04_000','2013-10-08T',('c.dierich'),(''),
'PRO/ENGINEER BY PARAMETRIC TECHNOLOGY CORPORATION, 2013230',
'PRO/ENGINEER BY PARAMETRIC TECHNOLOGY CORPORATION, 2013230','');
FILE_SCHEMA(('CONFIG_CONTROL_DESIGN'));
ENDSEC;
DATA;
#1=CARTESIAN_POINT('',(0.E0,0.E0,2.662235902395E0));
#2=DIRECTION('',(0.E0,0.E0,1.E0));
#3=DIRECTION('',(-5.025125628141E-1,-8.645699070717E-1,0.E0));
#4=AXIS2_PLACEMENT_3D('',#1,#2,#3);
#6=CARTESIAN_POINT('',(-5.E0,0.E0,0.E0));
#7=DIRECTION('',(1.E0,0.E0,0.E0));
#8=DIRECTION('',(0.E0,9.552994893317E-1,2.956397904251E-1));
#9=AXIS2_PLACEMENT_3D('',#6,#7,#8);
#11=CARTESIAN_POINT('',(0.E0,0.E0,2.662235902395E0));
#12=DIRECTION('',(0.E0,0.E0,1.E0));
#13=DIRECTION('',(5.025125628141E-1,8.645699070717E-1,0.E0));
#14=AXIS2_PLACEMENT_3D('',#11,#12,#13);
#16=CARTESIAN_POINT('',(5.E0,0.E0,0.E0));
#17=DIRECTION('',(1.E0,0.E0,0.E0));
#18=DIRECTION('',(0.E0,9.552994893317E-1,2.956397904251E-1));
#19=AXIS2_PLACEMENT_3D('',#16,#17,#18);
#21=CARTESIAN_POINT('',(5.E0,0.E0,0.E0));
#22=DIRECTION('',(1.E0,0.E0,0.E0));
#23=DIRECTION('',(0.E0,0.E0,-1.E0));
#24=AXIS2_PLACEMENT_3D('',#21,#22,#23);
#26=CARTESIAN_POINT('',(5.E0,0.E0,0.E0));
#27=DIRECTION('',(1.E0,0.E0,0.E0));
#28=DIRECTION('',(0.E0,0.E0,1.E0));
#29=AXIS2_PLACEMENT_3D('',#26,#27,#28);
#31=DIRECTION('',(0.E0,0.E0,1.E0));
#32=VECTOR('',#31,5.324471804790E0);
#33=CARTESIAN_POINT('',(5.E0,-8.602470575364E0,-2.662235902395E0));
#34=LINE('',#33,#32);
#35=DIRECTION('',(0.E0,0.E0,1.E0));
#36=VECTOR('',#35,5.324471804790E0);
#37=CARTESIAN_POINT('',(5.E0,8.602470575364E0,-2.662235902395E0));
#38=LINE('',#37,#36);
#39=DIRECTION('',(-1.E0,0.E0,0.E0));
#40=VECTOR('',#39,1.E1);
#41=CARTESIAN_POINT('',(5.E0,0.E0,-6.E0));
#42=LINE('',#41,#40);
#43=CARTESIAN_POINT('',(-5.E0,0.E0,0.E0));
#44=DIRECTION('',(1.E0,0.E0,0.E0));
#45=DIRECTION('',(0.E0,0.E0,-1.E0));
#46=AXIS2_PLACEMENT_3D('',#43,#44,#45);
#48=CARTESIAN_POINT('',(-5.E0,0.E0,0.E0));
#49=DIRECTION('',(1.E0,0.E0,0.E0));
#50=DIRECTION('',(0.E0,0.E0,1.E0));
#51=AXIS2_PLACEMENT_3D('',#48,#49,#50);
#53=DIRECTION('',(0.E0,0.E0,1.E0));
#54=VECTOR('',#53,5.324471804790E0);
#55=CARTESIAN_POINT('',(-5.E0,-8.602470575364E0,-2.662235902395E0));
#56=LINE('',#55,#54);
#57=DIRECTION('',(0.E0,0.E0,1.E0));
#58=VECTOR('',#57,5.324471804790E0);
#59=CARTESIAN_POINT('',(-5.E0,8.602470575364E0,-2.662235902395E0));
#60=LINE('',#59,#58);
#61=DIRECTION('',(-1.E0,0.E0,0.E0));
#62=VECTOR('',#61,1.E1);
#63=CARTESIAN_POINT('',(5.E0,0.E0,6.E0));
#64=LINE('',#63,#62);
#65=CARTESIAN_POINT('',(0.E0,0.E0,-2.662235902395E0));
#66=DIRECTION('',(0.E0,0.E0,-1.E0));
#67=DIRECTION('',(5.025125628141E-1,-8.645699070717E-1,0.E0));
#68=AXIS2_PLACEMENT_3D('',#65,#66,#67);
#70=CARTESIAN_POINT('',(5.E0,0.E0,0.E0));
#71=DIRECTION('',(1.E0,0.E0,0.E0));
#72=DIRECTION('',(0.E0,-9.552994893317E-1,-2.956397904251E-1));
#73=AXIS2_PLACEMENT_3D('',#70,#71,#72);
#75=CARTESIAN_POINT('',(0.E0,0.E0,-2.662235902395E0));
#76=DIRECTION('',(0.E0,0.E0,-1.E0));
#77=DIRECTION('',(-5.025125628141E-1,8.645699070717E-1,0.E0));
#78=AXIS2_PLACEMENT_3D('',#75,#76,#77);
#80=CARTESIAN_POINT('',(-5.E0,0.E0,0.E0));
#81=DIRECTION('',(1.E0,0.E0,0.E0));
#82=DIRECTION('',(0.E0,-9.552994893317E-1,-2.956397904251E-1));
#83=AXIS2_PLACEMENT_3D('',#80,#81,#82);
#85=CARTESIAN_POINT('',(-5.E0,0.E0,-6.E0));
#86=CARTESIAN_POINT('',(-5.E0,0.E0,6.E0));
#87=VERTEX_POINT('',#85);
#88=VERTEX_POINT('',#86);
#89=CARTESIAN_POINT('',(5.E0,0.E0,-6.E0));
#90=CARTESIAN_POINT('',(5.E0,0.E0,6.E0));
#91=VERTEX_POINT('',#89);
#92=VERTEX_POINT('',#90);
#93=CARTESIAN_POINT('',(-5.E0,-8.602470575364E0,2.662235902395E0));
#94=CARTESIAN_POINT('',(5.E0,-8.602470575364E0,2.662235902395E0));
#95=VERTEX_POINT('',#93);
#96=VERTEX_POINT('',#94);
#97=CARTESIAN_POINT('',(5.E0,8.602470575364E0,2.662235902395E0));
#98=CARTESIAN_POINT('',(-5.E0,8.602470575364E0,2.662235902395E0));
#99=VERTEX_POINT('',#97);
#100=VERTEX_POINT('',#98);
#101=CARTESIAN_POINT('',(5.E0,-8.602470575364E0,-2.662235902395E0));
#102=CARTESIAN_POINT('',(-5.E0,-8.602470575364E0,-2.662235902395E0));
#103=VERTEX_POINT('',#101);
#104=VERTEX_POINT('',#102);
#105=CARTESIAN_POINT('',(-5.E0,8.602470575364E0,-2.662235902395E0));
#106=CARTESIAN_POINT('',(5.E0,8.602470575364E0,-2.662235902395E0));
#107=VERTEX_POINT('',#105);
#108=VERTEX_POINT('',#106);
#109=CARTESIAN_POINT('',(0.E0,0.E0,0.E0));
#110=DIRECTION('',(1.E0,0.E0,0.E0));
#111=DIRECTION('',(0.E0,-1.E0,0.E0));
#112=AXIS2_PLACEMENT_3D('',#109,#110,#111);
#113=SPHERICAL_SURFACE('',#112,1.03E1);
#115=ORIENTED_EDGE('',*,*,#114,.F.);
#117=ORIENTED_EDGE('',*,*,#116,.F.);
#119=ORIENTED_EDGE('',*,*,#118,.F.);
#121=ORIENTED_EDGE('',*,*,#120,.T.);
#122=EDGE_LOOP('',(#115,#117,#119,#121));
#123=FACE_OUTER_BOUND('',#122,.F.);
#124=ADVANCED_FACE('',(#123),#113,.T.);
#125=CARTESIAN_POINT('',(0.E0,0.E0,1.236E1));
#126=DIRECTION('',(0.E0,0.E0,1.E0));
#127=DIRECTION('',(1.E0,0.E0,0.E0));
#128=AXIS2_PLACEMENT_3D('',#125,#126,#127);
#129=CYLINDRICAL_SURFACE('',#128,9.95E0);
#130=ORIENTED_EDGE('',*,*,#114,.T.);
#132=ORIENTED_EDGE('',*,*,#131,.F.);
#134=ORIENTED_EDGE('',*,*,#133,.T.);
#136=ORIENTED_EDGE('',*,*,#135,.T.);
#137=EDGE_LOOP('',(#130,#132,#134,#136));
#138=FACE_OUTER_BOUND('',#137,.F.);
#139=ADVANCED_FACE('',(#138),#129,.T.);
#140=CARTESIAN_POINT('',(5.E0,1.15E1,-1.1E1));
#141=DIRECTION('',(-1.E0,0.E0,0.E0));
#142=DIRECTION('',(0.E0,0.E0,1.E0));
#143=AXIS2_PLACEMENT_3D('',#140,#141,#142);
#144=PLANE('',#143);
#145=ORIENTED_EDGE('',*,*,#131,.T.);
#146=ORIENTED_EDGE('',*,*,#120,.F.);
#148=ORIENTED_EDGE('',*,*,#147,.F.);
#150=ORIENTED_EDGE('',*,*,#149,.F.);
#151=EDGE_LOOP('',(#145,#146,#148,#150));
#152=FACE_OUTER_BOUND('',#151,.F.);
#154=ORIENTED_EDGE('',*,*,#153,.T.);
#156=ORIENTED_EDGE('',*,*,#155,.T.);
#157=EDGE_LOOP('',(#154,#156));
#158=FACE_BOUND('',#157,.F.);
#159=ADVANCED_FACE('',(#152,#158),#144,.F.);
#160=CARTESIAN_POINT('',(5.E0,0.E0,0.E0));
#161=DIRECTION('',(1.E0,0.E0,0.E0));
#162=DIRECTION('',(0.E0,0.E0,-1.E0));
#163=AXIS2_PLACEMENT_3D('',#160,#161,#162);
#164=CYLINDRICAL_SURFACE('',#163,6.E0);
#166=ORIENTED_EDGE('',*,*,#165,.T.);
#168=ORIENTED_EDGE('',*,*,#167,.F.);
#169=ORIENTED_EDGE('',*,*,#153,.F.);
#171=ORIENTED_EDGE('',*,*,#170,.T.);
#172=EDGE_LOOP('',(#166,#168,#169,#171));
#173=FACE_OUTER_BOUND('',#172,.F.);
#174=ADVANCED_FACE('',(#173),#164,.F.);
#175=CARTESIAN_POINT('',(-5.E0,1.15E1,1.1E1));
#176=DIRECTION('',(1.E0,0.E0,0.E0));
#177=DIRECTION('',(0.E0,0.E0,-1.E0));
#178=AXIS2_PLACEMENT_3D('',#175,#176,#177);
#179=PLANE('',#178);
#180=ORIENTED_EDGE('',*,*,#135,.F.);
#182=ORIENTED_EDGE('',*,*,#181,.T.);
#184=ORIENTED_EDGE('',*,*,#183,.T.);
#185=ORIENTED_EDGE('',*,*,#116,.T.);
#186=EDGE_LOOP('',(#180,#182,#184,#185));
#187=FACE_OUTER_BOUND('',#186,.F.);
#188=ORIENTED_EDGE('',*,*,#165,.F.);
#190=ORIENTED_EDGE('',*,*,#189,.F.);
#191=EDGE_LOOP('',(#188,#190));
#192=FACE_BOUND('',#191,.F.);
#193=ADVANCED_FACE('',(#187,#192),#179,.F.);
#194=CARTESIAN_POINT('',(5.E0,0.E0,0.E0));
#195=DIRECTION('',(1.E0,0.E0,0.E0));
#196=DIRECTION('',(0.E0,0.E0,-1.E0));
#197=AXIS2_PLACEMENT_3D('',#194,#195,#196);
#198=CYLINDRICAL_SURFACE('',#197,6.E0);
#199=ORIENTED_EDGE('',*,*,#189,.T.);
#200=ORIENTED_EDGE('',*,*,#170,.F.);
#201=ORIENTED_EDGE('',*,*,#155,.F.);
#202=ORIENTED_EDGE('',*,*,#167,.T.);
#203=EDGE_LOOP('',(#199,#200,#201,#202));
#204=FACE_OUTER_BOUND('',#203,.F.);
#205=ADVANCED_FACE('',(#204),#198,.F.);
#206=CARTESIAN_POINT('',(0.E0,0.E0,0.E0));
#207=DIRECTION('',(1.E0,0.E0,0.E0));
#208=DIRECTION('',(0.E0,-1.E0,0.E0));
#209=AXIS2_PLACEMENT_3D('',#206,#207,#208);
#210=SPHERICAL_SURFACE('',#209,1.03E1);
#211=ORIENTED_EDGE('',*,*,#133,.F.);
#212=ORIENTED_EDGE('',*,*,#149,.T.);
#214=ORIENTED_EDGE('',*,*,#213,.F.);
#215=ORIENTED_EDGE('',*,*,#181,.F.);
#216=EDGE_LOOP('',(#211,#212,#214,#215));
#217=FACE_OUTER_BOUND('',#216,.F.);
#218=ADVANCED_FACE('',(#217),#210,.T.);
#219=CARTESIAN_POINT('',(0.E0,0.E0,1.236E1));
#220=DIRECTION('',(0.E0,0.E0,1.E0));
#221=DIRECTION('',(1.E0,0.E0,0.E0));
#222=AXIS2_PLACEMENT_3D('',#219,#220,#221);
#223=CYLINDRICAL_SURFACE('',#222,9.95E0);
#224=ORIENTED_EDGE('',*,*,#118,.T.);
#225=ORIENTED_EDGE('',*,*,#183,.F.);
#226=ORIENTED_EDGE('',*,*,#213,.T.);
#227=ORIENTED_EDGE('',*,*,#147,.T.);
#228=EDGE_LOOP('',(#224,#225,#226,#227));
#229=FACE_OUTER_BOUND('',#228,.F.);
#230=ADVANCED_FACE('',(#229),#223,.T.);
#231=CLOSED_SHELL('',(#124,#139,#159,#174,#193,#205,#218,#230));
#232=MANIFOLD_SOLID_BREP('',#231);
#234=DIMENSIONAL_EXPONENTS(0.E0,0.E0,0.E0,0.E0,0.E0,0.E0,0.E0);
#236=PLANE_ANGLE_MEASURE_WITH_UNIT(PLANE_ANGLE_MEASURE(1.745329251994E-2),#235);
#237=(CONVERSION_BASED_UNIT('DEGREE',#236)NAMED_UNIT(*)PLANE_ANGLE_UNIT());
#239=UNCERTAINTY_MEASURE_WITH_UNIT(LENGTH_MEASURE(1.E-2),#233,'closure',
'Maximum model space distance between geometric entities at asserted connectivities');
#240=(GEOMETRIC_REPRESENTATION_CONTEXT(3)GLOBAL_UNCERTAINTY_ASSIGNED_CONTEXT((
#239))GLOBAL_UNIT_ASSIGNED_CONTEXT((#233,#237,#238))REPRESENTATION_CONTEXT
('ID1','3'));
#242=APPLICATION_CONTEXT(
'CONFIGURATION CONTROLLED 3D DESIGNS OF MECHANICAL PARTS AND ASSEMBLIES');
#243=APPLICATION_PROTOCOL_DEFINITION('international standard',
'config_control_design',1994,#242);
#244=DESIGN_CONTEXT('',#242,'design');
#245=MECHANICAL_CONTEXT('',#242,'mechanical');
#246=PRODUCT('5930Z02_65_04_000','5930Z02_65_04_000','NOT SPECIFIED',(#245));
#247=PRODUCT_DEFINITION_FORMATION_WITH_SPECIFIED_SOURCE('8','LAST_VERSION',#246,
.MADE.);
#251=PRODUCT_CATEGORY('part','');
#252=PRODUCT_RELATED_PRODUCT_CATEGORY('detail','',(#246));
#253=PRODUCT_CATEGORY_RELATIONSHIP('','',#251,#252);
#254=SECURITY_CLASSIFICATION_LEVEL('unclassified');
#255=SECURITY_CLASSIFICATION('','',#254);
#256=CC_DESIGN_SECURITY_CLASSIFICATION(#255,(#247));
#257=APPROVAL_STATUS('approved');
#258=APPROVAL(#257,'');
#259=CC_DESIGN_APPROVAL(#258,(#255,#247,#248));
#260=CALENDAR_DATE(113,8,10);
#261=COORDINATED_UNIVERSAL_TIME_OFFSET(2,0,.AHEAD.);
#262=LOCAL_TIME(7,10,4.9E1,#261);
#263=DATE_AND_TIME(#260,#262);
#264=APPROVAL_DATE_TIME(#263,#258);
#265=DATE_TIME_ROLE('creation_date');
#266=CC_DESIGN_DATE_AND_TIME_ASSIGNMENT(#263,#265,(#248));
#267=DATE_TIME_ROLE('classification_date');
#268=CC_DESIGN_DATE_AND_TIME_ASSIGNMENT(#263,#267,(#255));
#269=PERSON('UNSPECIFIED','UNSPECIFIED',$,$,$,$);
#270=ORGANIZATION('UNSPECIFIED','UNSPECIFIED','UNSPECIFIED');
#271=PERSON_AND_ORGANIZATION(#269,#270);
#272=APPROVAL_ROLE('approver');
#273=APPROVAL_PERSON_ORGANIZATION(#271,#258,#272);
#274=PERSON_AND_ORGANIZATION_ROLE('creator');
#275=CC_DESIGN_PERSON_AND_ORGANIZATION_ASSIGNMENT(#271,#274,(#247,#248));
#276=PERSON_AND_ORGANIZATION_ROLE('design_supplier');
#277=CC_DESIGN_PERSON_AND_ORGANIZATION_ASSIGNMENT(#271,#276,(#247));
#278=PERSON_AND_ORGANIZATION_ROLE('classification_officer');
#279=CC_DESIGN_PERSON_AND_ORGANIZATION_ASSIGNMENT(#271,#278,(#255));
#280=PERSON_AND_ORGANIZATION_ROLE('design_owner');
#281=CC_DESIGN_PERSON_AND_ORGANIZATION_ASSIGNMENT(#271,#280,(#246));
#5=CIRCLE('',#4,9.95E0);
#10=CIRCLE('',#9,9.004998611882E0);
#15=CIRCLE('',#14,9.95E0);
#20=CIRCLE('',#19,9.004998611882E0);
#25=CIRCLE('',#24,6.E0);
#30=CIRCLE('',#29,6.E0);
#47=CIRCLE('',#46,6.E0);
#52=CIRCLE('',#51,6.E0);
#69=CIRCLE('',#68,9.95E0);
#74=CIRCLE('',#73,9.004998611882E0);
#79=CIRCLE('',#78,9.95E0);
#84=CIRCLE('',#83,9.004998611882E0);
#114=EDGE_CURVE('',#95,#96,#5,.T.);
#116=EDGE_CURVE('',#100,#95,#10,.T.);
#118=EDGE_CURVE('',#99,#100,#15,.T.);
#120=EDGE_CURVE('',#99,#96,#20,.T.);
#131=EDGE_CURVE('',#103,#96,#34,.T.);
#133=EDGE_CURVE('',#103,#104,#69,.T.);
#135=EDGE_CURVE('',#104,#95,#56,.T.);
#147=EDGE_CURVE('',#108,#99,#38,.T.);
#149=EDGE_CURVE('',#103,#108,#74,.T.);
#153=EDGE_CURVE('',#91,#92,#25,.T.);
#155=EDGE_CURVE('',#92,#91,#30,.T.);
#165=EDGE_CURVE('',#87,#88,#47,.T.);
#167=EDGE_CURVE('',#92,#88,#64,.T.);
#170=EDGE_CURVE('',#91,#87,#42,.T.);
#181=EDGE_CURVE('',#104,#107,#84,.T.);
#183=EDGE_CURVE('',#107,#100,#60,.T.);
#189=EDGE_CURVE('',#88,#87,#52,.T.);
#213=EDGE_CURVE('',#107,#108,#79,.T.);
#233=(LENGTH_UNIT()NAMED_UNIT(*)SI_UNIT(.MILLI.,.METRE.));
#235=(NAMED_UNIT(*)PLANE_ANGLE_UNIT()SI_UNIT($,.RADIAN.));
#238=(NAMED_UNIT(*)SI_UNIT($,.STERADIAN.)SOLID_ANGLE_UNIT());
#241=ADVANCED_BREP_SHAPE_REPRESENTATION('',(#232),#240);
#248=PRODUCT_DEFINITION('design','',#247,#244);
#249=PRODUCT_DEFINITION_SHAPE('','SHAPE FOR 5930Z02_65_04_000.',#248);
#250=SHAPE_DEFINITION_REPRESENTATION(#249,#241);
ENDSEC;
END-ISO-10303-21;
