999
DXF file: C:\Users\sesa63760\Dev\_Creo\CAD\MCADPD0004649_3D-CAD\drw0001_1.dxf
999
Pro/ENGINEER 2019471 by Parametric Technology Corporation
  0
SECTION
  2
HEADER
  9
$ACADVER
  1
AC1024
  9
$DWGCODEPAGE
  3
ANSI_1252
  9
$EXTMAX
 10
132.3949673704
 20
187.2443109953
 30
0.0
  9
$EXTMIN
 10
0.0
 20
0.0
 30
0.0
  9
$LIMMIN
 10
0.0
 20
0.0
  9
$LIMMAX
 10
132.3949673704
 20
187.2443109953
  9
$VIEWCTR
 10
66.1974836852
 20
93.6221554976
  9
$VIEWSIZE
 40
187.2443109953
  9
$CLAYER
  8
0
  9
$LTSCALE
 40
12.2055550871
  9
$CELTYPE
  6
BYLAYER
  9
$DIMSCALE
 40
1.0
  9
$DIMASZ
 40
1.5761305639
  9
$DIMEXO
 40
1.0
  9
$DIMDLI
 40
8.4329289693
  9
$DIMEXE
 40
1.0
  9
$DIMCEN
 40
1.9972726506
  9
$DIMLFAC
 40
1.0
  9
$DIMBLK
  1
_FILLED
  9
$DIMALT
 70
0
  9
$DIMALTF
 40
0.0393700787
  9
$DIMTXT
 40
2.2065827895
  9
$DIMTOL
 70
1
  9
$DIMLIM
 70
0
  9
$DIMTFAC
 40
1.0
  9
$DIMTP
 40
0.01
  9
$DIMTM
 40
0.01
  9
$DIMGAP
 40
0.625
  9
$DIMDSEP
 70
46
  9
$AUNITS
 70
0
  9
$PDMODE
 70
3
  9
$PDSIZE
 40
0.3125
  9
$HANDSEED
  5
67D
  9
$TILEMODE
 70
1
  9
$MEASUREMENT
 70
1
  9
$INSUNITS
 70
4
  0
ENDSEC
  0
SECTION
  2
CLASSES
  0
CLASS
  1
ACDBDICTIONARYWDFLT
  2
AcDbDictionaryWithDefault
  3
AutoCAD 2000
 90
0
 91
1
280
0
281
0
  0
CLASS
  1
ACDBPLACEHOLDER
  2
AcDbPlaceHolder
  3
AutoCAD 2000
 90
0
 91
1
280
0
281
0
  0
CLASS
  1
LAYOUT
  2
AcDbLayout
  3
AutoCAD 2000
 90
0
 91
0
280
0
281
0
  0
ENDSEC
  0
SECTION
  2
TABLES
  0
TABLE
  2
VPORT
  5
8
100
AcDbSymbolTable
 70
2
  0
VPORT
  5
1F4
100
AcDbSymbolTableRecord
100
AcDbViewportTableRecord
  2
*ACTIVE
 70
0
 10
0.0
 20
0.0
 11
1.0
 21
1.0
 12
66.1974836852
 22
93.6221554976
 13
0.0
 23
0.0
 14
1.0
 24
1.0
 15
0.0
 25
0.0
 16
0.0
 26
0.0
 36
1.0
 17
0.0
 27
0.0
 37
0.0
 40
187.2443109953
 41
0.7070707071
 42
50.0
 43
0.0
 44
0.0
 50
0.0
 51
0.0
 71
0
 72
100
 73
1
 74
1
 75
0
 76
0
 77
0
 78
0
  0
ENDTAB
  0
TABLE
  2
LTYPE
  5
5
100
AcDbSymbolTable
 70
6
  0
LTYPE
  5
14
100
AcDbSymbolTableRecord
100
AcDbLinetypeTableRecord
  2
BYBLOCK
 70
0
  3

 72
65
 73
0
 40
0.0
  0
LTYPE
  5
15
100
AcDbSymbolTableRecord
100
AcDbLinetypeTableRecord
  2
BYLAYER
 70
0
  3

 72
65
 73
0
 40
0.0
  0
LTYPE
  5
16
100
AcDbSymbolTableRecord
100
AcDbLinetypeTableRecord
  2
CONTINUOUS
 70
64
  3
Solid line
 72
65
 73
0
 40
0.0
  0
LTYPE
  5
1F5
100
AcDbSymbolTableRecord
100
AcDbLinetypeTableRecord
  2
CENTER
 70
64
  3
____ _ ____ _ ____ _ ____ _ ____ _ ____ _ ____
 72
65
 73
4
 40
0.6
 49
0.375
 74
0
 49
-0.075
 74
0
 49
0.075
 74
0
 49
-0.075
 74
0
  0
LTYPE
  5
1F6
100
AcDbSymbolTableRecord
100
AcDbLinetypeTableRecord
  2
HIDDEN
 70
64
  3
- - - - - - - - - - - - - - - - - - - -
 72
65
 73
2
 40
0.2
 49
0.1
 74
0
 49
-0.1
 74
0
  0
LTYPE
  5
1F7
100
AcDbSymbolTableRecord
100
AcDbLinetypeTableRecord
  2
PHANTOM
 70
64
  3
_____ _ _ _____ _ _ _____ _ _ _____
 72
65
 73
6
 40
0.8
 49
0.45
 74
0
 49
-0.05
 74
0
 49
0.1
 74
0
 49
-0.05
 74
0
 49
0.1
 74
0
 49
-0.05
 74
0
  0
LTYPE
  5
1F8
100
AcDbSymbolTableRecord
100
AcDbLinetypeTableRecord
  2
DOT
 70
64
  3
. . . . . . . . . . . . . . . . . . . .
 72
65
 73
2
 40
0.2
 49
0.1
 74
0
 49
-0.1
 74
0
  0
LTYPE
  5
1F9
100
AcDbSymbolTableRecord
100
AcDbLinetypeTableRecord
  2
DASHED
 70
64
  3
- - - - - - - - - - - - - - - - - - - -
 72
65
 73
2
 40
0.2
 49
0.1
 74
0
 49
-0.1
 74
0
  0
ENDTAB
  0
TABLE
  2
LAYER
  5
2
100
AcDbSymbolTable
 70
36
  0
LAYER
  5
10
100
AcDbSymbolTableRecord
100
AcDbLayerTableRecord
  2
0
 70
0
 62
7
  6
CONTINUOUS
370
-3
390
F
  0
LAYER
  5
1FA
100
AcDbSymbolTableRecord
100
AcDbLayerTableRecord
  2
DEFAULT_1
 70
0
 62
7
  6
CENTER
370
-3
390
F
  0
LAYER
  5
1FB
100
AcDbSymbolTableRecord
100
AcDbLayerTableRecord
  2
DEFAULT_2
 70
0
 62
7
  6
HIDDEN
370
-3
390
F
  0
LAYER
  5
1FC
100
AcDbSymbolTableRecord
100
AcDbLayerTableRecord
  2
DEFAULT_3
 70
0
 62
7
  6
PHANTOM
370
-3
390
F
  0
LAYER
  5
1FD
100
AcDbSymbolTableRecord
100
AcDbLayerTableRecord
  2
00_COMPONENTS
 70
0
 62
7
  6
CONTINUOUS
370
-3
390
F
  0
LAYER
  5
1FE
100
AcDbSymbolTableRecord
100
AcDbLayerTableRecord
  2
01_1_DEFAULT_DATUMS
 70
0
 62
7
  6
CONTINUOUS
370
-3
390
F
  0
LAYER
  5
1FF
100
AcDbSymbolTableRecord
100
AcDbLayerTableRecord
  2
01_PLANES
 70
0
 62
7
  6
CONTINUOUS
370
-3
390
F
  0
LAYER
  5
200
100
AcDbSymbolTableRecord
100
AcDbLayerTableRecord
  2
02_COORD_SYS
 70
0
 62
7
  6
CONTINUOUS
370
-3
390
F
  0
LAYER
  5
201
100
AcDbSymbolTableRecord
100
AcDbLayerTableRecord
  2
03_AXES
 70
0
 62
7
  6
CONTINUOUS
370
-3
390
F
  0
LAYER
  5
202
100
AcDbSymbolTableRecord
100
AcDbLayerTableRecord
  2
04_POINTS
 70
0
 62
7
  6
CONTINUOUS
370
-3
390
F
  0
LAYER
  5
203
100
AcDbSymbolTableRecord
100
AcDbLayerTableRecord
  2
05_CURVES
 70
0
 62
7
  6
CONTINUOUS
370
-3
390
F
  0
LAYER
  5
204
100
AcDbSymbolTableRecord
100
AcDbLayerTableRecord
  2
06_SURFS
 70
0
 62
7
  6
CONTINUOUS
370
-3
390
F
  0
LAYER
  5
205
100
AcDbSymbolTableRecord
100
AcDbLayerTableRecord
  2
07_COSMETICS
 70
0
 62
7
  6
CONTINUOUS
370
-3
390
F
  0
LAYER
  5
206
100
AcDbSymbolTableRecord
100
AcDbLayerTableRecord
  2
10_NOTES
 70
0
 62
7
  6
CONTINUOUS
370
-3
390
F
  0
LAYER
  5
207
100
AcDbSymbolTableRecord
100
AcDbLayerTableRecord
  2
11_NOTES_PUB
 70
0
 62
7
  6
CONTINUOUS
370
-3
390
F
  0
LAYER
  5
208
100
AcDbSymbolTableRecord
100
AcDbLayerTableRecord
  2
13_REF_GTOL
 70
0
 62
7
  6
CONTINUOUS
370
-3
390
F
  0
LAYER
  5
209
100
AcDbSymbolTableRecord
100
AcDbLayerTableRecord
  2
16_MISC
 70
0
 62
7
  6
CONTINUOUS
370
-3
390
F
  0
LAYER
  5
20A
100
AcDbSymbolTableRecord
100
AcDbLayerTableRecord
  2
17_NO_PRINT
 70
0
 62
7
  6
CONTINUOUS
370
-3
390
F
  0
LAYER
  5
20B
100
AcDbSymbolTableRecord
100
AcDbLayerTableRecord
  2
18_DATUM_CAMS_JOINTS
 70
0
 62
7
  6
CONTINUOUS
370
-3
390
F
  0
LAYER
  5
20C
100
AcDbSymbolTableRecord
100
AcDbLayerTableRecord
  2
19_DATUM_FUNCTIONAL
 70
0
 62
7
  6
CONTINUOUS
370
-3
390
F
  0
LAYER
  5
20D
100
AcDbSymbolTableRecord
100
AcDbLayerTableRecord
  2
20_DATUM_KINEMATIC_SCHEME
 70
0
 62
7
  6
CONTINUOUS
370
-3
390
F
  0
ENDTAB
  0
TABLE
  2
STYLE
  5
3
100
AcDbSymbolTable
 70
1
  0
STYLE
  5
11
100
AcDbSymbolTableRecord
100
AcDbTextStyleTableRecord
  2
STANDARD
 70
0
 40
0.0
 41
1.0
 50
0.0
 71
0
 42
0.2
  3
ARIAL.TTF
  4

  0
STYLE
  5
20E
100
AcDbSymbolTableRecord
100
AcDbTextStyleTableRecord
  2
TEXTSTYLE_1
 70
0
 40
0.0
 41
0.8
 50
0.0
 71
0
 42
0.2
  3
gdt
  4

  0
ENDTAB
  0
TABLE
  2
VIEW
  5
6
100
AcDbSymbolTable
 70
0
  0
ENDTAB
  0
TABLE
  2
UCS
  5
7
100
AcDbSymbolTable
 70
0
  0
ENDTAB
  0
TABLE
  2
APPID
  5
9
100
AcDbSymbolTable
 70
1
  0
APPID
  5
20F
100
AcDbSymbolTableRecord
100
AcDbRegAppTableRecord
  2
ACAD
 70
0
  0
ENDTAB
  0
TABLE
  2
BLOCK_RECORD
  5
1
100
AcDbSymbolTable
 70
0
  0
BLOCK_RECORD
  5
210
100
AcDbSymbolTableRecord
100
AcDbBlockTableRecord
  2
*Model_Space
  0
BLOCK_RECORD
  5
211
100
AcDbSymbolTableRecord
100
AcDbBlockTableRecord
  2
*Paper_Space
  0
BLOCK_RECORD
  5
212
100
AcDbSymbolTableRecord
100
AcDbBlockTableRecord
  2
_FILLED
  0
ENDTAB
  0
TABLE
  2
DIMSTYLE
  5
A
100
AcDbSymbolTable
 70
1
100
AcDbDimStyleTable
 71
0
  0
DIMSTYLE
105
213
100
AcDbSymbolTableRecord
100
AcDbDimStyleTableRecord
  2
STANDARD
 70
0
  3

  4

 40
1.0
 41
1.5761305639
 42
1.0
 43
0.38
 44
1.0
 45
0.0
 46
0.0
 47
0.01
 48
0.01
140
2.2065827895
141
0.09
142
0.0
143
25.4
144
1.0
145
0.0
146
1.0
147
0.625
 71
1
 72
0
 73
0
 74
0
 75
0
 76
0
 77
1
 78
8
 79
2
170
0
171
1
172
0
173
0
174
0
175
0
176
0
177
0
178
0
270
2
179
2
271
2
272
2
273
2
274
2
275
0
280
0
281
0
282
0
283
1
284
8
285
0
286
0
287
3
288
0
340
11
278
46
341
212
342
212
343
212
344
212
  0
ENDTAB
  0
ENDSEC
  0
SECTION
  2
BLOCKS
  0
BLOCK
  5
20
100
AcDbEntity
  8
0
100
AcDbBlockBegin
  2
*Model_Space
 70
0
 10
0.0
 20
0.0
 30
0.0
  3
*Model_Space
  1

  0
ENDBLK
  5
21
100
AcDbEntity
  8
0
100
AcDbBlockEnd
  0
BLOCK
  5
1C
100
AcDbEntity
  8
0
100
AcDbBlockBegin
  2
*Paper_Space
 70
0
 10
0.0
 20
0.0
 30
0.0
  3
*Paper_Space
  1

  0
ENDBLK
  5
1D
100
AcDbEntity
  8
0
100
AcDbBlockEnd
  0
BLOCK
  5
214
100
AcDbEntity
  8
0
100
AcDbBlockBegin
  2
_FILLED
 70
64
 10
0.0
 20
0.0
  3
_FILLED
  1

  0
SOLID
  5
215
100
AcDbEntity
  8
0
  6
BYBLOCK
 62
0
100
AcDbTrace
 10
0.0
 20
0.0
 11
-1.0
 21
0.25
 12
-1.0
 22
-0.25
 13
-1.0
 23
-0.25
  0
ENDBLK
  5
216
100
AcDbEntity
  8
0
  6
BYBLOCK
 62
0
100
AcDbBlockEnd
  0
ENDSEC
  0
SECTION
  2
ENTITIES
  0
LINE
  5
217
100
AcDbEntity
  8
0
100
AcDbLine
 62
7
  6
BYLAYER
 10
15.3593394552
 20
80.2684650908
 11
15.3593394552
 21
118.5067307714
  0
LINE
  5
218
100
AcDbEntity
  8
0
100
AcDbLine
 62
7
  6
BYLAYER
 10
15.5007602227
 20
118.5883796022
 11
15.5007602227
 21
118.7236871983
  0
LINE
  5
219
100
AcDbEntity
  8
0
100
AcDbLine
 62
7
  6
BYLAYER
 10
15.5714711952
 20
120.6445753945
 11
15.5714711952
 21
118.6828631229
  0
LINE
  5
21A
100
AcDbEntity
  8
0
100
AcDbLine
 62
7
  6
BYLAYER
 10
15.5714711952
 20
80.1459902904
 11
15.5714711952
 21
78.160662001
  0
LINE
  5
21B
100
AcDbEntity
  8
0
100
AcDbLine
 62
7
  6
BYLAYER
 10
16.4449338628
 20
79.6417139422
 11
16.4449248257
 21
77.6563847206
  0
LINE
  5
21C
100
AcDbEntity
  8
0
100
AcDbLine
 62
7
  6
BYLAYER
 10
17.7281570345
 20
105.6989433056
 11
17.7281570345
 21
102.8428771238
  0
LINE
  5
21D
100
AcDbEntity
  8
0
100
AcDbLine
 62
7
  6
BYLAYER
 10
18.2598039045
 20
85.2629688949
 11
18.2598039045
 21
84.4464664778
  0
LINE
  5
21E
100
AcDbEntity
  8
0
100
AcDbLine
 62
7
  6
BYLAYER
 10
18.3767852526
 20
112.0820095289
 11
18.3767852526
 21
111.2655071117
  0
LINE
  5
21F
100
AcDbEntity
  8
0
100
AcDbLine
 62
7
  6
BYLAYER
 10
18.401224672
 20
85.1813214239
 11
18.401224672
 21
84.5281153086
  0
LINE
  5
220
100
AcDbEntity
  8
0
100
AcDbLine
 62
7
  6
BYLAYER
 10
18.4352608717
 20
105.2907059504
 11
18.4352608717
 21
103.2511212777
  0
LINE
  5
221
100
AcDbEntity
  8
0
100
AcDbLine
 62
7
  6
BYLAYER
 10
18.51820602
 20
112.0003620578
 11
18.51820602
 21
111.3471559425
  0
LINE
  5
222
100
AcDbEntity
  8
0
100
AcDbLine
 62
7
  6
BYLAYER
 10
16.4449247108
 20
120.1403046781
 11
16.4445213462
 21
118.1808644756
  0
LINE
  5
223
100
AcDbEntity
  8
0
100
AcDbLine
 62
7
  6
BYLAYER
 10
16.3026348294
 20
117.9621312537
 11
16.3027440122
 21
118.0994336509
  0
LINE
  5
224
100
AcDbEntity
  8
0
100
AcDbLine
 62
7
  6
BYLAYER
 10
25.1278929491
 20
127.4056952469
 11
24.1214510785
 21
125.6624741709
  0
LINE
  5
225
100
AcDbEntity
  8
0
100
AcDbLine
 62
7
  6
BYLAYER
 10
25.0655058542
 20
125.1175092237
 11
25.2156313195
 21
125.3775373382
  0
LINE
  5
226
100
AcDbEntity
  8
0
100
AcDbLine
 62
7
  6
BYLAYER
 10
50.5153874805
 20
142.701820096
 11
25.1278929491
 21
127.4056952469
  0
LINE
  5
227
100
AcDbEntity
  8
0
100
AcDbLine
 62
7
  6
BYLAYER
 10
50.5448263323
 20
143.3674332764
 11
55.4521270253
 21
146.2006394517
  0
LINE
  5
228
100
AcDbEntity
  8
0
100
AcDbLine
 62
7
  6
BYLAYER
 10
15.5714711952
 20
120.6445818922
 11
24.1921750675
 21
125.6217024549
  0
LINE
  5
229
100
AcDbEntity
  8
0
100
AcDbLine
 62
7
  6
BYLAYER
 10
19.3204684923
 20
85.8753613888
 11
19.3204684923
 21
84.6506077632
  0
LINE
  5
22A
100
AcDbEntity
  8
0
100
AcDbLine
 62
7
  6
BYLAYER
 10
19.3204684923
 20
83.834105346
 11
19.3204684923
 21
82.6093517203
  0
LINE
  5
22B
100
AcDbEntity
  8
0
100
AcDbLine
 62
7
  6
BYLAYER
 10
19.4374498403
 20
112.6944020228
 11
19.4374498403
 21
111.4696483971
  0
LINE
  5
22C
100
AcDbEntity
  8
0
100
AcDbLine
 62
7
  6
BYLAYER
 10
19.4374498403
 20
110.65314598
 11
19.4374498403
 21
109.4283923543
  0
LINE
  5
22D
100
AcDbEntity
  8
0
100
AcDbLine
 62
7
  6
BYLAYER
 10
19.4618892597
 20
85.7937139178
 11
19.4618892597
 21
84.7322565939
  0
LINE
  5
22E
100
AcDbEntity
  8
0
100
AcDbLine
 62
7
  6
BYLAYER
 10
19.4618892597
 20
83.9157541768
 11
19.4618892597
 21
82.6910005511
  0
LINE
  5
22F
100
AcDbEntity
  8
0
100
AcDbLine
 62
7
  6
BYLAYER
 10
19.5788706078
 20
112.6127545517
 11
19.5788706078
 21
111.5512972279
  0
LINE
  5
230
100
AcDbEntity
  8
0
100
AcDbLine
 62
7
  6
BYLAYER
 10
19.5788706078
 20
110.7347948107
 11
19.5788706078
 21
109.510041185
  0
LINE
  5
231
100
AcDbEntity
  8
0
100
AcDbLine
 62
7
  6
BYLAYER
 10
20.0275782174
 20
82.2011109658
 11
20.0275782174
 21
83.4258645915
  0
LINE
  5
232
100
AcDbEntity
  8
0
100
AcDbLine
 62
7
  6
BYLAYER
 10
20.0275782174
 20
84.2423670086
 11
20.0275782174
 21
85.4671206343
  0
LINE
  5
233
100
AcDbEntity
  8
0
100
AcDbLine
 62
7
  6
BYLAYER
 10
20.1445595655
 20
109.0201515997
 11
20.1445595655
 21
110.2449052254
  0
LINE
  5
234
100
AcDbEntity
  8
0
100
AcDbLine
 62
7
  6
BYLAYER
 10
20.1445595655
 20
111.0614076426
 11
20.1445595655
 21
112.2861612683
  0
LINE
  5
235
100
AcDbEntity
  8
0
100
AcDbLine
 62
7
  6
BYLAYER
 10
20.2030410725
 20
101.414034483
 11
20.2030410725
 21
104.2701006647
  0
LINE
  5
236
100
AcDbEntity
  8
0
100
AcDbLine
 62
7
  6
BYLAYER
 10
21.0882428051
 20
82.8135034597
 11
21.0882428051
 21
83.6300058769
  0
LINE
  5
237
100
AcDbEntity
  8
0
100
AcDbLine
 62
7
  6
BYLAYER
 10
21.2052241532
 20
109.6325440937
 11
21.2052241532
 21
110.4490465108
  0
LINE
  5
238
100
AcDbEntity
  8
0
100
AcDbLine
 62
7
  6
BYLAYER
 10
22.0536052138
 20
116.9022047361
 11
22.0536051633
 21
114.9425383814
  0
LINE
  5
239
100
AcDbEntity
  8
0
100
AcDbLine
 62
7
  6
BYLAYER
 10
22.0536051675
 20
76.403612681
 11
22.0536052186
 21
74.4182848422
  0
LINE
  5
23A
100
AcDbEntity
  8
0
100
AcDbLine
 62
7
  6
BYLAYER
 10
22.7317784431
 20
76.012077214
 11
22.7317702276
 21
74.0267549486
  0
LINE
  5
23B
100
AcDbEntity
  8
0
100
AcDbLine
 62
7
  6
BYLAYER
 10
22.7317701156
 20
116.5106749045
 11
22.7317791182
 21
114.5510038577
  0
LINE
  5
23C
100
AcDbEntity
  8
0
100
AcDbLine
 62
7
  6
BYLAYER
 10
30.8242842374
 20
122.1394533215
 11
30.6741668472
 21
121.8794342863
  0
LINE
  5
23D
100
AcDbEntity
  8
0
100
AcDbLine
 62
7
  6
BYLAYER
 10
31.3523718802
 20
121.4878812861
 11
31.5024895319
 21
121.7479001703
  0
LINE
  5
23E
100
AcDbEntity
  8
0
100
AcDbLine
 62
7
  6
BYLAYER
 10
16.4449522959
 20
120.1402887529
 11
25.0655058542
 21
125.1175092237
  0
LINE
  5
23F
100
AcDbEntity
  8
0
100
AcDbLine
 62
7
  6
BYLAYER
 10
15.5007602227
 20
118.7236871983
 11
15.5714711952
 21
118.7645119537
  0
LINE
  5
240
100
AcDbEntity
  8
0
100
AcDbLine
 62
7
  6
BYLAYER
 10
15.3593394552
 20
118.5067307714
 11
15.5007602227
 21
118.5883796022
  0
LINE
  5
241
100
AcDbEntity
  8
0
100
AcDbLine
 62
7
  6
BYLAYER
 10
22.088130773
 20
121.291192528
 11
26.0064630294
 21
123.546505621
  0
LINE
  5
242
100
AcDbEntity
  8
0
100
AcDbLine
 62
7
  6
BYLAYER
 10
16.3027440122
 20
118.0994214367
 11
21.9602360486
 21
121.3650307599
  0
LINE
  5
243
100
AcDbEntity
  8
0
100
AcDbLine
 62
7
  6
BYLAYER
 10
24.0214335883
 20
89.1480611179
 11
24.0214335883
 21
86.0453519328
  0
LINE
  5
244
100
AcDbEntity
  8
0
100
AcDbLine
 62
7
  6
BYLAYER
 10
24.1228136703
 20
108.7580058878
 11
24.1228136703
 21
107.9415034706
  0
LINE
  5
245
100
AcDbEntity
  8
0
100
AcDbLine
 62
7
  6
BYLAYER
 10
24.1432042034
 20
81.7299368566
 11
24.1432042034
 21
80.9134344394
  0
LINE
  5
246
100
AcDbEntity
  8
0
100
AcDbLine
 62
7
  6
BYLAYER
 10
24.2642344377
 20
108.6763584167
 11
24.2642344377
 21
108.0231523014
  0
LINE
  5
247
100
AcDbEntity
  8
0
100
AcDbLine
 62
7
  6
BYLAYER
 10
24.2846249709
 20
81.6482893855
 11
24.2846249709
 21
80.9950832702
  0
LINE
  5
248
100
AcDbEntity
  8
0
100
AcDbLine
 62
7
  6
BYLAYER
 10
24.7285374255
 20
88.7398237627
 11
24.7285374255
 21
86.4535960867
  0
LINE
  5
249
100
AcDbEntity
  8
0
100
AcDbLine
 62
7
  6
BYLAYER
 10
25.183478258
 20
109.3703983817
 11
25.183478258
 21
108.145644756
  0
LINE
  5
24A
100
AcDbEntity
  8
0
100
AcDbLine
 62
7
  6
BYLAYER
 10
25.183478258
 20
107.3291423389
 11
25.183478258
 21
106.1043887132
  0
LINE
  5
24B
100
AcDbEntity
  8
0
100
AcDbLine
 62
7
  6
BYLAYER
 10
25.2038687912
 20
82.3423293505
 11
25.2038687912
 21
81.1175757248
  0
LINE
  5
24C
100
AcDbEntity
  8
0
100
AcDbLine
 62
7
  6
BYLAYER
 10
25.2038687912
 20
80.3010733077
 11
25.2038687912
 21
79.076319682
  0
LINE
  5
24D
100
AcDbEntity
  8
0
100
AcDbLine
 62
7
  6
BYLAYER
 10
25.3248990254
 20
109.2887509106
 11
25.3248990254
 21
108.2272935868
  0
LINE
  5
24E
100
AcDbEntity
  8
0
100
AcDbLine
 62
7
  6
BYLAYER
 10
25.3248990254
 20
107.4107911696
 11
25.3248990254
 21
106.1860375439
  0
LINE
  5
24F
100
AcDbEntity
  8
0
100
AcDbLine
 62
7
  6
BYLAYER
 10
25.3452895586
 20
82.2606818794
 11
25.3452895586
 21
81.1992245556
  0
LINE
  5
250
100
AcDbEntity
  8
0
100
AcDbLine
 62
7
  6
BYLAYER
 10
25.3452895586
 20
80.3827221384
 11
25.3452895586
 21
79.1579685127
  0
LINE
  5
251
100
AcDbEntity
  8
0
100
AcDbLine
 62
7
  6
BYLAYER
 10
25.8905879831
 20
105.6961479586
 11
25.8905879831
 21
106.9209015843
  0
LINE
  5
252
100
AcDbEntity
  8
0
100
AcDbLine
 62
7
  6
BYLAYER
 10
25.8905879831
 20
107.7374040015
 11
25.8905879831
 21
108.9621576272
  0
LINE
  5
253
100
AcDbEntity
  8
0
100
AcDbLine
 62
7
  6
BYLAYER
 10
25.9109785163
 20
78.6680789274
 11
25.9109785163
 21
79.8928325531
  0
LINE
  5
254
100
AcDbEntity
  8
0
100
AcDbLine
 62
7
  6
BYLAYER
 10
25.9109785163
 20
80.7093349703
 11
25.9109785163
 21
81.934088596
  0
LINE
  5
255
100
AcDbEntity
  8
0
100
AcDbLine
 62
7
  6
BYLAYER
 10
26.1427627637
 20
84.8206296693
 11
26.1427627637
 21
87.9233388544
  0
LINE
  5
256
100
AcDbEntity
  8
0
100
AcDbLine
 62
7
  6
BYLAYER
 10
26.9512525709
 20
106.3085404526
 11
26.9512525709
 21
107.1250428697
  0
LINE
  5
257
100
AcDbEntity
  8
0
100
AcDbLine
 62
7
  6
BYLAYER
 10
26.971643104
 20
79.2804714214
 11
26.971643104
 21
80.0969738385
  0
LINE
  5
258
100
AcDbEntity
  8
0
100
AcDbLine
 62
7
  6
BYLAYER
 10
28.1701053856
 20
113.3709216036
 11
28.1701053397
 21
111.4112624418
  0
LINE
  5
259
100
AcDbEntity
  8
0
100
AcDbLine
 62
7
  6
BYLAYER
 10
28.1701053436
 20
72.872322317
 11
28.17010539
 21
70.8870017099
  0
LINE
  5
25A
100
AcDbEntity
  8
0
100
AcDbLine
 62
7
  6
BYLAYER
 10
26.0082838913
 20
124.9199095154
 11
26.0064500819
 21
123.5465130958
  0
LINE
  5
25B
100
AcDbEntity
  8
0
100
AcDbLine
 62
7
  6
BYLAYER
 10
22.0535776203
 20
116.9022206663
 11
30.6741939527
 21
121.8794186379
  0
LINE
  5
25C
100
AcDbEntity
  8
0
100
AcDbLine
 62
7
  6
BYLAYER
 10
22.7317952005
 20
116.5106604226
 11
31.3523718802
 21
121.4878812861
  0
LINE
  5
25D
100
AcDbEntity
  8
0
100
AcDbLine
 62
7
  6
BYLAYER
 10
28.2471416515
 20
117.7353747352
 11
22.7317951546
 21
114.5509945996
  0
LINE
  5
25E
100
AcDbEntity
  8
0
100
AcDbLine
 62
7
  6
BYLAYER
 10
18.3767852526
 20
111.2655071117
 11
18.51820602
 21
111.3471559425
  0
LINE
  5
25F
100
AcDbEntity
  8
0
100
AcDbLine
 62
7
  6
BYLAYER
 10
19.4374498403
 20
111.4696483971
 11
19.5788706078
 21
111.5512972279
  0
LINE
  5
260
100
AcDbEntity
  8
0
100
AcDbLine
 62
7
  6
BYLAYER
 10
28.3749910813
 20
117.6615615825
 11
32.2933214504
 21
119.9168683327
  0
LINE
  5
261
100
AcDbEntity
  8
0
100
AcDbLine
 62
7
  6
BYLAYER
 10
79.0699245134
 20
41.5006422451
 11
78.1974608366
 21
42.0043479884
  0
LINE
  5
262
100
AcDbEntity
  8
0
100
AcDbLine
 62
7
  6
BYLAYER
 10
72.5888079186
 20
45.2424320051
 11
71.9106154346
 21
45.6339777604
  0
LINE
  5
263
100
AcDbEntity
  8
0
100
AcDbLine
 62
7
  6
BYLAYER
 10
66.4723052495
 20
48.7737165793
 11
65.9648478443
 21
49.0666906208
  0
LINE
  5
264
100
AcDbEntity
  8
0
100
AcDbLine
 62
7
  6
BYLAYER
 10
60.3561949264
 20
52.3047746375
 11
59.8483487218
 21
52.5979731474
  0
LINE
  5
265
100
AcDbEntity
  8
0
100
AcDbLine
 62
7
  6
BYLAYER
 10
54.2396958039
 20
55.8360571641
 11
53.7173538499
 21
56.1376246095
  0
LINE
  5
266
100
AcDbEntity
  8
0
100
AcDbLine
 62
7
  6
BYLAYER
 10
48.2790436648
 20
59.2773634284
 11
46.3633419974
 21
60.3833692806
  0
LINE
  5
267
100
AcDbEntity
  8
0
100
AcDbLine
 62
7
  6
BYLAYER
 10
40.9250318123
 20
63.5231080995
 11
40.4026898583
 21
63.8246755449
  0
LINE
  5
268
100
AcDbEntity
  8
0
100
AcDbLine
 62
7
  6
BYLAYER
 10
34.7940369404
 20
67.0627595616
 11
34.2861907358
 21
67.3559580715
  0
LINE
  5
269
100
AcDbEntity
  8
0
100
AcDbLine
 62
7
  6
BYLAYER
 10
28.6775378179
 20
70.5940420882
 11
28.1700804127
 21
70.8870161297
  0
LINE
  5
26A
100
AcDbEntity
  8
0
100
AcDbLine
 62
7
  6
BYLAYER
 10
22.7317702276
 20
74.0267549486
 11
22.0535777436
 21
74.4183007039
  0
LINE
  5
26B
100
AcDbEntity
  8
0
100
AcDbLine
 62
7
  6
BYLAYER
 10
16.4449248257
 20
77.6563847206
 11
15.5714711952
 21
78.160662001
  0
LINE
  5
26C
100
AcDbEntity
  8
0
100
AcDbLine
 62
7
  6
BYLAYER
 10
28.6775378179
 20
113.0779619794
 11
28.6775378179
 21
111.1183031911
  0
LINE
  5
26D
100
AcDbEntity
  8
0
100
AcDbLine
 62
7
  6
BYLAYER
 10
28.6775378179
 20
72.5793620692
 11
28.6775378179
 21
70.5940420882
  0
LINE
  5
26E
100
AcDbEntity
  8
0
100
AcDbLine
 62
7
  6
BYLAYER
 10
28.7237132605
 20
86.4332601004
 11
28.7237132605
 21
84.0654030907
  0
LINE
  5
26F
100
AcDbEntity
  8
0
100
AcDbLine
 62
7
  6
BYLAYER
 10
29.4308170977
 20
86.0250227452
 11
29.4308170977
 21
84.4736472446
  0
LINE
  5
270
100
AcDbEntity
  8
0
100
AcDbLine
 62
7
  6
BYLAYER
 10
29.7578692497
 20
98.4103405927
 11
29.7578692497
 21
95.6342323744
  0
LINE
  5
271
100
AcDbEntity
  8
0
100
AcDbLine
 62
7
  6
BYLAYER
 10
30.178395446
 20
105.4096972543
 11
30.178395446
 21
104.5931948372
  0
LINE
  5
272
100
AcDbEntity
  8
0
100
AcDbLine
 62
7
  6
BYLAYER
 10
30.2430506672
 20
78.0378608597
 11
30.2430506672
 21
77.2213584426
  0
LINE
  5
273
100
AcDbEntity
  8
0
100
AcDbLine
 62
7
  6
BYLAYER
 10
30.3198162135
 20
105.3280497832
 11
30.3198162135
 21
104.6748436679
  0
LINE
  5
274
100
AcDbEntity
  8
0
100
AcDbLine
 62
7
  6
BYLAYER
 10
30.3844714346
 20
77.9562133887
 11
30.3844714346
 21
77.3030072734
  0
LINE
  5
275
100
AcDbEntity
  8
0
100
AcDbLine
 62
7
  6
BYLAYER
 10
30.4649730869
 20
98.0021032375
 11
30.4649730869
 21
96.0424765283
  0
LINE
  5
276
100
AcDbEntity
  8
0
100
AcDbLine
 62
7
  6
BYLAYER
 10
31.2390600337
 20
106.0220897482
 11
31.2390600337
 21
104.7973361225
  0
LINE
  5
277
100
AcDbEntity
  8
0
100
AcDbLine
 62
7
  6
BYLAYER
 10
31.2390600337
 20
103.9808337054
 11
31.2390600337
 21
102.7560800797
  0
LINE
  5
278
100
AcDbEntity
  8
0
100
AcDbLine
 62
7
  6
BYLAYER
 10
31.3037152549
 20
78.6502533537
 11
31.3037152549
 21
77.425499728
  0
LINE
  5
279
100
AcDbEntity
  8
0
100
AcDbLine
 62
7
  6
BYLAYER
 10
31.3037152549
 20
76.6089973108
 11
31.3037152549
 21
75.3842436851
  0
LINE
  5
27A
100
AcDbEntity
  8
0
100
AcDbLine
 62
7
  6
BYLAYER
 10
31.3804808012
 20
105.9404422772
 11
31.3804808012
 21
104.8789849533
  0
LINE
  5
27B
100
AcDbEntity
  8
0
100
AcDbLine
 62
7
  6
BYLAYER
 10
31.3804808012
 20
104.0624825362
 11
31.3804808012
 21
102.8377289105
  0
LINE
  5
27C
100
AcDbEntity
  8
0
100
AcDbLine
 62
7
  6
BYLAYER
 10
31.4451360223
 20
78.5686058826
 11
31.4451360223
 21
77.5071485587
  0
LINE
  5
27D
100
AcDbEntity
  8
0
100
AcDbLine
 62
7
  6
BYLAYER
 10
31.4451360223
 20
76.6906461416
 11
31.4451360223
 21
75.4658925159
  0
LINE
  5
27E
100
AcDbEntity
  8
0
100
AcDbLine
 62
7
  6
BYLAYER
 10
31.4814411886
 20
82.4732641481
 11
31.4814411886
 21
84.8411211577
  0
LINE
  5
27F
100
AcDbEntity
  8
0
100
AcDbLine
 62
7
  6
BYLAYER
 10
31.9461697589
 20
102.3478393252
 11
31.9461697589
 21
103.5725929509
  0
LINE
  5
280
100
AcDbEntity
  8
0
100
AcDbLine
 62
7
  6
BYLAYER
 10
31.9461697589
 20
104.389095368
 11
31.9461697589
 21
105.6138489937
  0
LINE
  5
281
100
AcDbEntity
  8
0
100
AcDbLine
 62
7
  6
BYLAYER
 10
32.01082498
 20
74.9760029306
 11
32.01082498
 21
76.2007565563
  0
LINE
  5
282
100
AcDbEntity
  8
0
100
AcDbLine
 62
7
  6
BYLAYER
 10
32.01082498
 20
77.0172589734
 11
32.01082498
 21
78.2420125991
  0
LINE
  5
283
100
AcDbEntity
  8
0
100
AcDbLine
 62
7
  6
BYLAYER
 10
32.8161348432
 20
92.4307381072
 11
32.8161348432
 21
86.1615985311
  0
LINE
  5
284
100
AcDbEntity
  8
0
100
AcDbLine
 62
7
  6
BYLAYER
 10
32.8161348432
 20
93.8685818551
 11
32.8161348432
 21
96.6446900733
  0
LINE
  5
285
100
AcDbEntity
  8
0
100
AcDbLine
 62
7
  6
BYLAYER
 10
33.0068343466
 20
102.9602318191
 11
33.0068343466
 21
103.7767342362
  0
LINE
  5
286
100
AcDbEntity
  8
0
100
AcDbLine
 62
7
  6
BYLAYER
 10
33.0714895677
 20
75.5883954245
 11
33.0714895677
 21
76.4048978417
  0
LINE
  5
287
100
AcDbEntity
  8
0
100
AcDbLine
 62
7
  6
BYLAYER
 10
32.2951434893
 20
121.2902715475
 11
32.2933096799
 21
119.9168751279
  0
LINE
  5
288
100
AcDbEntity
  8
0
100
AcDbLine
 62
7
  6
BYLAYER
 10
36.940799717
 20
118.6081613513
 11
36.7906820654
 21
118.3481424672
  0
LINE
  5
289
100
AcDbEntity
  8
0
100
AcDbLine
 62
7
  6
BYLAYER
 10
37.2982649597
 20
118.0550959766
 11
37.4483852269
 21
118.3151133502
  0
LINE
  5
28A
100
AcDbEntity
  8
0
100
AcDbLine
 62
7
  6
BYLAYER
 10
19.4374498403
 20
110.65314598
 11
19.5788706078
 21
110.7347948107
  0
LINE
  5
28B
100
AcDbEntity
  8
0
100
AcDbLine
 62
7
  6
BYLAYER
 10
20.1445595655
 20
110.2449052254
 11
20.2859803329
 21
110.3265540562
  0
LINE
  5
28C
100
AcDbEntity
  8
0
100
AcDbLine
 62
7
  6
BYLAYER
 10
19.4374498403
 20
109.4283923543
 11
19.5788706078
 21
109.510041185
  0
LINE
  5
28D
100
AcDbEntity
  8
0
100
AcDbLine
 62
7
  6
BYLAYER
 10
28.1700803007
 20
113.3709360856
 11
36.7907067066
 21
118.3481282413
  0
LINE
  5
28E
100
AcDbEntity
  8
0
100
AcDbLine
 62
7
  6
BYLAYER
 10
28.6775378179
 20
113.0779619794
 11
37.2982649597
 21
118.0550959766
  0
LINE
  5
28F
100
AcDbEntity
  8
0
100
AcDbLine
 62
7
  6
BYLAYER
 10
34.1929805802
 20
114.3026277516
 11
28.6775378179
 21
111.1183031911
  0
LINE
  5
290
100
AcDbEntity
  8
0
100
AcDbLine
 62
7
  6
BYLAYER
 10
24.1228136703
 20
107.9415034706
 11
24.2642344377
 21
108.0231523014
  0
LINE
  5
291
100
AcDbEntity
  8
0
100
AcDbLine
 62
7
  6
BYLAYER
 10
34.3208493658
 20
114.2288033903
 11
38.2392192313
 21
116.4840803083
  0
LINE
  5
292
100
AcDbEntity
  8
0
100
AcDbLine
 62
7
  6
BYLAYER
 10
15.3593394552
 20
80.2684692696
 11
78.9992147184
 21
43.5267261455
  0
LINE
  5
293
100
AcDbEntity
  8
0
100
AcDbLine
 62
7
  6
BYLAYER
 10
79.0699245134
 20
43.4859705345
 11
79.1406354859
 21
43.445146459
  0
LINE
  5
294
100
AcDbEntity
  8
0
100
AcDbLine
 62
7
  6
BYLAYER
 10
45.9771905541
 20
65.7515089531
 11
48.3813636196
 21
64.3634903878
  0
LINE
  5
295
100
AcDbEntity
  8
0
100
AcDbLine
 62
7
  6
BYLAYER
 10
46.6842943913
 20
66.159753107
 11
48.3813636196
 21
65.1799718968
  0
LINE
  5
296
100
AcDbEntity
  8
0
100
AcDbLine
 62
7
  6
BYLAYER
 10
37.4035617186
 20
71.7489702449
 11
38.1106714438
 21
71.3407294904
  0
LINE
  5
297
100
AcDbEntity
  8
0
100
AcDbLine
 62
7
  6
BYLAYER
 10
43.5322318016
 20
68.2494908426
 11
44.2393415267
 21
67.8412500881
  0
LINE
  5
298
100
AcDbEntity
  8
0
100
AcDbLine
 62
7
  6
BYLAYER
 10
57.1299148433
 20
60.4390385792
 11
57.8370245685
 21
60.0307978246
  0
LINE
  5
299
100
AcDbEntity
  8
0
100
AcDbLine
 62
7
  6
BYLAYER
 10
31.3037152549
 20
75.3842436851
 11
32.01082498
 21
74.9760029306
  0
LINE
  5
29A
100
AcDbEntity
  8
0
100
AcDbLine
 62
7
  6
BYLAYER
 10
69.3000923847
 20
53.4695448122
 11
70.0072021098
 21
53.0613040577
  0
LINE
  5
29B
100
AcDbEntity
  8
0
100
AcDbLine
 62
7
  6
BYLAYER
 10
37.5449824861
 20
71.8306190757
 11
38.1106714438
 21
71.5040257922
  0
LINE
  5
29C
100
AcDbEntity
  8
0
100
AcDbLine
 62
7
  6
BYLAYER
 10
43.673652569
 20
68.3311396734
 11
44.2393415267
 21
68.0045463899
  0
LINE
  5
29D
100
AcDbEntity
  8
0
100
AcDbLine
 62
7
  6
BYLAYER
 10
57.2713356108
 20
60.5206874099
 11
57.8370245685
 21
60.1940941265
  0
LINE
  5
29E
100
AcDbEntity
  8
0
100
AcDbLine
 62
7
  6
BYLAYER
 10
63.2395997691
 20
57.1048188343
 11
63.9467094942
 21
56.6965780798
  0
LINE
  5
29F
100
AcDbEntity
  8
0
100
AcDbLine
 62
7
  6
BYLAYER
 10
31.4451360223
 20
75.4658925159
 11
32.01082498
 21
75.1392992324
  0
LINE
  5
2A0
100
AcDbEntity
  8
0
100
AcDbLine
 62
7
  6
BYLAYER
 10
25.2038687912
 20
79.076319682
 11
25.9109785163
 21
78.6680789274
  0
LINE
  5
2A1
100
AcDbEntity
  8
0
100
AcDbLine
 62
7
  6
BYLAYER
 10
50.9665061501
 20
64.2025905564
 11
51.6736158753
 21
63.7943498019
  0
LINE
  5
2A2
100
AcDbEntity
  8
0
100
AcDbLine
 62
7
  6
BYLAYER
 10
69.4415131521
 20
53.551193643
 11
70.0072021098
 21
53.2246003595
  0
LINE
  5
2A3
100
AcDbEntity
  8
0
100
AcDbLine
 62
7
  6
BYLAYER
 10
33.5232386804
 20
92.022500752
 11
33.5232386804
 21
86.569842685
  0
LINE
  5
2A4
100
AcDbEntity
  8
0
100
AcDbLine
 62
7
  6
BYLAYER
 10
34.2861907358
 20
109.8398779627
 11
34.2861907358
 21
107.8802260034
  0
LINE
  5
2A5
100
AcDbEntity
  8
0
100
AcDbLine
 62
7
  6
BYLAYER
 10
34.2861907358
 20
69.3412714235
 11
34.2861907358
 21
67.3559580715
  0
LINE
  5
2A6
100
AcDbEntity
  8
0
100
AcDbLine
 62
7
  6
BYLAYER
 10
34.4513020342
 20
86.3108694155
 11
34.4513020342
 21
90.3933815012
  0
LINE
  5
2A7
100
AcDbEntity
  8
0
100
AcDbLine
 62
7
  6
BYLAYER
 10
34.7940369404
 20
109.5466794528
 11
34.7940369404
 21
107.5870278937
  0
LINE
  5
2A8
100
AcDbEntity
  8
0
100
AcDbLine
 62
7
  6
BYLAYER
 10
34.7940369404
 20
69.0480723134
 11
34.7940369404
 21
67.0627595616
  0
LINE
  5
2A9
100
AcDbEntity
  8
0
100
AcDbLine
 62
7
  6
BYLAYER
 10
35.9380290083
 20
89.5350387008
 11
35.9380290083
 21
85.4525266152
  0
LINE
  5
2AA
100
AcDbEntity
  8
0
100
AcDbLine
 62
7
  6
BYLAYER
 10
36.077654402
 20
95.1050957258
 11
36.077654402
 21
92.249029544
  0
LINE
  5
2AB
100
AcDbEntity
  8
0
100
AcDbLine
 62
7
  6
BYLAYER
 10
36.2544318333
 20
82.0854960647
 11
36.2544318333
 21
78.9827868796
  0
LINE
  5
2AC
100
AcDbEntity
  8
0
100
AcDbLine
 62
7
  6
BYLAYER
 10
36.3062815266
 20
101.7744242286
 11
36.3062815266
 21
100.9579218115
  0
LINE
  5
2AD
100
AcDbEntity
  8
0
100
AcDbLine
 62
7
  6
BYLAYER
 10
36.3428971309
 20
74.4025874195
 11
36.3428971309
 21
73.5860850024
  0
LINE
  5
2AE
100
AcDbEntity
  8
0
100
AcDbLine
 62
7
  6
BYLAYER
 10
36.447702294
 20
101.6927767575
 11
36.447702294
 21
101.0395706422
  0
LINE
  5
2AF
100
AcDbEntity
  8
0
100
AcDbLine
 62
7
  6
BYLAYER
 10
36.4843178983
 20
74.3209399485
 11
36.4843178983
 21
73.6677338331
  0
LINE
  5
2B0
100
AcDbEntity
  8
0
100
AcDbLine
 62
7
  6
BYLAYER
 10
36.6451328455
 20
89.9432828547
 11
36.6451328455
 21
85.8607707691
  0
LINE
  5
2B1
100
AcDbEntity
  8
0
100
AcDbLine
 62
7
  6
BYLAYER
 10
36.7847582393
 20
94.6968583706
 11
36.7847582393
 21
92.6572736979
  0
LINE
  5
2B2
100
AcDbEntity
  8
0
100
AcDbLine
 62
7
  6
BYLAYER
 10
36.9615356705
 20
81.6772587095
 11
36.9615356705
 21
79.3910310335
  0
LINE
  5
2B3
100
AcDbEntity
  8
0
100
AcDbLine
 62
7
  6
BYLAYER
 10
37.3669461143
 20
102.3868167225
 11
37.3669461143
 21
101.1620630968
  0
LINE
  5
2B4
100
AcDbEntity
  8
0
100
AcDbLine
 62
7
  6
BYLAYER
 10
37.3669461143
 20
100.3455606797
 11
37.3669461143
 21
99.120807054
  0
LINE
  5
2B5
100
AcDbEntity
  8
0
100
AcDbLine
 62
7
  6
BYLAYER
 10
37.4035617186
 20
75.0149799134
 11
37.4035617186
 21
73.7902262877
  0
LINE
  5
2B6
100
AcDbEntity
  8
0
100
AcDbLine
 62
7
  6
BYLAYER
 10
37.4035617186
 20
72.9737238706
 11
37.4035617186
 21
71.7489702449
  0
LINE
  5
2B7
100
AcDbEntity
  8
0
100
AcDbLine
 62
7
  6
BYLAYER
 10
37.5083668817
 20
102.3051692515
 11
37.5083668817
 21
101.2437119276
  0
LINE
  5
2B8
100
AcDbEntity
  8
0
100
AcDbLine
 62
7
  6
BYLAYER
 10
37.5083668817
 20
100.4272095105
 11
37.5083668817
 21
99.2024558848
  0
LINE
  5
2B9
100
AcDbEntity
  8
0
100
AcDbLine
 62
7
  6
BYLAYER
 10
37.5449824861
 20
74.9333324424
 11
37.5449824861
 21
73.8718751185
  0
LINE
  5
2BA
100
AcDbEntity
  8
0
100
AcDbLine
 62
7
  6
BYLAYER
 10
37.5449824861
 20
73.0553727014
 11
37.5449824861
 21
71.8306190757
  0
LINE
  5
2BB
100
AcDbEntity
  8
0
100
AcDbLine
 62
7
  6
BYLAYER
 10
38.0740558394
 20
98.7125662995
 11
38.0740558394
 21
99.9373199252
  0
LINE
  5
2BC
100
AcDbEntity
  8
0
100
AcDbLine
 62
7
  6
BYLAYER
 10
38.0740558394
 20
100.7538223423
 11
38.0740558394
 21
101.978575968
  0
LINE
  5
2BD
100
AcDbEntity
  8
0
100
AcDbLine
 62
7
  6
BYLAYER
 10
38.1106714438
 20
71.3407294904
 11
38.1106714438
 21
72.5654831161
  0
LINE
  5
2BE
100
AcDbEntity
  8
0
100
AcDbLine
 62
7
  6
BYLAYER
 10
38.1106714438
 20
73.3819855332
 11
38.1106714438
 21
74.6067391589
  0
LINE
  5
2BF
100
AcDbEntity
  8
0
100
AcDbLine
 62
7
  6
BYLAYER
 10
38.3757610088
 20
77.7580646161
 11
38.3757610088
 21
80.8607738012
  0
LINE
  5
2C0
100
AcDbEntity
  8
0
100
AcDbLine
 62
7
  6
BYLAYER
 10
38.2410530406
 20
117.8574767277
 11
38.2392192313
 21
116.4840803083
  0
LINE
  5
2C1
100
AcDbEntity
  8
0
100
AcDbLine
 62
7
  6
BYLAYER
 10
43.0570381448
 20
115.0770293335
 11
42.9069178776
 21
114.8170119599
  0
LINE
  5
2C2
100
AcDbEntity
  8
0
100
AcDbLine
 62
7
  6
BYLAYER
 10
43.4147640822
 20
114.52381345
 11
43.5648843494
 21
114.7838308236
  0
LINE
  5
2C3
100
AcDbEntity
  8
0
100
AcDbLine
 62
7
  6
BYLAYER
 10
25.183478258
 20
108.145644756
 11
25.3248990254
 21
108.2272935868
  0
LINE
  5
2C4
100
AcDbEntity
  8
0
100
AcDbLine
 62
7
  6
BYLAYER
 10
25.183478258
 20
107.3291423389
 11
25.3248990254
 21
107.4107911696
  0
LINE
  5
2C5
100
AcDbEntity
  8
0
100
AcDbLine
 62
7
  6
BYLAYER
 10
17.7281570345
 20
102.8428771238
 11
18.4352608717
 21
103.2511212777
  0
LINE
  5
2C6
100
AcDbEntity
  8
0
100
AcDbLine
 62
7
  6
BYLAYER
 10
25.8905879831
 20
106.9209015843
 11
26.0320087506
 21
107.0025504151
  0
LINE
  5
2C7
100
AcDbEntity
  8
0
100
AcDbLine
 62
7
  6
BYLAYER
 10
25.183478258
 20
106.1043887132
 11
25.3248990254
 21
106.1860375439
  0
LINE
  5
2C8
100
AcDbEntity
  8
0
100
AcDbLine
 62
7
  6
BYLAYER
 10
34.2861907358
 20
109.8398779627
 11
42.9069178776
 21
114.8170119599
  0
LINE
  5
2C9
100
AcDbEntity
  8
0
100
AcDbLine
 62
7
  6
BYLAYER
 10
34.7940369404
 20
109.5466794528
 11
43.4147640822
 21
114.52381345
  0
LINE
  5
2CA
100
AcDbEntity
  8
0
100
AcDbLine
 62
7
  6
BYLAYER
 10
75.0851080632
 20
50.4022922833
 11
75.7922177883
 21
49.9940515288
  0
LINE
  5
2CB
100
AcDbEntity
  8
0
100
AcDbLine
 62
7
  6
BYLAYER
 10
19.3204684923
 20
82.6093517203
 11
20.0275782174
 21
82.2011109658
  0
LINE
  5
2CC
100
AcDbEntity
  8
0
100
AcDbLine
 62
7
  6
BYLAYER
 10
63.3810205365
 20
57.1864676651
 11
63.9467094942
 21
56.8598743816
  0
LINE
  5
2CD
100
AcDbEntity
  8
0
100
AcDbLine
 62
7
  6
BYLAYER
 10
25.3452895586
 20
79.1579685127
 11
25.9109785163
 21
78.8313752293
  0
LINE
  5
2CE
100
AcDbEntity
  8
0
100
AcDbLine
 62
7
  6
BYLAYER
 10
51.1079269176
 20
64.2842393872
 11
51.6736158753
 21
63.9576461037
  0
LINE
  5
2CF
100
AcDbEntity
  8
0
100
AcDbLine
 62
7
  6
BYLAYER
 10
75.2265288306
 20
50.4839411141
 11
75.7922177883
 21
50.1573478306
  0
LINE
  5
2D0
100
AcDbEntity
  8
0
100
AcDbLine
 62
7
  6
BYLAYER
 10
19.4618892597
 20
82.6910005511
 11
20.0275782174
 21
82.3644072676
  0
LINE
  5
2D1
100
AcDbEntity
  8
0
100
AcDbLine
 62
7
  6
BYLAYER
 10
36.3428971309
 20
73.5860850024
 11
37.4035617186
 21
72.9737238706
  0
LINE
  5
2D2
100
AcDbEntity
  8
0
100
AcDbLine
 62
7
  6
BYLAYER
 10
38.1106714438
 20
72.5654831161
 11
39.1713360315
 21
71.9531219843
  0
LINE
  5
2D3
100
AcDbEntity
  8
0
100
AcDbLine
 62
7
  6
BYLAYER
 10
42.4715672139
 20
70.0866056001
 11
43.5322318016
 21
69.4742444683
  0
LINE
  5
2D4
100
AcDbEntity
  8
0
100
AcDbLine
 62
7
  6
BYLAYER
 10
44.2393415267
 20
69.0660037138
 11
45.3000061145
 21
68.453642582
  0
LINE
  5
2D5
100
AcDbEntity
  8
0
100
AcDbLine
 62
7
  6
BYLAYER
 10
56.0692502556
 20
62.2761533366
 11
57.1299148433
 21
61.6637922049
  0
LINE
  5
2D6
100
AcDbEntity
  8
0
100
AcDbLine
 62
7
  6
BYLAYER
 10
57.8370245685
 20
61.2555514503
 11
58.8976891562
 21
60.6431903186
  0
LINE
  5
2D7
100
AcDbEntity
  8
0
100
AcDbLine
 62
7
  6
BYLAYER
 10
30.2430506672
 20
77.2213584426
 11
31.3037152549
 21
76.6089973108
  0
LINE
  5
2D8
100
AcDbEntity
  8
0
100
AcDbLine
 62
7
  6
BYLAYER
 10
32.01082498
 20
76.2007565563
 11
33.0714895677
 21
75.5883954245
  0
LINE
  5
2D9
100
AcDbEntity
  8
0
100
AcDbLine
 62
7
  6
BYLAYER
 10
68.239427797
 20
55.3066595697
 11
69.3000923847
 21
54.6942984379
  0
LINE
  5
2DA
100
AcDbEntity
  8
0
100
AcDbLine
 62
7
  6
BYLAYER
 10
70.0072021098
 20
54.2860576834
 11
71.0678666975
 21
53.6736965516
  0
LINE
  5
2DB
100
AcDbEntity
  8
0
100
AcDbLine
 62
7
  6
BYLAYER
 10
36.4843178983
 20
73.6677338331
 11
37.5449824861
 21
73.0553727014
  0
LINE
  5
2DC
100
AcDbEntity
  8
0
100
AcDbLine
 62
7
  6
BYLAYER
 10
38.2520922112
 20
72.6471319468
 11
39.1713360315
 21
72.1164182861
  0
LINE
  5
2DD
100
AcDbEntity
  8
0
100
AcDbLine
 62
7
  6
BYLAYER
 10
42.6129879813
 20
70.1682544309
 11
43.673652569
 21
69.5558932991
  0
LINE
  5
2DE
100
AcDbEntity
  8
0
100
AcDbLine
 62
7
  6
BYLAYER
 10
44.3807622942
 20
69.1476525446
 11
45.3000061145
 21
68.6169388838
  0
LINE
  5
2DF
100
AcDbEntity
  8
0
100
AcDbLine
 62
7
  6
BYLAYER
 10
56.2106710231
 20
62.3578021674
 11
57.2713356108
 21
61.7454410356
  0
LINE
  5
2E0
100
AcDbEntity
  8
0
100
AcDbLine
 62
7
  6
BYLAYER
 10
57.9784453359
 20
61.3372002811
 11
58.8976891562
 21
60.8064866204
  0
LINE
  5
2E1
100
AcDbEntity
  8
0
100
AcDbLine
 62
7
  6
BYLAYER
 10
62.1789351814
 20
58.9419335918
 11
63.2395997691
 21
58.32957246
  0
LINE
  5
2E2
100
AcDbEntity
  8
0
100
AcDbLine
 62
7
  6
BYLAYER
 10
63.9467094942
 20
57.9213317055
 11
65.007374082
 21
57.3089705737
  0
LINE
  5
2E3
100
AcDbEntity
  8
0
100
AcDbLine
 62
7
  6
BYLAYER
 10
30.3844714346
 20
77.3030072734
 11
31.4451360223
 21
76.6906461416
  0
LINE
  5
2E4
100
AcDbEntity
  8
0
100
AcDbLine
 62
7
  6
BYLAYER
 10
32.1522457475
 20
76.2824053871
 11
33.0714895677
 21
75.7516917263
  0
LINE
  5
2E5
100
AcDbEntity
  8
0
100
AcDbLine
 62
7
  6
BYLAYER
 10
24.1432042034
 20
80.9134344394
 11
25.2038687912
 21
80.3010733077
  0
LINE
  5
2E6
100
AcDbEntity
  8
0
100
AcDbLine
 62
7
  6
BYLAYER
 10
25.9109785163
 20
79.8928325531
 11
26.971643104
 21
79.2804714214
  0
LINE
  5
2E7
100
AcDbEntity
  8
0
100
AcDbLine
 62
7
  6
BYLAYER
 10
49.9058415624
 20
66.0397053139
 11
50.9665061501
 21
65.4273441821
  0
LINE
  5
2E8
100
AcDbEntity
  8
0
100
AcDbLine
 62
7
  6
BYLAYER
 10
51.6736158753
 20
65.0191034276
 11
52.734280463
 21
64.4067422958
  0
LINE
  5
2E9
100
AcDbEntity
  8
0
100
AcDbLine
 62
7
  6
BYLAYER
 10
68.3808485644
 20
55.3883084005
 11
69.4415131521
 21
54.7759472687
  0
LINE
  5
2EA
100
AcDbEntity
  8
0
100
AcDbLine
 62
7
  6
BYLAYER
 10
70.1486228773
 20
54.3677065142
 11
71.0678666975
 21
53.8369928534
  0
LINE
  5
2EB
100
AcDbEntity
  8
0
100
AcDbLine
 62
7
  6
BYLAYER
 10
48.3813636196
 20
67.0252882676
 11
45.9771905541
 21
68.413306833
  0
LINE
  5
2EC
100
AcDbEntity
  8
0
100
AcDbLine
 62
7
  6
BYLAYER
 10
74.0244434755
 20
52.2394070408
 11
75.0851080632
 21
51.627045909
  0
LINE
  5
2ED
100
AcDbEntity
  8
0
100
AcDbLine
 62
7
  6
BYLAYER
 10
75.7922177883
 20
51.2188051545
 11
76.852882376
 21
50.6064440227
  0
LINE
  5
2EE
100
AcDbEntity
  8
0
100
AcDbLine
 62
7
  6
BYLAYER
 10
18.2598039045
 20
84.4464664778
 11
19.3204684923
 21
83.834105346
  0
LINE
  5
2EF
100
AcDbEntity
  8
0
100
AcDbLine
 62
7
  6
BYLAYER
 10
20.0275782174
 20
83.4258645915
 11
21.0882428051
 21
82.8135034597
  0
LINE
  5
2F0
100
AcDbEntity
  8
0
100
AcDbLine
 62
7
  6
BYLAYER
 10
62.3203559488
 20
59.0235824225
 11
63.3810205365
 21
58.4112212907
  0
LINE
  5
2F1
100
AcDbEntity
  8
0
100
AcDbLine
 62
7
  6
BYLAYER
 10
64.0881302617
 20
58.0029805362
 11
65.007374082
 21
57.4722668755
  0
LINE
  5
2F2
100
AcDbEntity
  8
0
100
AcDbLine
 62
7
  6
BYLAYER
 10
24.2846249709
 20
80.9950832702
 11
25.3452895586
 21
80.3827221384
  0
LINE
  5
2F3
100
AcDbEntity
  8
0
100
AcDbLine
 62
7
  6
BYLAYER
 10
26.0523992837
 20
79.9744813839
 11
26.971643104
 21
79.4437677232
  0
LINE
  5
2F4
100
AcDbEntity
  8
0
100
AcDbLine
 62
7
  6
BYLAYER
 10
50.0472623298
 20
66.1213541447
 11
51.1079269176
 21
65.5089930129
  0
LINE
  5
2F5
100
AcDbEntity
  8
0
100
AcDbLine
 62
7
  6
BYLAYER
 10
51.8150366427
 20
65.1007522584
 11
52.734280463
 21
64.5700385977
  0
LINE
  5
2F6
100
AcDbEntity
  8
0
100
AcDbLine
 62
7
  6
BYLAYER
 10
74.1658642429
 20
52.3210558716
 11
75.2265288306
 21
51.7086947398
  0
LINE
  5
2F7
100
AcDbEntity
  8
0
100
AcDbLine
 62
7
  6
BYLAYER
 10
75.9336385558
 20
51.3004539853
 11
76.852882376
 21
50.7697403245
  0
LINE
  5
2F8
100
AcDbEntity
  8
0
100
AcDbLine
 62
7
  6
BYLAYER
 10
18.401224672
 20
84.5281153086
 11
19.4618892597
 21
83.9157541768
  0
LINE
  5
2F9
100
AcDbEntity
  8
0
100
AcDbLine
 62
7
  6
BYLAYER
 10
20.1689989849
 20
83.5075134223
 11
21.0882428051
 21
82.9767997615
  0
LINE
  5
2FA
100
AcDbEntity
  8
0
100
AcDbLine
 62
7
  6
BYLAYER
 10
39.1713360315
 20
72.7696244014
 11
38.1106714438
 21
73.3819855332
  0
LINE
  5
2FB
100
AcDbEntity
  8
0
100
AcDbLine
 62
7
  6
BYLAYER
 10
37.4035617186
 20
73.7902262877
 11
36.3428971309
 21
74.4025874195
  0
LINE
  5
2FC
100
AcDbEntity
  8
0
100
AcDbLine
 62
7
  6
BYLAYER
 10
45.3000061145
 20
69.2701449992
 11
44.2393415267
 21
69.8825061309
  0
LINE
  5
2FD
100
AcDbEntity
  8
0
100
AcDbLine
 62
7
  6
BYLAYER
 10
43.5322318016
 20
70.2907468855
 11
42.4715672139
 21
70.9031080172
  0
LINE
  5
2FE
100
AcDbEntity
  8
0
100
AcDbLine
 62
7
  6
BYLAYER
 10
58.8976891562
 20
61.4596927357
 11
57.8370245685
 21
62.0720538675
  0
LINE
  5
2FF
100
AcDbEntity
  8
0
100
AcDbLine
 62
7
  6
BYLAYER
 10
57.1299148433
 20
62.480294622
 11
56.0692502556
 21
63.0926557538
  0
LINE
  5
300
100
AcDbEntity
  8
0
100
AcDbLine
 62
7
  6
BYLAYER
 10
33.0714895677
 20
76.4048978417
 11
32.01082498
 21
77.0172589734
  0
LINE
  5
301
100
AcDbEntity
  8
0
100
AcDbLine
 62
7
  6
BYLAYER
 10
31.3037152549
 20
77.425499728
 11
30.2430506672
 21
78.0378608597
  0
LINE
  5
302
100
AcDbEntity
  8
0
100
AcDbLine
 62
7
  6
BYLAYER
 10
71.0678666975
 20
54.4901989688
 11
70.0072021098
 21
55.1025601005
  0
LINE
  5
303
100
AcDbEntity
  8
0
100
AcDbLine
 62
7
  6
BYLAYER
 10
69.3000923847
 20
55.5108008551
 11
68.239427797
 21
56.1231619868
  0
LINE
  5
304
100
AcDbEntity
  8
0
100
AcDbLine
 62
7
  6
BYLAYER
 10
65.007374082
 20
58.1254729908
 11
63.9467094942
 21
58.7378341226
  0
LINE
  5
305
100
AcDbEntity
  8
0
100
AcDbLine
 62
7
  6
BYLAYER
 10
63.2395997691
 20
59.1460748771
 11
62.1789351814
 21
59.7584360089
  0
LINE
  5
306
100
AcDbEntity
  8
0
100
AcDbLine
 62
7
  6
BYLAYER
 10
52.734280463
 20
65.223244713
 11
51.6736158753
 21
65.8356058447
  0
LINE
  5
307
100
AcDbEntity
  8
0
100
AcDbLine
 62
7
  6
BYLAYER
 10
50.9665061501
 20
66.2438465993
 11
49.9058415624
 21
66.856207731
  0
LINE
  5
308
100
AcDbEntity
  8
0
100
AcDbLine
 62
7
  6
BYLAYER
 10
26.971643104
 20
80.0969738385
 11
25.9109785163
 21
80.7093349703
  0
LINE
  5
309
100
AcDbEntity
  8
0
100
AcDbLine
 62
7
  6
BYLAYER
 10
25.2038687912
 20
81.1175757248
 11
24.1432042034
 21
81.7299368566
  0
LINE
  5
30A
100
AcDbEntity
  8
0
100
AcDbLine
 62
7
  6
BYLAYER
 10
76.852882376
 20
51.4229464399
 11
75.7922177883
 21
52.0353075716
  0
LINE
  5
30B
100
AcDbEntity
  8
0
100
AcDbLine
 62
7
  6
BYLAYER
 10
75.0851080632
 20
52.4435483262
 11
74.0244434755
 21
53.0559094579
  0
LINE
  5
30C
100
AcDbEntity
  8
0
100
AcDbLine
 62
7
  6
BYLAYER
 10
21.0882428051
 20
83.6300058769
 11
20.0275782174
 21
84.2423670086
  0
LINE
  5
30D
100
AcDbEntity
  8
0
100
AcDbLine
 62
7
  6
BYLAYER
 10
19.3204684923
 20
84.6506077632
 11
18.2598039045
 21
85.2629688949
  0
LINE
  5
30E
100
AcDbEntity
  8
0
100
AcDbLine
 62
7
  6
BYLAYER
 10
38.1106714438
 20
74.6067391589
 11
37.4035617186
 21
75.0149799134
  0
LINE
  5
30F
100
AcDbEntity
  8
0
100
AcDbLine
 62
7
  6
BYLAYER
 10
44.2393415267
 20
71.1072597566
 11
43.5322318016
 21
71.5155005112
  0
LINE
  5
310
100
AcDbEntity
  8
0
100
AcDbLine
 62
7
  6
BYLAYER
 10
57.8370245685
 20
63.2968074932
 11
57.1299148433
 21
63.7050482477
  0
LINE
  5
311
100
AcDbEntity
  8
0
100
AcDbLine
 62
7
  6
BYLAYER
 10
32.01082498
 20
78.2420125991
 11
31.3037152549
 21
78.6502533537
  0
LINE
  5
312
100
AcDbEntity
  8
0
100
AcDbLine
 62
7
  6
BYLAYER
 10
70.0072021098
 20
56.3273137262
 11
69.3000923847
 21
56.7355544807
  0
LINE
  5
313
100
AcDbEntity
  8
0
100
AcDbLine
 62
7
  6
BYLAYER
 10
63.9467094942
 20
59.9625877483
 11
63.2395997691
 21
60.3708285028
  0
LINE
  5
314
100
AcDbEntity
  8
0
100
AcDbLine
 62
7
  6
BYLAYER
 10
51.6736158753
 20
67.0603594704
 11
50.9665061501
 21
67.468600225
  0
LINE
  5
315
100
AcDbEntity
  8
0
100
AcDbLine
 62
7
  6
BYLAYER
 10
25.9109785163
 20
81.934088596
 11
25.2038687912
 21
82.3423293505
  0
LINE
  5
316
100
AcDbEntity
  8
0
100
AcDbLine
 62
7
  6
BYLAYER
 10
75.7922177883
 20
53.2600611973
 11
75.0851080632
 21
53.6683019519
  0
LINE
  5
317
100
AcDbEntity
  8
0
100
AcDbLine
 62
7
  6
BYLAYER
 10
20.0275782174
 20
85.4671206343
 11
19.3204684923
 21
85.8753613888
  0
LINE
  5
318
100
AcDbEntity
  8
0
100
AcDbLine
 62
7
  6
BYLAYER
 10
88.7304934537
 20
45.8496753735
 11
87.7211474492
 21
46.4324382227
  0
LINE
  5
319
100
AcDbEntity
  8
0
100
AcDbLine
 62
7
  6
BYLAYER
 10
43.7851504062
 20
72.5121165594
 11
45.3407918015
 21
71.6139868995
  0
LINE
  5
31A
100
AcDbEntity
  8
0
100
AcDbLine
 62
7
  6
BYLAYER
 10
75.7465099828
 20
54.0596344551
 11
77.3021513781
 21
53.1615047952
  0
LINE
  5
31B
100
AcDbEntity
  8
0
100
AcDbLine
 62
7
  6
BYLAYER
 10
44.4922542434
 20
72.9203607133
 11
45.3407918015
 21
72.4304684086
  0
LINE
  5
31C
100
AcDbEntity
  8
0
100
AcDbLine
 62
7
  6
BYLAYER
 10
76.45361382
 20
54.467878609
 11
77.3021513781
 21
53.9779863043
  0
LINE
  5
31D
100
AcDbEntity
  8
0
100
AcDbLine
 62
7
  6
BYLAYER
 10
38.5525384401
 20
90.8201869032
 11
38.5525384401
 21
93.6762530849
  0
LINE
  5
31E
100
AcDbEntity
  8
0
100
AcDbLine
 62
7
  6
BYLAYER
 10
39.1347204272
 20
99.3249587934
 11
39.1347204272
 21
100.1414612105
  0
LINE
  5
31F
100
AcDbEntity
  8
0
100
AcDbLine
 62
7
  6
BYLAYER
 10
39.1713360315
 20
71.9531219843
 11
39.1713360315
 21
72.7696244014
  0
LINE
  5
320
100
AcDbEntity
  8
0
100
AcDbLine
 62
7
  6
BYLAYER
 10
40.4026898583
 20
106.3085954361
 11
40.4026898583
 21
104.3489507089
  0
LINE
  5
321
100
AcDbEntity
  8
0
100
AcDbLine
 62
7
  6
BYLAYER
 10
40.4026898583
 20
65.8099816677
 11
40.4026898583
 21
63.8246755449
  0
LINE
  5
322
100
AcDbEntity
  8
0
100
AcDbLine
 62
7
  6
BYLAYER
 10
40.5678011567
 20
81.6862731437
 11
40.5678011567
 21
87.9554127198
  0
LINE
  5
323
100
AcDbEntity
  8
0
100
AcDbLine
 62
7
  6
BYLAYER
 10
40.9250318123
 20
106.0070279907
 11
40.9250318123
 21
104.0473836751
  0
LINE
  5
324
100
AcDbEntity
  8
0
100
AcDbLine
 62
7
  6
BYLAYER
 10
40.9250318123
 20
65.508413605
 11
40.9250318123
 21
63.5231080995
  0
LINE
  5
325
100
AcDbEntity
  8
0
100
AcDbLine
 62
7
  6
BYLAYER
 10
42.4061279903
 20
98.3663610147
 11
42.4061279903
 21
97.5498585976
  0
LINE
  5
326
100
AcDbEntity
  8
0
100
AcDbLine
 62
7
  6
BYLAYER
 10
42.4715672139
 20
70.9031080172
 11
42.4715672139
 21
70.0866056001
  0
LINE
  5
327
100
AcDbEntity
  8
0
100
AcDbLine
 62
7
  6
BYLAYER
 10
42.5475487577
 20
98.2847135437
 11
42.5475487577
 21
97.6315074283
  0
LINE
  5
328
100
AcDbEntity
  8
0
100
AcDbLine
 62
7
  6
BYLAYER
 10
42.6129879813
 20
70.8214605462
 11
42.6129879813
 21
70.1682544309
  0
LINE
  5
329
100
AcDbEntity
  8
0
100
AcDbLine
 62
7
  6
BYLAYER
 10
49.1735372674
 20
111.5457468069
 11
49.0234170001
 21
111.2857294333
  0
LINE
  5
32A
100
AcDbEntity
  8
0
100
AcDbLine
 62
7
  6
BYLAYER
 10
40.3094797044
 20
110.7713524552
 11
34.7940369404
 21
107.5870278937
  0
LINE
  5
32B
100
AcDbEntity
  8
0
100
AcDbLine
 62
7
  6
BYLAYER
 10
30.178395446
 20
104.5931948372
 11
30.3198162135
 21
104.6748436679
  0
LINE
  5
32C
100
AcDbEntity
  8
0
100
AcDbLine
 62
7
  6
BYLAYER
 10
31.2390600337
 20
104.7973361225
 11
31.3804808012
 21
104.8789849533
  0
LINE
  5
32D
100
AcDbEntity
  8
0
100
AcDbLine
 62
7
  6
BYLAYER
 10
31.2390600337
 20
103.9808337054
 11
31.3804808012
 21
104.0624825362
  0
LINE
  5
32E
100
AcDbEntity
  8
0
100
AcDbLine
 62
7
  6
BYLAYER
 10
31.9461697589
 20
103.5725929509
 11
32.0875905263
 21
103.6542417816
  0
LINE
  5
32F
100
AcDbEntity
  8
0
100
AcDbLine
 62
7
  6
BYLAYER
 10
31.2390600337
 20
102.7560800797
 11
31.3804808012
 21
102.8377289105
  0
LINE
  5
330
100
AcDbEntity
  8
0
100
AcDbLine
 62
7
  6
BYLAYER
 10
40.4026898583
 20
106.3085954361
 11
49.0234170001
 21
111.2857294333
  0
LINE
  5
331
100
AcDbEntity
  8
0
100
AcDbLine
 62
7
  6
BYLAYER
 10
40.4373547604
 20
110.6975244737
 11
44.3557183538
 21
112.9527977817
  0
LINE
  5
332
100
AcDbEntity
  8
0
100
AcDbLine
 62
7
  6
BYLAYER
 10
24.0214335883
 20
86.0453519328
 11
26.1427627637
 21
84.8206296693
  0
LINE
  5
333
100
AcDbEntity
  8
0
100
AcDbLine
 62
7
  6
BYLAYER
 10
36.2544318333
 20
78.9827868796
 11
38.3757610088
 21
77.7580646161
  0
LINE
  5
334
100
AcDbEntity
  8
0
100
AcDbLine
 62
7
  6
BYLAYER
 10
55.9827931649
 20
67.5928698285
 11
58.1041223404
 21
66.3681475649
  0
LINE
  5
335
100
AcDbEntity
  8
0
100
AcDbLine
 62
7
  6
BYLAYER
 10
68.21579141
 20
60.5303047753
 11
70.3371205854
 21
59.3055825117
  0
LINE
  5
336
100
AcDbEntity
  8
0
100
AcDbLine
 62
7
  6
BYLAYER
 10
77.3021513781
 20
55.6110120466
 11
75.7465099828
 21
56.5091417065
  0
LINE
  5
337
100
AcDbEntity
  8
0
100
AcDbLine
 62
7
  6
BYLAYER
 10
45.3407918015
 20
74.0634941509
 11
43.7851504062
 21
74.9616238108
  0
LINE
  5
338
100
AcDbEntity
  8
0
100
AcDbLine
 62
7
  6
BYLAYER
 10
28.7237132605
 20
84.0654030907
 11
31.4814411886
 21
82.4732641481
  0
LINE
  5
339
100
AcDbEntity
  8
0
100
AcDbLine
 62
7
  6
BYLAYER
 10
24.7285374255
 20
86.4535960867
 11
26.1427627637
 21
85.6371111783
  0
LINE
  5
33A
100
AcDbEntity
  8
0
100
AcDbLine
 62
7
  6
BYLAYER
 10
36.9615356705
 20
79.3910310335
 11
38.3757610088
 21
78.5745461251
  0
LINE
  5
33B
100
AcDbEntity
  8
0
100
AcDbLine
 62
7
  6
BYLAYER
 10
56.6898970022
 20
68.0011139824
 11
58.1041223404
 21
67.184629074
  0
LINE
  5
33C
100
AcDbEntity
  8
0
100
AcDbLine
 62
7
  6
BYLAYER
 10
68.9228952472
 20
60.9385489292
 11
70.3371205854
 21
60.1220640208
  0
LINE
  5
33D
100
AcDbEntity
  8
0
100
AcDbLine
 62
7
  6
BYLAYER
 10
29.4308170977
 20
84.4736472446
 11
31.4814411886
 21
83.2897456571
  0
LINE
  5
33E
100
AcDbEntity
  8
0
100
AcDbLine
 62
7
  6
BYLAYER
 10
70.3371205854
 20
62.4082916968
 11
68.21579141
 21
63.6330139604
  0
LINE
  5
33F
100
AcDbEntity
  8
0
100
AcDbLine
 62
7
  6
BYLAYER
 10
58.1041223404
 20
69.47085675
 11
55.9827931649
 21
70.6955790136
  0
LINE
  5
340
100
AcDbEntity
  8
0
100
AcDbLine
 62
7
  6
BYLAYER
 10
38.3757610088
 20
80.8607738012
 11
36.2544318333
 21
82.0854960647
  0
LINE
  5
341
100
AcDbEntity
  8
0
100
AcDbLine
 62
7
  6
BYLAYER
 10
31.4814411886
 20
84.8411211577
 11
28.7237132605
 21
86.4332601004
  0
LINE
  5
342
100
AcDbEntity
  8
0
100
AcDbLine
 62
7
  6
BYLAYER
 10
26.1427627637
 20
87.9233388544
 11
24.0214335883
 21
89.1480611179
  0
LINE
  5
343
100
AcDbEntity
  8
0
100
AcDbLine
 62
7
  6
BYLAYER
 10
43.466792578
 20
98.9787535086
 11
43.466792578
 21
97.7539998829
  0
LINE
  5
344
100
AcDbEntity
  8
0
100
AcDbLine
 62
7
  6
BYLAYER
 10
43.466792578
 20
96.9374974658
 11
43.466792578
 21
95.7127438401
  0
LINE
  5
345
100
AcDbEntity
  8
0
100
AcDbLine
 62
7
  6
BYLAYER
 10
43.5322318016
 20
71.5155005112
 11
43.5322318016
 21
70.2907468855
  0
LINE
  5
346
100
AcDbEntity
  8
0
100
AcDbLine
 62
7
  6
BYLAYER
 10
43.5322318016
 20
69.4742444683
 11
43.5322318016
 21
68.2494908426
  0
LINE
  5
347
100
AcDbEntity
  8
0
100
AcDbLine
 62
7
  6
BYLAYER
 10
43.6082133455
 20
98.8971060376
 11
43.6082133455
 21
97.8356487137
  0
LINE
  5
348
100
AcDbEntity
  8
0
100
AcDbLine
 62
7
  6
BYLAYER
 10
43.6082133455
 20
97.0191462966
 11
43.6082133455
 21
95.7943926709
  0
LINE
  5
349
100
AcDbEntity
  8
0
100
AcDbLine
 62
7
  6
BYLAYER
 10
43.673652569
 20
71.4338530401
 11
43.673652569
 21
70.3723957162
  0
LINE
  5
34A
100
AcDbEntity
  8
0
100
AcDbLine
 62
7
  6
BYLAYER
 10
43.673652569
 20
69.5558932991
 11
43.673652569
 21
68.3311396734
  0
LINE
  5
34B
100
AcDbEntity
  8
0
100
AcDbLine
 62
7
  6
BYLAYER
 10
43.7851504062
 20
74.9616238108
 11
43.7851504062
 21
72.5121165594
  0
LINE
  5
34C
100
AcDbEntity
  8
0
100
AcDbLine
 62
7
  6
BYLAYER
 10
44.1739023032
 20
95.3045030856
 11
44.1739023032
 21
96.5292567113
  0
LINE
  5
34D
100
AcDbEntity
  8
0
100
AcDbLine
 62
7
  6
BYLAYER
 10
44.1739023032
 20
97.3457591284
 11
44.1739023032
 21
98.5705127541
  0
LINE
  5
34E
100
AcDbEntity
  8
0
100
AcDbLine
 62
7
  6
BYLAYER
 10
44.2393415267
 20
67.8412500881
 11
44.2393415267
 21
69.0660037138
  0
LINE
  5
34F
100
AcDbEntity
  8
0
100
AcDbLine
 62
7
  6
BYLAYER
 10
44.2393415267
 20
69.8825061309
 11
44.2393415267
 21
71.1072597566
  0
LINE
  5
350
100
AcDbEntity
  8
0
100
AcDbLine
 62
7
  6
BYLAYER
 10
44.4922542434
 20
74.5533864556
 11
44.4922542434
 21
72.9203607133
  0
LINE
  5
351
100
AcDbEntity
  8
0
100
AcDbLine
 62
7
  6
BYLAYER
 10
45.2345668909
 20
95.9168955795
 11
45.2345668909
 21
96.7333979966
  0
LINE
  5
352
100
AcDbEntity
  8
0
100
AcDbLine
 62
7
  6
BYLAYER
 10
45.3000061145
 20
68.453642582
 11
45.3000061145
 21
69.2701449992
  0
LINE
  5
353
100
AcDbEntity
  8
0
100
AcDbLine
 62
7
  6
BYLAYER
 10
45.3407918015
 20
71.6139868995
 11
45.3407918015
 21
74.0634941509
  0
LINE
  5
354
100
AcDbEntity
  8
0
100
AcDbLine
 62
7
  6
BYLAYER
 10
45.9771905541
 20
97.6440933662
 11
45.9771905541
 21
94.9822954864
  0
LINE
  5
355
100
AcDbEntity
  8
0
100
AcDbLine
 62
7
  6
BYLAYER
 10
45.9771905541
 20
68.413306833
 11
45.9771905541
 21
65.7515089531
  0
LINE
  5
356
100
AcDbEntity
  8
0
100
AcDbLine
 62
7
  6
BYLAYER
 10
46.3633419974
 20
102.8672891718
 11
46.3633419974
 21
100.9076517641
  0
LINE
  5
357
100
AcDbEntity
  8
0
100
AcDbLine
 62
7
  6
BYLAYER
 10
46.3633419974
 20
62.3686683584
 11
46.3633419974
 21
60.3833692806
  0
LINE
  5
358
100
AcDbEntity
  8
0
100
AcDbLine
 62
7
  6
BYLAYER
 10
46.6842943913
 20
97.235856011
 11
46.6842943913
 21
95.3905396403
  0
LINE
  5
359
100
AcDbEntity
  8
0
100
AcDbLine
 62
7
  6
BYLAYER
 10
46.6842943913
 20
68.0050694778
 11
46.6842943913
 21
66.159753107
  0
LINE
  5
35A
100
AcDbEntity
  8
0
100
AcDbLine
 62
7
  6
BYLAYER
 10
44.3575521631
 20
114.3261942011
 11
44.3557183538
 21
112.9527977817
  0
LINE
  5
35B
100
AcDbEntity
  8
0
100
AcDbLine
 62
7
  6
BYLAYER
 10
49.5457589541
 20
110.9841619879
 11
49.6958792213
 21
111.2441793615
  0
LINE
  5
35C
100
AcDbEntity
  8
0
100
AcDbLine
 62
7
  6
BYLAYER
 10
40.9250318123
 20
106.0070279907
 11
49.5457589541
 21
110.9841619879
  0
LINE
  5
35D
100
AcDbEntity
  8
0
100
AcDbLine
 62
7
  6
BYLAYER
 10
46.4404745779
 20
107.2317082068
 11
40.9250318123
 21
104.0473836751
  0
LINE
  5
35E
100
AcDbEntity
  8
0
100
AcDbLine
 62
7
  6
BYLAYER
 10
36.3062815266
 20
100.9579218115
 11
36.447702294
 21
101.0395706422
  0
LINE
  5
35F
100
AcDbEntity
  8
0
100
AcDbLine
 62
7
  6
BYLAYER
 10
37.3669461143
 20
101.1620630968
 11
37.5083668817
 21
101.2437119276
  0
LINE
  5
360
100
AcDbEntity
  8
0
100
AcDbLine
 62
7
  6
BYLAYER
 10
37.3669461143
 20
100.3455606797
 11
37.5083668817
 21
100.4272095105
  0
LINE
  5
361
100
AcDbEntity
  8
0
100
AcDbLine
 62
7
  6
BYLAYER
 10
29.7578692497
 20
95.6342323744
 11
30.4649730869
 21
96.0424765283
  0
LINE
  5
362
100
AcDbEntity
  8
0
100
AcDbLine
 62
7
  6
BYLAYER
 10
38.0740558394
 20
99.9373199252
 11
38.2154766069
 21
100.0189687559
  0
LINE
  5
363
100
AcDbEntity
  8
0
100
AcDbLine
 62
7
  6
BYLAYER
 10
37.3669461143
 20
99.120807054
 11
37.5083668817
 21
99.2024558848
  0
LINE
  5
364
100
AcDbEntity
  8
0
100
AcDbLine
 62
7
  6
BYLAYER
 10
46.5683559192
 20
107.1578766302
 11
50.4867132257
 21
109.4131463196
  0
LINE
  5
365
100
AcDbEntity
  8
0
100
AcDbLine
 62
7
  6
BYLAYER
 10
32.8161348432
 20
86.1615985311
 11
40.5678011567
 21
81.6862731437
  0
LINE
  5
366
100
AcDbEntity
  8
0
100
AcDbLine
 62
7
  6
BYLAYER
 10
64.6802427842
 20
68.3524924196
 11
71.8220510082
 21
64.2292607989
  0
LINE
  5
367
100
AcDbEntity
  8
0
100
AcDbLine
 62
7
  6
BYLAYER
 10
33.5232386804
 20
86.569842685
 11
40.5678011567
 21
82.5027546528
  0
LINE
  5
368
100
AcDbEntity
  8
0
100
AcDbLine
 62
7
  6
BYLAYER
 10
67.7579666399
 20
67.0197007366
 11
66.217553244
 21
67.9090387058
  0
LINE
  5
369
100
AcDbEntity
  8
0
100
AcDbLine
 62
7
  6
BYLAYER
 10
35.9380290083
 20
85.4525266152
 11
34.4513020342
 21
86.3108694155
  0
LINE
  5
36A
100
AcDbEntity
  8
0
100
AcDbLine
 62
7
  6
BYLAYER
 10
65.3873466215
 20
68.7607365734
 11
66.217553244
 21
68.2814273999
  0
LINE
  5
36B
100
AcDbEntity
  8
0
100
AcDbLine
 62
7
  6
BYLAYER
 10
68.0804693194
 20
67.205896634
 11
71.8220510082
 21
65.045742308
  0
LINE
  5
36C
100
AcDbEntity
  8
0
100
AcDbLine
 62
7
  6
BYLAYER
 10
95.2825901737
 20
51.9546502883
 11
95.2118792012
 21
51.9954743638
  0
LINE
  5
36D
100
AcDbEntity
  8
0
100
AcDbLine
 62
7
  6
BYLAYER
 10
95.3712337765
 20
53.9589355448
 11
95.300522804
 21
53.9997596202
  0
LINE
  5
36E
100
AcDbEntity
  8
0
100
AcDbLine
 62
7
  6
BYLAYER
 10
34.4513020342
 20
90.3933815012
 11
35.9380290083
 21
89.5350387008
  0
LINE
  5
36F
100
AcDbEntity
  8
0
100
AcDbLine
 62
7
  6
BYLAYER
 10
66.217553244
 20
72.0535427167
 11
67.7579666399
 21
71.1642047474
  0
LINE
  5
370
100
AcDbEntity
  8
0
100
AcDbLine
 62
7
  6
BYLAYER
 10
93.5645752266
 20
49.8133182622
 11
93.4965050922
 21
49.8574338754
  0
LINE
  5
371
100
AcDbEntity
  8
0
100
AcDbLine
 62
7
  6
BYLAYER
 10
48.2790436648
 20
101.7612833196
 11
48.2790436648
 21
99.8016474214
  0
LINE
  5
372
100
AcDbEntity
  8
0
100
AcDbLine
 62
7
  6
BYLAYER
 10
48.2790436648
 20
61.262660242
 11
48.2790436648
 21
59.2773634284
  0
LINE
  5
373
100
AcDbEntity
  8
0
100
AcDbLine
 62
7
  6
BYLAYER
 10
48.3813636196
 20
64.3634903878
 11
48.3813636196
 21
67.0252882676
  0
LINE
  5
374
100
AcDbEntity
  8
0
100
AcDbLine
 62
7
  6
BYLAYER
 10
48.3813636196
 20
93.594276921
 11
48.3813636196
 21
96.2560748009
  0
LINE
  5
375
100
AcDbEntity
  8
0
100
AcDbLine
 62
7
  6
BYLAYER
 10
49.6895166111
 20
87.2464612012
 11
49.6895166111
 21
84.3903950195
  0
LINE
  5
376
100
AcDbEntity
  8
0
100
AcDbLine
 62
7
  6
BYLAYER
 10
49.9058415624
 20
93.8387977965
 11
49.9058415624
 21
93.0222953794
  0
LINE
  5
377
100
AcDbEntity
  8
0
100
AcDbLine
 62
7
  6
BYLAYER
 10
49.9058415624
 20
66.856207731
 11
49.9058415624
 21
66.0397053139
  0
LINE
  5
378
100
AcDbEntity
  8
0
100
AcDbLine
 62
7
  6
BYLAYER
 10
50.0472623298
 20
93.7571503254
 11
50.0472623298
 21
93.1039442101
  0
LINE
  5
379
100
AcDbEntity
  8
0
100
AcDbLine
 62
7
  6
BYLAYER
 10
50.0472623298
 20
66.77456026
 11
50.0472623298
 21
66.1213541447
  0
LINE
  5
37A
100
AcDbEntity
  8
0
100
AcDbLine
 62
7
  6
BYLAYER
 10
50.3966204483
 20
86.838223846
 11
50.3966204483
 21
84.7986391733
  0
LINE
  5
37B
100
AcDbEntity
  8
0
100
AcDbLine
 62
7
  6
BYLAYER
 10
50.9665061501
 20
94.4511902904
 11
50.9665061501
 21
93.2264366647
  0
LINE
  5
37C
100
AcDbEntity
  8
0
100
AcDbLine
 62
7
  6
BYLAYER
 10
50.9665061501
 20
92.4099342476
 11
50.9665061501
 21
91.1851806219
  0
LINE
  5
37D
100
AcDbEntity
  8
0
100
AcDbLine
 62
7
  6
BYLAYER
 10
50.9665061501
 20
67.468600225
 11
50.9665061501
 21
66.2438465993
  0
LINE
  5
37E
100
AcDbEntity
  8
0
100
AcDbLine
 62
7
  6
BYLAYER
 10
50.9665061501
 20
65.4273441821
 11
50.9665061501
 21
64.2025905564
  0
LINE
  5
37F
100
AcDbEntity
  8
0
100
AcDbLine
 62
7
  6
BYLAYER
 10
51.1079269176
 20
94.3695428194
 11
51.1079269176
 21
93.3080854955
  0
LINE
  5
380
100
AcDbEntity
  8
0
100
AcDbLine
 62
7
  6
BYLAYER
 10
51.1079269176
 20
92.4915830784
 11
51.1079269176
 21
91.2668294527
  0
LINE
  5
381
100
AcDbEntity
  8
0
100
AcDbLine
 62
7
  6
BYLAYER
 10
51.1079269176
 20
67.3869527539
 11
51.1079269176
 21
66.32549543
  0
LINE
  5
382
100
AcDbEntity
  8
0
100
AcDbLine
 62
7
  6
BYLAYER
 10
51.1079269176
 20
65.5089930129
 11
51.1079269176
 21
64.2842393872
  0
LINE
  5
383
100
AcDbEntity
  8
0
100
AcDbLine
 62
7
  6
BYLAYER
 10
51.6736158753
 20
63.7943498019
 11
51.6736158753
 21
65.0191034276
  0
LINE
  5
384
100
AcDbEntity
  8
0
100
AcDbLine
 62
7
  6
BYLAYER
 10
51.6736158753
 20
65.8356058447
 11
51.6736158753
 21
67.0603594704
  0
LINE
  5
385
100
AcDbEntity
  8
0
100
AcDbLine
 62
7
  6
BYLAYER
 10
51.6736158753
 20
90.7769398674
 11
51.6736158753
 21
92.0016934931
  0
LINE
  5
386
100
AcDbEntity
  8
0
100
AcDbLine
 62
7
  6
BYLAYER
 10
51.6736158753
 20
92.8181959102
 11
51.6736158753
 21
94.0429495359
  0
LINE
  5
387
100
AcDbEntity
  8
0
100
AcDbLine
 62
7
  6
BYLAYER
 10
52.1644006491
 20
82.9615523787
 11
52.1644006491
 21
85.8176185604
  0
LINE
  5
388
100
AcDbEntity
  8
0
100
AcDbLine
 62
7
  6
BYLAYER
 10
52.734280463
 20
64.4067422958
 11
52.734280463
 21
65.223244713
  0
LINE
  5
389
100
AcDbEntity
  8
0
100
AcDbLine
 62
7
  6
BYLAYER
 10
52.734280463
 20
91.3893323613
 11
52.734280463
 21
92.2058347784
  0
LINE
  5
38A
100
AcDbEntity
  8
0
100
AcDbLine
 62
7
  6
BYLAYER
 10
50.488547035
 20
110.786542739
 11
50.4867132257
 21
109.4131463196
  0
LINE
  5
38B
100
AcDbEntity
  8
0
100
AcDbLine
 62
7
  6
BYLAYER
 10
50.5448263323
 20
143.3674318949
 11
50.5153874805
 21
142.701820096
  0
LINE
  5
38C
100
AcDbEntity
  8
0
100
AcDbLine
 62
7
  6
BYLAYER
 10
55.1341894065
 20
108.1044405426
 11
54.9840691392
 21
107.844423169
  0
LINE
  5
38D
100
AcDbEntity
  8
0
100
AcDbLine
 62
7
  6
BYLAYER
 10
56.8997708066
 20
106.7384173169
 11
57.0498910738
 21
106.9984346904
  0
LINE
  5
38E
100
AcDbEntity
  8
0
100
AcDbLine
 62
7
  6
BYLAYER
 10
46.3633419974
 20
102.8672891718
 11
54.9840691392
 21
107.844423169
  0
LINE
  5
38F
100
AcDbEntity
  8
0
100
AcDbLine
 62
7
  6
BYLAYER
 10
18.2598039045
 20
84.4464664778
 11
18.401224672
 21
84.5281153086
  0
LINE
  5
390
100
AcDbEntity
  8
0
100
AcDbLine
 62
7
  6
BYLAYER
 10
48.2790436648
 20
101.7612833196
 11
56.8997708066
 21
106.7384173169
  0
LINE
  5
391
100
AcDbEntity
  8
0
100
AcDbLine
 62
7
  6
BYLAYER
 10
19.3204684923
 20
84.6506077632
 11
19.4618892597
 21
84.7322565939
  0
LINE
  5
392
100
AcDbEntity
  8
0
100
AcDbLine
 62
7
  6
BYLAYER
 10
42.4061279903
 20
97.5498585976
 11
42.5475487577
 21
97.6315074283
  0
LINE
  5
393
100
AcDbEntity
  8
0
100
AcDbLine
 62
7
  6
BYLAYER
 10
19.3204684923
 20
83.834105346
 11
19.4618892597
 21
83.9157541768
  0
LINE
  5
394
100
AcDbEntity
  8
0
100
AcDbLine
 62
7
  6
BYLAYER
 10
43.466792578
 20
97.7539998829
 11
43.6082133455
 21
97.8356487137
  0
LINE
  5
395
100
AcDbEntity
  8
0
100
AcDbLine
 62
7
  6
BYLAYER
 10
24.0214335883
 20
86.0453519328
 11
24.7285374255
 21
86.4535960867
  0
LINE
  5
396
100
AcDbEntity
  8
0
100
AcDbLine
 62
7
  6
BYLAYER
 10
53.7944864323
 20
102.9859722287
 11
48.2790436648
 21
99.8016474214
  0
LINE
  5
397
100
AcDbEntity
  8
0
100
AcDbLine
 62
7
  6
BYLAYER
 10
20.0275782174
 20
83.4258645915
 11
20.1689989849
 21
83.5075134223
  0
LINE
  5
398
100
AcDbEntity
  8
0
100
AcDbLine
 62
7
  6
BYLAYER
 10
43.466792578
 20
96.9374974658
 11
43.6082133455
 21
97.0191462966
  0
LINE
  5
399
100
AcDbEntity
  8
0
100
AcDbLine
 62
7
  6
BYLAYER
 10
19.3204684923
 20
82.6093517203
 11
19.4618892597
 21
82.6910005511
  0
LINE
  5
39A
100
AcDbEntity
  8
0
100
AcDbLine
 62
7
  6
BYLAYER
 10
36.077654402
 20
92.249029544
 11
36.7847582393
 21
92.6572736979
  0
LINE
  5
39B
100
AcDbEntity
  8
0
100
AcDbLine
 62
7
  6
BYLAYER
 10
53.9223753128
 20
102.9121362994
 11
57.8407250782
 21
105.1674016486
  0
LINE
  5
39C
100
AcDbEntity
  8
0
100
AcDbLine
 62
7
  6
BYLAYER
 10
71.8220510082
 20
69.323942365
 11
64.6802427842
 21
73.4471739857
  0
LINE
  5
39D
100
AcDbEntity
  8
0
100
AcDbLine
 62
7
  6
BYLAYER
 10
35.1584058714
 20
90.8016256551
 11
36.6451328455
 21
89.9432828547
  0
LINE
  5
39E
100
AcDbEntity
  8
0
100
AcDbLine
 62
7
  6
BYLAYER
 10
40.5678011567
 20
87.9554127198
 11
32.8161348432
 21
92.4307381072
  0
LINE
  5
39F
100
AcDbEntity
  8
0
100
AcDbLine
 62
7
  6
BYLAYER
 10
29.7578692497
 20
95.6342323744
 11
32.8161348432
 21
93.8685818551
  0
LINE
  5
3A0
100
AcDbEntity
  8
0
100
AcDbLine
 62
7
  6
BYLAYER
 10
61.6308240784
 20
77.2327896204
 11
64.6890896719
 21
75.4671391011
  0
LINE
  5
3A1
100
AcDbEntity
  8
0
100
AcDbLine
 62
7
  6
BYLAYER
 10
17.7281570345
 20
102.8428771238
 11
20.2030410725
 21
101.414034483
  0
LINE
  5
3A2
100
AcDbEntity
  8
0
100
AcDbLine
 62
7
  6
BYLAYER
 10
36.077654402
 20
92.249029544
 11
38.5525384401
 21
90.8201869032
  0
LINE
  5
3A3
100
AcDbEntity
  8
0
100
AcDbLine
 62
7
  6
BYLAYER
 10
49.6895166111
 20
84.3903950195
 11
52.1644006491
 21
82.9615523787
  0
LINE
  5
3A4
100
AcDbEntity
  8
0
100
AcDbLine
 62
7
  6
BYLAYER
 10
68.0390139787
 20
73.7965474397
 11
70.5138980167
 21
72.3677047989
  0
LINE
  5
3A5
100
AcDbEntity
  8
0
100
AcDbLine
 62
7
  6
BYLAYER
 10
30.4649730869
 20
96.0424765283
 11
32.8161348432
 21
94.6850633642
  0
LINE
  5
3A6
100
AcDbEntity
  8
0
100
AcDbLine
 62
7
  6
BYLAYER
 10
62.3379279156
 20
77.6410337743
 11
64.6890896719
 21
76.2836206102
  0
LINE
  5
3A7
100
AcDbEntity
  8
0
100
AcDbLine
 62
7
  6
BYLAYER
 10
18.4352608717
 20
103.2511212777
 11
20.2030410725
 21
102.230515992
  0
LINE
  5
3A8
100
AcDbEntity
  8
0
100
AcDbLine
 62
7
  6
BYLAYER
 10
36.7847582393
 20
92.6572736979
 11
38.5525384401
 21
91.6366684122
  0
LINE
  5
3A9
100
AcDbEntity
  8
0
100
AcDbLine
 62
7
  6
BYLAYER
 10
50.3966204483
 20
84.7986391733
 11
52.1644006491
 21
83.7780338877
  0
LINE
  5
3AA
100
AcDbEntity
  8
0
100
AcDbLine
 62
7
  6
BYLAYER
 10
68.7461178159
 20
74.2047915935
 11
70.5138980167
 21
73.1841863079
  0
LINE
  5
3AB
100
AcDbEntity
  8
0
100
AcDbLine
 62
7
  6
BYLAYER
 10
86.9187776856
 20
64.5108312138
 11
86.8480667131
 21
64.5516552892
  0
LINE
  5
3AC
100
AcDbEntity
  8
0
100
AcDbLine
 62
7
  6
BYLAYER
 10
100.8487232787
 20
57.1213474327
 11
100.7780123062
 21
57.1621715081
  0
LINE
  5
3AD
100
AcDbEntity
  8
0
100
AcDbLine
 62
7
  6
BYLAYER
 10
64.6890896719
 20
78.2432473194
 11
61.6308240784
 21
80.0088978387
  0
LINE
  5
3AE
100
AcDbEntity
  8
0
100
AcDbLine
 62
7
  6
BYLAYER
 10
32.8161348432
 20
96.6446900733
 11
29.7578692497
 21
98.4103405927
  0
LINE
  5
3AF
100
AcDbEntity
  8
0
100
AcDbLine
 62
7
  6
BYLAYER
 10
70.5138980167
 20
75.2237709806
 11
68.0390139787
 21
76.6526136214
  0
LINE
  5
3B0
100
AcDbEntity
  8
0
100
AcDbLine
 62
7
  6
BYLAYER
 10
52.1644006491
 20
85.8176185604
 11
49.6895166111
 21
87.2464612012
  0
LINE
  5
3B1
100
AcDbEntity
  8
0
100
AcDbLine
 62
7
  6
BYLAYER
 10
38.5525384401
 20
93.6762530849
 11
36.077654402
 21
95.1050957258
  0
LINE
  5
3B2
100
AcDbEntity
  8
0
100
AcDbLine
 62
7
  6
BYLAYER
 10
20.2030410725
 20
104.2701006647
 11
17.7281570345
 21
105.6989433056
  0
LINE
  5
3B3
100
AcDbEntity
  8
0
100
AcDbLine
 62
7
  6
BYLAYER
 10
75.7465099828
 20
72.5125890823
 11
77.3021513781
 21
71.6144594223
  0
LINE
  5
3B4
100
AcDbEntity
  8
0
100
AcDbLine
 62
7
  6
BYLAYER
 10
53.7173538499
 20
98.6215445007
 11
53.7173538499
 21
96.6619155104
  0
LINE
  5
3B5
100
AcDbEntity
  8
0
100
AcDbLine
 62
7
  6
BYLAYER
 10
53.7173538499
 20
58.1229149954
 11
53.7173538499
 21
56.1376246095
  0
LINE
  5
3B6
100
AcDbEntity
  8
0
100
AcDbLine
 62
7
  6
BYLAYER
 10
54.2396958039
 20
98.3199770553
 11
54.2396958039
 21
96.3603484766
  0
LINE
  5
3B7
100
AcDbEntity
  8
0
100
AcDbLine
 62
7
  6
BYLAYER
 10
54.2396958039
 20
57.8213469327
 11
54.2396958039
 21
55.8360571641
  0
LINE
  5
3B8
100
AcDbEntity
  8
0
100
AcDbLine
 62
7
  6
BYLAYER
 10
55.9827931649
 20
70.6955790136
 11
55.9827931649
 21
67.5928698285
  0
LINE
  5
3B9
100
AcDbEntity
  8
0
100
AcDbLine
 62
7
  6
BYLAYER
 10
56.0548803363
 20
90.5159391447
 11
56.0548803363
 21
89.6994367276
  0
LINE
  5
3BA
100
AcDbEntity
  8
0
100
AcDbLine
 62
7
  6
BYLAYER
 10
56.0692502556
 20
63.0926557538
 11
56.0692502556
 21
62.2761533366
  0
LINE
  5
3BB
100
AcDbEntity
  8
0
100
AcDbLine
 62
7
  6
BYLAYER
 10
56.1963011037
 20
90.4342916737
 11
56.1963011037
 21
89.7810855584
  0
LINE
  5
3BC
100
AcDbEntity
  8
0
100
AcDbLine
 62
7
  6
BYLAYER
 10
56.2106710231
 20
63.0110082827
 11
56.2106710231
 21
62.3578021674
  0
LINE
  5
3BD
100
AcDbEntity
  8
0
100
AcDbLine
 62
7
  6
BYLAYER
 10
56.6898970022
 20
70.2873416584
 11
56.6898970022
 21
68.0011139824
  0
LINE
  5
3BE
100
AcDbEntity
  8
0
100
AcDbLine
 62
7
  6
BYLAYER
 10
57.115544924
 20
91.1283316387
 11
57.115544924
 21
89.903578013
  0
LINE
  5
3BF
100
AcDbEntity
  8
0
100
AcDbLine
 62
7
  6
BYLAYER
 10
57.115544924
 20
89.0870755958
 11
57.115544924
 21
87.8623219701
  0
LINE
  5
3C0
100
AcDbEntity
  8
0
100
AcDbLine
 62
7
  6
BYLAYER
 10
57.1299148433
 20
63.7050482477
 11
57.1299148433
 21
62.480294622
  0
LINE
  5
3C1
100
AcDbEntity
  8
0
100
AcDbLine
 62
7
  6
BYLAYER
 10
57.1299148433
 20
61.6637922049
 11
57.1299148433
 21
60.4390385792
  0
LINE
  5
3C2
100
AcDbEntity
  8
0
100
AcDbLine
 62
7
  6
BYLAYER
 10
57.2569656915
 20
91.0466841676
 11
57.2569656915
 21
89.9852268437
  0
LINE
  5
3C3
100
AcDbEntity
  8
0
100
AcDbLine
 62
7
  6
BYLAYER
 10
57.2569656915
 20
89.1687244266
 11
57.2569656915
 21
87.9439708009
  0
LINE
  5
3C4
100
AcDbEntity
  8
0
100
AcDbLine
 62
7
  6
BYLAYER
 10
57.2713356108
 20
63.6234007766
 11
57.2713356108
 21
62.5619434528
  0
LINE
  5
3C5
100
AcDbEntity
  8
0
100
AcDbLine
 62
7
  6
BYLAYER
 10
57.2713356108
 20
61.7454410356
 11
57.2713356108
 21
60.5206874099
  0
LINE
  5
3C6
100
AcDbEntity
  8
0
100
AcDbLine
 62
7
  6
BYLAYER
 10
57.8226546492
 20
87.4540812156
 11
57.8226546492
 21
88.6788348413
  0
LINE
  5
3C7
100
AcDbEntity
  8
0
100
AcDbLine
 62
7
  6
BYLAYER
 10
57.8226546492
 20
89.4953372584
 11
57.8226546492
 21
90.7200908841
  0
LINE
  5
3C8
100
AcDbEntity
  8
0
100
AcDbLine
 62
7
  6
BYLAYER
 10
57.8370245685
 20
60.0307978246
 11
57.8370245685
 21
61.2555514503
  0
LINE
  5
3C9
100
AcDbEntity
  8
0
100
AcDbLine
 62
7
  6
BYLAYER
 10
57.8370245685
 20
62.0720538675
 11
57.8370245685
 21
63.2968074932
  0
LINE
  5
3CA
100
AcDbEntity
  8
0
100
AcDbLine
 62
7
  6
BYLAYER
 10
57.8425588875
 20
106.5407980679
 11
57.8407250782
 21
105.1674016486
  0
LINE
  5
3CB
100
AcDbEntity
  8
0
100
AcDbLine
 62
7
  6
BYLAYER
 10
18.1616325477
 20
78.6505978873
 11
16.4449523007
 21
77.6563688589
  0
LINE
  5
3CC
100
AcDbEntity
  8
0
100
AcDbLine
 62
7
  6
BYLAYER
 10
44.1739023032
 20
96.5292567113
 11
44.3153230706
 21
96.610905542
  0
LINE
  5
3CD
100
AcDbEntity
  8
0
100
AcDbLine
 62
7
  6
BYLAYER
 10
43.466792578
 20
95.7127438401
 11
43.6082133455
 21
95.7943926709
  0
LINE
  5
3CE
100
AcDbEntity
  8
0
100
AcDbLine
 62
7
  6
BYLAYER
 10
34.4513020342
 20
90.3933815012
 11
35.1584058714
 21
90.8016256551
  0
LINE
  5
3CF
100
AcDbEntity
  8
0
100
AcDbLine
 62
7
  6
BYLAYER
 10
35.9380290083
 20
89.5350387008
 11
36.6451328455
 21
89.9432828547
  0
LINE
  5
3D0
100
AcDbEntity
  8
0
100
AcDbLine
 62
7
  6
BYLAYER
 10
45.9771905541
 20
94.9822954864
 11
46.6842943913
 21
95.3905396403
  0
LINE
  5
3D1
100
AcDbEntity
  8
0
100
AcDbLine
 62
7
  6
BYLAYER
 10
53.7173538499
 20
98.6215445007
 11
62.3380809917
 21
103.5986784979
  0
LINE
  5
3D2
100
AcDbEntity
  8
0
100
AcDbLine
 62
7
  6
BYLAYER
 10
28.7237132605
 20
84.0654030907
 11
29.4308170977
 21
84.4736472446
  0
LINE
  5
3D3
100
AcDbEntity
  8
0
100
AcDbLine
 62
7
  6
BYLAYER
 10
32.8161348432
 20
86.1615985311
 11
33.5232386804
 21
86.569842685
  0
LINE
  5
3D4
100
AcDbEntity
  8
0
100
AcDbLine
 62
7
  6
BYLAYER
 10
54.2396958039
 20
98.3199770553
 11
62.8604229457
 21
103.2971110525
  0
LINE
  5
3D5
100
AcDbEntity
  8
0
100
AcDbLine
 62
7
  6
BYLAYER
 10
24.1432042034
 20
80.9134344394
 11
24.2846249709
 21
80.9950832702
  0
LINE
  5
3D6
100
AcDbEntity
  8
0
100
AcDbLine
 62
7
  6
BYLAYER
 10
25.2038687912
 20
81.1175757248
 11
25.3452895586
 21
81.1992245556
  0
LINE
  5
3D7
100
AcDbEntity
  8
0
100
AcDbLine
 62
7
  6
BYLAYER
 10
25.2038687912
 20
80.3010733077
 11
25.3452895586
 21
80.3827221384
  0
LINE
  5
3D8
100
AcDbEntity
  8
0
100
AcDbLine
 62
7
  6
BYLAYER
 10
76.45361382
 20
72.9208332361
 11
77.3021513781
 21
72.4309409314
  0
LINE
  5
3D9
100
AcDbEntity
  8
0
100
AcDbLine
 62
7
  6
BYLAYER
 10
77.3021513781
 20
74.0639666737
 11
75.7465099828
 21
74.9620963336
  0
LINE
  5
3DA
100
AcDbEntity
  8
0
100
AcDbLine
 62
7
  6
BYLAYER
 10
50.9665061501
 20
91.1851806219
 11
51.6736158753
 21
90.7769398674
  0
LINE
  5
3DB
100
AcDbEntity
  8
0
100
AcDbLine
 62
7
  6
BYLAYER
 10
25.183478258
 20
106.1043887132
 11
25.8905879831
 21
105.6961479586
  0
LINE
  5
3DC
100
AcDbEntity
  8
0
100
AcDbLine
 62
7
  6
BYLAYER
 10
19.4374498403
 20
109.4283923543
 11
20.1445595655
 21
109.0201515997
  0
LINE
  5
3DD
100
AcDbEntity
  8
0
100
AcDbLine
 62
7
  6
BYLAYER
 10
37.3669461143
 20
99.120807054
 11
38.0740558394
 21
98.7125662995
  0
LINE
  5
3DE
100
AcDbEntity
  8
0
100
AcDbLine
 62
7
  6
BYLAYER
 10
69.4722304977
 20
80.6167394717
 11
70.1793402228
 21
80.2084987171
  0
LINE
  5
3DF
100
AcDbEntity
  8
0
100
AcDbLine
 62
7
  6
BYLAYER
 10
75.187762038
 20
77.3542271272
 11
75.8948717632
 21
76.9459863727
  0
LINE
  5
3E0
100
AcDbEntity
  8
0
100
AcDbLine
 62
7
  6
BYLAYER
 10
51.1079269176
 20
91.2668294527
 11
51.6736158753
 21
90.9402361692
  0
LINE
  5
3E1
100
AcDbEntity
  8
0
100
AcDbLine
 62
7
  6
BYLAYER
 10
31.2390600337
 20
102.7560800797
 11
31.9461697589
 21
102.3478393252
  0
LINE
  5
3E2
100
AcDbEntity
  8
0
100
AcDbLine
 62
7
  6
BYLAYER
 10
25.3248990254
 20
106.1860375439
 11
25.8905879831
 21
105.8594442605
  0
LINE
  5
3E3
100
AcDbEntity
  8
0
100
AcDbLine
 62
7
  6
BYLAYER
 10
43.466792578
 20
95.7127438401
 11
44.1739023032
 21
95.3045030856
  0
LINE
  5
3E4
100
AcDbEntity
  8
0
100
AcDbLine
 62
7
  6
BYLAYER
 10
19.5788706078
 20
109.510041185
 11
20.1445595655
 21
109.1834479016
  0
LINE
  5
3E5
100
AcDbEntity
  8
0
100
AcDbLine
 62
7
  6
BYLAYER
 10
57.115544924
 20
87.8623219701
 11
57.8226546492
 21
87.4540812156
  0
LINE
  5
3E6
100
AcDbEntity
  8
0
100
AcDbLine
 62
7
  6
BYLAYER
 10
63.2248071034
 20
84.337214565
 11
63.9319168285
 21
83.9289738105
  0
LINE
  5
3E7
100
AcDbEntity
  8
0
100
AcDbLine
 62
7
  6
BYLAYER
 10
37.5083668817
 20
99.2024558848
 11
38.0740558394
 21
98.8758626013
  0
LINE
  5
3E8
100
AcDbEntity
  8
0
100
AcDbLine
 62
7
  6
BYLAYER
 10
69.6136512651
 20
80.6983883024
 11
70.1793402228
 21
80.371795019
  0
LINE
  5
3E9
100
AcDbEntity
  8
0
100
AcDbLine
 62
7
  6
BYLAYER
 10
75.3291828055
 20
77.435875958
 11
75.8948717632
 21
77.1092826745
  0
LINE
  5
3EA
100
AcDbEntity
  8
0
100
AcDbLine
 62
7
  6
BYLAYER
 10
31.3804808012
 20
102.8377289105
 11
31.9461697589
 21
102.511135627
  0
LINE
  5
3EB
100
AcDbEntity
  8
0
100
AcDbLine
 62
7
  6
BYLAYER
 10
43.6082133455
 20
95.7943926709
 11
44.1739023032
 21
95.4677993874
  0
LINE
  5
3EC
100
AcDbEntity
  8
0
100
AcDbLine
 62
7
  6
BYLAYER
 10
57.2569656915
 20
87.9439708009
 11
57.8226546492
 21
87.6173775174
  0
LINE
  5
3ED
100
AcDbEntity
  8
0
100
AcDbLine
 62
7
  6
BYLAYER
 10
63.3662278708
 20
84.4188633958
 11
63.9319168285
 21
84.0922701123
  0
LINE
  5
3EE
100
AcDbEntity
  8
0
100
AcDbLine
 62
7
  6
BYLAYER
 10
45.9771905541
 20
94.9822954864
 11
48.3813636196
 21
93.594276921
  0
LINE
  5
3EF
100
AcDbEntity
  8
0
100
AcDbLine
 62
7
  6
BYLAYER
 10
49.9058415624
 20
93.0222953794
 11
50.9665061501
 21
92.4099342476
  0
LINE
  5
3F0
100
AcDbEntity
  8
0
100
AcDbLine
 62
7
  6
BYLAYER
 10
51.6736158753
 20
92.0016934931
 11
52.734280463
 21
91.3893323613
  0
LINE
  5
3F1
100
AcDbEntity
  8
0
100
AcDbLine
 62
7
  6
BYLAYER
 10
24.1228136703
 20
107.9415034706
 11
25.183478258
 21
107.3291423389
  0
LINE
  5
3F2
100
AcDbEntity
  8
0
100
AcDbLine
 62
7
  6
BYLAYER
 10
25.8905879831
 20
106.9209015843
 11
26.9512525709
 21
106.3085404526
  0
LINE
  5
3F3
100
AcDbEntity
  8
0
100
AcDbLine
 62
7
  6
BYLAYER
 10
18.3767852526
 20
111.2655071117
 11
19.4374498403
 21
110.65314598
  0
LINE
  5
3F4
100
AcDbEntity
  8
0
100
AcDbLine
 62
7
  6
BYLAYER
 10
20.1445595655
 20
110.2449052254
 11
21.2052241532
 21
109.6325440937
  0
LINE
  5
3F5
100
AcDbEntity
  8
0
100
AcDbLine
 62
7
  6
BYLAYER
 10
36.3062815266
 20
100.9579218115
 11
37.3669461143
 21
100.3455606797
  0
LINE
  5
3F6
100
AcDbEntity
  8
0
100
AcDbLine
 62
7
  6
BYLAYER
 10
38.0740558394
 20
99.9373199252
 11
39.1347204272
 21
99.3249587934
  0
LINE
  5
3F7
100
AcDbEntity
  8
0
100
AcDbLine
 62
7
  6
BYLAYER
 10
68.41156591
 20
82.4538542291
 11
69.4722304977
 21
81.8414930974
  0
LINE
  5
3F8
100
AcDbEntity
  8
0
100
AcDbLine
 62
7
  6
BYLAYER
 10
70.1793402228
 20
81.4332523428
 11
71.2400048106
 21
80.8208912111
  0
LINE
  5
3F9
100
AcDbEntity
  8
0
100
AcDbLine
 62
7
  6
BYLAYER
 10
74.1270974503
 20
79.1913418847
 11
75.187762038
 21
78.5789807529
  0
LINE
  5
3FA
100
AcDbEntity
  8
0
100
AcDbLine
 62
7
  6
BYLAYER
 10
75.8948717632
 20
78.1707399984
 11
76.9555363509
 21
77.5583788666
  0
LINE
  5
3FB
100
AcDbEntity
  8
0
100
AcDbLine
 62
7
  6
BYLAYER
 10
50.0472623298
 20
93.1039442101
 11
51.1079269176
 21
92.4915830784
  0
LINE
  5
3FC
100
AcDbEntity
  8
0
100
AcDbLine
 62
7
  6
BYLAYER
 10
51.8150366427
 20
92.0833423238
 11
52.734280463
 21
91.5526286631
  0
LINE
  5
3FD
100
AcDbEntity
  8
0
100
AcDbLine
 62
7
  6
BYLAYER
 10
30.178395446
 20
104.5931948372
 11
31.2390600337
 21
103.9808337054
  0
LINE
  5
3FE
100
AcDbEntity
  8
0
100
AcDbLine
 62
7
  6
BYLAYER
 10
31.9461697589
 20
103.5725929509
 11
33.0068343466
 21
102.9602318191
  0
LINE
  5
3FF
100
AcDbEntity
  8
0
100
AcDbLine
 62
7
  6
BYLAYER
 10
24.2642344377
 20
108.0231523014
 11
25.3248990254
 21
107.4107911696
  0
LINE
  5
400
100
AcDbEntity
  8
0
100
AcDbLine
 62
7
  6
BYLAYER
 10
26.0320087506
 20
107.0025504151
 11
26.9512525709
 21
106.4718367544
  0
LINE
  5
401
100
AcDbEntity
  8
0
100
AcDbLine
 62
7
  6
BYLAYER
 10
42.4061279903
 20
97.5498585976
 11
43.466792578
 21
96.9374974658
  0
LINE
  5
402
100
AcDbEntity
  8
0
100
AcDbLine
 62
7
  6
BYLAYER
 10
44.1739023032
 20
96.5292567113
 11
45.2345668909
 21
95.9168955795
  0
LINE
  5
403
100
AcDbEntity
  8
0
100
AcDbLine
 62
7
  6
BYLAYER
 10
18.51820602
 20
111.3471559425
 11
19.5788706078
 21
110.7347948107
  0
LINE
  5
404
100
AcDbEntity
  8
0
100
AcDbLine
 62
7
  6
BYLAYER
 10
20.2859803329
 20
110.3265540562
 11
21.2052241532
 21
109.7958403955
  0
LINE
  5
405
100
AcDbEntity
  8
0
100
AcDbLine
 62
7
  6
BYLAYER
 10
56.0548803363
 20
89.6994367276
 11
57.115544924
 21
89.0870755958
  0
LINE
  5
406
100
AcDbEntity
  8
0
100
AcDbLine
 62
7
  6
BYLAYER
 10
57.8226546492
 20
88.6788348413
 11
58.8833192369
 21
88.0664737095
  0
LINE
  5
407
100
AcDbEntity
  8
0
100
AcDbLine
 62
7
  6
BYLAYER
 10
62.1641425157
 20
86.1743293225
 11
63.2248071034
 21
85.5619681907
  0
LINE
  5
408
100
AcDbEntity
  8
0
100
AcDbLine
 62
7
  6
BYLAYER
 10
63.9319168285
 20
85.1537274362
 11
64.9925814162
 21
84.5413663044
  0
LINE
  5
409
100
AcDbEntity
  8
0
100
AcDbLine
 62
7
  6
BYLAYER
 10
58.1041223404
 20
66.3681475649
 11
58.1041223404
 21
69.47085675
  0
LINE
  5
40A
100
AcDbEntity
  8
0
100
AcDbLine
 62
7
  6
BYLAYER
 10
58.8833192369
 20
88.0664737095
 11
58.8833192369
 21
88.8829761267
  0
LINE
  5
40B
100
AcDbEntity
  8
0
100
AcDbLine
 62
7
  6
BYLAYER
 10
58.8976891562
 20
60.6431903186
 11
58.8976891562
 21
61.4596927357
  0
LINE
  5
40C
100
AcDbEntity
  8
0
100
AcDbLine
 62
7
  6
BYLAYER
 10
59.8483487218
 20
95.0818930386
 11
59.8483487218
 21
93.1222712918
  0
LINE
  5
40D
100
AcDbEntity
  8
0
100
AcDbLine
 62
7
  6
BYLAYER
 10
59.8483487218
 20
54.583256287
 11
59.8483487218
 21
52.5979731474
  0
LINE
  5
40E
100
AcDbEntity
  8
0
100
AcDbLine
 62
7
  6
BYLAYER
 10
60.3561949264
 20
94.7886945287
 11
60.3561949264
 21
92.8290731821
  0
LINE
  5
40F
100
AcDbEntity
  8
0
100
AcDbLine
 62
7
  6
BYLAYER
 10
60.3561949264
 20
54.2900571769
 11
60.3561949264
 21
52.3047746375
  0
LINE
  5
410
100
AcDbEntity
  8
0
100
AcDbLine
 62
7
  6
BYLAYER
 10
61.6308240784
 20
80.0088978387
 11
61.6308240784
 21
77.2327896204
  0
LINE
  5
411
100
AcDbEntity
  8
0
100
AcDbLine
 62
7
  6
BYLAYER
 10
62.1641425157
 20
86.9908317396
 11
62.1641425157
 21
86.1743293225
  0
LINE
  5
412
100
AcDbEntity
  8
0
100
AcDbLine
 62
7
  6
BYLAYER
 10
62.1789351814
 20
59.7584360089
 11
62.1789351814
 21
58.9419335918
  0
LINE
  5
413
100
AcDbEntity
  8
0
100
AcDbLine
 62
7
  6
BYLAYER
 10
62.3055632831
 20
86.9091842686
 11
62.3055632831
 21
86.2559781532
  0
LINE
  5
414
100
AcDbEntity
  8
0
100
AcDbLine
 62
7
  6
BYLAYER
 10
62.3203559488
 20
59.6767885378
 11
62.3203559488
 21
59.0235824225
  0
LINE
  5
415
100
AcDbEntity
  8
0
100
AcDbLine
 62
7
  6
BYLAYER
 10
62.3379279156
 20
79.6006604835
 11
62.3379279156
 21
77.6410337743
  0
LINE
  5
416
100
AcDbEntity
  8
0
100
AcDbLine
 62
7
  6
BYLAYER
 10
62.488201259
 20
103.8586958715
 11
62.3380809917
 21
103.5986784979
  0
LINE
  5
417
100
AcDbEntity
  8
0
100
AcDbLine
 62
7
  6
BYLAYER
 10
62.8604229457
 20
103.2971110525
 11
63.0105432129
 21
103.5571284261
  0
LINE
  5
418
100
AcDbEntity
  8
0
100
AcDbLine
 62
7
  6
BYLAYER
 10
24.4484827163
 20
75.0209579328
 11
22.7317952049
 21
74.0267405288
  0
LINE
  5
419
100
AcDbEntity
  8
0
100
AcDbLine
 62
7
  6
BYLAYER
 10
59.755138573
 20
99.5446730439
 11
54.2396958039
 21
96.3603484766
  0
LINE
  5
41A
100
AcDbEntity
  8
0
100
AcDbLine
 62
7
  6
BYLAYER
 10
25.9109785163
 20
79.8928325531
 11
26.0523992837
 21
79.9744813839
  0
LINE
  5
41B
100
AcDbEntity
  8
0
100
AcDbLine
 62
7
  6
BYLAYER
 10
35.9380290083
 20
85.4525266152
 11
36.6451328455
 21
85.8607707691
  0
LINE
  5
41C
100
AcDbEntity
  8
0
100
AcDbLine
 62
7
  6
BYLAYER
 10
25.2038687912
 20
79.076319682
 11
25.3452895586
 21
79.1579685127
  0
LINE
  5
41D
100
AcDbEntity
  8
0
100
AcDbLine
 62
7
  6
BYLAYER
 10
49.9058415624
 20
93.0222953794
 11
50.0472623298
 21
93.1039442101
  0
LINE
  5
41E
100
AcDbEntity
  8
0
100
AcDbLine
 62
7
  6
BYLAYER
 10
50.9665061501
 20
93.2264366647
 11
51.1079269176
 21
93.3080854955
  0
LINE
  5
41F
100
AcDbEntity
  8
0
100
AcDbLine
 62
7
  6
BYLAYER
 10
50.9665061501
 20
92.4099342476
 11
51.1079269176
 21
92.4915830784
  0
LINE
  5
420
100
AcDbEntity
  8
0
100
AcDbLine
 62
7
  6
BYLAYER
 10
51.6736158753
 20
92.0016934931
 11
51.8150366427
 21
92.0833423238
  0
LINE
  5
421
100
AcDbEntity
  8
0
100
AcDbLine
 62
7
  6
BYLAYER
 10
50.9665061501
 20
91.1851806219
 11
51.1079269176
 21
91.2668294527
  0
LINE
  5
422
100
AcDbEntity
  8
0
100
AcDbLine
 62
7
  6
BYLAYER
 10
59.8483487218
 20
95.0818930386
 11
68.4690758636
 21
100.0590270358
  0
LINE
  5
423
100
AcDbEntity
  8
0
100
AcDbLine
 62
7
  6
BYLAYER
 10
59.8830335641
 20
99.4708335531
 11
63.8013772173
 21
101.7260953843
  0
LINE
  5
424
100
AcDbEntity
  8
0
100
AcDbLine
 62
7
  6
BYLAYER
 10
36.447702294
 20
101.0395706422
 11
37.5083668817
 21
100.4272095105
  0
LINE
  5
425
100
AcDbEntity
  8
0
100
AcDbLine
 62
7
  6
BYLAYER
 10
38.2154766069
 20
100.0189687559
 11
39.1347204272
 21
99.4882550952
  0
LINE
  5
426
100
AcDbEntity
  8
0
100
AcDbLine
 62
7
  6
BYLAYER
 10
68.5529866774
 20
82.5355030599
 11
69.6136512651
 21
81.9231419281
  0
LINE
  5
427
100
AcDbEntity
  8
0
100
AcDbLine
 62
7
  6
BYLAYER
 10
70.3207609903
 20
81.5149011736
 11
71.2400048106
 21
80.9841875129
  0
LINE
  5
428
100
AcDbEntity
  8
0
100
AcDbLine
 62
7
  6
BYLAYER
 10
74.2685182178
 20
79.2729907155
 11
75.3291828055
 21
78.6606295837
  0
LINE
  5
429
100
AcDbEntity
  8
0
100
AcDbLine
 62
7
  6
BYLAYER
 10
76.0362925306
 20
78.2523888292
 11
76.9555363509
 21
77.7216751684
  0
LINE
  5
42A
100
AcDbEntity
  8
0
100
AcDbLine
 62
7
  6
BYLAYER
 10
30.3198162135
 20
104.6748436679
 11
31.3804808012
 21
104.0624825362
  0
LINE
  5
42B
100
AcDbEntity
  8
0
100
AcDbLine
 62
7
  6
BYLAYER
 10
32.0875905263
 20
103.6542417816
 11
33.0068343466
 21
103.1235281209
  0
LINE
  5
42C
100
AcDbEntity
  8
0
100
AcDbLine
 62
7
  6
BYLAYER
 10
42.5475487577
 20
97.6315074283
 11
43.6082133455
 21
97.0191462966
  0
LINE
  5
42D
100
AcDbEntity
  8
0
100
AcDbLine
 62
7
  6
BYLAYER
 10
44.3153230706
 20
96.610905542
 11
45.2345668909
 21
96.0801918813
  0
LINE
  5
42E
100
AcDbEntity
  8
0
100
AcDbLine
 62
7
  6
BYLAYER
 10
56.1963011037
 20
89.7810855584
 11
57.2569656915
 21
89.1687244266
  0
LINE
  5
42F
100
AcDbEntity
  8
0
100
AcDbLine
 62
7
  6
BYLAYER
 10
57.9640754166
 20
88.7604836721
 11
58.8833192369
 21
88.2297700113
  0
LINE
  5
430
100
AcDbEntity
  8
0
100
AcDbLine
 62
7
  6
BYLAYER
 10
62.3055632831
 20
86.2559781532
 11
63.3662278708
 21
85.6436170215
  0
LINE
  5
431
100
AcDbEntity
  8
0
100
AcDbLine
 62
7
  6
BYLAYER
 10
64.073337596
 20
85.2353762669
 11
64.9925814162
 21
84.7046626062
  0
LINE
  5
432
100
AcDbEntity
  8
0
100
AcDbLine
 62
7
  6
BYLAYER
 10
46.6842943913
 20
95.3905396403
 11
48.3813636196
 21
94.4107584301
  0
LINE
  5
433
100
AcDbEntity
  8
0
100
AcDbLine
 62
7
  6
BYLAYER
 10
52.734280463
 20
92.2058347784
 11
51.6736158753
 21
92.8181959102
  0
LINE
  5
434
100
AcDbEntity
  8
0
100
AcDbLine
 62
7
  6
BYLAYER
 10
50.9665061501
 20
93.2264366647
 11
49.9058415624
 21
93.8387977965
  0
LINE
  5
435
100
AcDbEntity
  8
0
100
AcDbLine
 62
7
  6
BYLAYER
 10
26.9512525709
 20
107.1250428697
 11
25.8905879831
 21
107.7374040015
  0
LINE
  5
436
100
AcDbEntity
  8
0
100
AcDbLine
 62
7
  6
BYLAYER
 10
25.183478258
 20
108.145644756
 11
24.1228136703
 21
108.7580058878
  0
LINE
  5
437
100
AcDbEntity
  8
0
100
AcDbLine
 62
7
  6
BYLAYER
 10
21.2052241532
 20
110.4490465108
 11
20.1445595655
 21
111.0614076426
  0
LINE
  5
438
100
AcDbEntity
  8
0
100
AcDbLine
 62
7
  6
BYLAYER
 10
19.4374498403
 20
111.4696483971
 11
18.3767852526
 21
112.0820095289
  0
LINE
  5
439
100
AcDbEntity
  8
0
100
AcDbLine
 62
7
  6
BYLAYER
 10
39.1347204272
 20
100.1414612105
 11
38.0740558394
 21
100.7538223423
  0
LINE
  5
43A
100
AcDbEntity
  8
0
100
AcDbLine
 62
7
  6
BYLAYER
 10
37.3669461143
 20
101.1620630968
 11
36.3062815266
 21
101.7744242286
  0
LINE
  5
43B
100
AcDbEntity
  8
0
100
AcDbLine
 62
7
  6
BYLAYER
 10
71.2400048106
 20
81.6373936282
 11
70.1793402228
 21
82.24975476
  0
LINE
  5
43C
100
AcDbEntity
  8
0
100
AcDbLine
 62
7
  6
BYLAYER
 10
69.4722304977
 20
82.6579955145
 11
68.41156591
 21
83.2703566463
  0
LINE
  5
43D
100
AcDbEntity
  8
0
100
AcDbLine
 62
7
  6
BYLAYER
 10
76.9555363509
 20
78.3748812838
 11
75.8948717632
 21
78.9872424155
  0
LINE
  5
43E
100
AcDbEntity
  8
0
100
AcDbLine
 62
7
  6
BYLAYER
 10
75.187762038
 20
79.3954831701
 11
74.1270974503
 21
80.0078443018
  0
LINE
  5
43F
100
AcDbEntity
  8
0
100
AcDbLine
 62
7
  6
BYLAYER
 10
33.0068343466
 20
103.7767342362
 11
31.9461697589
 21
104.389095368
  0
LINE
  5
440
100
AcDbEntity
  8
0
100
AcDbLine
 62
7
  6
BYLAYER
 10
31.2390600337
 20
104.7973361225
 11
30.178395446
 21
105.4096972543
  0
LINE
  5
441
100
AcDbEntity
  8
0
100
AcDbLine
 62
7
  6
BYLAYER
 10
45.2345668909
 20
96.7333979966
 11
44.1739023032
 21
97.3457591284
  0
LINE
  5
442
100
AcDbEntity
  8
0
100
AcDbLine
 62
7
  6
BYLAYER
 10
43.466792578
 20
97.7539998829
 11
42.4061279903
 21
98.3663610147
  0
LINE
  5
443
100
AcDbEntity
  8
0
100
AcDbLine
 62
7
  6
BYLAYER
 10
58.8833192369
 20
88.8829761267
 11
57.8226546492
 21
89.4953372584
  0
LINE
  5
444
100
AcDbEntity
  8
0
100
AcDbLine
 62
7
  6
BYLAYER
 10
57.115544924
 20
89.903578013
 11
56.0548803363
 21
90.5159391447
  0
LINE
  5
445
100
AcDbEntity
  8
0
100
AcDbLine
 62
7
  6
BYLAYER
 10
64.9925814162
 20
85.3578687215
 11
63.9319168285
 21
85.9702298533
  0
LINE
  5
446
100
AcDbEntity
  8
0
100
AcDbLine
 62
7
  6
BYLAYER
 10
63.2248071034
 20
86.3784706078
 11
62.1641425157
 21
86.9908317396
  0
LINE
  5
447
100
AcDbEntity
  8
0
100
AcDbLine
 62
7
  6
BYLAYER
 10
51.6736158753
 20
94.0429495359
 11
50.9665061501
 21
94.4511902904
  0
LINE
  5
448
100
AcDbEntity
  8
0
100
AcDbLine
 62
7
  6
BYLAYER
 10
25.8905879831
 20
108.9621576272
 11
25.183478258
 21
109.3703983817
  0
LINE
  5
449
100
AcDbEntity
  8
0
100
AcDbLine
 62
7
  6
BYLAYER
 10
20.1445595655
 20
112.2861612683
 11
19.4374498403
 21
112.6944020228
  0
LINE
  5
44A
100
AcDbEntity
  8
0
100
AcDbLine
 62
7
  6
BYLAYER
 10
38.0740558394
 20
101.978575968
 11
37.3669461143
 21
102.3868167225
  0
LINE
  5
44B
100
AcDbEntity
  8
0
100
AcDbLine
 62
7
  6
BYLAYER
 10
70.1793402228
 20
83.4745083857
 11
69.4722304977
 21
83.8827491402
  0
LINE
  5
44C
100
AcDbEntity
  8
0
100
AcDbLine
 62
7
  6
BYLAYER
 10
75.8948717632
 20
80.2119960412
 11
75.187762038
 21
80.6202367958
  0
LINE
  5
44D
100
AcDbEntity
  8
0
100
AcDbLine
 62
7
  6
BYLAYER
 10
31.9461697589
 20
105.6138489937
 11
31.2390600337
 21
106.0220897482
  0
LINE
  5
44E
100
AcDbEntity
  8
0
100
AcDbLine
 62
7
  6
BYLAYER
 10
44.1739023032
 20
98.5705127541
 11
43.466792578
 21
98.9787535086
  0
LINE
  5
44F
100
AcDbEntity
  8
0
100
AcDbLine
 62
7
  6
BYLAYER
 10
57.8226546492
 20
90.7200908841
 11
57.115544924
 21
91.1283316387
  0
LINE
  5
450
100
AcDbEntity
  8
0
100
AcDbLine
 62
7
  6
BYLAYER
 10
63.9319168285
 20
87.194983479
 11
63.2248071034
 21
87.6032242335
  0
LINE
  5
451
100
AcDbEntity
  8
0
100
AcDbLine
 62
7
  6
BYLAYER
 10
48.3813636196
 20
96.2560748009
 11
45.9771905541
 21
97.6440933662
  0
LINE
  5
452
100
AcDbEntity
  8
0
100
AcDbLine
 62
7
  6
BYLAYER
 10
86.9187776856
 20
74.2272099776
 11
86.8480667131
 21
74.2680340531
  0
LINE
  5
453
100
AcDbEntity
  8
0
100
AcDbLine
 62
7
  6
BYLAYER
 10
113.5079527793
 20
59.6593292318
 11
114.1847016582
 21
59.2686169235
  0
LINE
  5
454
100
AcDbEntity
  8
0
100
AcDbLine
 62
7
  6
BYLAYER
 10
78.9992147185
 20
81.7650628646
 11
78.0568014959
 21
82.3091530834
  0
LINE
  5
455
100
AcDbEntity
  8
0
100
AcDbLine
 62
7
  6
BYLAYER
 10
16.3026348294
 20
117.9621312537
 11
15.3593394552
 21
118.5067307714
  0
LINE
  5
456
100
AcDbEntity
  8
0
100
AcDbLine
 62
7
  6
BYLAYER
 10
16.3027440122
 20
118.0994336509
 11
78.0560387076
 21
82.4470075104
  0
LINE
  5
457
100
AcDbEntity
  8
0
100
AcDbLine
 62
7
  6
BYLAYER
 10
15.5007602227
 20
118.5883796022
 11
16.31397757
 21
118.1188789697
  0
LINE
  5
458
100
AcDbEntity
  8
0
100
AcDbLine
 62
7
  6
BYLAYER
 10
78.1984129604
 20
82.3906918176
 11
79.1406354859
 21
81.8467116954
  0
LINE
  5
459
100
AcDbEntity
  8
0
100
AcDbLine
 62
7
  6
BYLAYER
 10
15.5007602227
 20
118.7236871983
 11
15.5714711952
 21
118.6828631229
  0
LINE
  5
45A
100
AcDbEntity
  8
0
100
AcDbLine
 62
7
  6
BYLAYER
 10
79.0699245134
 20
82.022843367
 11
79.1406354859
 21
81.9820192915
  0
LINE
  5
45B
100
AcDbEntity
  8
0
100
AcDbLine
 62
7
  6
BYLAYER
 10
22.0535875232
 20
114.9425484317
 11
22.7317791182
 21
114.5510039913
  0
LINE
  5
45C
100
AcDbEntity
  8
0
100
AcDbLine
 62
7
  6
BYLAYER
 10
28.1700893033
 20
111.4112716
 11
28.6775378179
 21
111.1183032911
  0
LINE
  5
45D
100
AcDbEntity
  8
0
100
AcDbLine
 62
7
  6
BYLAYER
 10
34.2861907358
 20
107.8802259034
 11
34.7940369404
 21
107.5870279937
  0
LINE
  5
45E
100
AcDbEntity
  8
0
100
AcDbLine
 62
7
  6
BYLAYER
 10
40.4026898583
 20
104.348950606
 11
40.9250318123
 21
104.047383778
  0
LINE
  5
45F
100
AcDbEntity
  8
0
100
AcDbLine
 62
7
  6
BYLAYER
 10
46.3633419974
 20
100.9076513867
 11
48.2790436648
 21
99.8016477988
  0
LINE
  5
460
100
AcDbEntity
  8
0
100
AcDbLine
 62
7
  6
BYLAYER
 10
53.7173538499
 20
96.6619154075
 11
54.2396958039
 21
96.3603485795
  0
LINE
  5
461
100
AcDbEntity
  8
0
100
AcDbLine
 62
7
  6
BYLAYER
 10
59.8483487218
 20
93.1222711918
 11
60.3561949264
 21
92.8290732821
  0
LINE
  5
462
100
AcDbEntity
  8
0
100
AcDbLine
 62
7
  6
BYLAYER
 10
65.9648478443
 20
89.5909958944
 11
66.4722963589
 21
89.2980275855
  0
LINE
  5
463
100
AcDbEntity
  8
0
100
AcDbLine
 62
7
  6
BYLAYER
 10
71.9106065441
 20
86.1582951942
 11
72.588798139
 21
85.7667507538
  0
LINE
  5
464
100
AcDbEntity
  8
0
100
AcDbLine
 62
7
  6
BYLAYER
 10
63.2248071034
 20
87.6032242335
 11
63.2248071034
 21
86.3784706078
  0
LINE
  5
465
100
AcDbEntity
  8
0
100
AcDbLine
 62
7
  6
BYLAYER
 10
63.2248071034
 20
85.5619681907
 11
63.2248071034
 21
84.337214565
  0
LINE
  5
466
100
AcDbEntity
  8
0
100
AcDbLine
 62
7
  6
BYLAYER
 10
63.2395997691
 20
60.3708285028
 11
63.2395997691
 21
59.1460748771
  0
LINE
  5
467
100
AcDbEntity
  8
0
100
AcDbLine
 62
7
  6
BYLAYER
 10
63.2395997691
 20
58.32957246
 11
63.2395997691
 21
57.1048188343
  0
LINE
  5
468
100
AcDbEntity
  8
0
100
AcDbLine
 62
7
  6
BYLAYER
 10
63.3662278708
 20
87.5215767625
 11
63.3662278708
 21
86.4601194386
  0
LINE
  5
469
100
AcDbEntity
  8
0
100
AcDbLine
 62
7
  6
BYLAYER
 10
63.3662278708
 20
85.6436170215
 11
63.3662278708
 21
84.4188633958
  0
LINE
  5
46A
100
AcDbEntity
  8
0
100
AcDbLine
 62
7
  6
BYLAYER
 10
63.3810205365
 20
60.2891810318
 11
63.3810205365
 21
59.2277237079
  0
LINE
  5
46B
100
AcDbEntity
  8
0
100
AcDbLine
 62
7
  6
BYLAYER
 10
63.3810205365
 20
58.4112212907
 11
63.3810205365
 21
57.1864676651
  0
LINE
  5
46C
100
AcDbEntity
  8
0
100
AcDbLine
 62
7
  6
BYLAYER
 10
63.9319168285
 20
83.9289738105
 11
63.9319168285
 21
85.1537274362
  0
LINE
  5
46D
100
AcDbEntity
  8
0
100
AcDbLine
 62
7
  6
BYLAYER
 10
63.9319168285
 20
85.9702298533
 11
63.9319168285
 21
87.194983479
  0
LINE
  5
46E
100
AcDbEntity
  8
0
100
AcDbLine
 62
7
  6
BYLAYER
 10
63.9467094942
 20
56.6965780798
 11
63.9467094942
 21
57.9213317055
  0
LINE
  5
46F
100
AcDbEntity
  8
0
100
AcDbLine
 62
7
  6
BYLAYER
 10
63.9467094942
 20
58.7378341226
 11
63.9467094942
 21
59.9625877483
  0
LINE
  5
470
100
AcDbEntity
  8
0
100
AcDbLine
 62
7
  6
BYLAYER
 10
64.6802427842
 20
73.4471739857
 11
64.6802427842
 21
68.3524924196
  0
LINE
  5
471
100
AcDbEntity
  8
0
100
AcDbLine
 62
7
  6
BYLAYER
 10
64.6890896719
 20
75.4671391011
 11
64.6890896719
 21
78.2432473194
  0
LINE
  5
472
100
AcDbEntity
  8
0
100
AcDbLine
 62
7
  6
BYLAYER
 10
64.9925814162
 20
84.5413663044
 11
64.9925814162
 21
85.3578687215
  0
LINE
  5
473
100
AcDbEntity
  8
0
100
AcDbLine
 62
7
  6
BYLAYER
 10
65.007374082
 20
57.3089705737
 11
65.007374082
 21
58.1254729908
  0
LINE
  5
474
100
AcDbEntity
  8
0
100
AcDbLine
 62
7
  6
BYLAYER
 10
65.3873466215
 20
73.0389366305
 11
65.3873466215
 21
68.7607365734
  0
LINE
  5
475
100
AcDbEntity
  8
0
100
AcDbLine
 62
7
  6
BYLAYER
 10
65.9648478443
 20
91.550610512
 11
65.9648478443
 21
89.5909959944
  0
LINE
  5
476
100
AcDbEntity
  8
0
100
AcDbLine
 62
7
  6
BYLAYER
 10
65.9648478443
 20
51.0519665312
 11
65.9648478443
 21
49.0666906208
  0
LINE
  5
477
100
AcDbEntity
  8
0
100
AcDbLine
 62
7
  6
BYLAYER
 10
66.217553244
 20
67.9090387058
 11
66.217553244
 21
72.0535427167
  0
LINE
  5
478
100
AcDbEntity
  8
0
100
AcDbLine
 62
7
  6
BYLAYER
 10
66.472297034
 20
50.758996633
 11
66.4723052495
 21
48.7737165793
  0
LINE
  5
479
100
AcDbEntity
  8
0
100
AcDbLine
 62
7
  6
BYLAYER
 10
66.4723053615
 20
91.2576364058
 11
66.4722963589
 21
89.2980274855
  0
LINE
  5
47A
100
AcDbEntity
  8
0
100
AcDbLine
 62
7
  6
BYLAYER
 10
67.7579666399
 20
71.1642047474
 11
67.7579666399
 21
67.0197007366
  0
LINE
  5
47B
100
AcDbEntity
  8
0
100
AcDbLine
 62
7
  6
BYLAYER
 10
63.8032110266
 20
103.0994918036
 11
63.8013772173
 21
101.7260953843
  0
LINE
  5
47C
100
AcDbEntity
  8
0
100
AcDbLine
 62
7
  6
BYLAYER
 10
68.6191961309
 20
100.3190444094
 11
68.4690758636
 21
100.0590270358
  0
LINE
  5
47D
100
AcDbEntity
  8
0
100
AcDbLine
 62
7
  6
BYLAYER
 10
68.9769220682
 20
99.7658285259
 11
69.1270423355
 21
100.0258458995
  0
LINE
  5
47E
100
AcDbEntity
  8
0
100
AcDbLine
 62
7
  6
BYLAYER
 10
60.3561949264
 20
94.7886945287
 11
68.9769220682
 21
99.7658285259
  0
LINE
  5
47F
100
AcDbEntity
  8
0
100
AcDbLine
 62
7
  6
BYLAYER
 10
30.2430506672
 20
77.2213584426
 11
30.3844714346
 21
77.3030072734
  0
LINE
  5
480
100
AcDbEntity
  8
0
100
AcDbLine
 62
7
  6
BYLAYER
 10
31.3037152549
 20
77.425499728
 11
31.4451360223
 21
77.5071485587
  0
LINE
  5
481
100
AcDbEntity
  8
0
100
AcDbLine
 62
7
  6
BYLAYER
 10
31.3037152549
 20
76.6089973108
 11
31.4451360223
 21
76.6906461416
  0
LINE
  5
482
100
AcDbEntity
  8
0
100
AcDbLine
 62
7
  6
BYLAYER
 10
36.2544318333
 20
78.9827868796
 11
36.9615356705
 21
79.3910310335
  0
LINE
  5
483
100
AcDbEntity
  8
0
100
AcDbLine
 62
7
  6
BYLAYER
 10
65.8716376971
 20
96.0133977475
 11
60.3561949264
 21
92.8290731821
  0
LINE
  5
484
100
AcDbEntity
  8
0
100
AcDbLine
 62
7
  6
BYLAYER
 10
32.01082498
 20
76.2007565563
 11
32.1522457475
 21
76.2824053871
  0
LINE
  5
485
100
AcDbEntity
  8
0
100
AcDbLine
 62
7
  6
BYLAYER
 10
56.0548803363
 20
89.6994367276
 11
56.1963011037
 21
89.7810855584
  0
LINE
  5
486
100
AcDbEntity
  8
0
100
AcDbLine
 62
7
  6
BYLAYER
 10
31.3037152549
 20
75.3842436851
 11
31.4451360223
 21
75.4658925159
  0
LINE
  5
487
100
AcDbEntity
  8
0
100
AcDbLine
 62
7
  6
BYLAYER
 10
57.115544924
 20
89.903578013
 11
57.2569656915
 21
89.9852268437
  0
LINE
  5
488
100
AcDbEntity
  8
0
100
AcDbLine
 62
7
  6
BYLAYER
 10
57.115544924
 20
89.0870755958
 11
57.2569656915
 21
89.1687244266
  0
LINE
  5
489
100
AcDbEntity
  8
0
100
AcDbLine
 62
7
  6
BYLAYER
 10
49.6895166111
 20
84.3903950195
 11
50.3966204483
 21
84.7986391733
  0
LINE
  5
48A
100
AcDbEntity
  8
0
100
AcDbLine
 62
7
  6
BYLAYER
 10
57.8226546492
 20
88.6788348413
 11
57.9640754166
 21
88.7604836721
  0
LINE
  5
48B
100
AcDbEntity
  8
0
100
AcDbLine
 62
7
  6
BYLAYER
 10
57.115544924
 20
87.8623219701
 11
57.2569656915
 21
87.9439708009
  0
LINE
  5
48C
100
AcDbEntity
  8
0
100
AcDbLine
 62
7
  6
BYLAYER
 10
65.9995389587
 20
95.9395546365
 11
69.9178763399
 21
98.1948128577
  0
LINE
  5
48D
100
AcDbEntity
  8
0
100
AcDbLine
 62
7
  6
BYLAYER
 10
79.706318546
 20
82.308614609
 11
79.6356075735
 21
82.3494386845
  0
LINE
  5
48E
100
AcDbEntity
  8
0
100
AcDbLine
 62
7
  6
BYLAYER
 10
79.0699245134
 20
83.9845621363
 11
78.1974609599
 21
84.4882678084
  0
LINE
  5
48F
100
AcDbEntity
  8
0
100
AcDbLine
 62
7
  6
BYLAYER
 10
72.5888080419
 20
87.7263518252
 11
71.9106155467
 21
88.1178975869
  0
LINE
  5
490
100
AcDbEntity
  8
0
100
AcDbLine
 62
7
  6
BYLAYER
 10
66.4723053615
 20
91.2576364058
 11
65.9648478443
 21
91.550610512
  0
LINE
  5
491
100
AcDbEntity
  8
0
100
AcDbLine
 62
7
  6
BYLAYER
 10
60.3561949264
 20
94.7886945287
 11
59.8483487218
 21
95.0818930386
  0
LINE
  5
492
100
AcDbEntity
  8
0
100
AcDbLine
 62
7
  6
BYLAYER
 10
54.2396958039
 20
98.3199770553
 11
53.7173538499
 21
98.6215445007
  0
LINE
  5
493
100
AcDbEntity
  8
0
100
AcDbLine
 62
7
  6
BYLAYER
 10
48.2790436648
 20
101.7612833196
 11
46.3633419974
 21
102.8672891718
  0
LINE
  5
494
100
AcDbEntity
  8
0
100
AcDbLine
 62
7
  6
BYLAYER
 10
40.9250318123
 20
106.0070279907
 11
40.4026898583
 21
106.3085954361
  0
LINE
  5
495
100
AcDbEntity
  8
0
100
AcDbLine
 62
7
  6
BYLAYER
 10
34.7940369404
 20
109.5466794528
 11
34.2861907358
 21
109.8398779627
  0
LINE
  5
496
100
AcDbEntity
  8
0
100
AcDbLine
 62
7
  6
BYLAYER
 10
28.6775378179
 20
113.0779619794
 11
28.1700803007
 21
113.3709360856
  0
LINE
  5
497
100
AcDbEntity
  8
0
100
AcDbLine
 62
7
  6
BYLAYER
 10
22.7317701156
 20
116.5106749045
 11
22.0535776203
 21
116.9022206663
  0
LINE
  5
498
100
AcDbEntity
  8
0
100
AcDbLine
 62
7
  6
BYLAYER
 10
16.4449247108
 20
120.1403046781
 11
15.5714711952
 21
120.6445818922
  0
LINE
  5
499
100
AcDbEntity
  8
0
100
AcDbLine
 62
7
  6
BYLAYER
 10
68.0390139787
 20
76.6526136214
 11
68.0390139787
 21
73.7965474397
  0
LINE
  5
49A
100
AcDbEntity
  8
0
100
AcDbLine
 62
7
  6
BYLAYER
 10
68.21579141
 20
63.6330139604
 11
68.21579141
 21
60.5303047753
  0
LINE
  5
49B
100
AcDbEntity
  8
0
100
AcDbLine
 62
7
  6
BYLAYER
 10
68.239427797
 20
56.1231619868
 11
68.239427797
 21
55.3066595697
  0
LINE
  5
49C
100
AcDbEntity
  8
0
100
AcDbLine
 62
7
  6
BYLAYER
 10
68.3808485644
 20
56.0415145158
 11
68.3808485644
 21
55.3883084005
  0
LINE
  5
49D
100
AcDbEntity
  8
0
100
AcDbLine
 62
7
  6
BYLAYER
 10
68.41156591
 20
83.2703566463
 11
68.41156591
 21
82.4538542291
  0
LINE
  5
49E
100
AcDbEntity
  8
0
100
AcDbLine
 62
7
  6
BYLAYER
 10
68.4650704771
 20
71.2620521325
 11
68.4650704771
 21
67.4279448904
  0
LINE
  5
49F
100
AcDbEntity
  8
0
100
AcDbLine
 62
7
  6
BYLAYER
 10
68.5529866774
 20
83.1887091752
 11
68.5529866774
 21
82.5355030599
  0
LINE
  5
4A0
100
AcDbEntity
  8
0
100
AcDbLine
 62
7
  6
BYLAYER
 10
68.7461178159
 20
76.2443762662
 11
68.7461178159
 21
74.2047915935
  0
LINE
  5
4A1
100
AcDbEntity
  8
0
100
AcDbLine
 62
7
  6
BYLAYER
 10
68.9228952472
 20
63.2247766052
 11
68.9228952472
 21
60.9385489292
  0
LINE
  5
4A2
100
AcDbEntity
  8
0
100
AcDbLine
 62
7
  6
BYLAYER
 10
69.3000923847
 20
56.7355544807
 11
69.3000923847
 21
55.5108008551
  0
LINE
  5
4A3
100
AcDbEntity
  8
0
100
AcDbLine
 62
7
  6
BYLAYER
 10
69.3000923847
 20
54.6942984379
 11
69.3000923847
 21
53.4695448122
  0
LINE
  5
4A4
100
AcDbEntity
  8
0
100
AcDbLine
 62
7
  6
BYLAYER
 10
69.4415131521
 20
56.6539070097
 11
69.4415131521
 21
55.5924496858
  0
LINE
  5
4A5
100
AcDbEntity
  8
0
100
AcDbLine
 62
7
  6
BYLAYER
 10
69.4415131521
 20
54.7759472687
 11
69.4415131521
 21
53.551193643
  0
LINE
  5
4A6
100
AcDbEntity
  8
0
100
AcDbLine
 62
7
  6
BYLAYER
 10
69.4722304977
 20
83.8827491402
 11
69.4722304977
 21
82.6579955145
  0
LINE
  5
4A7
100
AcDbEntity
  8
0
100
AcDbLine
 62
7
  6
BYLAYER
 10
69.4722304977
 20
81.8414930974
 11
69.4722304977
 21
80.6167394717
  0
LINE
  5
4A8
100
AcDbEntity
  8
0
100
AcDbLine
 62
7
  6
BYLAYER
 10
69.6136512651
 20
83.8011016691
 11
69.6136512651
 21
82.7396443453
  0
LINE
  5
4A9
100
AcDbEntity
  8
0
100
AcDbLine
 62
7
  6
BYLAYER
 10
69.6136512651
 20
81.9231419281
 11
69.6136512651
 21
80.6983883024
  0
LINE
  5
4AA
100
AcDbEntity
  8
0
100
AcDbLine
 62
7
  6
BYLAYER
 10
70.0072021098
 20
53.0613040577
 11
70.0072021098
 21
54.2860576834
  0
LINE
  5
4AB
100
AcDbEntity
  8
0
100
AcDbLine
 62
7
  6
BYLAYER
 10
70.0072021098
 20
55.1025601005
 11
70.0072021098
 21
56.3273137262
  0
LINE
  5
4AC
100
AcDbEntity
  8
0
100
AcDbLine
 62
7
  6
BYLAYER
 10
70.1793402228
 20
80.2084987171
 11
70.1793402228
 21
81.4332523428
  0
LINE
  5
4AD
100
AcDbEntity
  8
0
100
AcDbLine
 62
7
  6
BYLAYER
 10
70.1793402228
 20
82.24975476
 11
70.1793402228
 21
83.4745083857
  0
LINE
  5
4AE
100
AcDbEntity
  8
0
100
AcDbLine
 62
7
  6
BYLAYER
 10
70.3371205854
 20
59.3055825117
 11
70.3371205854
 21
62.4082916968
  0
LINE
  5
4AF
100
AcDbEntity
  8
0
100
AcDbLine
 62
7
  6
BYLAYER
 10
70.5138980167
 20
72.3677047989
 11
70.5138980167
 21
75.2237709806
  0
LINE
  5
4B0
100
AcDbEntity
  8
0
100
AcDbLine
 62
7
  6
BYLAYER
 10
71.0678666975
 20
53.6736965516
 11
71.0678666975
 21
54.4901989688
  0
LINE
  5
4B1
100
AcDbEntity
  8
0
100
AcDbLine
 62
7
  6
BYLAYER
 10
71.2400048106
 20
80.8208912111
 11
71.2400048106
 21
81.6373936282
  0
LINE
  5
4B2
100
AcDbEntity
  8
0
100
AcDbLine
 62
7
  6
BYLAYER
 10
71.8220510082
 20
64.2292607989
 11
71.8220510082
 21
69.323942365
  0
LINE
  5
4B3
100
AcDbEntity
  8
0
100
AcDbLine
 62
7
  6
BYLAYER
 10
71.9105904626
 20
88.1179120694
 11
71.9105905082
 21
86.1583045863
  0
LINE
  5
4B4
100
AcDbEntity
  8
0
100
AcDbLine
 62
7
  6
BYLAYER
 10
71.9105905044
 20
47.6192610365
 11
71.9105904582
 21
45.6339921807
  0
LINE
  5
4B5
100
AcDbEntity
  8
0
100
AcDbLine
 62
7
  6
BYLAYER
 10
72.5887988816
 20
47.2277053039
 11
72.5888079186
 21
45.2424320051
  0
LINE
  5
4B6
100
AcDbEntity
  8
0
100
AcDbLine
 62
7
  6
BYLAYER
 10
72.5888080419
 20
87.7263518252
 11
72.588798139
 21
85.7667506202
  0
LINE
  5
4B7
100
AcDbEntity
  8
0
100
AcDbLine
 62
7
  6
BYLAYER
 10
69.9197101491
 20
99.568209277
 11
69.9178763399
 21
98.1948128577
  0
LINE
  5
4B8
100
AcDbEntity
  8
0
100
AcDbLine
 62
7
  6
BYLAYER
 10
74.7356952534
 20
96.7877618828
 11
74.5855749861
 21
96.5277445092
  0
LINE
  5
4B9
100
AcDbEntity
  8
0
100
AcDbLine
 62
7
  6
BYLAYER
 10
30.3942492157
 20
71.5882386747
 11
28.6775378179
 21
70.5940420882
  0
LINE
  5
4BA
100
AcDbEntity
  8
0
100
AcDbLine
 62
7
  6
BYLAYER
 10
65.9648478443
 20
91.550610512
 11
74.5855749861
 21
96.5277445092
  0
LINE
  5
4BB
100
AcDbEntity
  8
0
100
AcDbLine
 62
7
  6
BYLAYER
 10
66.4722802775
 20
91.2576508883
 11
75.0931578795
 21
96.2346980182
  0
LINE
  5
4BC
100
AcDbEntity
  8
0
100
AcDbLine
 62
7
  6
BYLAYER
 10
36.3428971309
 20
73.5860850024
 11
36.4843178983
 21
73.6677338331
  0
LINE
  5
4BD
100
AcDbEntity
  8
0
100
AcDbLine
 62
7
  6
BYLAYER
 10
37.4035617186
 20
73.7902262877
 11
37.5449824861
 21
73.8718751185
  0
LINE
  5
4BE
100
AcDbEntity
  8
0
100
AcDbLine
 62
7
  6
BYLAYER
 10
37.4035617186
 20
72.9737238706
 11
37.5449824861
 21
73.0553727014
  0
LINE
  5
4BF
100
AcDbEntity
  8
0
100
AcDbLine
 62
7
  6
BYLAYER
 10
71.9878193581
 20
92.4823057
 11
66.472280323
 21
89.298036744
  0
LINE
  5
4C0
100
AcDbEntity
  8
0
100
AcDbLine
 62
7
  6
BYLAYER
 10
38.1106714438
 20
72.5654831161
 11
38.2520922112
 21
72.6471319468
  0
LINE
  5
4C1
100
AcDbEntity
  8
0
100
AcDbLine
 62
7
  6
BYLAYER
 10
62.1641425157
 20
86.1743293225
 11
62.3055632831
 21
86.2559781532
  0
LINE
  5
4C2
100
AcDbEntity
  8
0
100
AcDbLine
 62
7
  6
BYLAYER
 10
37.4035617186
 20
71.7489702449
 11
37.5449824861
 21
71.8306190757
  0
LINE
  5
4C3
100
AcDbEntity
  8
0
100
AcDbLine
 62
7
  6
BYLAYER
 10
63.2248071034
 20
86.3784706078
 11
63.3662278708
 21
86.4601194386
  0
LINE
  5
4C4
100
AcDbEntity
  8
0
100
AcDbLine
 62
7
  6
BYLAYER
 10
63.2248071034
 20
85.5619681907
 11
63.3662278708
 21
85.6436170215
  0
LINE
  5
4C5
100
AcDbEntity
  8
0
100
AcDbLine
 62
7
  6
BYLAYER
 10
72.1157401512
 20
92.4084513468
 11
76.0341168536
 21
94.6636796355
  0
LINE
  5
4C6
100
AcDbEntity
  8
0
100
AcDbLine
 62
7
  6
BYLAYER
 10
95.2797174827
 20
92.118724738
 11
93.5655520065
 21
92.2718494116
  0
LINE
  5
4C7
100
AcDbEntity
  8
0
100
AcDbLine
 62
7
  6
BYLAYER
 10
21.9602360486
 20
121.3650307599
 11
25.8718302328
 21
119.1067265189
  0
LINE
  5
4C8
100
AcDbEntity
  8
0
100
AcDbLine
 62
7
  6
BYLAYER
 10
28.247157695
 20
117.7353644018
 11
31.9883436373
 21
115.5754429779
  0
LINE
  5
4C9
100
AcDbEntity
  8
0
100
AcDbLine
 62
7
  6
BYLAYER
 10
34.1929805802
 20
114.3026266468
 11
38.1045049526
 21
112.0443627106
  0
LINE
  5
4CA
100
AcDbEntity
  8
0
100
AcDbLine
 62
7
  6
BYLAYER
 10
40.3094797044
 20
110.7713513503
 11
44.2210103375
 21
108.5130837996
  0
LINE
  5
4CB
100
AcDbEntity
  8
0
100
AcDbLine
 62
7
  6
BYLAYER
 10
46.4404745779
 20
107.2317071356
 11
50.1816685794
 21
105.0717810588
  0
LINE
  5
4CC
100
AcDbEntity
  8
0
100
AcDbLine
 62
7
  6
BYLAYER
 10
53.7944864323
 20
102.9859711575
 11
57.5356879614
 21
100.8260407347
  0
LINE
  5
4CD
100
AcDbEntity
  8
0
100
AcDbLine
 62
7
  6
BYLAYER
 10
59.755138573
 20
99.5446719391
 11
63.6666891105
 21
97.2863928968
  0
LINE
  5
4CE
100
AcDbEntity
  8
0
100
AcDbLine
 62
7
  6
BYLAYER
 10
65.8716376971
 20
96.0133966426
 11
69.7831944954
 21
93.7551139858
  0
LINE
  5
4CF
100
AcDbEntity
  8
0
100
AcDbLine
 62
7
  6
BYLAYER
 10
71.9878033151
 20
92.4823138913
 11
75.729012904
 21
90.3223788153
  0
LINE
  5
4D0
100
AcDbEntity
  8
0
100
AcDbLine
 62
7
  6
BYLAYER
 10
78.1043115153
 20
88.9510333549
 11
82.0158620695
 21
86.6927460512
  0
LINE
  5
4D1
100
AcDbEntity
  8
0
100
AcDbLine
 62
7
  6
BYLAYER
 10
26.0064630294
 20
123.546505621
 11
29.7841183035
 21
121.365524672
  0
LINE
  5
4D2
100
AcDbEntity
  8
0
100
AcDbLine
 62
7
  6
BYLAYER
 10
32.2933214504
 20
119.9168683327
 11
35.9006300174
 21
117.8342348759
  0
LINE
  5
4D3
100
AcDbEntity
  8
0
100
AcDbLine
 62
7
  6
BYLAYER
 10
38.2392192313
 20
116.4840803083
 11
42.0168307874
 21
114.3031245993
  0
LINE
  5
4D4
100
AcDbEntity
  8
0
100
AcDbLine
 62
7
  6
BYLAYER
 10
44.3557183538
 20
112.9527977817
 11
48.1333299099
 21
110.7718420727
  0
LINE
  5
4D5
100
AcDbEntity
  8
0
100
AcDbLine
 62
7
  6
BYLAYER
 10
50.4867132257
 20
109.4131463196
 11
54.093982049
 21
107.3305358084
  0
LINE
  5
4D6
100
AcDbEntity
  8
0
100
AcDbLine
 62
7
  6
BYLAYER
 10
57.8407250782
 20
105.1674016486
 11
61.4479939015
 21
103.0847911373
  0
LINE
  5
4D7
100
AcDbEntity
  8
0
100
AcDbLine
 62
7
  6
BYLAYER
 10
63.8013772173
 20
101.7260953843
 11
67.5789887734
 21
99.5451396753
  0
LINE
  5
4D8
100
AcDbEntity
  8
0
100
AcDbLine
 62
7
  6
BYLAYER
 10
69.9178763399
 20
98.1948128577
 11
73.6954878959
 21
96.0138571487
  0
LINE
  5
4D9
100
AcDbEntity
  8
0
100
AcDbLine
 62
7
  6
BYLAYER
 10
76.0341168536
 20
94.6636796355
 11
79.6413459331
 21
92.5810920699
  0
LINE
  5
4DA
100
AcDbEntity
  8
0
100
AcDbLine
 62
7
  6
BYLAYER
 10
82.1506325418
 20
91.1323875449
 11
85.9282003799
 21
88.951457076
  0
LINE
  5
4DB
100
AcDbEntity
  8
0
100
AcDbLine
 62
7
  6
BYLAYER
 10
74.0244434755
 20
53.0559094579
 11
74.0244434755
 21
52.2394070408
  0
LINE
  5
4DC
100
AcDbEntity
  8
0
100
AcDbLine
 62
7
  6
BYLAYER
 10
74.1270974503
 20
80.0078443018
 11
74.1270974503
 21
79.1913418847
  0
LINE
  5
4DD
100
AcDbEntity
  8
0
100
AcDbLine
 62
7
  6
BYLAYER
 10
74.1658642429
 20
52.9742619869
 11
74.1658642429
 21
52.3210558716
  0
LINE
  5
4DE
100
AcDbEntity
  8
0
100
AcDbLine
 62
7
  6
BYLAYER
 10
74.2685182178
 20
79.9261968308
 11
74.2685182178
 21
79.2729907155
  0
LINE
  5
4DF
100
AcDbEntity
  8
0
100
AcDbLine
 62
7
  6
BYLAYER
 10
75.0851080632
 20
53.6683019519
 11
75.0851080632
 21
52.4435483262
  0
LINE
  5
4E0
100
AcDbEntity
  8
0
100
AcDbLine
 62
7
  6
BYLAYER
 10
75.0851080632
 20
51.627045909
 11
75.0851080632
 21
50.4022922833
  0
LINE
  5
4E1
100
AcDbEntity
  8
0
100
AcDbLine
 62
7
  6
BYLAYER
 10
75.187762038
 20
80.6202367958
 11
75.187762038
 21
79.3954831701
  0
LINE
  5
4E2
100
AcDbEntity
  8
0
100
AcDbLine
 62
7
  6
BYLAYER
 10
75.187762038
 20
78.5789807529
 11
75.187762038
 21
77.3542271272
  0
LINE
  5
4E3
100
AcDbEntity
  8
0
100
AcDbLine
 62
7
  6
BYLAYER
 10
75.2265288306
 20
53.5866544808
 11
75.2265288306
 21
52.5251971569
  0
LINE
  5
4E4
100
AcDbEntity
  8
0
100
AcDbLine
 62
7
  6
BYLAYER
 10
75.2265288306
 20
51.7086947398
 11
75.2265288306
 21
50.4839411141
  0
LINE
  5
4E5
100
AcDbEntity
  8
0
100
AcDbLine
 62
7
  6
BYLAYER
 10
75.3291828055
 20
80.5385893247
 11
75.3291828055
 21
79.4771320008
  0
LINE
  5
4E6
100
AcDbEntity
  8
0
100
AcDbLine
 62
7
  6
BYLAYER
 10
75.3291828055
 20
78.6606295837
 11
75.3291828055
 21
77.435875958
  0
LINE
  5
4E7
100
AcDbEntity
  8
0
100
AcDbLine
 62
7
  6
BYLAYER
 10
75.7465099828
 20
74.9620963336
 11
75.7465099828
 21
72.5125890823
  0
LINE
  5
4E8
100
AcDbEntity
  8
0
100
AcDbLine
 62
7
  6
BYLAYER
 10
75.7465099828
 20
56.5091417065
 11
75.7465099828
 21
54.0596344551
  0
LINE
  5
4E9
100
AcDbEntity
  8
0
100
AcDbLine
 62
7
  6
BYLAYER
 10
75.7922177883
 20
49.9940515288
 11
75.7922177883
 21
51.2188051545
  0
LINE
  5
4EA
100
AcDbEntity
  8
0
100
AcDbLine
 62
7
  6
BYLAYER
 10
75.7922177883
 20
52.0353075716
 11
75.7922177883
 21
53.2600611973
  0
LINE
  5
4EB
100
AcDbEntity
  8
0
100
AcDbLine
 62
7
  6
BYLAYER
 10
75.8948717632
 20
76.9459863727
 11
75.8948717632
 21
78.1707399984
  0
LINE
  5
4EC
100
AcDbEntity
  8
0
100
AcDbLine
 62
7
  6
BYLAYER
 10
75.8948717632
 20
78.9872424155
 11
75.8948717632
 21
80.2119960412
  0
LINE
  5
4ED
100
AcDbEntity
  8
0
100
AcDbLine
 62
7
  6
BYLAYER
 10
76.45361382
 20
74.5538589784
 11
76.45361382
 21
72.9208332361
  0
LINE
  5
4EE
100
AcDbEntity
  8
0
100
AcDbLine
 62
7
  6
BYLAYER
 10
76.45361382
 20
56.1009043513
 11
76.45361382
 21
54.467878609
  0
LINE
  5
4EF
100
AcDbEntity
  8
0
100
AcDbLine
 62
7
  6
BYLAYER
 10
76.852882376
 20
50.6064440227
 11
76.852882376
 21
51.4229464399
  0
LINE
  5
4F0
100
AcDbEntity
  8
0
100
AcDbLine
 62
7
  6
BYLAYER
 10
76.9555363509
 20
77.5583788666
 11
76.9555363509
 21
78.3748812838
  0
LINE
  5
4F1
100
AcDbEntity
  8
0
100
AcDbLine
 62
7
  6
BYLAYER
 10
77.3021513781
 20
53.1615047952
 11
77.3021513781
 21
55.6110120466
  0
LINE
  5
4F2
100
AcDbEntity
  8
0
100
AcDbLine
 62
7
  6
BYLAYER
 10
77.3021513781
 20
71.6144594223
 11
77.3021513781
 21
74.0639666737
  0
LINE
  5
4F3
100
AcDbEntity
  8
0
100
AcDbLine
 62
7
  6
BYLAYER
 10
76.035962433
 20
96.0370692596
 11
76.0341286236
 21
94.66367284
  0
LINE
  5
4F4
100
AcDbEntity
  8
0
100
AcDbLine
 62
7
  6
BYLAYER
 10
75.0931578795
 20
96.2346980182
 11
75.2432807633
 21
96.4947138817
  0
LINE
  5
4F5
100
AcDbEntity
  8
0
100
AcDbLine
 62
7
  6
BYLAYER
 10
36.5107420871
 20
68.0569525279
 11
34.7940369404
 21
67.0627595616
  0
LINE
  5
4F6
100
AcDbEntity
  8
0
100
AcDbLine
 62
7
  6
BYLAYER
 10
63.9319168285
 20
85.1537274362
 11
64.073337596
 21
85.2353762669
  0
LINE
  5
4F7
100
AcDbEntity
  8
0
100
AcDbLine
 62
7
  6
BYLAYER
 10
63.2248071034
 20
84.337214565
 11
63.3662278708
 21
84.4188633958
  0
LINE
  5
4F8
100
AcDbEntity
  8
0
100
AcDbLine
 62
7
  6
BYLAYER
 10
43.7851504062
 20
72.5121165594
 11
44.4922542434
 21
72.9203607133
  0
LINE
  5
4F9
100
AcDbEntity
  8
0
100
AcDbLine
 62
7
  6
BYLAYER
 10
71.9106155467
 20
88.1178975869
 11
80.5314434243
 21
93.0949734256
  0
LINE
  5
4FA
100
AcDbEntity
  8
0
100
AcDbLine
 62
7
  6
BYLAYER
 10
72.5887804495
 20
87.7263677559
 11
81.2096730975
 21
92.703406199
  0
LINE
  5
4FB
100
AcDbEntity
  8
0
100
AcDbLine
 62
7
  6
BYLAYER
 10
42.4715672139
 20
70.0866056001
 11
42.6129879813
 21
70.1682544309
  0
LINE
  5
4FC
100
AcDbEntity
  8
0
100
AcDbLine
 62
7
  6
BYLAYER
 10
43.5322318016
 20
70.2907468855
 11
43.673652569
 21
70.3723957162
  0
LINE
  5
4FD
100
AcDbEntity
  8
0
100
AcDbLine
 62
7
  6
BYLAYER
 10
43.5322318016
 20
69.4742444683
 11
43.673652569
 21
69.5558932991
  0
LINE
  5
4FE
100
AcDbEntity
  8
0
100
AcDbLine
 62
7
  6
BYLAYER
 10
78.1043291625
 20
88.9510231661
 11
72.5887804996
 21
85.7667608045
  0
LINE
  5
4FF
100
AcDbEntity
  8
0
100
AcDbLine
 62
7
  6
BYLAYER
 10
44.2393415267
 20
69.0660037138
 11
44.3807622942
 21
69.1476525446
  0
LINE
  5
500
100
AcDbEntity
  8
0
100
AcDbLine
 62
7
  6
BYLAYER
 10
43.5322318016
 20
68.2494908426
 11
43.673652569
 21
68.3311396734
  0
LINE
  5
501
100
AcDbEntity
  8
0
100
AcDbLine
 62
7
  6
BYLAYER
 10
68.41156591
 20
82.4538542291
 11
68.5529866774
 21
82.5355030599
  0
LINE
  5
502
100
AcDbEntity
  8
0
100
AcDbLine
 62
7
  6
BYLAYER
 10
78.2322573182
 20
88.8771653636
 11
82.1506325418
 21
91.1323875449
  0
LINE
  5
503
100
AcDbEntity
  8
0
100
AcDbLine
 62
7
  6
BYLAYER
 10
30.6741939527
 20
121.8794186379
 11
31.3523965215
 21
121.4878670603
  0
LINE
  5
504
100
AcDbEntity
  8
0
100
AcDbLine
 62
7
  6
BYLAYER
 10
36.7907067066
 20
118.3481282413
 11
37.2982649597
 21
118.0550959766
  0
LINE
  5
505
100
AcDbEntity
  8
0
100
AcDbLine
 62
7
  6
BYLAYER
 10
42.9069178776
 20
114.8170119599
 11
43.4147640822
 21
114.52381345
  0
LINE
  5
506
100
AcDbEntity
  8
0
100
AcDbLine
 62
7
  6
BYLAYER
 10
49.0234170001
 20
111.2857294333
 11
49.5457589541
 21
110.9841619879
  0
LINE
  5
507
100
AcDbEntity
  8
0
100
AcDbLine
 62
7
  6
BYLAYER
 10
54.9840691392
 20
107.844423169
 11
56.8997708066
 21
106.7384173169
  0
LINE
  5
508
100
AcDbEntity
  8
0
100
AcDbLine
 62
7
  6
BYLAYER
 10
62.3380809917
 20
103.5986784979
 11
62.8604229457
 21
103.2971110525
  0
LINE
  5
509
100
AcDbEntity
  8
0
100
AcDbLine
 62
7
  6
BYLAYER
 10
68.4690758636
 20
100.0590270358
 11
68.9769220682
 21
99.7658285259
  0
LINE
  5
50A
100
AcDbEntity
  8
0
100
AcDbLine
 62
7
  6
BYLAYER
 10
74.5855749861
 20
96.5277445092
 11
75.0931332391
 21
96.2347122445
  0
LINE
  5
50B
100
AcDbEntity
  8
0
100
AcDbLine
 62
7
  6
BYLAYER
 10
80.5314434243
 20
93.0949734256
 11
81.2096459931
 21
92.703421848
  0
LINE
  5
50C
100
AcDbEntity
  8
0
100
AcDbLine
 62
7
  6
BYLAYER
 10
24.1214510785
 20
125.6624719014
 11
25.0655329595
 21
125.1174979924
  0
LINE
  5
50D
100
AcDbEntity
  8
0
100
AcDbLine
 62
7
  6
BYLAYER
 10
86.9684512215
 20
89.7253367051
 11
81.3597983036
 21
92.9634207218
  0
LINE
  5
50E
100
AcDbEntity
  8
0
100
AcDbLine
 62
7
  6
BYLAYER
 10
80.6815928218
 20
93.3549739811
 11
75.2432826366
 21
96.4947128001
  0
LINE
  5
50F
100
AcDbEntity
  8
0
100
AcDbLine
 62
7
  6
BYLAYER
 10
74.7356952534
 20
96.7877618828
 11
69.1270423355
 21
100.0258458995
  0
LINE
  5
510
100
AcDbEntity
  8
0
100
AcDbLine
 62
7
  6
BYLAYER
 10
68.6191961309
 20
100.3190444094
 11
63.0105432129
 21
103.5571284261
  0
LINE
  5
511
100
AcDbEntity
  8
0
100
AcDbLine
 62
7
  6
BYLAYER
 10
62.488201259
 20
103.8586958715
 11
57.0498910738
 21
106.9984346904
  0
LINE
  5
512
100
AcDbEntity
  8
0
100
AcDbLine
 62
7
  6
BYLAYER
 10
55.1341894065
 20
108.1044405426
 11
49.6958792213
 21
111.2441793615
  0
LINE
  5
513
100
AcDbEntity
  8
0
100
AcDbLine
 62
7
  6
BYLAYER
 10
49.1735372674
 20
111.5457468069
 11
43.5648843494
 21
114.7838308236
  0
LINE
  5
514
100
AcDbEntity
  8
0
100
AcDbLine
 62
7
  6
BYLAYER
 10
43.0570381448
 20
115.0770293335
 11
37.4483852269
 21
118.3151133502
  0
LINE
  5
515
100
AcDbEntity
  8
0
100
AcDbLine
 62
7
  6
BYLAYER
 10
36.9407978437
 20
118.6081624329
 11
31.5024876585
 21
121.7479012518
  0
LINE
  5
516
100
AcDbEntity
  8
0
100
AcDbLine
 62
7
  6
BYLAYER
 10
30.8242821767
 20
122.1394545112
 11
25.2156292588
 21
125.3775385279
  0
LINE
  5
517
100
AcDbEntity
  8
0
100
AcDbLine
 62
7
  6
BYLAYER
 10
116.6171388582
 20
72.9204398915
 11
119.0920022885
 21
71.4916091483
  0
LINE
  5
518
100
AcDbEntity
  8
0
100
AcDbLine
 62
7
  6
BYLAYER
 10
25.1278929491
 20
127.4056952469
 11
88.7677682123
 21
90.6640273401
  0
LINE
  5
519
100
AcDbEntity
  8
0
100
AcDbLine
 62
7
  6
BYLAYER
 10
87.7613250667
 20
88.9208070002
 11
86.8182908357
 21
89.4653331691
  0
LINE
  5
51A
100
AcDbEntity
  8
0
100
AcDbLine
 62
7
  6
BYLAYER
 10
78.1974334092
 20
82.5089099257
 11
78.1984129604
 21
82.3906918176
  0
LINE
  5
51B
100
AcDbEntity
  8
0
100
AcDbLine
 62
7
  6
BYLAYER
 10
78.0560387076
 20
82.4470075104
 11
78.0568014959
 21
82.3091530834
  0
LINE
  5
51C
100
AcDbEntity
  8
0
100
AcDbLine
 62
7
  6
BYLAYER
 10
78.1974334133
 20
43.9896252733
 11
78.1974333626
 21
42.0043638508
  0
LINE
  5
51D
100
AcDbEntity
  8
0
100
AcDbLine
 62
7
  6
BYLAYER
 10
78.1974334092
 20
82.508909926
 11
78.1974609599
 21
84.4882678084
  0
LINE
  5
51E
100
AcDbEntity
  8
0
100
AcDbLine
 62
7
  6
BYLAYER
 10
78.9992147185
 20
43.5267637541
 11
78.9992147185
 21
81.7650628646
  0
LINE
  5
51F
100
AcDbEntity
  8
0
100
AcDbLine
 62
7
  6
BYLAYER
 10
79.0699245134
 20
43.4859705345
 11
79.0699245134
 21
41.5006422451
  0
LINE
  5
520
100
AcDbEntity
  8
0
100
AcDbLine
 62
7
  6
BYLAYER
 10
79.0699245134
 20
82.022843367
 11
79.0699245134
 21
83.9845556386
  0
LINE
  5
521
100
AcDbEntity
  8
0
100
AcDbLine
 62
7
  6
BYLAYER
 10
79.1406354859
 20
43.445146459
 11
79.1406354859
 21
43.6084043513
  0
LINE
  5
522
100
AcDbEntity
  8
0
100
AcDbLine
 62
7
  6
BYLAYER
 10
79.1406354859
 20
81.8467116954
 11
79.1406354859
 21
81.9820192915
  0
LINE
  5
523
100
AcDbEntity
  8
0
100
AcDbLine
 62
7
  6
BYLAYER
 10
79.706318546
 20
82.308614609
 11
79.706318546
 21
70.0631196081
  0
LINE
  5
524
100
AcDbEntity
  8
0
100
AcDbLine
 62
7
  6
BYLAYER
 10
79.706318546
 20
56.0192780335
 11
79.706318546
 21
43.7717417766
  0
LINE
  5
525
100
AcDbEntity
  8
0
100
AcDbLine
 62
7
  6
BYLAYER
 10
82.1524792982
 20
92.5057764894
 11
82.1506454888
 21
91.1323800699
  0
LINE
  5
526
100
AcDbEntity
  8
0
100
AcDbLine
 62
7
  6
BYLAYER
 10
80.6815909485
 20
93.3549750627
 11
80.5314680647
 21
93.0949591992
  0
LINE
  5
527
100
AcDbEntity
  8
0
100
AcDbLine
 62
7
  6
BYLAYER
 10
81.2096730975
 20
92.703406199
 11
81.359796243
 21
92.9634219115
  0
LINE
  5
528
100
AcDbEntity
  8
0
100
AcDbLine
 62
7
  6
BYLAYER
 10
88.7677682123
 20
90.6640273401
 11
114.1552627437
 21
105.9601521892
  0
LINE
  5
529
100
AcDbEntity
  8
0
100
AcDbLine
 62
7
  6
BYLAYER
 10
42.6417306931
 20
64.5172974371
 11
40.9250318123
 21
63.5231080995
  0
LINE
  5
52A
100
AcDbEntity
  8
0
100
AcDbLine
 62
7
  6
BYLAYER
 10
69.4722304977
 20
82.6579955145
 11
69.6136512651
 21
82.7396443453
  0
LINE
  5
52B
100
AcDbEntity
  8
0
100
AcDbLine
 62
7
  6
BYLAYER
 10
69.4722304977
 20
81.8414930974
 11
69.6136512651
 21
81.9231419281
  0
LINE
  5
52C
100
AcDbEntity
  8
0
100
AcDbLine
 62
7
  6
BYLAYER
 10
61.6308240784
 20
77.2327896204
 11
62.3379279156
 21
77.6410337743
  0
LINE
  5
52D
100
AcDbEntity
  8
0
100
AcDbLine
 62
7
  6
BYLAYER
 10
70.1793402228
 20
81.4332523428
 11
70.3207609903
 21
81.5149011736
  0
LINE
  5
52E
100
AcDbEntity
  8
0
100
AcDbLine
 62
7
  6
BYLAYER
 10
114.1847015955
 20
106.6257639881
 11
119.0920022885
 21
109.4589729263
  0
LINE
  5
52F
100
AcDbEntity
  8
0
100
AcDbLine
 62
7
  6
BYLAYER
 10
69.4722304977
 20
80.6167394717
 11
69.6136512651
 21
80.6983883024
  0
LINE
  5
530
100
AcDbEntity
  8
0
100
AcDbLine
 62
7
  6
BYLAYER
 10
78.1974609599
 20
84.4882678084
 11
86.8182908357
 21
89.4653331691
  0
LINE
  5
531
100
AcDbEntity
  8
0
100
AcDbLine
 62
7
  6
BYLAYER
 10
45.9771905541
 20
65.7515089531
 11
46.6842943913
 21
66.159753107
  0
LINE
  5
532
100
AcDbEntity
  8
0
100
AcDbLine
 62
7
  6
BYLAYER
 10
79.0699245134
 20
83.9845556386
 11
87.6906283857
 21
88.961659301
  0
LINE
  5
533
100
AcDbEntity
  8
0
100
AcDbLine
 62
7
  6
BYLAYER
 10
93.5655520065
 20
92.2718494116
 11
87.7613263418
 21
88.920806264
  0
LINE
  5
534
100
AcDbEntity
  8
0
100
AcDbLine
 62
7
  6
BYLAYER
 10
78.0558481295
 20
82.4471154227
 11
78.1888510413
 21
82.5237960783
  0
LINE
  5
535
100
AcDbEntity
  8
0
100
AcDbLine
 62
7
  6
BYLAYER
 10
95.3686685236
 20
90.2101608491
 11
95.2979575511
 21
90.2509849246
  0
LINE
  5
536
100
AcDbEntity
  8
0
100
AcDbLine
 62
7
  6
BYLAYER
 10
85.0803077089
 20
68.7270639124
 11
85.0803077089
 21
63.558603612
  0
LINE
  5
537
100
AcDbEntity
  8
0
100
AcDbLine
 62
7
  6
BYLAYER
 10
86.9187776856
 20
74.2272099776
 11
86.9187776856
 21
69.8997471668
  0
LINE
  5
538
100
AcDbEntity
  8
0
100
AcDbLine
 62
7
  6
BYLAYER
 10
86.9187776856
 20
64.5108312138
 11
86.9187776856
 21
60.183368403
  0
LINE
  5
539
100
AcDbEntity
  8
0
100
AcDbLine
 62
7
  6
BYLAYER
 10
86.9684491609
 20
89.7253378948
 11
86.81831794
 21
89.4653131032
  0
LINE
  5
53A
100
AcDbEntity
  8
0
100
AcDbLine
 62
7
  6
BYLAYER
 10
87.7613263418
 20
88.920806264
 11
88.7677682123
 21
90.6640273401
  0
LINE
  5
53B
100
AcDbEntity
  8
0
100
AcDbLine
 62
7
  6
BYLAYER
 10
78.1984129604
 20
82.3906918176
 11
78.0569921754
 21
82.3090451138
  0
LINE
  5
53C
100
AcDbEntity
  8
0
100
AcDbLine
 62
7
  6
BYLAYER
 10
49.9058415624
 20
66.0397053139
 11
50.0472623298
 21
66.1213541447
  0
LINE
  5
53D
100
AcDbEntity
  8
0
100
AcDbLine
 62
7
  6
BYLAYER
 10
50.9665061501
 20
66.2438465993
 11
51.1079269176
 21
66.32549543
  0
LINE
  5
53E
100
AcDbEntity
  8
0
100
AcDbLine
 62
7
  6
BYLAYER
 10
74.1270974503
 20
79.1913418847
 11
74.2685182178
 21
79.2729907155
  0
LINE
  5
53F
100
AcDbEntity
  8
0
100
AcDbLine
 62
7
  6
BYLAYER
 10
79.0699245134
 20
82.022843367
 11
79.6356075735
 21
82.3494386845
  0
LINE
  5
540
100
AcDbEntity
  8
0
100
AcDbLine
 62
7
  6
BYLAYER
 10
79.1406354859
 20
81.9820192915
 11
79.706318546
 21
82.308614609
  0
LINE
  5
541
100
AcDbEntity
  8
0
100
AcDbLine
 62
7
  6
BYLAYER
 10
78.9992147185
 20
81.7650628646
 11
79.1406354859
 21
81.8467116954
  0
LINE
  5
542
100
AcDbEntity
  8
0
100
AcDbLine
 62
7
  6
BYLAYER
 10
50.9665061501
 20
65.4273441821
 11
51.1079269176
 21
65.5089930129
  0
LINE
  5
543
100
AcDbEntity
  8
0
100
AcDbLine
 62
7
  6
BYLAYER
 10
75.187762038
 20
79.3954831701
 11
75.3291828055
 21
79.4771320008
  0
LINE
  5
544
100
AcDbEntity
  8
0
100
AcDbLine
 62
7
  6
BYLAYER
 10
55.9827931649
 20
67.5928698285
 11
56.6898970022
 21
68.0011139824
  0
LINE
  5
545
100
AcDbEntity
  8
0
100
AcDbLine
 62
7
  6
BYLAYER
 10
51.6736158753
 20
65.0191034276
 11
51.8150366427
 21
65.1007522584
  0
LINE
  5
546
100
AcDbEntity
  8
0
100
AcDbLine
 62
7
  6
BYLAYER
 10
75.187762038
 20
78.5789807529
 11
75.3291828055
 21
78.6606295837
  0
LINE
  5
547
100
AcDbEntity
  8
0
100
AcDbLine
 62
7
  6
BYLAYER
 10
100.8487232787
 20
93.374054529
 11
95.3686685236
 21
90.2101608491
  0
LINE
  5
548
100
AcDbEntity
  8
0
100
AcDbLine
 62
7
  6
BYLAYER
 10
50.9665061501
 20
64.2025905564
 11
51.1079269176
 21
64.2842393872
  0
LINE
  5
549
100
AcDbEntity
  8
0
100
AcDbLine
 62
7
  6
BYLAYER
 10
68.0390139787
 20
73.7965474397
 11
68.7461178159
 21
74.2047915935
  0
LINE
  5
54A
100
AcDbEntity
  8
0
100
AcDbLine
 62
7
  6
BYLAYER
 10
75.8948717632
 20
78.1707399984
 11
76.0362925306
 21
78.2523888292
  0
LINE
  5
54B
100
AcDbEntity
  8
0
100
AcDbLine
 62
7
  6
BYLAYER
 10
75.187762038
 20
77.3542271272
 11
75.3291828055
 21
77.435875958
  0
LINE
  5
54C
100
AcDbEntity
  8
0
100
AcDbLine
 62
7
  6
BYLAYER
 10
66.217553244
 20
72.0535427167
 11
66.6558417512
 21
72.3065871938
  0
LINE
  5
54D
100
AcDbEntity
  8
0
100
AcDbLine
 62
7
  6
BYLAYER
 10
67.7579666399
 20
71.1642047474
 11
68.1962551471
 21
71.4172492246
  0
LINE
  5
54E
100
AcDbEntity
  8
0
100
AcDbLine
 62
7
  6
BYLAYER
 10
49.9957350297
 20
60.2715484133
 11
48.2790436648
 21
59.2773634284
  0
LINE
  5
54F
100
AcDbEntity
  8
0
100
AcDbLine
 62
7
  6
BYLAYER
 10
64.6802427842
 20
68.3524924196
 11
65.3873466215
 21
68.7607365734
  0
LINE
  5
550
100
AcDbEntity
  8
0
100
AcDbLine
 62
7
  6
BYLAYER
 10
119.0920022885
 20
99.0893908473
 11
116.6171388582
 21
97.6605363088
  0
LINE
  5
551
100
AcDbEntity
  8
0
100
AcDbLine
 62
7
  6
BYLAYER
 10
56.0692502556
 20
62.2761533366
 11
56.2106710231
 21
62.3578021674
  0
LINE
  5
552
100
AcDbEntity
  8
0
100
AcDbLine
 62
7
  6
BYLAYER
 10
57.1299148433
 20
62.480294622
 11
57.2713356108
 21
62.5619434528
  0
LINE
  5
553
100
AcDbEntity
  8
0
100
AcDbLine
 62
7
  6
BYLAYER
 10
75.7465099828
 20
72.5125890823
 11
76.45361382
 21
72.9208332361
  0
LINE
  5
554
100
AcDbEntity
  8
0
100
AcDbLine
 62
7
  6
BYLAYER
 10
57.1299148433
 20
61.6637922049
 11
57.2713356108
 21
61.7454410356
  0
LINE
  5
555
100
AcDbEntity
  8
0
100
AcDbLine
 62
7
  6
BYLAYER
 10
67.7579666399
 20
67.0197007366
 11
68.4650704771
 21
67.4279448904
  0
LINE
  5
556
100
AcDbEntity
  8
0
100
AcDbLine
 62
7
  6
BYLAYER
 10
57.8370245685
 20
61.2555514503
 11
57.9784453359
 21
61.3372002811
  0
LINE
  5
557
100
AcDbEntity
  8
0
100
AcDbLine
 62
7
  6
BYLAYER
 10
57.1299148433
 20
60.4390385792
 11
57.2713356108
 21
60.5206874099
  0
LINE
  5
558
100
AcDbEntity
  8
0
100
AcDbLine
 62
7
  6
BYLAYER
 10
95.2110583056
 20
92.1155247899
 11
95.2979575511
 21
90.2509849246
  0
LINE
  5
559
100
AcDbEntity
  8
0
100
AcDbLine
 62
7
  6
BYLAYER
 10
95.3686685236
 20
90.2101608491
 11
95.2797174827
 21
92.118724738
  0
LINE
  5
55A
100
AcDbEntity
  8
0
100
AcDbLine
 62
7
  6
BYLAYER
 10
95.300522804
 20
53.9997597655
 11
95.2118792012
 21
51.9954743638
  0
LINE
  5
55B
100
AcDbEntity
  8
0
100
AcDbLine
 62
7
  6
BYLAYER
 10
95.2825901737
 20
51.9546502883
 11
95.3712337765
 21
53.95893569
  0
LINE
  5
55C
100
AcDbEntity
  8
0
100
AcDbLine
 62
7
  6
BYLAYER
 10
55.9563810769
 20
56.830238621
 11
54.2396958039
 21
55.8360571641
  0
LINE
  5
55D
100
AcDbEntity
  8
0
100
AcDbLine
 62
7
  6
BYLAYER
 10
79.706318546
 20
70.1447684389
 11
86.8480667131
 21
74.2680340531
  0
LINE
  5
55E
100
AcDbEntity
  8
0
100
AcDbLine
 62
7
  6
BYLAYER
 10
79.706318546
 20
70.0631196081
 11
86.9187776856
 21
74.2272099776
  0
LINE
  5
55F
100
AcDbEntity
  8
0
100
AcDbLine
 62
7
  6
BYLAYER
 10
62.1789351814
 20
58.9419335918
 11
62.3203559488
 21
59.0235824225
  0
LINE
  5
560
100
AcDbEntity
  8
0
100
AcDbLine
 62
7
  6
BYLAYER
 10
63.2395997691
 20
59.1460748771
 11
63.3810205365
 21
59.2277237079
  0
LINE
  5
561
100
AcDbEntity
  8
0
100
AcDbLine
 62
7
  6
BYLAYER
 10
63.2395997691
 20
58.32957246
 11
63.3810205365
 21
58.4112212907
  0
LINE
  5
562
100
AcDbEntity
  8
0
100
AcDbLine
 62
7
  6
BYLAYER
 10
68.21579141
 20
60.5303047753
 11
68.9228952472
 21
60.9385489292
  0
LINE
  5
563
100
AcDbEntity
  8
0
100
AcDbLine
 62
7
  6
BYLAYER
 10
63.9467094942
 20
57.9213317055
 11
64.0881302617
 21
58.0029805362
  0
LINE
  5
564
100
AcDbEntity
  8
0
100
AcDbLine
 62
7
  6
BYLAYER
 10
63.2395997691
 20
57.1048188343
 11
63.3810205365
 21
57.1864676651
  0
LINE
  5
565
100
AcDbEntity
  8
0
100
AcDbLine
 62
7
  6
BYLAYER
 10
100.7780123062
 20
57.1621715081
 11
100.7780123062
 21
93.3332297546
  0
LINE
  5
566
100
AcDbEntity
  8
0
100
AcDbLine
 62
7
  6
BYLAYER
 10
100.8487232787
 20
57.1213474327
 11
100.8487232787
 21
93.374054529
  0
LINE
  5
567
100
AcDbEntity
  8
0
100
AcDbLine
 62
7
  6
BYLAYER
 10
86.9187776856
 20
69.8997471668
 11
85.0803077089
 21
68.7270639124
  0
LINE
  5
568
100
AcDbEntity
  8
0
100
AcDbLine
 62
7
  6
BYLAYER
 10
62.0728739483
 20
53.2989524742
 11
60.3561949264
 21
52.3047746375
  0
LINE
  5
569
100
AcDbEntity
  8
0
100
AcDbLine
 62
7
  6
BYLAYER
 10
68.239427797
 20
55.3066595697
 11
68.3808485644
 21
55.3883084005
  0
LINE
  5
56A
100
AcDbEntity
  8
0
100
AcDbLine
 62
7
  6
BYLAYER
 10
69.3000923847
 20
55.5108008551
 11
69.4415131521
 21
55.5924496858
  0
LINE
  5
56B
100
AcDbEntity
  8
0
100
AcDbLine
 62
7
  6
BYLAYER
 10
69.3000923847
 20
54.6942984379
 11
69.4415131521
 21
54.7759472687
  0
LINE
  5
56C
100
AcDbEntity
  8
0
100
AcDbLine
 62
7
  6
BYLAYER
 10
86.8480667131
 20
64.5516552892
 11
85.0803077089
 21
63.636052131
  0
LINE
  5
56D
100
AcDbEntity
  8
0
100
AcDbLine
 62
7
  6
BYLAYER
 10
50.5153874805
 20
142.701820096
 11
114.1552627437
 21
105.9601521892
  0
LINE
  5
56E
100
AcDbEntity
  8
0
100
AcDbLine
 62
7
  6
BYLAYER
 10
50.5448263323
 20
143.3674318949
 11
114.1847015955
 21
106.6257639881
  0
LINE
  5
56F
100
AcDbEntity
  8
0
100
AcDbLine
 62
7
  6
BYLAYER
 10
68.1889830057
 20
49.767887918
 11
66.4722802731
 21
48.7737309996
  0
LINE
  5
570
100
AcDbEntity
  8
0
100
AcDbLine
 62
7
  6
BYLAYER
 10
70.0072021098
 20
54.2860576834
 11
70.1486228773
 21
54.3677065142
  0
LINE
  5
571
100
AcDbEntity
  8
0
100
AcDbLine
 62
7
  6
BYLAYER
 10
69.3000923847
 20
53.4695448122
 11
69.4415131521
 21
53.551193643
  0
LINE
  5
572
100
AcDbEntity
  8
0
100
AcDbLine
 62
7
  6
BYLAYER
 10
75.7465099828
 20
54.0596344551
 11
76.45361382
 21
54.467878609
  0
LINE
  5
573
100
AcDbEntity
  8
0
100
AcDbLine
 62
7
  6
BYLAYER
 10
86.9187776856
 20
60.183368403
 11
79.706318546
 21
56.0192780335
  0
LINE
  5
574
100
AcDbEntity
  8
0
100
AcDbLine
 62
7
  6
BYLAYER
 10
74.0244434755
 20
52.2394070408
 11
74.1658642429
 21
52.3210558716
  0
LINE
  5
575
100
AcDbEntity
  8
0
100
AcDbLine
 62
7
  6
BYLAYER
 10
75.0851080632
 20
52.4435483262
 11
75.2265288306
 21
52.5251971569
  0
LINE
  5
576
100
AcDbEntity
  8
0
100
AcDbLine
 62
7
  6
BYLAYER
 10
85.0803077089
 20
63.558603612
 11
86.9187776856
 21
64.5108312138
  0
LINE
  5
577
100
AcDbEntity
  8
0
100
AcDbLine
 62
7
  6
BYLAYER
 10
55.4521270253
 20
146.2006394517
 11
119.0920022885
 21
109.4589715449
  0
LINE
  5
578
100
AcDbEntity
  8
0
100
AcDbLine
 62
7
  6
BYLAYER
 10
74.3054799221
 20
46.2365994359
 11
72.5887804446
 21
45.2424478675
  0
LINE
  5
579
100
AcDbEntity
  8
0
100
AcDbLine
 62
7
  6
BYLAYER
 10
75.0851080632
 20
51.627045909
 11
75.2265288306
 21
51.7086947398
  0
LINE
  5
57A
100
AcDbEntity
  8
0
100
AcDbLine
 62
7
  6
BYLAYER
 10
75.7922177883
 20
51.2188051545
 11
75.9336385558
 21
51.3004539853
  0
LINE
  5
57B
100
AcDbEntity
  8
0
100
AcDbLine
 62
7
  6
BYLAYER
 10
75.0851080632
 20
50.4022922833
 11
75.2265288306
 21
50.4839411141
  0
LINE
  5
57C
100
AcDbEntity
  8
0
100
AcDbLine
 62
7
  6
BYLAYER
 10
114.1847016582
 20
59.2686169235
 11
114.1498182758
 21
60.0170713317
  0
LINE
  5
57D
100
AcDbEntity
  8
0
100
AcDbLine
 62
7
  6
BYLAYER
 10
116.6171388582
 20
97.6605363088
 11
116.6171388582
 21
70.0627546098
  0
LINE
  5
57E
100
AcDbEntity
  8
0
100
AcDbLine
 62
7
  6
BYLAYER
 10
114.1552627437
 20
105.9601521892
 11
114.1847015955
 21
106.6257639881
  0
LINE
  5
57F
100
AcDbEntity
  8
0
100
AcDbLine
 62
7
  6
BYLAYER
 10
95.2118792012
 20
51.9954743638
 11
93.4965050922
 21
49.8574338754
  0
LINE
  5
580
100
AcDbEntity
  8
0
100
AcDbLine
 62
7
  6
BYLAYER
 10
93.5645752266
 20
49.8133182622
 11
95.2825901737
 21
51.9546502883
  0
LINE
  5
581
100
AcDbEntity
  8
0
100
AcDbLine
 62
7
  6
BYLAYER
 10
116.6171388582
 20
70.0627546098
 11
119.0920022885
 21
71.4916091483
  0
LINE
  5
582
100
AcDbEntity
  8
0
100
AcDbLine
 62
7
  6
BYLAYER
 10
95.300522804
 20
53.9997596202
 11
100.7780123062
 21
57.1621716534
  0
LINE
  5
583
100
AcDbEntity
  8
0
100
AcDbLine
 62
7
  6
BYLAYER
 10
95.3712337765
 20
53.95893569
 11
100.8487232787
 21
57.1213474327
  0
LINE
  5
584
100
AcDbEntity
  8
0
100
AcDbLine
 62
7
  6
BYLAYER
 10
78.9992147184
 20
43.5267261455
 11
79.1406354859
 21
43.6083749763
  0
LINE
  5
585
100
AcDbEntity
  8
0
100
AcDbLine
 62
7
  6
BYLAYER
 10
79.1406354859
 20
43.445146459
 11
79.706318546
 21
43.7717417766
  0
LINE
  5
586
100
AcDbEntity
  8
0
100
AcDbLine
 62
7
  6
BYLAYER
 10
119.0920022885
 20
109.4589729263
 11
119.0920022885
 21
99.0893908473
  0
LINE
  5
587
100
AcDbEntity
  8
0
100
AcDbLine
 62
7
  6
BYLAYER
 10
119.0920022885
 20
71.4916091483
 11
119.0920022885
 21
62.1018313513
  0
LINE
  5
588
100
AcDbEntity
  8
0
100
AcDbLine
 62
7
  6
BYLAYER
 10
93.4965050922
 20
49.8574338754
 11
79.0699245134
 21
41.5006422451
  0
LINE
  5
589
100
AcDbEntity
  8
0
100
AcDbLine
 62
7
  6
BYLAYER
 10
87.7211474492
 20
46.4324382227
 11
93.5645752266
 21
49.8133182622
  0
LINE
  5
58A
100
AcDbEntity
  8
0
100
AcDbLine
 62
7
  6
BYLAYER
 10
119.0920022885
 20
62.1018313513
 11
114.1847016582
 21
59.2686169235
  0
LINE
  5
58B
100
AcDbEntity
  8
0
100
AcDbLine
 62
7
  6
BYLAYER
 10
114.1498182758
 20
60.0170713317
 11
88.7304934537
 21
45.8496753735
  0
ARC
  5
58C
100
AcDbEntity
  8
0
100
AcDbCircle
 62
7
  6
BYLAYER
 10
60.4371849543
 20
83.7233006093
 40
4.9734267304
100
AcDbArc
 50
19.4662983807
 51
21.2536640754
  0
ARC
  5
58D
100
AcDbEntity
  8
0
100
AcDbCircle
 62
7
  6
BYLAYER
 10
54.3238114133
 20
87.2557600735
 40
4.9700870993
100
AcDbArc
 50
19.374701954
 51
21.2540805641
  0
ARC
  5
58E
100
AcDbEntity
  8
0
100
AcDbCircle
 62
7
  6
BYLAYER
 10
40.7122150637
 20
95.1144946182
 40
4.9698030652
100
AcDbArc
 50
19.3669437088
 51
21.2541169749
  0
ARC
  5
58F
100
AcDbEntity
  8
0
100
AcDbCircle
 62
7
  6
BYLAYER
 10
28.4876563054
 20
102.1802275251
 40
4.9607892553
100
AcDbArc
 50
19.1232536912
 51
21.2553524967
  0
ARC
  5
590
100
AcDbEntity
  8
0
100
AcDbCircle
 62
7
  6
BYLAYER
 10
48.2222492931
 20
63.6439353662
 40
4.9541367362
100
AcDbArc
 50
18.9464043002
 51
21.2563631641
  0
ARC
  5
591
100
AcDbEntity
  8
0
100
AcDbCircle
 62
7
  6
BYLAYER
 10
60.4903002122
 20
56.5942225503
 40
4.9168093635
100
AcDbArc
 50
18.4148338724
 51
21.2648720002
  0
ARC
  5
592
100
AcDbEntity
  8
0
100
AcDbCircle
 62
7
  6
BYLAYER
 10
22.4236373961
 20
78.5820599552
 40
4.9048986597
100
AcDbArc
 50
18.1584880447
 51
21.2679681181
  0
ARC
  5
593
100
AcDbEntity
  8
0
100
AcDbCircle
 62
7
  6
BYLAYER
 10
42.5820779478
 20
68.3164770607
 40
3.0592356151
100
AcDbArc
 50
0.0165894496
 51
3.3983995075
  0
SPLINE
  5
594
100
AcDbEntity
  8
0
100
AcDbSpline
 62
7
  6
BYLAYER
 70
0
 71
3
 72
11
 73
7
 74
0
 42
0.0000001
 43
0.0000001
 44
0.0000000001
 40
0.0
 40
0.0
 40
0.0
 40
0.0
 40
0.2177839466
 40
0.4509170841
 40
0.710307871
 40
1.0
 40
1.0
 40
1.0
 40
1.0
 10
26.6445839675
 20
77.4806417683
 30
0.0
 10
26.7476593716
 20
77.5401707885
 30
0.0
 10
26.9405397428
 20
77.7022915282
 30
0.0
 10
27.145865695
 20
78.0380256669
 30
0.0
 10
27.2678106265
 20
78.4517561492
 30
0.0
 10
27.2918160671
 20
78.7528783639
 30
0.0
 10
27.2918160671
 20
78.9112104131
 30
0.0
  0
SPLINE
  5
595
100
AcDbEntity
  8
0
100
AcDbSpline
 62
7
  6
BYLAYER
 70
0
 71
3
 72
11
 73
7
 74
0
 42
0.0000001
 43
0.0000001
 44
0.0000000001
 40
0.0
 40
0.0
 40
0.0
 40
0.0
 40
0.2177839466
 40
0.4509170841
 40
0.710307871
 40
1.0
 40
1.0
 40
1.0
 40
1.0
 10
32.76108309
 20
73.9493592417
 30
0.0
 10
32.8641584941
 20
74.0088882619
 30
0.0
 10
33.0570388653
 20
74.1710090016
 30
0.0
 10
33.2623648175
 20
74.5067431403
 30
0.0
 10
33.384309749
 20
74.9204736226
 30
0.0
 10
33.4083151896
 20
75.2215958373
 30
0.0
 10
33.4083151896
 20
75.3799278865
 30
0.0
  0
SPLINE
  5
596
100
AcDbEntity
  8
0
100
AcDbSpline
 62
7
  6
BYLAYER
 70
0
 71
3
 72
11
 73
7
 74
0
 42
0.0000001
 43
0.0000001
 44
0.0000000001
 40
0.0
 40
0.0
 40
0.0
 40
0.0
 40
0.2177839466
 40
0.4509170841
 40
0.710307871
 40
1.0
 40
1.0
 40
1.0
 40
1.0
 10
38.8775822126
 20
70.4180767151
 30
0.0
 10
38.9806576166
 20
70.4776057353
 30
0.0
 10
39.1735379879
 20
70.639726475
 30
0.0
 10
39.37886394
 20
70.9754606137
 30
0.0
 10
39.5008088715
 20
71.389191096
 30
0.0
 10
39.5248143121
 20
71.6903133107
 30
0.0
 10
39.5248143121
 20
71.8486453599
 30
0.0
  0
SPLINE
  5
597
100
AcDbEntity
  8
0
100
AcDbSpline
 62
7
  6
BYLAYER
 70
0
 71
3
 72
11
 73
7
 74
0
 42
0.0000001
 43
0.0000001
 44
0.0000000001
 40
0.0
 40
0.0
 40
0.0
 40
0.0
 40
0.2177839466
 40
0.4509170841
 40
0.710307871
 40
1.0
 40
1.0
 40
1.0
 40
1.0
 10
44.9940813351
 20
66.8867941885
 30
0.0
 10
45.0971567391
 20
66.9463232087
 30
0.0
 10
45.2900371104
 20
67.1084439484
 30
0.0
 10
45.4953630625
 20
67.4441780871
 30
0.0
 10
45.617307994
 20
67.8579085694
 30
0.0
 10
45.6413134347
 20
68.1590307841
 30
0.0
 10
45.6413134347
 20
68.3173628333
 30
0.0
  0
SPLINE
  5
598
100
AcDbEntity
  8
0
100
AcDbSpline
 62
7
  6
BYLAYER
 70
0
 71
3
 72
11
 73
7
 74
0
 42
0.0000001
 43
0.0000001
 44
0.0000000001
 40
0.0
 40
0.0
 40
0.0
 40
0.0
 40
0.2177839466
 40
0.4509170841
 40
0.710307871
 40
1.0
 40
1.0
 40
1.0
 40
1.0
 10
44.9940813351
 20
94.035499558
 30
0.0
 10
45.0971567391
 20
94.0950285782
 30
0.0
 10
45.2900371104
 20
94.2571493179
 30
0.0
 10
45.4953630625
 20
94.5928834566
 30
0.0
 10
45.617307994
 20
95.0066139389
 30
0.0
 10
45.6413134347
 20
95.3077361537
 30
0.0
 10
45.6413134347
 20
95.4660682029
 30
0.0
  0
SPLINE
  5
599
100
AcDbEntity
  8
0
100
AcDbSpline
 62
7
  6
BYLAYER
 70
0
 71
3
 72
11
 73
7
 74
0
 42
0.0000001
 43
0.0000001
 44
0.0000000001
 40
0.0
 40
0.0
 40
0.0
 40
0.0
 40
0.2177839466
 40
0.4509170841
 40
0.710307871
 40
1.0
 40
1.0
 40
1.0
 40
1.0
 10
38.8775822126
 20
97.5667820847
 30
0.0
 10
38.9806576166
 20
97.6263111048
 30
0.0
 10
39.1735379879
 20
97.7884318445
 30
0.0
 10
39.37886394
 20
98.1241659832
 30
0.0
 10
39.5008088715
 20
98.5378964655
 30
0.0
 10
39.5248143121
 20
98.8390186803
 30
0.0
 10
39.5248143121
 20
98.9973507295
 30
0.0
  0
SPLINE
  5
59A
100
AcDbEntity
  8
0
100
AcDbSpline
 62
7
  6
BYLAYER
 70
0
 71
3
 72
9
 73
5
 74
0
 42
0.0000001
 43
0.0000001
 44
0.0000000001
 40
0.0
 40
0.0
 40
0.0
 40
0.0
 40
0.243900035
 40
1.0
 40
1.0
 40
1.0
 40
1.0
 10
77.2015296642
 20
77.2221557104
 30
0.0
 10
77.2015296642
 20
77.2504166546
 30
0.0
 10
77.1998424726
 20
77.3662845097
 30
0.0
 10
77.1916376269
 20
77.4820329322
 30
0.0
 10
77.1822416642
 20
77.5691376972
 30
0.0
  0
SPLINE
  5
59B
100
AcDbEntity
  8
0
100
AcDbSpline
 62
7
  6
BYLAYER
 70
0
 71
3
 72
9
 73
5
 74
0
 42
0.0000001
 43
0.0000001
 44
0.0000000001
 40
0.0
 40
0.0
 40
0.0
 40
0.0
 40
0.2408015031
 40
1.0
 40
1.0
 40
1.0
 40
1.0
 10
77.1822416642
 20
77.5691376972
 30
0.0
 10
77.175147862
 20
77.634900407
 30
0.0
 10
77.1381020978
 20
77.9071621011
 30
0.0
 10
77.0721821437
 20
78.1752094245
 30
0.0
 10
77.0092939828
 20
78.374040327
 30
0.0
  0
SPLINE
  5
59C
100
AcDbEntity
  8
0
100
AcDbSpline
 62
7
  6
BYLAYER
 70
0
 71
3
 72
9
 73
5
 74
0
 42
0.0000001
 43
0.0000001
 44
0.0000000001
 40
0.0
 40
0.0
 40
0.0
 40
0.0
 40
0.4994428531
 40
1.0
 40
1.0
 40
1.0
 40
1.0
 10
77.0092939828
 20
78.374040327
 30
0.0
 10
76.89938287
 20
78.7215417557
 30
0.0
 10
76.6000809339
 20
79.3935925458
 30
0.0
 10
76.1740408446
 20
79.99327706
 30
0.0
 10
75.9306510475
 20
80.2656600715
 30
0.0
  0
SPLINE
  5
59D
100
AcDbEntity
  8
0
100
AcDbSpline
 62
7
  6
BYLAYER
 70
0
 71
3
 72
9
 73
5
 74
0
 42
0.0000001
 43
0.0000001
 44
0.0000000001
 40
0.0
 40
0.0
 40
0.0
 40
0.0
 40
0.2585514944
 40
1.0
 40
1.0
 40
1.0
 40
1.0
 10
75.9306510475
 20
80.2656600715
 30
0.0
 10
75.8831406669
 20
80.3188300101
 30
0.0
 10
75.694865048
 20
80.520340557
 30
0.0
 10
75.488135595
 20
80.7050093301
 30
0.0
 10
75.3248115818
 20
80.8280414766
 30
0.0
  0
SPLINE
  5
59E
100
AcDbEntity
  8
0
100
AcDbSpline
 62
7
  6
BYLAYER
 70
0
 71
3
 72
12
 73
8
 74
0
 42
0.0000001
 43
0.0000001
 44
0.0000000001
 40
0.0
 40
0.0
 40
0.0
 40
0.0
 40
0.2972665088
 40
0.559591599
 40
0.7894706032
 40
0.8961122351
 40
1.0
 40
1.0
 40
1.0
 40
1.0
 10
75.3248115818
 20
80.8280414766
 30
0.0
 10
75.1634129098
 20
80.9496232617
 30
0.0
 10
74.8395051148
 20
81.1542988491
 30
0.0
 10
74.3304872769
 20
81.3391692001
 30
0.0
 10
73.9158452702
 20
81.3647755623
 30
0.0
 10
73.6221790848
 20
81.2984503389
 30
0.0
 10
73.4904784501
 20
81.2395463862
 30
0.0
 10
73.4293259816
 20
81.204229071
 30
0.0
  0
SPLINE
  5
59F
100
AcDbEntity
  8
0
100
AcDbSpline
 62
7
  6
BYLAYER
 70
0
 71
3
 72
9
 73
5
 74
0
 42
0.0000001
 43
0.0000001
 44
0.0000000001
 40
0.0
 40
0.0
 40
0.0
 40
0.0
 40
0.2444099315
 40
1.0
 40
1.0
 40
1.0
 40
1.0
 10
77.2015296642
 20
50.3260761887
 30
0.0
 10
77.2015296642
 20
50.3517208459
 30
0.0
 10
77.2001433842
 20
50.4566431326
 30
0.0
 10
77.1933832903
 20
50.5614772767
 30
0.0
 10
77.1856138901
 20
50.6403757785
 30
0.0
  0
SPLINE
  5
5A0
100
AcDbEntity
  8
0
100
AcDbSpline
 62
7
  6
BYLAYER
 70
0
 71
3
 72
9
 73
5
 74
0
 42
0.0000001
 43
0.0000001
 44
0.0000000001
 40
0.0
 40
0.0
 40
0.0
 40
0.0
 40
0.2405746102
 40
1.0
 40
1.0
 40
1.0
 40
1.0
 10
77.1856138901
 20
50.6403757785
 30
0.0
 10
77.1791633421
 20
50.7058812954
 30
0.0
 10
77.1447025503
 20
50.9773966093
 30
0.0
 10
77.0811887346
 20
51.2449322075
 30
0.0
 10
77.0200446027
 20
51.4435144723
 30
0.0
  0
SPLINE
  5
5A1
100
AcDbEntity
  8
0
100
AcDbSpline
 62
7
  6
BYLAYER
 70
0
 71
3
 72
9
 73
5
 74
0
 42
0.0000001
 43
0.0000001
 44
0.0000000001
 40
0.0
 40
0.0
 40
0.0
 40
0.0
 40
0.4994786111
 40
1.0
 40
1.0
 40
1.0
 40
1.0
 10
77.0200446027
 20
51.4435144723
 30
0.0
 10
76.9089934591
 20
51.8041833855
 30
0.0
 10
76.6009115007
 20
52.5012971802
 30
0.0
 10
76.157111457
 20
53.1208219044
 30
0.0
 10
75.9026865019
 20
53.4006033027
 30
0.0
  0
SPLINE
  5
5A2
100
AcDbEntity
  8
0
100
AcDbSpline
 62
7
  6
BYLAYER
 70
0
 71
3
 72
9
 73
5
 74
0
 42
0.0000001
 43
0.0000001
 44
0.0000000001
 40
0.0
 40
0.0
 40
0.0
 40
0.0
 40
0.2588114622
 40
1.0
 40
1.0
 40
1.0
 40
1.0
 10
75.9026865019
 20
53.4006033027
 30
0.0
 10
75.8548550336
 20
53.4532017401
 30
0.0
 10
75.6655512977
 20
53.6522485858
 30
0.0
 10
75.4578467199
 20
53.8342120688
 30
0.0
 10
75.2939241405
 20
53.9549727429
 30
0.0
  0
SPLINE
  5
5A3
100
AcDbEntity
  8
0
100
AcDbSpline
 62
7
  6
BYLAYER
 70
0
 71
3
 72
12
 73
8
 74
0
 42
0.0000001
 43
0.0000001
 44
0.0000000001
 40
0.0
 40
0.0
 40
0.0
 40
0.0
 40
0.2966281385
 40
0.5586384146
 40
0.7887699658
 40
0.8957269396
 40
1.0
 40
1.0
 40
1.0
 40
1.0
 10
75.2939241405
 20
53.9549727429
 30
0.0
 10
75.1346378637
 20
54.0723178838
 30
0.0
 10
74.8152928532
 20
54.26946088
 30
0.0
 10
74.3145551998
 20
54.4457608327
 30
0.0
 10
73.9075087015
 20
54.4676130143
 30
0.0
 10
73.6190834794
 20
54.4011106444
 30
0.0
 10
73.489551192
 20
54.3429313461
 30
0.0
 10
73.4293259816
 20
54.3081495493
 30
0.0
  0
SPLINE
  5
5A4
100
AcDbEntity
  8
0
100
AcDbSpline
 62
7
  6
BYLAYER
 70
0
 71
3
 72
9
 73
5
 74
0
 42
0.0000001
 43
0.0000001
 44
0.0000000001
 40
0.0
 40
0.0
 40
0.0
 40
0.0
 40
0.2447867032
 40
1.0
 40
1.0
 40
1.0
 40
1.0
 10
71.4861738888
 20
80.5448686251
 30
0.0
 10
71.4861738888
 20
80.5686149473
 30
0.0
 10
71.484987132
 20
80.6656211103
 30
0.0
 10
71.4791885331
 20
80.7625579704
 30
0.0
 10
71.4725061521
 20
80.8355144733
 30
0.0
  0
SPLINE
  5
5A5
100
AcDbEntity
  8
0
100
AcDbSpline
 62
7
  6
BYLAYER
 70
0
 71
3
 72
9
 73
5
 74
0
 42
0.0000001
 43
0.0000001
 44
0.0000000001
 40
0.0
 40
0.0
 40
0.0
 40
0.0
 40
0.2404092131
 40
1.0
 40
1.0
 40
1.0
 40
1.0
 10
71.4725061521
 20
80.8355144733
 30
0.0
 10
71.4665251039
 20
80.9008140053
 30
0.0
 10
71.4339551153
 20
81.1717083052
 30
0.0
 10
71.3722136683
 20
81.43879826
 30
0.0
 10
71.3123587105
 20
81.6371462352
 30
0.0
  0
SPLINE
  5
5A6
100
AcDbEntity
  8
0
100
AcDbSpline
 62
7
  6
BYLAYER
 70
0
 71
3
 72
9
 73
5
 74
0
 42
0.0000001
 43
0.0000001
 44
0.0000000001
 40
0.0
 40
0.0
 40
0.0
 40
0.0
 40
0.498389429
 40
1.0
 40
1.0
 40
1.0
 40
1.0
 10
71.3123587105
 20
81.6371462352
 30
0.0
 10
71.2063163609
 20
81.9885504653
 30
0.0
 10
70.9115071079
 20
82.670200897
 30
0.0
 10
70.4869309248
 20
83.279276368
 30
0.0
 10
70.2431867397
 20
83.5568837515
 30
0.0
  0
SPLINE
  5
5A7
100
AcDbEntity
  8
0
100
AcDbSpline
 62
7
  6
BYLAYER
 70
0
 71
3
 72
9
 73
5
 74
0
 42
0.0000001
 43
0.0000001
 44
0.0000000001
 40
0.0
 40
0.0
 40
0.0
 40
0.0
 40
0.2582856335
 40
1.0
 40
1.0
 40
1.0
 40
1.0
 10
70.2431867397
 20
83.5568837515
 30
0.0
 10
70.1960269142
 20
83.6105954565
 30
0.0
 10
70.0088936429
 20
83.814465754
 30
0.0
 10
69.8032688455
 20
84.0017457735
 30
0.0
 10
69.6406500666
 20
84.1269926643
 30
0.0
  0
SPLINE
  5
5A8
100
AcDbEntity
  8
0
100
AcDbSpline
 62
7
  6
BYLAYER
 70
0
 71
3
 72
12
 73
8
 74
0
 42
0.0000001
 43
0.0000001
 44
0.0000000001
 40
0.0
 40
0.0
 40
0.0
 40
0.0
 40
0.297894648
 40
0.5605397912
 40
0.7901720538
 40
0.8964986526
 40
1.0
 40
1.0
 40
1.0
 40
1.0
 10
69.6406500666
 20
84.1269926643
 30
0.0
 10
69.4771506601
 20
84.2529178031
 30
0.0
 10
69.1486731288
 20
84.4653214632
 30
0.0
 10
68.6313101044
 20
84.6590193712
 30
0.0
 10
68.2089600804
 20
84.6885384849
 30
0.0
 10
67.9099635851
 20
84.6224338117
 30
0.0
 10
67.7760614087
 20
84.5628014469
 30
0.0
 10
67.7139702062
 20
84.5269419857
 30
0.0
  0
SPLINE
  5
5A9
100
AcDbEntity
  8
0
100
AcDbSpline
 62
7
  6
BYLAYER
 70
0
 71
3
 72
9
 73
5
 74
0
 42
0.0000001
 43
0.0000001
 44
0.0000000001
 40
0.0
 40
0.0
 40
0.0
 40
0.0
 40
0.2417229215
 40
1.0
 40
1.0
 40
1.0
 40
1.0
 10
65.3696747663
 20
84.0761511517
 30
0.0
 10
65.3696747663
 20
84.1162664564
 30
0.0
 10
65.366243739
 20
84.2822149023
 30
0.0
 10
65.3497705252
 20
84.4478069138
 30
0.0
 10
65.3311792033
 20
84.5722664502
 30
0.0
  0
SPLINE
  5
5AA
100
AcDbEntity
  8
0
100
AcDbSpline
 62
7
  6
BYLAYER
 70
0
 71
3
 72
9
 73
5
 74
0
 42
0.0000001
 43
0.0000001
 44
0.0000000001
 40
0.0
 40
0.0
 40
0.0
 40
0.0
 40
0.2418074992
 40
1.0
 40
1.0
 40
1.0
 40
1.0
 10
65.3311792033
 20
84.5722664502
 30
0.0
 10
65.3212393532
 20
84.6388087399
 30
0.0
 10
65.2728285659
 20
84.9128847981
 30
0.0
 10
65.1966086249
 20
85.1818012691
 30
0.0
 10
65.1263190476
 20
85.3807066842
 30
0.0
  0
SPLINE
  5
5AB
100
AcDbEntity
  8
0
100
AcDbSpline
 62
7
  6
BYLAYER
 70
0
 71
3
 72
9
 73
5
 74
0
 42
0.0000001
 43
0.0000001
 44
0.0000000001
 40
0.0
 40
0.0
 40
0.0
 40
0.0
 40
0.504243593
 40
1.0
 40
1.0
 40
1.0
 40
1.0
 10
65.0723425208
 20
85.5261560598
 30
0.0
 10
64.9463633039
 20
85.8501117213
 30
0.0
 10
64.630893733
 20
86.4683592075
 30
0.0
 10
64.204465415
 20
87.0166183329
 30
0.0
 10
63.9664261356
 20
87.2618171516
 30
0.0
  0
SPLINE
  5
5AC
100
AcDbEntity
  8
0
100
AcDbSpline
 62
7
  6
BYLAYER
 70
0
 71
3
 72
9
 73
5
 74
0
 42
0.0000001
 43
0.0000001
 44
0.0000000001
 40
0.0
 40
0.0
 40
0.0
 40
0.0
 40
0.2597185364
 40
1.0
 40
1.0
 40
1.0
 40
1.0
 10
63.9664261356
 20
87.2618171516
 30
0.0
 10
63.9176558703
 20
87.3120542867
 30
0.0
 10
63.7255016586
 20
87.5011276292
 30
0.0
 10
63.5152908859
 20
87.6723322477
 30
0.0
 10
63.3500447669
 20
87.7842327387
 30
0.0
  0
SPLINE
  5
5AD
100
AcDbEntity
  8
0
100
AcDbSpline
 62
7
  6
BYLAYER
 70
0
 71
3
 72
11
 73
7
 74
0
 42
0.0000001
 43
0.0000001
 44
0.0000000001
 40
0.0
 40
0.0
 40
0.0
 40
0.0
 40
0.2944450151
 40
0.5555668805
 40
0.7868898803
 40
1.0
 40
1.0
 40
1.0
 40
1.0
 10
63.3500447669
 20
87.7842327387
 30
0.0
 10
63.1986703421
 20
87.8867396692
 30
0.0
 10
62.8962904163
 20
88.05762828
 30
0.0
 10
62.4252990132
 20
88.2039874623
 30
0.0
 10
61.980471802
 20
88.2156355431
 30
0.0
 10
61.7120520279
 20
88.124398314
 30
0.0
 10
61.5974710837
 20
88.0582245123
 30
0.0
  0
SPLINE
  5
5AE
100
AcDbEntity
  8
0
100
AcDbSpline
 62
7
  6
BYLAYER
 70
0
 71
3
 72
9
 73
5
 74
0
 42
0.0000001
 43
0.0000001
 44
0.0000000001
 40
0.0
 40
0.0
 40
0.0
 40
0.0
 40
0.2418257194
 40
1.0
 40
1.0
 40
1.0
 40
1.0
 10
59.2531756437
 20
87.6074336784
 30
0.0
 10
59.2531756437
 20
87.6469617848
 30
0.0
 10
59.2498457844
 20
87.8104117462
 30
0.0
 10
59.2338480173
 20
87.9735212597
 30
0.0
 10
59.2157813774
 20
88.0961261823
 30
0.0
  0
SPLINE
  5
5AF
100
AcDbEntity
  8
0
100
AcDbSpline
 62
7
  6
BYLAYER
 70
0
 71
3
 72
9
 73
5
 74
0
 42
0.0000001
 43
0.0000001
 44
0.0000000001
 40
0.0
 40
0.0
 40
0.0
 40
0.0
 40
0.2417587111
 40
1.0
 40
1.0
 40
1.0
 40
1.0
 10
59.2157813774
 20
88.0961261823
 30
0.0
 10
59.205979446
 20
88.1626446412
 30
0.0
 10
59.1581168621
 20
88.436690457
 30
0.0
 10
59.0823816797
 20
88.7056184062
 30
0.0
 10
59.0124386357
 20
88.9045598015
 30
0.0
  0
SPLINE
  5
5B0
100
AcDbEntity
  8
0
100
AcDbSpline
 62
7
  6
BYLAYER
 70
0
 71
3
 72
9
 73
5
 74
0
 42
0.0000001
 43
0.0000001
 44
0.0000000001
 40
0.0
 40
0.0
 40
0.0
 40
0.0
 40
0.5041274663
 40
1.0
 40
1.0
 40
1.0
 40
1.0
 10
58.9558433983
 20
89.0574385864
 30
0.0
 10
58.8305026852
 20
89.3797523348
 30
0.0
 10
58.516882776
 20
89.9951235332
 30
0.0
 10
58.0933341685
 20
90.5412848772
 30
0.0
 10
57.8569270474
 20
90.78587326
 30
0.0
  0
SPLINE
  5
5B1
100
AcDbEntity
  8
0
100
AcDbSpline
 62
7
  6
BYLAYER
 70
0
 71
3
 72
9
 73
5
 74
0
 42
0.0000001
 43
0.0000001
 44
0.0000000001
 40
0.0
 40
0.0
 40
0.0
 40
0.0
 40
0.2596610359
 40
1.0
 40
1.0
 40
1.0
 40
1.0
 10
57.8569270474
 20
90.78587326
 30
0.0
 10
57.8082072321
 20
90.8362791055
 30
0.0
 10
57.6161971995
 20
91.0260561629
 30
0.0
 10
57.4060999127
 20
91.1980105163
 30
0.0
 10
57.2408993778
 20
91.3105212359
 30
0.0
  0
SPLINE
  5
5B2
100
AcDbEntity
  8
0
100
AcDbSpline
 62
7
  6
BYLAYER
 70
0
 71
3
 72
11
 73
7
 74
0
 42
0.0000001
 43
0.0000001
 44
0.0000000001
 40
0.0
 40
0.0
 40
0.0
 40
0.0
 40
0.2946139141
 40
0.5558102849
 40
0.7870669299
 40
1.0
 40
1.0
 40
1.0
 40
1.0
 10
57.2408993778
 20
91.3105212359
 30
0.0
 10
57.0889942236
 20
91.4139770643
 30
0.0
 10
56.7854943207
 20
91.5865464512
 30
0.0
 10
56.3125115983
 20
91.7347825406
 30
0.0
 10
55.8656713117
 20
91.7473600422
 30
0.0
 10
55.5960005257
 20
91.6559393542
 30
0.0
 10
55.4809719611
 20
91.5895070389
 30
0.0
  0
SPLINE
  5
5B3
100
AcDbEntity
  8
0
100
AcDbSpline
 62
7
  6
BYLAYER
 70
0
 71
3
 72
9
 73
5
 74
0
 42
0.0000001
 43
0.0000001
 44
0.0000000001
 40
0.0
 40
0.0
 40
0.0
 40
0.0
 40
0.4805535111
 40
1.0
 40
1.0
 40
1.0
 40
1.0
 10
53.1366765212
 20
91.138716205
 30
0.0
 10
53.1366765212
 20
91.3174489223
 30
0.0
 10
53.1031079992
 20
91.6896744731
 30
0.0
 10
53.0169569078
 20
92.0526977968
 30
0.0
 10
52.9608698919
 20
92.2375755903
 30
0.0
  0
SPLINE
  5
5B4
100
AcDbEntity
  8
0
100
AcDbSpline
 62
7
  6
BYLAYER
 70
0
 71
3
 72
9
 73
5
 74
0
 42
0.0000001
 43
0.0000001
 44
0.0000000001
 40
0.0
 40
0.0
 40
0.0
 40
0.0
 40
0.4994899291
 40
1.0
 40
1.0
 40
1.0
 40
1.0
 10
52.9608698919
 20
92.2375755903
 30
0.0
 10
52.8493442919
 20
92.6051937732
 30
0.0
 10
52.536746698
 20
93.3155552734
 30
0.0
 10
52.0835849412
 20
93.9455193321
 30
0.0
 10
51.8233101218
 20
94.2291415306
 30
0.0
  0
SPLINE
  5
5B5
100
AcDbEntity
  8
0
100
AcDbSpline
 62
7
  6
BYLAYER
 70
0
 71
3
 72
9
 73
5
 74
0
 42
0.0000001
 43
0.0000001
 44
0.0000000001
 40
0.0
 40
0.0
 40
0.0
 40
0.0
 40
0.2589437636
 40
1.0
 40
1.0
 40
1.0
 40
1.0
 10
51.8233101218
 20
94.2291415306
 30
0.0
 10
51.7753237258
 20
94.2814324405
 30
0.0
 10
51.5855313604
 20
94.4791629871
 30
0.0
 10
51.3773719367
 20
94.6596893335
 30
0.0
 10
51.2131803783
 20
94.7792516625
 30
0.0
  0
SPLINE
  5
5B6
100
AcDbEntity
  8
0
100
AcDbSpline
 62
7
  6
BYLAYER
 70
0
 71
3
 72
12
 73
8
 74
0
 42
0.0000001
 43
0.0000001
 44
0.0000000001
 40
0.0
 40
0.0
 40
0.0
 40
0.0
 40
0.2962934261
 40
0.5581425562
 40
0.788407187
 40
0.895527695
 40
1.0
 40
1.0
 40
1.0
 40
1.0
 10
51.2131803783
 20
94.7792516625
 30
0.0
 10
51.0549929745
 20
94.8944418379
 30
0.0
 10
50.7380099557
 20
95.0877558317
 30
0.0
 10
50.2415385849
 20
95.2597122925
 30
0.0
 10
49.8383856716
 20
95.2796791482
 30
0.0
 10
49.552642837
 20
95.2131014456
 30
0.0
 10
49.4242218066
 20
95.1552963187
 30
0.0
 10
49.3644728386
 20
95.1207895655
 30
0.0
  0
SPLINE
  5
5B7
100
AcDbEntity
  8
0
100
AcDbSpline
 62
7
  6
BYLAYER
 70
0
 71
3
 72
9
 73
5
 74
0
 42
0.0000001
 43
0.0000001
 44
0.0000000001
 40
0.0
 40
0.0
 40
0.0
 40
0.0
 40
0.478923868
 40
1.0
 40
1.0
 40
1.0
 40
1.0
 10
53.1366765212
 20
63.9900108354
 30
0.0
 10
53.1366765212
 20
64.195513601
 30
0.0
 10
53.0923468305
 20
64.6249867486
 30
0.0
 10
52.9805558034
 20
65.040977185
 30
0.0
 10
52.9079843034
 20
65.2524620878
 30
0.0
  0
SPLINE
  5
5B8
100
AcDbEntity
  8
0
100
AcDbSpline
 62
7
  6
BYLAYER
 70
0
 71
3
 72
9
 73
5
 74
0
 42
0.0000001
 43
0.0000001
 44
0.0000000001
 40
0.0
 40
0.0
 40
0.0
 40
0.0
 40
0.504081084
 40
1.0
 40
1.0
 40
1.0
 40
1.0
 10
52.8393442758
 20
65.4400157434
 30
0.0
 10
52.7142600961
 20
65.7616698161
 30
0.0
 10
52.4013828473
 20
66.3758843674
 30
0.0
 10
51.9789896342
 20
66.9212005438
 30
0.0
 10
51.7432374434
 20
67.1655411101
 30
0.0
  0
SPLINE
  5
5B9
100
AcDbEntity
  8
0
100
AcDbSpline
 62
7
  6
BYLAYER
 70
0
 71
3
 72
9
 73
5
 74
0
 42
0.0000001
 43
0.0000001
 44
0.0000000001
 40
0.0
 40
0.0
 40
0.0
 40
0.0
 40
0.2596378184
 40
1.0
 40
1.0
 40
1.0
 40
1.0
 10
51.7432374434
 20
67.1655411101
 30
0.0
 10
51.6945383716
 20
67.2160142733
 30
0.0
 10
51.5025880505
 20
67.4060724495
 30
0.0
 10
51.292538474
 20
67.578326687
 30
0.0
 10
51.1273579261
 20
67.6910817459
 30
0.0
  0
SPLINE
  5
5BA
100
AcDbEntity
  8
0
100
AcDbSpline
 62
7
  6
BYLAYER
 70
0
 71
3
 72
11
 73
7
 74
0
 42
0.0000001
 43
0.0000001
 44
0.0000000001
 40
0.0
 40
0.0
 40
0.0
 40
0.0
 40
0.2946816024
 40
0.5559079756
 40
0.7871380552
 40
1.0
 40
1.0
 40
1.0
 40
1.0
 10
51.1273579261
 20
67.6910817459
 30
0.0
 10
50.9752397437
 20
67.7949202114
 30
0.0
 10
50.6712899669
 20
67.9681675221
 30
0.0
 10
50.1975065401
 20
68.1171611464
 30
0.0
 10
49.7498561386
 20
68.1301145665
 30
0.0
 10
49.4796815
 20
68.0386205224
 30
0.0
 10
49.3644728386
 20
67.972084196
 30
0.0
  0
SPLINE
  5
5BB
100
AcDbEntity
  8
0
100
AcDbSpline
 62
7
  6
BYLAYER
 70
0
 71
3
 72
9
 73
5
 74
0
 42
0.0000001
 43
0.0000001
 44
0.0000000001
 40
0.0
 40
0.0
 40
0.0
 40
0.0
 40
0.2356960772
 40
1.0
 40
1.0
 40
1.0
 40
1.0
 10
59.2531756437
 20
60.4587283088
 30
0.0
 10
59.2531756437
 20
60.5401864449
 30
0.0
 10
59.2386977715
 20
60.8857575869
 30
0.0
 10
59.171931963
 20
61.228142309
 30
0.0
 10
59.0995506474
 20
61.4821804803
 30
0.0
  0
SPLINE
  5
5BC
100
AcDbEntity
  8
0
100
AcDbSpline
 62
7
  6
BYLAYER
 70
0
 71
3
 72
9
 73
5
 74
0
 42
0.0000001
 43
0.0000001
 44
0.0000000001
 40
0.0
 40
0.0
 40
0.0
 40
0.0
 40
0.4977899573
 40
1.0
 40
1.0
 40
1.0
 40
1.0
 10
59.0995506474
 20
61.4821804803
 30
0.0
 10
58.9948616536
 20
61.8496095651
 30
0.0
 10
58.6936773407
 20
62.5632473414
 30
0.0
 10
58.2513194665
 20
63.1986804108
 30
0.0
 10
57.9956998648
 20
63.4871699163
 30
0.0
  0
SPLINE
  5
5BD
100
AcDbEntity
  8
0
100
AcDbSpline
 62
7
  6
BYLAYER
 70
0
 71
3
 72
9
 73
5
 74
0
 42
0.0000001
 43
0.0000001
 44
0.0000000001
 40
0.0
 40
0.0
 40
0.0
 40
0.0
 40
0.2584245373
 40
1.0
 40
1.0
 40
1.0
 40
1.0
 10
57.9956998648
 20
63.4871699163
 30
0.0
 10
57.9483541277
 20
63.5406038008
 30
0.0
 10
57.7606126872
 20
63.7432607945
 30
0.0
 10
57.5543974608
 20
63.9291956384
 30
0.0
 10
57.3913986613
 20
64.0532986545
 30
0.0
  0
SPLINE
  5
5BE
100
AcDbEntity
  8
0
100
AcDbSpline
 62
7
  6
BYLAYER
 70
0
 71
3
 72
12
 73
8
 74
0
 42
0.0000001
 43
0.0000001
 44
0.0000000001
 40
0.0
 40
0.0
 40
0.0
 40
0.0
 40
0.2975694596
 40
0.5600475816
 40
0.7898073541
 40
0.8962976595
 40
1.0
 40
1.0
 40
1.0
 40
1.0
 10
57.3913986613
 20
64.0532986545
 30
0.0
 10
57.2289896258
 20
64.1769526399
 30
0.0
 10
56.9028882255
 20
64.3853145976
 30
0.0
 10
56.3898710901
 20
64.5743914426
 30
0.0
 10
55.9715418567
 20
64.601856593
 30
0.0
 10
55.6753273664
 20
64.5356317485
 30
0.0
 10
55.5425737577
 20
64.4763784845
 30
0.0
 10
55.4809719611
 20
64.4408016694
 30
0.0
  0
SPLINE
  5
5BF
100
AcDbEntity
  8
0
100
AcDbSpline
 62
7
  6
BYLAYER
 70
0
 71
3
 72
9
 73
5
 74
0
 42
0.0000001
 43
0.0000001
 44
0.0000000001
 40
0.0
 40
0.0
 40
0.0
 40
0.0
 40
0.2429123703
 40
1.0
 40
1.0
 40
1.0
 40
1.0
 10
65.3696747663
 20
56.9274457822
 30
0.0
 10
65.3696747663
 20
56.9609395473
 30
0.0
 10
65.3672949946
 20
57.0988189407
 30
0.0
 10
65.3557865919
 20
57.2364952333
 30
0.0
 10
65.3426965965
 20
57.3400616563
 30
0.0
  0
SPLINE
  5
5C0
100
AcDbEntity
  8
0
100
AcDbSpline
 62
7
  6
BYLAYER
 70
0
 71
3
 72
9
 73
5
 74
0
 42
0.0000001
 43
0.0000001
 44
0.0000000001
 40
0.0
 40
0.0
 40
0.0
 40
0.0
 40
0.241250629
 40
1.0
 40
1.0
 40
1.0
 40
1.0
 10
65.3426965965
 20
57.3400616563
 30
0.0
 10
65.3343313854
 20
57.4062461699
 30
0.0
 10
65.2921945401
 20
57.6796230321
 30
0.0
 10
65.221599563
 20
57.9483428561
 30
0.0
 10
65.1553407056
 20
58.1474165214
 30
0.0
  0
SPLINE
  5
5C1
100
AcDbEntity
  8
0
100
AcDbSpline
 62
7
  6
BYLAYER
 70
0
 71
3
 72
9
 73
5
 74
0
 42
0.0000001
 43
0.0000001
 44
0.0000000001
 40
0.0
 40
0.0
 40
0.0
 40
0.0
 40
0.5034513844
 40
1.0
 40
1.0
 40
1.0
 40
1.0
 10
65.0723425208
 20
58.3774506902
 30
0.0
 10
64.9508312579
 20
58.6899170044
 30
0.0
 10
64.6482682315
 20
59.2879612612
 30
0.0
 10
64.2418708265
 20
59.8213672508
 30
0.0
 10
64.0151903529
 20
60.0621058294
 30
0.0
  0
SPLINE
  5
5C2
100
AcDbEntity
  8
0
100
AcDbSpline
 62
7
  6
BYLAYER
 70
0
 71
3
 72
9
 73
5
 74
0
 42
0.0000001
 43
0.0000001
 44
0.0000000001
 40
0.0
 40
0.0
 40
0.0
 40
0.0
 40
0.2593078386
 40
1.0
 40
1.0
 40
1.0
 40
1.0
 10
64.0151903529
 20
60.0621058294
 30
0.0
 10
63.9668084166
 20
60.1134882814
 30
0.0
 10
63.7757964551
 20
60.3073633968
 30
0.0
 10
63.566537306
 20
60.4837113606
 30
0.0
 10
63.4017353115
 20
60.5998177873
 30
0.0
  0
SPLINE
  5
5C3
100
AcDbEntity
  8
0
100
AcDbSpline
 62
7
  6
BYLAYER
 70
0
 71
3
 72
12
 73
8
 74
0
 42
0.0000001
 43
0.0000001
 44
0.0000000001
 40
0.0
 40
0.0
 40
0.0
 40
0.0
 40
0.29533491
 40
0.5567363172
 40
0.7873843475
 40
0.8949668311
 40
1.0
 40
1.0
 40
1.0
 40
1.0
 10
63.4017353115
 20
60.5998177873
 30
0.0
 10
63.2466632743
 20
60.7090692571
 30
0.0
 10
62.9363383693
 20
60.891841207
 30
0.0
 10
62.4518210989
 20
61.0518855279
 30
0.0
 10
62.0595077585
 20
61.0667438215
 30
0.0
 10
61.7812184594
 20
61.0000117247
 30
0.0
 10
61.6558907056
 20
60.9432581602
 30
0.0
 10
61.5974710837
 20
60.9095191428
 30
0.0
  0
SPLINE
  5
5C4
100
AcDbEntity
  8
0
100
AcDbSpline
 62
7
  6
BYLAYER
 70
0
 71
3
 72
9
 73
5
 74
0
 42
0.0000001
 43
0.0000001
 44
0.0000000001
 40
0.0
 40
0.0
 40
0.0
 40
0.0
 40
0.4802362888
 40
1.0
 40
1.0
 40
1.0
 40
1.0
 10
71.4861738888
 20
53.3961632556
 30
0.0
 10
71.4861738888
 20
53.579776559
 30
0.0
 10
71.450753883
 20
53.9624267462
 30
0.0
 10
71.3601385295
 20
54.3351657255
 30
0.0
 10
71.3011805571
 20
54.5249447005
 30
0.0
  0
SPLINE
  5
5C5
100
AcDbEntity
  8
0
100
AcDbSpline
 62
7
  6
BYLAYER
 70
0
 71
3
 72
9
 73
5
 74
0
 42
0.0000001
 43
0.0000001
 44
0.0000000001
 40
0.0
 40
0.0
 40
0.0
 40
0.0
 40
0.5001503975
 40
1.0
 40
1.0
 40
1.0
 40
1.0
 10
71.3011805571
 20
54.5249447005
 30
0.0
 10
71.1870467207
 20
54.8923284759
 30
0.0
 10
70.8702403913
 20
55.6008405166
 30
0.0
 10
70.4132685432
 20
56.2281948762
 30
0.0
 10
70.1514310582
 20
56.5097273647
 30
0.0
  0
SPLINE
  5
5C6
100
AcDbEntity
  8
0
100
AcDbSpline
 62
7
  6
BYLAYER
 70
0
 71
3
 72
9
 73
5
 74
0
 42
0.0000001
 43
0.0000001
 44
0.0000000001
 40
0.0
 40
0.0
 40
0.0
 40
0.0
 40
0.2591350084
 40
1.0
 40
1.0
 40
1.0
 40
1.0
 10
70.1514310582
 20
56.5097273647
 30
0.0
 10
70.1032311405
 20
56.5615528044
 30
0.0
 10
69.9127748442
 20
56.7573021475
 30
0.0
 10
69.7040092661
 20
56.9356757029
 30
0.0
 10
69.53947281
 20
57.0534525628
 30
0.0
  0
SPLINE
  5
5C7
100
AcDbEntity
  8
0
100
AcDbSpline
 62
7
  6
BYLAYER
 70
0
 71
3
 72
12
 73
8
 74
0
 42
0.0000001
 43
0.0000001
 44
0.0000000001
 40
0.0
 40
0.0
 40
0.0
 40
0.0
 40
0.2957970503
 40
0.5574118641
 40
0.7878746326
 40
0.8952355116
 40
1.0
 40
1.0
 40
1.0
 40
1.0
 10
69.53947281
 20
57.0534525628
 30
0.0
 10
69.3829044228
 20
57.1655257984
 30
0.0
 10
69.0693882475
 20
57.3533048233
 30
0.0
 10
68.5791544306
 20
57.5189984018
 30
0.0
 10
68.1816702849
 20
57.5362678849
 30
0.0
 10
67.8998279389
 20
57.4695992756
 30
0.0
 10
67.7730246299
 20
57.4123422499
 30
0.0
 10
67.7139702062
 20
57.3782366162
 30
0.0
  0
SPLINE
  5
5C8
100
AcDbEntity
  8
0
100
AcDbSpline
 62
7
  6
BYLAYER
 70
0
 71
3
 72
9
 73
5
 74
0
 42
0.0000001
 43
0.0000001
 44
0.0000000001
 40
0.0
 40
0.0
 40
0.0
 40
0.0
 40
0.244112534
 40
1.0
 40
1.0
 40
1.0
 40
1.0
 10
21.5764602917
 20
109.3365779611
 30
0.0
 10
21.5764602917
 20
109.3637418146
 30
0.0
 10
21.5749029486
 20
109.4750148952
 30
0.0
 10
21.5673207839
 20
109.5861824522
 30
0.0
 10
21.5586249265
 20
109.6698438318
 30
0.0
  0
SPLINE
  5
5C9
100
AcDbEntity
  8
0
100
AcDbSpline
 62
7
  6
BYLAYER
 70
0
 71
3
 72
9
 73
5
 74
0
 42
0.0000001
 43
0.0000001
 44
0.0000000001
 40
0.0
 40
0.0
 40
0.0
 40
0.0
 40
0.2407065241
 40
1.0
 40
1.0
 40
1.0
 40
1.0
 10
21.5586249265
 20
109.6698438318
 30
0.0
 10
21.5518002955
 20
109.7355024571
 30
0.0
 10
21.5158354452
 20
110.0074665799
 30
0.0
 10
21.4509191525
 20
110.2753137065
 30
0.0
 10
21.3887576461
 20
110.4740507746
 30
0.0
  0
SPLINE
  5
5CA
100
AcDbEntity
  8
0
100
AcDbSpline
 62
7
  6
BYLAYER
 70
0
 71
3
 72
9
 73
5
 74
0
 42
0.0000001
 43
0.0000001
 44
0.0000000001
 40
0.0
 40
0.0
 40
0.0
 40
0.0
 40
0.4999917839
 40
1.0
 40
1.0
 40
1.0
 40
1.0
 10
21.3887576461
 20
110.4740507746
 30
0.0
 10
21.2755996142
 20
110.8358292578
 30
0.0
 10
20.9634086959
 20
111.5339889022
 30
0.0
 10
20.5149059874
 20
112.1534553077
 30
0.0
 10
20.258173283
 20
112.4323570365
 30
0.0
  0
SPLINE
  5
5CB
100
AcDbEntity
  8
0
100
AcDbSpline
 62
7
  6
BYLAYER
 70
0
 71
3
 72
9
 73
5
 74
0
 42
0.0000001
 43
0.0000001
 44
0.0000000001
 40
0.0
 40
0.0
 40
0.0
 40
0.0
 40
0.2589881574
 40
1.0
 40
1.0
 40
1.0
 40
1.0
 10
20.258173283
 20
112.4323570365
 30
0.0
 10
20.2101362116
 20
112.484542138
 30
0.0
 10
20.0201852194
 20
112.6818211906
 30
0.0
 10
19.8118796107
 20
112.8618558676
 30
0.0
 10
19.6476033131
 20
112.9810094374
 30
0.0
  0
SPLINE
  5
5CC
100
AcDbEntity
  8
0
100
AcDbSpline
 62
7
  6
BYLAYER
 70
0
 71
3
 72
12
 73
8
 74
0
 42
0.0000001
 43
0.0000001
 44
0.0000000001
 40
0.0
 40
0.0
 40
0.0
 40
0.0
 40
0.2961795512
 40
0.5579744432
 40
0.7882844485
 40
0.8954603232
 40
1.0
 40
1.0
 40
1.0
 40
1.0
 10
19.6476033131
 20
112.9810094374
 30
0.0
 10
19.4897884382
 20
113.0954763812
 30
0.0
 10
19.1736044782
 20
113.2875057214
 30
0.0
 10
18.678573329
 20
113.458006909
 30
0.0
 10
18.2767318097
 20
113.4773447506
 30
0.0
 10
17.9918918062
 20
113.4107440383
 30
0.0
 10
17.863845029
 20
113.3530653536
 30
0.0
 10
17.8042566091
 20
113.3186513216
 30
0.0
  0
SPLINE
  5
5CD
100
AcDbEntity
  8
0
100
AcDbSpline
 62
7
  6
BYLAYER
 70
0
 71
3
 72
9
 73
5
 74
0
 42
0.0000001
 43
0.0000001
 44
0.0000000001
 40
0.0
 40
0.0
 40
0.0
 40
0.0
 40
0.4773615216
 40
1.0
 40
1.0
 40
1.0
 40
1.0
 10
21.5764602917
 20
82.4404984394
 30
0.0
 10
21.5764602917
 20
82.6770081252
 30
0.0
 10
21.5178209188
 20
83.1729198454
 30
0.0
 10
21.3729784025
 20
83.6491670779
 30
0.0
 10
21.2791280462
 20
83.8905033474
 30
0.0
  0
SPLINE
  5
5CE
100
AcDbEntity
  8
0
100
AcDbSpline
 62
7
  6
BYLAYER
 70
0
 71
3
 72
9
 73
5
 74
0
 42
0.0000001
 43
0.0000001
 44
0.0000000001
 40
0.0
 40
0.0
 40
0.0
 40
0.0
 40
0.504512447
 40
1.0
 40
1.0
 40
1.0
 40
1.0
 10
21.2791280462
 20
83.8905033474
 30
0.0
 10
21.1516906778
 20
84.2182086468
 30
0.0
 10
20.8319906696
 20
84.8430108673
 30
0.0
 10
20.3989648565
 20
85.3960295593
 30
0.0
 10
20.1571873028
 20
85.6425880949
 30
0.0
  0
SPLINE
  5
5CF
100
AcDbEntity
  8
0
100
AcDbSpline
 62
7
  6
BYLAYER
 70
0
 71
3
 72
9
 73
5
 74
0
 42
0.0000001
 43
0.0000001
 44
0.0000000001
 40
0.0
 40
0.0
 40
0.0
 40
0.0
 40
0.2598482851
 40
1.0
 40
1.0
 40
1.0
 40
1.0
 10
20.1571873028
 20
85.6425880949
 30
0.0
 10
20.1083081394
 20
85.6924338095
 30
0.0
 10
19.9158483759
 20
85.879878834
 30
0.0
 10
19.7054065966
 20
86.0493538327
 30
0.0
 10
19.5400785836
 20
86.1598498798
 30
0.0
  0
SPLINE
  5
5D0
100
AcDbEntity
  8
0
100
AcDbSpline
 62
7
  6
BYLAYER
 70
0
 71
3
 72
11
 73
7
 74
0
 42
0.0000001
 43
0.0000001
 44
0.0000000001
 40
0.0
 40
0.0
 40
0.0
 40
0.0
 40
0.294057065
 40
0.5550096916
 40
0.7864854605
 40
1.0
 40
1.0
 40
1.0
 40
1.0
 10
19.5400785836
 20
86.1598498798
 30
0.0
 10
19.389918798
 20
86.2602083273
 30
0.0
 10
19.0900978342
 20
86.427293553
 30
0.0
 10
18.6236452879
 20
86.5694121339
 30
0.0
 10
18.1833978137
 20
86.5789708136
 30
0.0
 10
17.9178187024
 20
86.4881571858
 30
0.0
 10
17.8042566091
 20
86.4225717999
 30
0.0
  0
SPLINE
  5
5D1
100
AcDbEntity
  8
0
100
AcDbSpline
 62
7
  6
BYLAYER
 70
0
 71
3
 72
9
 73
5
 74
0
 42
0.0000001
 43
0.0000001
 44
0.0000000001
 40
0.0
 40
0.0
 40
0.0
 40
0.0
 40
0.2449070985
 40
1.0
 40
1.0
 40
1.0
 40
1.0
 10
27.2918160671
 20
106.0599157827
 30
0.0
 10
27.2918160671
 20
106.0830615406
 30
0.0
 10
27.2906891491
 20
106.1775679304
 30
0.0
 10
27.285179498
 20
106.2720103504
 30
0.0
 10
27.2788245743
 20
106.3430893904
 30
0.0
  0
SPLINE
  5
5D2
100
AcDbEntity
  8
0
100
AcDbSpline
 62
7
  6
BYLAYER
 70
0
 71
3
 72
9
 73
5
 74
0
 42
0.0000001
 43
0.0000001
 44
0.0000000001
 40
0.0
 40
0.0
 40
0.0
 40
0.0
 40
0.2403567741
 40
1.0
 40
1.0
 40
1.0
 40
1.0
 10
27.2788245743
 20
106.3430893904
 30
0.0
 10
27.2729925057
 20
106.4083203618
 30
0.0
 10
27.2410232334
 20
106.6790042266
 30
0.0
 10
27.179846936
 20
106.9459400824
 30
0.0
 10
27.1204039066
 20
107.144204433
 30
0.0
  0
SPLINE
  5
5D3
100
AcDbEntity
  8
0
100
AcDbSpline
 62
7
  6
BYLAYER
 70
0
 71
3
 72
9
 73
5
 74
0
 42
0.0000001
 43
0.0000001
 44
0.0000000001
 40
0.0
 40
0.0
 40
0.0
 40
0.0
 40
0.4988221271
 40
1.0
 40
1.0
 40
1.0
 40
1.0
 10
27.1204039066
 20
107.144204433
 30
0.0
 10
27.011884992
 20
107.5061548977
 30
0.0
 10
26.7073406845
 20
108.2070941873
 30
0.0
 10
26.2659372948
 20
108.8307616054
 30
0.0
 10
26.012201528
 20
109.113169948
 30
0.0
  0
SPLINE
  5
5D4
100
AcDbEntity
  8
0
100
AcDbSpline
 62
7
  6
BYLAYER
 70
0
 71
3
 72
9
 73
5
 74
0
 42
0.0000001
 43
0.0000001
 44
0.0000000001
 40
0.0
 40
0.0
 40
0.0
 40
0.0
 40
0.2586334308
 40
1.0
 40
1.0
 40
1.0
 40
1.0
 10
26.012201528
 20
109.113169948
 30
0.0
 10
25.9645875993
 20
109.1661643321
 30
0.0
 10
25.7759783395
 20
109.3669154867
 30
0.0
 10
25.5689301274
 20
109.5507481957
 30
0.0
 10
25.4054075976
 20
109.6730760185
 30
0.0
  0
SPLINE
  5
5D5
100
AcDbEntity
  8
0
100
AcDbSpline
 62
7
  6
BYLAYER
 70
0
 71
3
 72
12
 73
8
 74
0
 42
0.0000001
 43
0.0000001
 44
0.0000000001
 40
0.0
 40
0.0
 40
0.0
 40
0.0
 40
0.2970679792
 40
0.5592940773
 40
0.7892514374
 40
0.8959916402
 40
1.0
 40
1.0
 40
1.0
 40
1.0
 10
25.4054075976
 20
109.6730760185
 30
0.0
 10
25.2446682511
 20
109.7933217994
 30
0.0
 10
24.9221879005
 20
109.9956213791
 30
0.0
 10
24.4157660279
 20
110.1777847218
 30
0.0
 10
24.0035108845
 20
110.2022004819
 30
0.0
 10
23.7114928565
 20
110.1358152916
 30
0.0
 10
23.5804737116
 20
110.0771383159
 30
0.0
 10
23.5196123845
 20
110.0419891432
 30
0.0
  0
SPLINE
  5
5D6
100
AcDbEntity
  8
0
100
AcDbSpline
 62
7
  6
BYLAYER
 70
0
 71
3
 72
9
 73
5
 74
0
 42
0.0000001
 43
0.0000001
 44
0.0000000001
 40
0.0
 40
0.0
 40
0.0
 40
0.0
 40
0.2421092374
 40
1.0
 40
1.0
 40
1.0
 40
1.0
 10
33.4083151896
 20
102.5286332561
 30
0.0
 10
33.4083151896
 20
102.5665569762
 30
0.0
 10
33.4052538493
 20
102.7231894753
 30
0.0
 10
33.3905203374
 20
102.8795227415
 30
0.0
 10
33.3738509192
 20
102.9970617565
 30
0.0
  0
SPLINE
  5
5D7
100
AcDbEntity
  8
0
100
AcDbSpline
 62
7
  6
BYLAYER
 70
0
 71
3
 72
9
 73
5
 74
0
 42
0.0000001
 43
0.0000001
 44
0.0000000001
 40
0.0
 40
0.0
 40
0.0
 40
0.0
 40
0.2416247899
 40
1.0
 40
1.0
 40
1.0
 40
1.0
 10
33.3738509192
 20
102.9970617565
 30
0.0
 10
33.364427594
 20
103.0635072883
 30
0.0
 10
33.3180711769
 20
103.3374391096
 30
0.0
 10
33.2436747968
 20
103.6063699789
 30
0.0
 10
33.1746895243
 20
103.805388945
 30
0.0
  0
SPLINE
  5
5D8
100
AcDbEntity
  8
0
100
AcDbSpline
 62
7
  6
BYLAYER
 70
0
 71
3
 72
9
 73
5
 74
0
 42
0.0000001
 43
0.0000001
 44
0.0000000001
 40
0.0
 40
0.0
 40
0.0
 40
0.0
 40
0.5041929966
 40
1.0
 40
1.0
 40
1.0
 40
1.0
 10
33.1109829442
 20
103.9786381641
 30
0.0
 10
32.9852812658
 20
104.3018801351
 30
0.0
 10
32.6706158976
 20
104.9188778366
 30
0.0
 10
32.2454399983
 20
105.4662261388
 30
0.0
 10
32.008110529
 20
105.7111607384
 30
0.0
  0
SPLINE
  5
5D9
100
AcDbEntity
  8
0
100
AcDbSpline
 62
7
  6
BYLAYER
 70
0
 71
3
 72
9
 73
5
 74
0
 42
0.0000001
 43
0.0000001
 44
0.0000000001
 40
0.0
 40
0.0
 40
0.0
 40
0.0
 40
0.2596935932
 40
1.0
 40
1.0
 40
1.0
 40
1.0
 10
32.008110529
 20
105.7111607384
 30
0.0
 10
31.959361986
 20
105.7614714095
 30
0.0
 10
31.7672696665
 20
105.9508513381
 30
0.0
 10
31.5571073001
 20
106.1223824249
 30
0.0
 10
31.3918802659
 20
106.2345485257
 30
0.0
  0
SPLINE
  5
5DA
100
AcDbEntity
  8
0
100
AcDbSpline
 62
7
  6
BYLAYER
 70
0
 71
3
 72
11
 73
7
 74
0
 42
0.0000001
 43
0.0000001
 44
0.0000000001
 40
0.0
 40
0.0
 40
0.0
 40
0.0
 40
0.2945185046
 40
0.5556727255
 40
0.786966842
 40
1.0
 40
1.0
 40
1.0
 40
1.0
 10
31.3918802659
 20
106.2345485257
 30
0.0
 10
31.2402750607
 20
106.3374673054
 30
0.0
 10
30.9374082705
 20
106.5090853506
 30
0.0
 10
30.4655515835
 20
106.6562588667
 30
0.0
 10
30.019849923
 20
106.6683098488
 30
0.0
 10
29.7508869072
 20
106.5769927222
 30
0.0
 10
29.636111507
 20
106.5107066166
 30
0.0
  0
SPLINE
  5
5DB
100
AcDbEntity
  8
0
100
AcDbSpline
 62
7
  6
BYLAYER
 70
0
 71
3
 72
9
 73
5
 74
0
 42
0.0000001
 43
0.0000001
 44
0.0000000001
 40
0.0
 40
0.0
 40
0.0
 40
0.0
 40
0.4797878844
 40
1.0
 40
1.0
 40
1.0
 40
1.0
 10
39.5248143121
 20
98.9973507295
 30
0.0
 10
39.5248143121
 20
99.1881148736
 30
0.0
 10
39.4865925887
 20
99.5860499191
 30
0.0
 10
39.3892646171
 20
99.9729779118
 30
0.0
 10
39.3259909919
 20
100.1698990499
 30
0.0
  0
SPLINE
  5
5DC
100
AcDbEntity
  8
0
100
AcDbSpline
 62
7
  6
BYLAYER
 70
0
 71
3
 72
9
 73
5
 74
0
 42
0.0000001
 43
0.0000001
 44
0.0000000001
 40
0.0
 40
0.0
 40
0.0
 40
0.0
 40
0.5007573869
 40
1.0
 40
1.0
 40
1.0
 40
1.0
 10
39.3259909919
 20
100.1698990499
 30
0.0
 10
39.2098358205
 20
100.5313989406
 30
0.0
 10
38.8927741131
 20
101.227434059
 30
0.0
 10
38.4398227398
 20
101.8438813721
 30
0.0
 10
38.1812541619
 20
102.1203692754
 30
0.0
  0
SPLINE
  5
5DD
100
AcDbEntity
  8
0
100
AcDbSpline
 62
7
  6
BYLAYER
 70
0
 71
3
 72
9
 73
5
 74
0
 42
0.0000001
 43
0.0000001
 44
0.0000000001
 40
0.0
 40
0.0
 40
0.0
 40
0.0
 40
0.2592126565
 40
1.0
 40
1.0
 40
1.0
 40
1.0
 10
38.1812541619
 20
102.1203692754
 30
0.0
 10
38.1329711589
 20
102.1719983882
 30
0.0
 10
37.9422599222
 20
102.3669158071
 30
0.0
 10
37.733266087
 20
102.5443889609
 30
0.0
 10
37.5686048064
 20
102.6614222092
 30
0.0
  0
SPLINE
  5
5DE
100
AcDbEntity
  8
0
100
AcDbSpline
 62
7
  6
BYLAYER
 70
0
 71
3
 72
12
 73
8
 74
0
 42
0.0000001
 43
0.0000001
 44
0.0000000001
 40
0.0
 40
0.0
 40
0.0
 40
0.0
 40
0.2955910705
 40
0.5571102172
 40
0.7876554674
 40
0.8951153707
 40
1.0
 40
1.0
 40
1.0
 40
1.0
 10
37.5686048064
 20
102.6614222092
 30
0.0
 10
37.4127046412
 20
102.7722284818
 30
0.0
 10
37.100615052
 20
102.9577588837
 30
0.0
 10
36.6129396505
 20
103.120913512
 30
0.0
 10
36.2177725406
 20
103.1370967265
 30
0.0
 10
35.9375228668
 20
103.0703973741
 30
0.0
 10
35.8113807522
 20
103.0133655317
 30
0.0
 10
35.7526106295
 20
102.97942409
 30
0.0
  0
SPLINE
  5
5DF
100
AcDbEntity
  8
0
100
AcDbSpline
 62
7
  6
BYLAYER
 70
0
 71
3
 72
9
 73
5
 74
0
 42
0.0000001
 43
0.0000001
 44
0.0000000001
 40
0.0
 40
0.0
 40
0.0
 40
0.0
 40
0.4786163814
 40
1.0
 40
1.0
 40
1.0
 40
1.0
 10
45.6413134347
 20
95.4660682029
 30
0.0
 10
45.6413134347
 20
95.6771717491
 30
0.0
 10
45.5945451698
 20
96.1186391553
 30
0.0
 10
45.4770422335
 20
96.5456055321
 30
0.0
 10
45.4007975404
 20
96.762565268
 30
0.0
  0
SPLINE
  5
5E0
100
AcDbEntity
  8
0
100
AcDbSpline
 62
7
  6
BYLAYER
 70
0
 71
3
 72
9
 73
5
 74
0
 42
0.0000001
 43
0.0000001
 44
0.0000000001
 40
0.0
 40
0.0
 40
0.0
 40
0.0
 40
0.5043988451
 40
1.0
 40
1.0
 40
1.0
 40
1.0
 10
45.3439811892
 20
96.9160731109
 30
0.0
 10
45.2171565878
 20
97.2422026796
 30
0.0
 10
44.8992354306
 20
97.8642527234
 30
0.0
 10
44.4689856796
 20
98.4152765559
 30
0.0
 10
44.2287809214
 20
98.6612695349
 30
0.0
  0
SPLINE
  5
5E1
100
AcDbEntity
  8
0
100
AcDbSpline
 62
7
  6
BYLAYER
 70
0
 71
3
 72
9
 73
5
 74
0
 42
0.0000001
 43
0.0000001
 44
0.0000000001
 40
0.0
 40
0.0
 40
0.0
 40
0.0
 40
0.2597940285
 40
1.0
 40
1.0
 40
1.0
 40
1.0
 10
44.2287809214
 20
98.6612695349
 30
0.0
 10
44.1799464507
 20
98.7112807712
 30
0.0
 10
43.9876110787
 20
98.8994136449
 30
0.0
 10
43.7772616045
 20
99.0696184078
 30
0.0
 10
43.6119642502
 20
99.1807064676
 30
0.0
  0
SPLINE
  5
5E2
100
AcDbEntity
  8
0
100
AcDbSpline
 62
7
  6
BYLAYER
 70
0
 71
3
 72
11
 73
7
 74
0
 42
0.0000001
 43
0.0000001
 44
0.0000000001
 40
0.0
 40
0.0
 40
0.0
 40
0.0
 40
0.29422047
 40
0.5552440625
 40
0.7866554253
 40
1.0
 40
1.0
 40
1.0
 40
1.0
 10
43.6119642502
 20
99.1807064676
 30
0.0
 10
43.4612935992
 20
99.2819646538
 30
0.0
 10
43.1603970634
 20
99.4506422729
 30
0.0
 10
42.6920386176
 20
99.5945351818
 30
0.0
 10
42.2498695446
 20
99.6049663123
 30
0.0
 10
41.983099432
 20
99.5139738929
 30
0.0
 10
41.8691097521
 20
99.4481415634
 30
0.0
  0
SPLINE
  5
5E3
100
AcDbEntity
  8
0
100
AcDbSpline
 62
7
  6
BYLAYER
 70
0
 71
3
 72
9
 73
5
 74
0
 42
0.0000001
 43
0.0000001
 44
0.0000000001
 40
0.0
 40
0.0
 40
0.0
 40
0.0
 40
0.2396287012
 40
1.0
 40
1.0
 40
1.0
 40
1.0
 10
45.6359338487
 20
68.497823925
 30
0.0
 10
45.6321792593
 20
68.5619398732
 30
0.0
 10
45.6086256185
 20
68.8290215059
 30
0.0
 10
45.555458126
 20
69.0931722437
 30
0.0
 10
45.5019021844
 20
69.2898056526
 30
0.0
  0
SPLINE
  5
5E4
100
AcDbEntity
  8
0
100
AcDbSpline
 62
7
  6
BYLAYER
 70
0
 71
3
 72
9
 73
5
 74
0
 42
0.0000001
 43
0.0000001
 44
0.0000000001
 40
0.0
 40
0.0
 40
0.0
 40
0.0
 40
0.4967488033
 40
1.0
 40
1.0
 40
1.0
 40
1.0
 10
45.5019021844
 20
69.2898056526
 30
0.0
 10
45.4013645746
 20
69.6589346858
 30
0.0
 10
45.1060553768
 20
70.3780997712
 30
0.0
 10
44.6678001846
 20
71.019606013
 30
0.0
 10
44.4134573771
 20
71.3120622518
 30
0.0
  0
SPLINE
  5
5E5
100
AcDbEntity
  8
0
100
AcDbSpline
 62
7
  6
BYLAYER
 70
0
 71
3
 72
9
 73
5
 74
0
 42
0.0000001
 43
0.0000001
 44
0.0000000001
 40
0.0
 40
0.0
 40
0.0
 40
0.0
 40
0.25813878
 40
1.0
 40
1.0
 40
1.0
 40
1.0
 10
44.4134573771
 20
71.3120622518
 30
0.0
 10
44.3665005817
 20
71.3660555528
 30
0.0
 10
44.1800369707
 20
71.5711632332
 30
0.0
 10
43.9750674221
 20
71.7598209852
 30
0.0
 10
43.8128775346
 20
71.88624654
 30
0.0
  0
SPLINE
  5
5E6
100
AcDbEntity
  8
0
100
AcDbSpline
 62
7
  6
BYLAYER
 70
0
 71
3
 72
12
 73
8
 74
0
 42
0.0000001
 43
0.0000001
 44
0.0000000001
 40
0.0
 40
0.0
 40
0.0
 40
0.0
 40
0.2982316
 40
0.56105296
 40
0.7905536451
 40
0.8967091593
 40
1.0
 40
1.0
 40
1.0
 40
1.0
 10
43.8128775346
 20
71.88624654
 30
0.0
 10
43.6482417618
 20
72.0145786404
 30
0.0
 10
43.3172774952
 20
72.2312671495
 30
0.0
 10
42.7953506655
 20
72.4298743962
 30
0.0
 10
42.3687622847
 20
72.4615890994
 30
0.0
 10
42.0668295633
 20
72.3956231981
 30
0.0
 10
41.9317162254
 20
72.3355932388
 30
0.0
 10
41.8691097521
 20
72.2994361939
 30
0.0
  0
SPLINE
  5
5E7
100
AcDbEntity
  8
0
100
AcDbSpline
 62
7
  6
BYLAYER
 70
0
 71
3
 72
9
 73
5
 74
0
 42
0.0000001
 43
0.0000001
 44
0.0000000001
 40
0.0
 40
0.0
 40
0.0
 40
0.0
 40
0.2364695382
 40
1.0
 40
1.0
 40
1.0
 40
1.0
 10
39.5248143121
 20
71.8486453599
 30
0.0
 10
39.5248143121
 20
71.9238266434
 30
0.0
 10
39.5125121864
 20
72.241728269
 30
0.0
 10
39.4554849242
 20
72.5571439342
 30
0.0
 10
39.3932770495
 20
72.7917887592
 30
0.0
  0
SPLINE
  5
5E8
100
AcDbEntity
  8
0
100
AcDbSpline
 62
7
  6
BYLAYER
 70
0
 71
3
 72
9
 73
5
 74
0
 42
0.0000001
 43
0.0000001
 44
0.0000000001
 40
0.0
 40
0.0
 40
0.0
 40
0.0
 40
0.4962629388
 40
1.0
 40
1.0
 40
1.0
 40
1.0
 10
39.3932770495
 20
72.7917887592
 30
0.0
 10
39.2945898961
 20
73.1640315014
 30
0.0
 10
39.0005395021
 20
73.8902690983
 30
0.0
 10
38.5610174791
 20
74.5381437359
 30
0.0
 10
38.3052637659
 20
74.8337695847
 30
0.0
  0
SPLINE
  5
5E9
100
AcDbEntity
  8
0
100
AcDbSpline
 62
7
  6
BYLAYER
 70
0
 71
3
 72
13
 73
9
 74
0
 42
0.0000001
 43
0.0000001
 44
0.0000000001
 40
0.0
 40
0.0
 40
0.0
 40
0.0
 40
0.3063378745
 40
0.5755786277
 40
0.6943491364
 40
0.8030247572
 40
0.9037326326
 40
1.0
 40
1.0
 40
1.0
 40
1.0
 10
38.3052637659
 20
74.8337695847
 30
0.0
 10
38.108619716
 20
75.0610705434
 30
0.0
 10
37.6994652896
 20
75.4560474922
 30
0.0
 10
37.1073849323
 20
75.8116517855
 30
0.0
 10
36.6391006611
 20
75.9548633654
 30
0.0
 10
36.316520145
 20
75.9888640769
 30
0.0
 10
36.0160608757
 20
75.9516377098
 30
0.0
 10
35.8344010665
 20
75.8779550579
 30
0.0
 10
35.7526106295
 20
75.8307187205
 30
0.0
  0
SPLINE
  5
5EA
100
AcDbEntity
  8
0
100
AcDbSpline
 62
7
  6
BYLAYER
 70
0
 71
3
 72
9
 73
5
 74
0
 42
0.0000001
 43
0.0000001
 44
0.0000000001
 40
0.0
 40
0.0
 40
0.0
 40
0.0
 40
0.2455264942
 40
1.0
 40
1.0
 40
1.0
 40
1.0
 10
33.4083151896
 20
75.3799278865
 30
0.0
 10
33.4083151896
 20
75.4000284649
 30
0.0
 10
33.4074674934
 20
75.4818943644
 30
0.0
 10
33.4033099981
 20
75.5637190927
 30
0.0
 10
33.3984928923
 20
75.6252976359
 30
0.0
  0
SPLINE
  5
5EB
100
AcDbEntity
  8
0
100
AcDbSpline
 62
7
  6
BYLAYER
 70
0
 71
3
 72
9
 73
5
 74
0
 42
0.0000001
 43
0.0000001
 44
0.0000000001
 40
0.0
 40
0.0
 40
0.0
 40
0.0
 40
0.2400902206
 40
1.0
 40
1.0
 40
1.0
 40
1.0
 10
33.3984928923
 20
75.6252976359
 30
0.0
 10
33.3934192279
 20
75.6901558453
 30
0.0
 10
33.3645136355
 20
75.9596689387
 30
0.0
 10
33.3062340739
 20
76.2257256995
 30
0.0
 10
33.2489092953
 20
76.4234951854
 30
0.0
  0
SPLINE
  5
5EC
100
AcDbEntity
  8
0
100
AcDbSpline
 62
7
  6
BYLAYER
 70
0
 71
3
 72
9
 73
5
 74
0
 42
0.0000001
 43
0.0000001
 44
0.0000000001
 40
0.0
 40
0.0
 40
0.0
 40
0.0
 40
0.4980500485
 40
1.0
 40
1.0
 40
1.0
 40
1.0
 10
33.2489092953
 20
76.4234951854
 30
0.0
 10
33.1433544401
 20
76.7876575945
 30
0.0
 10
32.8425330608
 20
77.4944689352
 30
0.0
 10
32.4029669331
 20
78.1240747215
 30
0.0
 10
32.1494255067
 20
78.4099645014
 30
0.0
  0
SPLINE
  5
5ED
100
AcDbEntity
  8
0
100
AcDbSpline
 62
7
  6
BYLAYER
 70
0
 71
3
 72
9
 73
5
 74
0
 42
0.0000001
 43
0.0000001
 44
0.0000000001
 40
0.0
 40
0.0
 40
0.0
 40
0.0
 40
0.2584380008
 40
1.0
 40
1.0
 40
1.0
 40
1.0
 10
32.1494255067
 20
78.4099645014
 30
0.0
 10
32.1020620694
 20
78.4633708534
 30
0.0
 10
31.9142629948
 20
78.6659079846
 30
0.0
 10
31.7079920768
 20
78.8517102365
 30
0.0
 10
31.544957782
 20
78.9757008508
 30
0.0
  0
SPLINE
  5
5EE
100
AcDbEntity
  8
0
100
AcDbSpline
 62
7
  6
BYLAYER
 70
0
 71
3
 72
12
 73
8
 74
0
 42
0.0000001
 43
0.0000001
 44
0.0000000001
 40
0.0
 40
0.0
 40
0.0
 40
0.0
 40
0.2975375958
 40
0.5599995075
 40
0.789771801
 40
0.8962780755
 40
1.0
 40
1.0
 40
1.0
 40
1.0
 10
31.544957782
 20
78.9757008508
 30
0.0
 10
31.3826552595
 20
79.0991349387
 30
0.0
 10
31.0567854722
 20
79.3071056471
 30
0.0
 10
30.5441911803
 20
79.4957356626
 30
0.0
 10
30.1262523765
 20
79.5230028686
 30
0.0
 10
29.8303078489
 20
79.4567669504
 30
0.0
 10
29.6976657496
 20
79.3975505984
 30
0.0
 10
29.636111507
 20
79.3620012471
 30
0.0
  0
SPLINE
  5
5EF
100
AcDbEntity
  8
0
100
AcDbSpline
 62
7
  6
BYLAYER
 70
0
 71
3
 72
9
 73
5
 74
0
 42
0.0000001
 43
0.0000001
 44
0.0000000001
 40
0.0
 40
0.0
 40
0.0
 40
0.0
 40
0.2432072997
 40
1.0
 40
1.0
 40
1.0
 40
1.0
 10
27.2918160671
 20
78.9112104131
 30
0.0
 10
27.2918160671
 20
78.9431177771
 30
0.0
 10
27.289659088
 20
79.0743076484
 30
0.0
 10
27.2792103032
 20
79.2053229848
 30
0.0
 10
27.2673017702
 20
79.3038929791
 30
0.0
  0
SPLINE
  5
5F0
100
AcDbEntity
  8
0
100
AcDbSpline
 62
7
  6
BYLAYER
 70
0
 71
3
 72
9
 73
5
 74
0
 42
0.0000001
 43
0.0000001
 44
0.0000000001
 40
0.0
 40
0.0
 40
0.0
 40
0.0
 40
0.2411152148
 40
1.0
 40
1.0
 40
1.0
 40
1.0
 10
27.2673017702
 20
79.3038929791
 30
0.0
 10
27.2593196995
 20
79.3699626335
 30
0.0
 10
27.218714586
 20
79.6430543094
 30
0.0
 10
27.1495166253
 20
79.9116191876
 30
0.0
 10
27.0842627596
 20
80.1106547622
 30
0.0
  0
SPLINE
  5
5F1
100
AcDbEntity
  8
0
100
AcDbSpline
 62
7
  6
BYLAYER
 70
0
 71
3
 72
9
 73
5
 74
0
 42
0.0000001
 43
0.0000001
 44
0.0000000001
 40
0.0
 40
0.0
 40
0.0
 40
0.0
 40
0.5030050608
 40
1.0
 40
1.0
 40
1.0
 40
1.0
 10
26.9944838217
 20
80.3612153212
 30
0.0
 10
26.8756157082
 20
80.6668847742
 30
0.0
 10
26.5806467253
 20
81.2528947965
 30
0.0
 10
26.1859650973
 20
81.7773236041
 30
0.0
 10
25.9659344081
 20
82.0152203594
 30
0.0
  0
SPLINE
  5
5F2
100
AcDbEntity
  8
0
100
AcDbSpline
 62
7
  6
BYLAYER
 70
0
 71
3
 72
9
 73
5
 74
0
 42
0.0000001
 43
0.0000001
 44
0.0000000001
 40
0.0
 40
0.0
 40
0.0
 40
0.0
 40
0.2590562423
 40
1.0
 40
1.0
 40
1.0
 40
1.0
 10
25.9659344081
 20
82.0152203594
 30
0.0
 10
25.9178209161
 20
82.0672405738
 30
0.0
 10
25.7276319169
 20
82.2638173926
 30
0.0
 10
25.5191085073
 20
82.4430886146
 30
0.0
 10
25.3547077156
 20
82.5616086406
 30
0.0
  0
SPLINE
  5
5F3
100
AcDbEntity
  8
0
100
AcDbSpline
 62
7
  6
BYLAYER
 70
0
 71
3
 72
12
 73
8
 74
0
 42
0.0000001
 43
0.0000001
 44
0.0000000001
 40
0.0
 40
0.0
 40
0.0
 40
0.0
 40
0.2960033366
 40
0.5577148698
 40
0.7880951853
 40
0.8953564733
 40
1.0
 40
1.0
 40
1.0
 40
1.0
 10
25.3547077156
 20
82.5616086406
 30
0.0
 10
25.1974680021
 20
82.6749660929
 30
0.0
 10
24.8825161314
 20
82.8650250948
 30
0.0
 10
24.3897026925
 20
83.0332962166
 30
0.0
 10
23.9898775629
 20
83.0516727752
 30
0.0
 10
23.7064251488
 20
82.9850390076
 30
0.0
 10
23.5789538006
 20
82.9275551538
 30
0.0
 10
23.5196123845
 20
82.8932837737
 30
0.0
  0
SPLINE
  5
5F4
100
AcDbEntity
  8
0
100
AcDbSpline
 62
7
  6
BYLAYER
 70
0
 71
3
 72
11
 73
7
 74
0
 42
0.0000001
 43
0.0000001
 44
0.0000000001
 40
0.0
 40
0.0
 40
0.0
 40
0.0
 40
0.2177839466
 40
0.4509170841
 40
0.710307871
 40
1.0
 40
1.0
 40
1.0
 40
1.0
 10
32.76108309
 20
101.0980646113
 30
0.0
 10
32.8641584941
 20
101.1575936314
 30
0.0
 10
33.0570388653
 20
101.3197143711
 30
0.0
 10
33.2623648175
 20
101.6554485098
 30
0.0
 10
33.384309749
 20
102.0691789921
 30
0.0
 10
33.4083151896
 20
102.3703012069
 30
0.0
 10
33.4083151896
 20
102.5286332561
 30
0.0
  0
SPLINE
  5
5F5
100
AcDbEntity
  8
0
100
AcDbSpline
 62
7
  6
BYLAYER
 70
0
 71
3
 72
8
 73
4
 74
0
 42
0.0000001
 43
0.0000001
 44
0.0000000001
 40
0.0
 40
0.0
 40
0.0
 40
0.0
 40
1.0
 40
1.0
 40
1.0
 40
1.0
 10
87.7211496819
 20
46.4307982273
 30
0.0
 10
87.6979273542
 20
46.4442053411
 30
0.0
 10
87.6758018258
 20
46.4594550495
 30
0.0
 10
87.6525794981
 20
46.4728621634
 30
0.0
  0
SPLINE
  5
5F6
100
AcDbEntity
  8
0
100
AcDbSpline
 62
7
  6
BYLAYER
 70
0
 71
3
 72
11
 73
7
 74
0
 42
0.0000001
 43
0.0000001
 44
0.0000000001
 40
0.0
 40
0.0
 40
0.0
 40
0.0
 40
0.2177839466
 40
0.4509170841
 40
0.710307871
 40
1.0
 40
1.0
 40
1.0
 40
1.0
 10
26.6445839675
 20
104.6293471379
 30
0.0
 10
26.7476593716
 20
104.688876158
 30
0.0
 10
26.9405397428
 20
104.8509968977
 30
0.0
 10
27.145865695
 20
105.1867310364
 30
0.0
 10
27.2678106265
 20
105.6004615187
 30
0.0
 10
27.2918160671
 20
105.9015837335
 30
0.0
 10
27.2918160671
 20
106.0599157827
 30
0.0
  0
SPLINE
  5
5F7
100
AcDbEntity
  8
0
100
AcDbSpline
 62
7
  6
BYLAYER
 70
0
 71
3
 72
11
 73
7
 74
0
 42
0.0000001
 43
0.0000001
 44
0.0000000001
 40
0.0
 40
0.0
 40
0.0
 40
0.0
 40
0.2177839466
 40
0.4509170841
 40
0.710307871
 40
1.0
 40
1.0
 40
1.0
 40
1.0
 10
20.9292281921
 20
81.0099297946
 30
0.0
 10
21.0323035961
 20
81.0694588147
 30
0.0
 10
21.2251839674
 20
81.2315795544
 30
0.0
 10
21.4305099195
 20
81.5673136931
 30
0.0
 10
21.552454851
 20
81.9810441754
 30
0.0
 10
21.5764602917
 20
82.2821663902
 30
0.0
 10
21.5764602917
 20
82.4404984394
 30
0.0
  0
SPLINE
  5
5F8
100
AcDbEntity
  8
0
100
AcDbSpline
 62
7
  6
BYLAYER
 70
0
 71
3
 72
11
 73
7
 74
0
 42
0.0000001
 43
0.0000001
 44
0.0000000001
 40
0.0
 40
0.0
 40
0.0
 40
0.0
 40
0.2177839466
 40
0.4509170841
 40
0.710307871
 40
1.0
 40
1.0
 40
1.0
 40
1.0
 10
20.9292281921
 20
107.9060093162
 30
0.0
 10
21.0323035961
 20
107.9655383364
 30
0.0
 10
21.2251839674
 20
108.1276590761
 30
0.0
 10
21.4305099195
 20
108.4633932148
 30
0.0
 10
21.552454851
 20
108.8771236971
 30
0.0
 10
21.5764602917
 20
109.1782459119
 30
0.0
 10
21.5764602917
 20
109.3365779611
 30
0.0
  0
SPLINE
  5
5F9
100
AcDbEntity
  8
0
100
AcDbSpline
 62
7
  6
BYLAYER
 70
0
 71
3
 72
11
 73
7
 74
0
 42
0.0000001
 43
0.0000001
 44
0.0000000001
 40
0.0
 40
0.0
 40
0.0
 40
0.0
 40
0.2177839466
 40
0.4509170841
 40
0.710307871
 40
1.0
 40
1.0
 40
1.0
 40
1.0
 10
70.8389417892
 20
51.9655946108
 30
0.0
 10
70.9420171932
 20
52.0251236309
 30
0.0
 10
71.1348975645
 20
52.1872443707
 30
0.0
 10
71.3402235166
 20
52.5229785093
 30
0.0
 10
71.4621684482
 20
52.9367089916
 30
0.0
 10
71.4861738888
 20
53.2378312064
 30
0.0
 10
71.4861738888
 20
53.3961632556
 30
0.0
  0
SPLINE
  5
5FA
100
AcDbEntity
  8
0
100
AcDbSpline
 62
7
  6
BYLAYER
 70
0
 71
3
 72
11
 73
7
 74
0
 42
0.0000001
 43
0.0000001
 44
0.0000000001
 40
0.0
 40
0.0
 40
0.0
 40
0.0
 40
0.2177839466
 40
0.4509170841
 40
0.710307871
 40
1.0
 40
1.0
 40
1.0
 40
1.0
 10
64.7224426667
 20
55.4968771374
 30
0.0
 10
64.8255180707
 20
55.5564061576
 30
0.0
 10
65.018398442
 20
55.7185268973
 30
0.0
 10
65.2237243941
 20
56.0542610359
 30
0.0
 10
65.3456693256
 20
56.4679915182
 30
0.0
 10
65.3696747663
 20
56.769113733
 30
0.0
 10
65.3696747663
 20
56.9274457822
 30
0.0
  0
SPLINE
  5
5FB
100
AcDbEntity
  8
0
100
AcDbSpline
 62
7
  6
BYLAYER
 70
0
 71
3
 72
11
 73
7
 74
0
 42
0.0000001
 43
0.0000001
 44
0.0000000001
 40
0.0
 40
0.0
 40
0.0
 40
0.0
 40
0.2177839466
 40
0.4509170841
 40
0.710307871
 40
1.0
 40
1.0
 40
1.0
 40
1.0
 10
58.6059435442
 20
59.028159664
 30
0.0
 10
58.7090189482
 20
59.0876886842
 30
0.0
 10
58.9018993195
 20
59.2498094239
 30
0.0
 10
59.1072252716
 20
59.5855435625
 30
0.0
 10
59.2291702031
 20
59.9992740448
 30
0.0
 10
59.2531756437
 20
60.3003962596
 30
0.0
 10
59.2531756437
 20
60.4587283088
 30
0.0
  0
SPLINE
  5
5FC
100
AcDbEntity
  8
0
100
AcDbSpline
 62
7
  6
BYLAYER
 70
0
 71
3
 72
11
 73
7
 74
0
 42
0.0000001
 43
0.0000001
 44
0.0000000001
 40
0.0
 40
0.0
 40
0.0
 40
0.0
 40
0.2177839466
 40
0.4509170841
 40
0.710307871
 40
1.0
 40
1.0
 40
1.0
 40
1.0
 10
52.4894444216
 20
62.5594421906
 30
0.0
 10
52.5925198257
 20
62.6189712108
 30
0.0
 10
52.7854001969
 20
62.7810919505
 30
0.0
 10
52.9907261491
 20
63.1168260891
 30
0.0
 10
53.1126710806
 20
63.5305565714
 30
0.0
 10
53.1366765212
 20
63.8316787862
 30
0.0
 10
53.1366765212
 20
63.9900108354
 30
0.0
  0
SPLINE
  5
5FD
100
AcDbEntity
  8
0
100
AcDbSpline
 62
7
  6
BYLAYER
 70
0
 71
3
 72
11
 73
7
 74
0
 42
0.0000001
 43
0.0000001
 44
0.0000000001
 40
0.0
 40
0.0
 40
0.0
 40
0.0
 40
0.2177839466
 40
0.4509170841
 40
0.710307871
 40
1.0
 40
1.0
 40
1.0
 40
1.0
 10
52.4894444216
 20
89.7081475601
 30
0.0
 10
52.5925198257
 20
89.7676765803
 30
0.0
 10
52.7854001969
 20
89.92979732
 30
0.0
 10
52.9907261491
 20
90.2655314587
 30
0.0
 10
53.1126710806
 20
90.679261941
 30
0.0
 10
53.1366765212
 20
90.9803841558
 30
0.0
 10
53.1366765212
 20
91.138716205
 30
0.0
  0
SPLINE
  5
5FE
100
AcDbEntity
  8
0
100
AcDbSpline
 62
7
  6
BYLAYER
 70
0
 71
3
 72
11
 73
7
 74
0
 42
0.0000001
 43
0.0000001
 44
0.0000000001
 40
0.0
 40
0.0
 40
0.0
 40
0.0
 40
0.2177839466
 40
0.4509170841
 40
0.710307871
 40
1.0
 40
1.0
 40
1.0
 40
1.0
 10
58.6059435442
 20
86.1768650335
 30
0.0
 10
58.7090189482
 20
86.2363940537
 30
0.0
 10
58.9018993195
 20
86.3985147934
 30
0.0
 10
59.1072252716
 20
86.7342489321
 30
0.0
 10
59.2291702031
 20
87.1479794144
 30
0.0
 10
59.2531756437
 20
87.4491016292
 30
0.0
 10
59.2531756437
 20
87.6074336784
 30
0.0
  0
SPLINE
  5
5FF
100
AcDbEntity
  8
0
100
AcDbSpline
 62
7
  6
BYLAYER
 70
0
 71
3
 72
11
 73
7
 74
0
 42
0.0000001
 43
0.0000001
 44
0.0000000001
 40
0.0
 40
0.0
 40
0.0
 40
0.0
 40
0.2177839466
 40
0.4509170841
 40
0.710307871
 40
1.0
 40
1.0
 40
1.0
 40
1.0
 10
64.7224426667
 20
82.6455825069
 30
0.0
 10
64.8255180707
 20
82.7051115271
 30
0.0
 10
65.018398442
 20
82.8672322668
 30
0.0
 10
65.2237243941
 20
83.2029664055
 30
0.0
 10
65.3456693256
 20
83.6166968878
 30
0.0
 10
65.3696747663
 20
83.9178191026
 30
0.0
 10
65.3696747663
 20
84.0761511517
 30
0.0
  0
SPLINE
  5
600
100
AcDbEntity
  8
0
100
AcDbSpline
 62
7
  6
BYLAYER
 70
0
 71
3
 72
11
 73
7
 74
0
 42
0.0000001
 43
0.0000001
 44
0.0000000001
 40
0.0
 40
0.0
 40
0.0
 40
0.0
 40
0.2177839466
 40
0.4509170841
 40
0.710307871
 40
1.0
 40
1.0
 40
1.0
 40
1.0
 10
70.8389417892
 20
79.1142999803
 30
0.0
 10
70.9420171932
 20
79.1738290005
 30
0.0
 10
71.1348975645
 20
79.3359497402
 30
0.0
 10
71.3402235166
 20
79.6716838789
 30
0.0
 10
71.4621684482
 20
80.0854143612
 30
0.0
 10
71.4861738888
 20
80.386536576
 30
0.0
 10
71.4861738888
 20
80.5448686251
 30
0.0
  0
SPLINE
  5
601
100
AcDbEntity
  8
0
100
AcDbSpline
 62
7
  6
BYLAYER
 70
0
 71
3
 72
11
 73
7
 74
0
 42
0.0000001
 43
0.0000001
 44
0.0000000001
 40
0.0
 40
0.0
 40
0.0
 40
0.0
 40
0.2177839466
 40
0.4509170841
 40
0.710307871
 40
1.0
 40
1.0
 40
1.0
 40
1.0
 10
76.5542975647
 20
48.8955075439
 30
0.0
 10
76.6573729687
 20
48.9550365641
 30
0.0
 10
76.8502533399
 20
49.1171573038
 30
0.0
 10
77.0555792921
 20
49.4528914425
 30
0.0
 10
77.1775242236
 20
49.8666219248
 30
0.0
 10
77.2015296642
 20
50.1677441395
 30
0.0
 10
77.2015296642
 20
50.3260761887
 30
0.0
  0
SPLINE
  5
602
100
AcDbEntity
  8
0
100
AcDbSpline
 62
7
  6
BYLAYER
 70
0
 71
3
 72
11
 73
7
 74
0
 42
0.0000001
 43
0.0000001
 44
0.0000000001
 40
0.0
 40
0.0
 40
0.0
 40
0.0
 40
0.2177839466
 40
0.4509170841
 40
0.710307871
 40
1.0
 40
1.0
 40
1.0
 40
1.0
 10
76.5542975647
 20
75.7915870656
 30
0.0
 10
76.6573729687
 20
75.8511160858
 30
0.0
 10
76.8502533399
 20
76.0132368255
 30
0.0
 10
77.0555792921
 20
76.3489709642
 30
0.0
 10
77.1775242236
 20
76.7627014465
 30
0.0
 10
77.2015296642
 20
77.0638236612
 30
0.0
 10
77.2015296642
 20
77.2221557104
 30
0.0
  0
SPLINE
  5
603
100
AcDbEntity
  8
0
100
AcDbSpline
 62
7
  6
BYLAYER
 70
0
 71
3
 72
9
 73
5
 74
0
 42
0.0000001
 43
0.0000001
 44
0.0000000001
 40
0.0
 40
0.0
 40
0.0
 40
0.0
 40
0.2461996355
 40
1.0
 40
1.0
 40
1.0
 40
1.0
 10
45.1911521972
 20
94.1828816079
 30
0.0
 10
45.1729095506
 20
94.177437341
 30
0.0
 10
45.0982489465
 20
94.1572411085
 30
0.0
 10
45.021545828
 20
94.1447449402
 30
0.0
 10
44.9634999496
 20
94.139431251
 30
0.0
  0
SPLINE
  5
604
100
AcDbEntity
  8
0
100
AcDbSpline
 62
7
  6
BYLAYER
 70
0
 71
3
 72
15
 73
11
 74
0
 42
0.0000001
 43
0.0000001
 44
0.0000000001
 40
0.0
 40
0.0
 40
0.0
 40
0.0
 40
0.1994164376
 40
0.2594900075
 40
0.3230217468
 40
0.4581981409
 40
0.5997143037
 40
0.7412523568
 40
0.8764822659
 40
1.0
 40
1.0
 40
1.0
 40
1.0
 10
44.9634999496
 20
94.139431251
 30
0.0
 10
44.5838466599
 20
94.1046766799
 30
0.0
 10
44.0744303998
 20
94.2831164414
 30
0.0
 10
43.5613394779
 20
94.620883126
 30
0.0
 10
43.1755114504
 20
94.9330159346
 30
0.0
 10
42.7287983503
 20
95.409846966
 30
0.0
 10
42.2767999783
 20
96.0729835166
 30
0.0
 10
41.9278631992
 20
96.7959820275
 30
0.0
 10
41.7046429347
 20
97.5311500141
 30
0.0
 10
41.6461399548
 20
98.0263804412
 30
0.0
 10
41.6461399548
 20
98.2625194109
 30
0.0
  0
SPLINE
  5
605
100
AcDbEntity
  8
0
100
AcDbSpline
 62
7
  6
BYLAYER
 70
0
 71
3
 72
11
 73
7
 74
0
 42
0.0000001
 43
0.0000001
 44
0.0000000001
 40
0.0
 40
0.0
 40
0.0
 40
0.0
 40
0.2177839466
 40
0.4509170841
 40
0.710307871
 40
1.0
 40
1.0
 40
1.0
 40
1.0
 10
29.636111507
 20
106.5107066166
 30
0.0
 10
29.533036103
 20
106.4511775965
 30
0.0
 10
29.3401557317
 20
106.2890568567
 30
0.0
 10
29.1348297796
 20
105.9533227181
 30
0.0
 10
29.0128848481
 20
105.5395922358
 30
0.0
 10
28.9888794075
 20
105.238470021
 30
0.0
 10
28.9888794075
 20
105.0801379718
 30
0.0
  0
SPLINE
  5
606
100
AcDbEntity
  8
0
100
AcDbSpline
 62
7
  6
BYLAYER
 70
0
 71
3
 72
9
 73
5
 74
0
 42
0.0000001
 43
0.0000001
 44
0.0000000001
 40
0.0
 40
0.0
 40
0.0
 40
0.0
 40
0.2461996355
 40
1.0
 40
1.0
 40
1.0
 40
1.0
 10
26.8416548296
 20
104.7767291877
 30
0.0
 10
26.823412183
 20
104.7712849208
 30
0.0
 10
26.7487515789
 20
104.7510886883
 30
0.0
 10
26.6720484604
 20
104.73859252
 30
0.0
 10
26.614002582
 20
104.7332788308
 30
0.0
  0
SPLINE
  5
607
100
AcDbEntity
  8
0
100
AcDbSpline
 62
7
  6
BYLAYER
 70
0
 71
3
 72
15
 73
11
 74
0
 42
0.0000001
 43
0.0000001
 44
0.0000000001
 40
0.0
 40
0.0
 40
0.0
 40
0.0
 40
0.1994164376
 40
0.2594900075
 40
0.3230217468
 40
0.4581981409
 40
0.5997143037
 40
0.7412523568
 40
0.8764822659
 40
1.0
 40
1.0
 40
1.0
 40
1.0
 10
26.614002582
 20
104.7332788308
 30
0.0
 10
26.2343492924
 20
104.6985242597
 30
0.0
 10
25.7249330322
 20
104.8769640212
 30
0.0
 10
25.2118421104
 20
105.2147307058
 30
0.0
 10
24.8260140828
 20
105.5268635144
 30
0.0
 10
24.3793009827
 20
106.0036945458
 30
0.0
 10
23.9273026108
 20
106.6668310964
 30
0.0
 10
23.5783658317
 20
107.3898296073
 30
0.0
 10
23.3551455671
 20
108.1249975939
 30
0.0
 10
23.2966425873
 20
108.620228021
 30
0.0
 10
23.2966425873
 20
108.8563669907
 30
0.0
  0
SPLINE
  5
608
100
AcDbEntity
  8
0
100
AcDbSpline
 62
7
  6
BYLAYER
 70
0
 71
3
 72
11
 73
7
 74
0
 42
0.0000001
 43
0.0000001
 44
0.0000000001
 40
0.0
 40
0.0
 40
0.0
 40
0.0
 40
0.2177839466
 40
0.4509170841
 40
0.710307871
 40
1.0
 40
1.0
 40
1.0
 40
1.0
 10
23.5196123845
 20
110.0419891432
 30
0.0
 10
23.4165369805
 20
109.9824601231
 30
0.0
 10
23.2236566092
 20
109.8203393833
 30
0.0
 10
23.0183306571
 20
109.4846052447
 30
0.0
 10
22.8963857256
 20
109.0708747624
 30
0.0
 10
22.8723802849
 20
108.7697525476
 30
0.0
 10
22.8723802849
 20
108.6114204984
 30
0.0
  0
SPLINE
  5
609
100
AcDbEntity
  8
0
100
AcDbSpline
 62
7
  6
BYLAYER
 70
0
 71
3
 72
10
 73
6
 74
0
 42
0.0000001
 43
0.0000001
 44
0.0000000001
 40
0.0
 40
0.0
 40
0.0
 40
0.0
 40
0.2783602789
 40
0.5377474743
 40
1.0
 40
1.0
 40
1.0
 40
1.0
 10
23.2966425873
 20
81.7076616212
 30
0.0
 10
23.2966425873
 20
81.8153469896
 30
0.0
 10
23.3082012783
 20
82.0238177217
 30
0.0
 10
23.3786209623
 20
82.4044439056
 30
0.0
 10
23.4908571038
 20
82.6682446697
 30
0.0
 10
23.5939748327
 20
82.8143445923
 30
0.0
  0
SPLINE
  5
60A
100
AcDbEntity
  8
0
100
AcDbSpline
 62
7
  6
BYLAYER
 70
0
 71
3
 72
9
 73
5
 74
0
 42
0.0000001
 43
0.0000001
 44
0.0000000001
 40
0.0
 40
0.0
 40
0.0
 40
0.0
 40
0.2543937375
 40
1.0
 40
1.0
 40
1.0
 40
1.0
 10
23.5939748327
 20
82.8143445923
 30
0.0
 10
23.6050889718
 20
82.8300913982
 30
0.0
 10
23.6501975728
 20
82.890971752
 30
0.0
 10
23.7010895033
 20
82.9476029651
 30
0.0
 10
23.7419601071
 20
82.9865998186
 30
0.0
  0
SPLINE
  5
60B
100
AcDbEntity
  8
0
100
AcDbSpline
 62
7
  6
BYLAYER
 70
0
 71
3
 72
9
 73
5
 74
0
 42
0.0000001
 43
0.0000001
 44
0.0000000001
 40
0.0
 40
0.0
 40
0.0
 40
0.0
 40
0.2461996355
 40
1.0
 40
1.0
 40
1.0
 40
1.0
 10
21.1262990542
 20
81.1573118444
 30
0.0
 10
21.1080564076
 20
81.1518675775
 30
0.0
 10
21.0333958035
 20
81.131671345
 30
0.0
 10
20.9566926849
 20
81.1191751767
 30
0.0
 10
20.8986468066
 20
81.1138614875
 30
0.0
  0
SPLINE
  5
60C
100
AcDbEntity
  8
0
100
AcDbSpline
 62
7
  6
BYLAYER
 70
0
 71
3
 72
15
 73
11
 74
0
 42
0.0000001
 43
0.0000001
 44
0.0000000001
 40
0.0
 40
0.0
 40
0.0
 40
0.0
 40
0.1994164376
 40
0.2594900075
 40
0.3230217468
 40
0.4581981409
 40
0.5997143037
 40
0.7412523568
 40
0.8764822659
 40
1.0
 40
1.0
 40
1.0
 40
1.0
 10
20.8986468066
 20
81.1138614875
 30
0.0
 10
20.5189935169
 20
81.0791069164
 30
0.0
 10
20.0095772568
 20
81.2575466779
 30
0.0
 10
19.4964863349
 20
81.5953133625
 30
0.0
 10
19.1106583073
 20
81.9074461711
 30
0.0
 10
18.6639452072
 20
82.3842772025
 30
0.0
 10
18.2119468353
 20
83.0474137531
 30
0.0
 10
17.8630100562
 20
83.770412264
 30
0.0
 10
17.6397897917
 20
84.5055802506
 30
0.0
 10
17.5812868118
 20
85.0008106777
 30
0.0
 10
17.5812868118
 20
85.2369496474
 30
0.0
  0
SPLINE
  5
60D
100
AcDbEntity
  8
0
100
AcDbSpline
 62
7
  6
BYLAYER
 70
0
 71
3
 72
11
 73
7
 74
0
 42
0.0000001
 43
0.0000001
 44
0.0000000001
 40
0.0
 40
0.0
 40
0.0
 40
0.0
 40
0.2177839466
 40
0.4509170841
 40
0.710307871
 40
1.0
 40
1.0
 40
1.0
 40
1.0
 10
17.8042566091
 20
86.4225717999
 30
0.0
 10
17.701181205
 20
86.3630427798
 30
0.0
 10
17.5083008338
 20
86.20092204
 30
0.0
 10
17.3029748816
 20
85.8651879014
 30
0.0
 10
17.1810299501
 20
85.4514574191
 30
0.0
 10
17.1570245095
 20
85.1503352043
 30
0.0
 10
17.1570245095
 20
84.9920031551
 30
0.0
  0
SPLINE
  5
60E
100
AcDbEntity
  8
0
100
AcDbSpline
 62
7
  6
BYLAYER
 70
0
 71
3
 72
9
 73
5
 74
0
 42
0.0000001
 43
0.0000001
 44
0.0000000001
 40
0.0
 40
0.0
 40
0.0
 40
0.0
 40
0.2461996355
 40
1.0
 40
1.0
 40
1.0
 40
1.0
 10
21.1262990542
 20
108.0533913661
 30
0.0
 10
21.1080564076
 20
108.0479470992
 30
0.0
 10
21.0333958035
 20
108.0277508667
 30
0.0
 10
20.9566926849
 20
108.0152546984
 30
0.0
 10
20.8986468066
 20
108.0099410092
 30
0.0
  0
SPLINE
  5
60F
100
AcDbEntity
  8
0
100
AcDbSpline
 62
7
  6
BYLAYER
 70
0
 71
3
 72
15
 73
11
 74
0
 42
0.0000001
 43
0.0000001
 44
0.0000000001
 40
0.0
 40
0.0
 40
0.0
 40
0.0
 40
0.1994164376
 40
0.2594900075
 40
0.3230217468
 40
0.4581981409
 40
0.5997143037
 40
0.7412523568
 40
0.8764822659
 40
1.0
 40
1.0
 40
1.0
 40
1.0
 10
20.8986468066
 20
108.0099410092
 30
0.0
 10
20.5189935169
 20
107.9751864381
 30
0.0
 10
20.0095772568
 20
108.1536261996
 30
0.0
 10
19.4964863349
 20
108.4913928842
 30
0.0
 10
19.1106583073
 20
108.8035256928
 30
0.0
 10
18.6639452072
 20
109.2803567242
 30
0.0
 10
18.2119468353
 20
109.9434932748
 30
0.0
 10
17.8630100562
 20
110.6664917857
 30
0.0
 10
17.6397897917
 20
111.4016597723
 30
0.0
 10
17.5812868118
 20
111.8968901994
 30
0.0
 10
17.5812868118
 20
112.1330291691
 30
0.0
  0
SPLINE
  5
610
100
AcDbEntity
  8
0
100
AcDbSpline
 62
7
  6
BYLAYER
 70
0
 71
3
 72
11
 73
7
 74
0
 42
0.0000001
 43
0.0000001
 44
0.0000000001
 40
0.0
 40
0.0
 40
0.0
 40
0.0
 40
0.2177839466
 40
0.4509170841
 40
0.710307871
 40
1.0
 40
1.0
 40
1.0
 40
1.0
 10
17.8042566091
 20
113.3186513216
 30
0.0
 10
17.701181205
 20
113.2591223015
 30
0.0
 10
17.5083008338
 20
113.0970015617
 30
0.0
 10
17.3029748816
 20
112.7612674231
 30
0.0
 10
17.1810299501
 20
112.3475369408
 30
0.0
 10
17.1570245095
 20
112.046414726
 30
0.0
 10
17.1570245095
 20
111.8880826768
 30
0.0
  0
SPLINE
  5
611
100
AcDbEntity
  8
0
100
AcDbSpline
 62
7
  6
BYLAYER
 70
0
 71
3
 72
11
 73
7
 74
0
 42
0.0000001
 43
0.0000001
 44
0.0000000001
 40
0.0
 40
0.0
 40
0.0
 40
0.0
 40
0.2177839466
 40
0.4509170841
 40
0.710307871
 40
1.0
 40
1.0
 40
1.0
 40
1.0
 10
41.8691097521
 20
99.4481415634
 30
0.0
 10
41.766034348
 20
99.3886125433
 30
0.0
 10
41.5731539768
 20
99.2264918035
 30
0.0
 10
41.3678280246
 20
98.8907576649
 30
0.0
 10
41.2458830931
 20
98.4770271826
 30
0.0
 10
41.2218776525
 20
98.1759049678
 30
0.0
 10
41.2218776525
 20
98.0175729186
 30
0.0
  0
SPLINE
  5
612
100
AcDbEntity
  8
0
100
AcDbSpline
 62
7
  6
BYLAYER
 70
0
 71
3
 72
9
 73
5
 74
0
 42
0.0000001
 43
0.0000001
 44
0.0000000001
 40
0.0
 40
0.0
 40
0.0
 40
0.0
 40
0.2461996355
 40
1.0
 40
1.0
 40
1.0
 40
1.0
 10
71.0360126513
 20
52.1129766606
 30
0.0
 10
71.0177700047
 20
52.1075323937
 30
0.0
 10
70.9431094006
 20
52.0873361612
 30
0.0
 10
70.8664062821
 20
52.0748399929
 30
0.0
 10
70.8083604037
 20
52.0695263037
 30
0.0
  0
SPLINE
  5
613
100
AcDbEntity
  8
0
100
AcDbSpline
 62
7
  6
BYLAYER
 70
0
 71
3
 72
15
 73
11
 74
0
 42
0.0000001
 43
0.0000001
 44
0.0000000001
 40
0.0
 40
0.0
 40
0.0
 40
0.0
 40
0.1994164376
 40
0.2594900075
 40
0.3230217468
 40
0.4581981409
 40
0.5997143037
 40
0.7412523568
 40
0.8764822659
 40
1.0
 40
1.0
 40
1.0
 40
1.0
 10
70.8083604037
 20
52.0695263037
 30
0.0
 10
70.4287071141
 20
52.0347717326
 30
0.0
 10
69.9192908539
 20
52.2132114941
 30
0.0
 10
69.4061999321
 20
52.5509781787
 30
0.0
 10
69.0203719045
 20
52.8631109873
 30
0.0
 10
68.5736588044
 20
53.3399420187
 30
0.0
 10
68.1216604324
 20
54.0030785693
 30
0.0
 10
67.7727236534
 20
54.7260770802
 30
0.0
 10
67.5495033888
 20
55.4612450668
 30
0.0
 10
67.4910004089
 20
55.9564754939
 30
0.0
 10
67.4910004089
 20
56.1926144637
 30
0.0
  0
SPLINE
  5
614
100
AcDbEntity
  8
0
100
AcDbSpline
 62
7
  6
BYLAYER
 70
0
 71
3
 72
11
 73
7
 74
0
 42
0.0000001
 43
0.0000001
 44
0.0000000001
 40
0.0
 40
0.0
 40
0.0
 40
0.0
 40
0.2177839466
 40
0.4509170841
 40
0.710307871
 40
1.0
 40
1.0
 40
1.0
 40
1.0
 10
67.7139702062
 20
57.3782366162
 30
0.0
 10
67.6108948022
 20
57.318707596
 30
0.0
 10
67.4180144309
 20
57.1565868563
 30
0.0
 10
67.2126884788
 20
56.8208527176
 30
0.0
 10
67.0907435472
 20
56.4071222353
 30
0.0
 10
67.0667381066
 20
56.1060000205
 30
0.0
 10
67.0667381066
 20
55.9476679713
 30
0.0
  0
SPLINE
  5
615
100
AcDbEntity
  8
0
100
AcDbSpline
 62
7
  6
BYLAYER
 70
0
 71
3
 72
9
 73
5
 74
0
 42
0.0000001
 43
0.0000001
 44
0.0000000001
 40
0.0
 40
0.0
 40
0.0
 40
0.0
 40
0.2461996355
 40
1.0
 40
1.0
 40
1.0
 40
1.0
 10
64.9195135288
 20
55.6442591872
 30
0.0
 10
64.9012708822
 20
55.6388149203
 30
0.0
 10
64.8266102781
 20
55.6186186878
 30
0.0
 10
64.7499071596
 20
55.6061225195
 30
0.0
 10
64.6918612812
 20
55.6008088303
 30
0.0
  0
SPLINE
  5
616
100
AcDbEntity
  8
0
100
AcDbSpline
 62
7
  6
BYLAYER
 70
0
 71
3
 72
15
 73
11
 74
0
 42
0.0000001
 43
0.0000001
 44
0.0000000001
 40
0.0
 40
0.0
 40
0.0
 40
0.0
 40
0.1994164376
 40
0.2594900075
 40
0.3230217468
 40
0.4581981409
 40
0.5997143037
 40
0.7412523568
 40
0.8764822659
 40
1.0
 40
1.0
 40
1.0
 40
1.0
 10
64.6918612812
 20
55.6008088303
 30
0.0
 10
64.3122079915
 20
55.5660542592
 30
0.0
 10
63.8027917314
 20
55.7444940207
 30
0.0
 10
63.2897008095
 20
56.0822607054
 30
0.0
 10
62.903872782
 20
56.3943935139
 30
0.0
 10
62.4571596819
 20
56.8712245453
 30
0.0
 10
62.0051613099
 20
57.5343610959
 30
0.0
 10
61.6562245308
 20
58.2573596068
 30
0.0
 10
61.4330042663
 20
58.9925275934
 30
0.0
 10
61.3745012864
 20
59.4877580205
 30
0.0
 10
61.3745012864
 20
59.7238969903
 30
0.0
  0
SPLINE
  5
617
100
AcDbEntity
  8
0
100
AcDbSpline
 62
7
  6
BYLAYER
 70
0
 71
3
 72
11
 73
7
 74
0
 42
0.0000001
 43
0.0000001
 44
0.0000000001
 40
0.0
 40
0.0
 40
0.0
 40
0.0
 40
0.2177839466
 40
0.4509170841
 40
0.710307871
 40
1.0
 40
1.0
 40
1.0
 40
1.0
 10
61.5974710837
 20
60.9095191428
 30
0.0
 10
61.4943956796
 20
60.8499901226
 30
0.0
 10
61.3015153084
 20
60.6878693829
 30
0.0
 10
61.0961893562
 20
60.3521352442
 30
0.0
 10
60.9742444247
 20
59.9384047619
 30
0.0
 10
60.9502389841
 20
59.6372825471
 30
0.0
 10
60.9502389841
 20
59.4789504979
 30
0.0
  0
SPLINE
  5
618
100
AcDbEntity
  8
0
100
AcDbSpline
 62
7
  6
BYLAYER
 70
0
 71
3
 72
9
 73
5
 74
0
 42
0.0000001
 43
0.0000001
 44
0.0000000001
 40
0.0
 40
0.0
 40
0.0
 40
0.0
 40
0.2461996355
 40
1.0
 40
1.0
 40
1.0
 40
1.0
 10
26.8416548296
 20
77.6280238181
 30
0.0
 10
26.823412183
 20
77.6225795512
 30
0.0
 10
26.7487515789
 20
77.6023833187
 30
0.0
 10
26.6720484604
 20
77.5898871505
 30
0.0
 10
26.614002582
 20
77.5845734612
 30
0.0
  0
SPLINE
  5
619
100
AcDbEntity
  8
0
100
AcDbSpline
 62
7
  6
BYLAYER
 70
0
 71
3
 72
15
 73
11
 74
0
 42
0.0000001
 43
0.0000001
 44
0.0000000001
 40
0.0
 40
0.0
 40
0.0
 40
0.0
 40
0.1994164376
 40
0.2594900075
 40
0.3230217468
 40
0.4581981409
 40
0.5997143037
 40
0.7412523568
 40
0.8764822659
 40
1.0
 40
1.0
 40
1.0
 40
1.0
 10
26.614002582
 20
77.5845734612
 30
0.0
 10
26.2343492924
 20
77.5498188901
 30
0.0
 10
25.7249330322
 20
77.7282586516
 30
0.0
 10
25.2118421104
 20
78.0660253363
 30
0.0
 10
24.8260140828
 20
78.3781581448
 30
0.0
 10
24.3793009827
 20
78.8549891762
 30
0.0
 10
23.9273026108
 20
79.5181257269
 30
0.0
 10
23.5783658317
 20
80.2411242377
 30
0.0
 10
23.3551455671
 20
80.9762922243
 30
0.0
 10
23.2966425873
 20
81.4715226515
 30
0.0
 10
23.2966425873
 20
81.7076616212
 30
0.0
  0
SPLINE
  5
61A
100
AcDbEntity
  8
0
100
AcDbSpline
 62
7
  6
BYLAYER
 70
0
 71
3
 72
9
 73
5
 74
0
 42
0.0000001
 43
0.0000001
 44
0.0000000001
 40
0.0
 40
0.0
 40
0.0
 40
0.0
 40
0.2461996355
 40
1.0
 40
1.0
 40
1.0
 40
1.0
 10
58.8030144063
 20
59.1755417138
 30
0.0
 10
58.7847717597
 20
59.1700974469
 30
0.0
 10
58.7101111556
 20
59.1499012144
 30
0.0
 10
58.633408037
 20
59.1374050461
 30
0.0
 10
58.5753621586
 20
59.1320913569
 30
0.0
  0
SPLINE
  5
61B
100
AcDbEntity
  8
0
100
AcDbSpline
 62
7
  6
BYLAYER
 70
0
 71
3
 72
15
 73
11
 74
0
 42
0.0000001
 43
0.0000001
 44
0.0000000001
 40
0.0
 40
0.0
 40
0.0
 40
0.0
 40
0.1994164376
 40
0.2594900075
 40
0.3230217468
 40
0.4581981409
 40
0.5997143037
 40
0.7412523568
 40
0.8764822659
 40
1.0
 40
1.0
 40
1.0
 40
1.0
 10
58.5753621586
 20
59.1320913569
 30
0.0
 10
58.195708869
 20
59.0973367858
 30
0.0
 10
57.6862926089
 20
59.2757765473
 30
0.0
 10
57.173201687
 20
59.613543232
 30
0.0
 10
56.7873736594
 20
59.9256760405
 30
0.0
 10
56.3406605593
 20
60.4025070719
 30
0.0
 10
55.8886621874
 20
61.0656436225
 30
0.0
 10
55.5397254083
 20
61.7886421334
 30
0.0
 10
55.3165051438
 20
62.52381012
 30
0.0
 10
55.2580021639
 20
63.0190405471
 30
0.0
 10
55.2580021639
 20
63.2551795169
 30
0.0
  0
SPLINE
  5
61C
100
AcDbEntity
  8
0
100
AcDbSpline
 62
7
  6
BYLAYER
 70
0
 71
3
 72
11
 73
7
 74
0
 42
0.0000001
 43
0.0000001
 44
0.0000000001
 40
0.0
 40
0.0
 40
0.0
 40
0.0
 40
0.2177839466
 40
0.4509170841
 40
0.710307871
 40
1.0
 40
1.0
 40
1.0
 40
1.0
 10
55.4809719611
 20
64.4408016694
 30
0.0
 10
55.3778965571
 20
64.3812726492
 30
0.0
 10
55.1850161859
 20
64.2191519095
 30
0.0
 10
54.9796902337
 20
63.8834177708
 30
0.0
 10
54.8577453022
 20
63.4696872885
 30
0.0
 10
54.8337398616
 20
63.1685650737
 30
0.0
 10
54.8337398616
 20
63.0102330245
 30
0.0
  0
SPLINE
  5
61D
100
AcDbEntity
  8
0
100
AcDbSpline
 62
7
  6
BYLAYER
 70
0
 71
3
 72
9
 73
5
 74
0
 42
0.0000001
 43
0.0000001
 44
0.0000000001
 40
0.0
 40
0.0
 40
0.0
 40
0.0
 40
0.2461996355
 40
1.0
 40
1.0
 40
1.0
 40
1.0
 10
52.6865152838
 20
62.7068242404
 30
0.0
 10
52.6682726371
 20
62.7013799735
 30
0.0
 10
52.593612033
 20
62.681183741
 30
0.0
 10
52.5169089145
 20
62.6686875727
 30
0.0
 10
52.4588630361
 20
62.6633738835
 30
0.0
  0
SPLINE
  5
61E
100
AcDbEntity
  8
0
100
AcDbSpline
 62
7
  6
BYLAYER
 70
0
 71
3
 72
15
 73
11
 74
0
 42
0.0000001
 43
0.0000001
 44
0.0000000001
 40
0.0
 40
0.0
 40
0.0
 40
0.0
 40
0.1994164376
 40
0.2594900075
 40
0.3230217468
 40
0.4581981409
 40
0.5997143037
 40
0.7412523568
 40
0.8764822659
 40
1.0
 40
1.0
 40
1.0
 40
1.0
 10
52.4588630361
 20
62.6633738835
 30
0.0
 10
52.0792097465
 20
62.6286193124
 30
0.0
 10
51.5697934863
 20
62.8070590739
 30
0.0
 10
51.0567025645
 20
63.1448257586
 30
0.0
 10
50.6708745369
 20
63.4569585671
 30
0.0
 10
50.2241614368
 20
63.9337895985
 30
0.0
 10
49.7721630649
 20
64.5969261491
 30
0.0
 10
49.4232262858
 20
65.31992466
 30
0.0
 10
49.2000060212
 20
66.0550926466
 30
0.0
 10
49.1415030414
 20
66.5503230737
 30
0.0
 10
49.1415030414
 20
66.7864620435
 30
0.0
  0
SPLINE
  5
61F
100
AcDbEntity
  8
0
100
AcDbSpline
 62
7
  6
BYLAYER
 70
0
 71
3
 72
10
 73
6
 74
0
 42
0.0000001
 43
0.0000001
 44
0.0000000001
 40
0.0
 40
0.0
 40
0.0
 40
0.0
 40
0.2783602789
 40
0.5377474743
 40
1.0
 40
1.0
 40
1.0
 40
1.0
 10
29.4131417098
 20
78.1763790946
 30
0.0
 10
29.4131417098
 20
78.284064463
 30
0.0
 10
29.4247004008
 20
78.4925351951
 30
0.0
 10
29.4951200848
 20
78.873161379
 30
0.0
 10
29.6073562263
 20
79.1369621431
 30
0.0
 10
29.7104739552
 20
79.2830620657
 30
0.0
  0
SPLINE
  5
620
100
AcDbEntity
  8
0
100
AcDbSpline
 62
7
  6
BYLAYER
 70
0
 71
3
 72
9
 73
5
 74
0
 42
0.0000001
 43
0.0000001
 44
0.0000000001
 40
0.0
 40
0.0
 40
0.0
 40
0.0
 40
0.2543937375
 40
1.0
 40
1.0
 40
1.0
 40
1.0
 10
29.7104739552
 20
79.2830620657
 30
0.0
 10
29.7215880943
 20
79.2988088716
 30
0.0
 10
29.7666966953
 20
79.3596892254
 30
0.0
 10
29.8175886258
 20
79.4163204385
 30
0.0
 10
29.8584592296
 20
79.455317292
 30
0.0
  0
SPLINE
  5
621
100
AcDbEntity
  8
0
100
AcDbSpline
 62
7
  6
BYLAYER
 70
0
 71
3
 72
11
 73
7
 74
0
 42
0.0000001
 43
0.0000001
 44
0.0000000001
 40
0.0
 40
0.0
 40
0.0
 40
0.0
 40
0.2177839466
 40
0.4509170841
 40
0.710307871
 40
1.0
 40
1.0
 40
1.0
 40
1.0
 10
49.3644728386
 20
67.972084196
 30
0.0
 10
49.2613974346
 20
67.9125551758
 30
0.0
 10
49.0685170633
 20
67.7504344361
 30
0.0
 10
48.8631911112
 20
67.4147002974
 30
0.0
 10
48.7412461797
 20
67.0009698151
 30
0.0
 10
48.7172407391
 20
66.6998476003
 30
0.0
 10
48.7172407391
 20
66.5415155511
 30
0.0
  0
SPLINE
  5
622
100
AcDbEntity
  8
0
100
AcDbSpline
 62
7
  6
BYLAYER
 70
0
 71
3
 72
9
 73
5
 74
0
 42
0.0000001
 43
0.0000001
 44
0.0000000001
 40
0.0
 40
0.0
 40
0.0
 40
0.0
 40
0.2461996355
 40
1.0
 40
1.0
 40
1.0
 40
1.0
 10
52.6865152838
 20
89.85552961
 30
0.0
 10
52.6682726371
 20
89.850085343
 30
0.0
 10
52.593612033
 20
89.8298891106
 30
0.0
 10
52.5169089145
 20
89.8173929423
 30
0.0
 10
52.4588630361
 20
89.812079253
 30
0.0
  0
SPLINE
  5
623
100
AcDbEntity
  8
0
100
AcDbSpline
 62
7
  6
BYLAYER
 70
0
 71
3
 72
15
 73
11
 74
0
 42
0.0000001
 43
0.0000001
 44
0.0000000001
 40
0.0
 40
0.0
 40
0.0
 40
0.0
 40
0.1994164376
 40
0.2594900075
 40
0.3230217468
 40
0.4581981409
 40
0.5997143037
 40
0.7412523568
 40
0.8764822659
 40
1.0
 40
1.0
 40
1.0
 40
1.0
 10
52.4588630361
 20
89.812079253
 30
0.0
 10
52.0792097465
 20
89.7773246819
 30
0.0
 10
51.5697934863
 20
89.9557644434
 30
0.0
 10
51.0567025645
 20
90.2935311281
 30
0.0
 10
50.6708745369
 20
90.6056639366
 30
0.0
 10
50.2241614368
 20
91.0824949681
 30
0.0
 10
49.7721630649
 20
91.7456315187
 30
0.0
 10
49.4232262858
 20
92.4686300296
 30
0.0
 10
49.2000060212
 20
93.2037980161
 30
0.0
 10
49.1415030414
 20
93.6990284433
 30
0.0
 10
49.1415030414
 20
93.935167413
 30
0.0
  0
SPLINE
  5
624
100
AcDbEntity
  8
0
100
AcDbSpline
 62
7
  6
BYLAYER
 70
0
 71
3
 72
11
 73
7
 74
0
 42
0.0000001
 43
0.0000001
 44
0.0000000001
 40
0.0
 40
0.0
 40
0.0
 40
0.0
 40
0.2177839466
 40
0.4509170841
 40
0.710307871
 40
1.0
 40
1.0
 40
1.0
 40
1.0
 10
49.3644728386
 20
95.1207895655
 30
0.0
 10
49.2613974346
 20
95.0612605453
 30
0.0
 10
49.0685170633
 20
94.8991398056
 30
0.0
 10
48.8631911112
 20
94.563405667
 30
0.0
 10
48.7412461797
 20
94.1496751846
 30
0.0
 10
48.7172407391
 20
93.8485529699
 30
0.0
 10
48.7172407391
 20
93.6902209207
 30
0.0
  0
SPLINE
  5
625
100
AcDbEntity
  8
0
100
AcDbSpline
 62
7
  6
BYLAYER
 70
0
 71
3
 72
9
 73
5
 74
0
 42
0.0000001
 43
0.0000001
 44
0.0000000001
 40
0.0
 40
0.0
 40
0.0
 40
0.0
 40
0.2461996355
 40
1.0
 40
1.0
 40
1.0
 40
1.0
 10
58.8030144063
 20
86.3242470834
 30
0.0
 10
58.7847717597
 20
86.3188028164
 30
0.0
 10
58.7101111556
 20
86.298606584
 30
0.0
 10
58.633408037
 20
86.2861104157
 30
0.0
 10
58.5753621586
 20
86.2807967264
 30
0.0
  0
SPLINE
  5
626
100
AcDbEntity
  8
0
100
AcDbSpline
 62
7
  6
BYLAYER
 70
0
 71
3
 72
15
 73
11
 74
0
 42
0.0000001
 43
0.0000001
 44
0.0000000001
 40
0.0
 40
0.0
 40
0.0
 40
0.0
 40
0.1994164376
 40
0.2594900075
 40
0.3230217468
 40
0.4581981409
 40
0.5997143037
 40
0.7412523568
 40
0.8764822659
 40
1.0
 40
1.0
 40
1.0
 40
1.0
 10
58.5753621586
 20
86.2807967264
 30
0.0
 10
58.195708869
 20
86.2460421553
 30
0.0
 10
57.6862926089
 20
86.4244819168
 30
0.0
 10
57.173201687
 20
86.7622486015
 30
0.0
 10
56.7873736594
 20
87.07438141
 30
0.0
 10
56.3406605593
 20
87.5512124415
 30
0.0
 10
55.8886621874
 20
88.2143489921
 30
0.0
 10
55.5397254083
 20
88.9373475029
 30
0.0
 10
55.3165051438
 20
89.6725154895
 30
0.0
 10
55.2580021639
 20
90.1677459167
 30
0.0
 10
55.2580021639
 20
90.4038848864
 30
0.0
  0
SPLINE
  5
627
100
AcDbEntity
  8
0
100
AcDbSpline
 62
7
  6
BYLAYER
 70
0
 71
3
 72
11
 73
7
 74
0
 42
0.0000001
 43
0.0000001
 44
0.0000000001
 40
0.0
 40
0.0
 40
0.0
 40
0.0
 40
0.2177839466
 40
0.4509170841
 40
0.710307871
 40
1.0
 40
1.0
 40
1.0
 40
1.0
 10
55.4809719611
 20
91.5895070389
 30
0.0
 10
55.3778965571
 20
91.5299780187
 30
0.0
 10
55.1850161859
 20
91.367857279
 30
0.0
 10
54.9796902337
 20
91.0321231404
 30
0.0
 10
54.8577453022
 20
90.618392658
 30
0.0
 10
54.8337398616
 20
90.3172704433
 30
0.0
 10
54.8337398616
 20
90.1589383941
 30
0.0
  0
SPLINE
  5
628
100
AcDbEntity
  8
0
100
AcDbSpline
 62
7
  6
BYLAYER
 70
0
 71
3
 72
9
 73
5
 74
0
 42
0.0000001
 43
0.0000001
 44
0.0000000001
 40
0.0
 40
0.0
 40
0.0
 40
0.0
 40
0.2461996355
 40
1.0
 40
1.0
 40
1.0
 40
1.0
 10
64.9195135288
 20
82.7929645567
 30
0.0
 10
64.9012708822
 20
82.7875202898
 30
0.0
 10
64.8266102781
 20
82.7673240574
 30
0.0
 10
64.7499071596
 20
82.7548278891
 30
0.0
 10
64.6918612812
 20
82.7495141998
 30
0.0
  0
SPLINE
  5
629
100
AcDbEntity
  8
0
100
AcDbSpline
 62
7
  6
BYLAYER
 70
0
 71
3
 72
15
 73
11
 74
0
 42
0.0000001
 43
0.0000001
 44
0.0000000001
 40
0.0
 40
0.0
 40
0.0
 40
0.0
 40
0.1994164376
 40
0.2594900075
 40
0.3230217468
 40
0.4581981409
 40
0.5997143037
 40
0.7412523568
 40
0.8764822659
 40
1.0
 40
1.0
 40
1.0
 40
1.0
 10
64.6918612812
 20
82.7495141998
 30
0.0
 10
64.3122079915
 20
82.7147596287
 30
0.0
 10
63.8027917314
 20
82.8931993902
 30
0.0
 10
63.2897008095
 20
83.2309660749
 30
0.0
 10
62.903872782
 20
83.5430988834
 30
0.0
 10
62.4571596819
 20
84.0199299149
 30
0.0
 10
62.0051613099
 20
84.6830664655
 30
0.0
 10
61.6562245308
 20
85.4060649763
 30
0.0
 10
61.4330042663
 20
86.1412329629
 30
0.0
 10
61.3745012864
 20
86.6364633901
 30
0.0
 10
61.3745012864
 20
86.8726023598
 30
0.0
  0
SPLINE
  5
62A
100
AcDbEntity
  8
0
100
AcDbSpline
 62
7
  6
BYLAYER
 70
0
 71
3
 72
11
 73
7
 74
0
 42
0.0000001
 43
0.0000001
 44
0.0000000001
 40
0.0
 40
0.0
 40
0.0
 40
0.0
 40
0.2177839466
 40
0.4509170841
 40
0.710307871
 40
1.0
 40
1.0
 40
1.0
 40
1.0
 10
61.5974710837
 20
88.0582245123
 30
0.0
 10
61.4943956796
 20
87.9986954921
 30
0.0
 10
61.3015153084
 20
87.8365747524
 30
0.0
 10
61.0961893562
 20
87.5008406138
 30
0.0
 10
60.9742444247
 20
87.0871101314
 30
0.0
 10
60.9502389841
 20
86.7859879167
 30
0.0
 10
60.9502389841
 20
86.6276558675
 30
0.0
  0
SPLINE
  5
62B
100
AcDbEntity
  8
0
100
AcDbSpline
 62
7
  6
BYLAYER
 70
0
 71
3
 72
10
 73
6
 74
0
 42
0.0000001
 43
0.0000001
 44
0.0000000001
 40
0.0
 40
0.0
 40
0.0
 40
0.0
 40
0.2783602789
 40
0.5377474743
 40
1.0
 40
1.0
 40
1.0
 40
1.0
 10
35.5296408323
 20
74.645096568
 30
0.0
 10
35.5296408323
 20
74.7527819364
 30
0.0
 10
35.5411995233
 20
74.9612526685
 30
0.0
 10
35.6116192073
 20
75.3418788524
 30
0.0
 10
35.7238553488
 20
75.6056796165
 30
0.0
 10
35.8269730777
 20
75.7517795391
 30
0.0
  0
SPLINE
  5
62C
100
AcDbEntity
  8
0
100
AcDbSpline
 62
7
  6
BYLAYER
 70
0
 71
3
 72
9
 73
5
 74
0
 42
0.0000001
 43
0.0000001
 44
0.0000000001
 40
0.0
 40
0.0
 40
0.0
 40
0.0
 40
0.2543937375
 40
1.0
 40
1.0
 40
1.0
 40
1.0
 10
35.8269730777
 20
75.7517795391
 30
0.0
 10
35.8380872168
 20
75.767526345
 30
0.0
 10
35.8831958178
 20
75.8284066988
 30
0.0
 10
35.9340877483
 20
75.8850379119
 30
0.0
 10
35.9749583522
 20
75.9240347654
 30
0.0
  0
SPLINE
  5
62D
100
AcDbEntity
  8
0
100
AcDbSpline
 62
7
  6
BYLAYER
 70
0
 71
3
 72
9
 73
5
 74
0
 42
0.0000001
 43
0.0000001
 44
0.0000000001
 40
0.0
 40
0.0
 40
0.0
 40
0.0
 40
0.2461996355
 40
1.0
 40
1.0
 40
1.0
 40
1.0
 10
71.0360126513
 20
79.2616820301
 30
0.0
 10
71.0177700047
 20
79.2562377632
 30
0.0
 10
70.9431094006
 20
79.2360415308
 30
0.0
 10
70.8664062821
 20
79.2235453625
 30
0.0
 10
70.8083604037
 20
79.2182316732
 30
0.0
  0
SPLINE
  5
62E
100
AcDbEntity
  8
0
100
AcDbSpline
 62
7
  6
BYLAYER
 70
0
 71
3
 72
15
 73
11
 74
0
 42
0.0000001
 43
0.0000001
 44
0.0000000001
 40
0.0
 40
0.0
 40
0.0
 40
0.0
 40
0.1994164376
 40
0.2594900075
 40
0.3230217468
 40
0.4581981409
 40
0.5997143037
 40
0.7412523568
 40
0.8764822659
 40
1.0
 40
1.0
 40
1.0
 40
1.0
 10
70.8083604037
 20
79.2182316732
 30
0.0
 10
70.4287071141
 20
79.1834771021
 30
0.0
 10
69.9192908539
 20
79.3619168636
 30
0.0
 10
69.4061999321
 20
79.6996835483
 30
0.0
 10
69.0203719045
 20
80.0118163568
 30
0.0
 10
68.5736588044
 20
80.4886473883
 30
0.0
 10
68.1216604324
 20
81.1517839389
 30
0.0
 10
67.7727236534
 20
81.8747824497
 30
0.0
 10
67.5495033888
 20
82.6099504363
 30
0.0
 10
67.4910004089
 20
83.1051808635
 30
0.0
 10
67.4910004089
 20
83.3413198332
 30
0.0
  0
SPLINE
  5
62F
100
AcDbEntity
  8
0
100
AcDbSpline
 62
7
  6
BYLAYER
 70
0
 71
3
 72
11
 73
7
 74
0
 42
0.0000001
 43
0.0000001
 44
0.0000000001
 40
0.0
 40
0.0
 40
0.0
 40
0.0
 40
0.2177839466
 40
0.4509170841
 40
0.710307871
 40
1.0
 40
1.0
 40
1.0
 40
1.0
 10
67.7139702062
 20
84.5269419857
 30
0.0
 10
67.6108948022
 20
84.4674129655
 30
0.0
 10
67.4180144309
 20
84.3052922258
 30
0.0
 10
67.2126884788
 20
83.9695580871
 30
0.0
 10
67.0907435472
 20
83.5558276048
 30
0.0
 10
67.0667381066
 20
83.2547053901
 30
0.0
 10
67.0667381066
 20
83.0963733409
 30
0.0
  0
SPLINE
  5
630
100
AcDbEntity
  8
0
100
AcDbSpline
 62
7
  6
BYLAYER
 70
0
 71
3
 72
10
 73
6
 74
0
 42
0.0000001
 43
0.0000001
 44
0.0000000001
 40
0.0
 40
0.0
 40
0.0
 40
0.0
 40
0.2783602789
 40
0.5377474743
 40
1.0
 40
1.0
 40
1.0
 40
1.0
 10
41.6461399548
 20
71.1138140414
 30
0.0
 10
41.6461399548
 20
71.2214994098
 30
0.0
 10
41.6576986458
 20
71.4299701419
 30
0.0
 10
41.7281183298
 20
71.8105963258
 30
0.0
 10
41.8403544713
 20
72.0743970899
 30
0.0
 10
41.9434722003
 20
72.2204970125
 30
0.0
  0
SPLINE
  5
631
100
AcDbEntity
  8
0
100
AcDbSpline
 62
7
  6
BYLAYER
 70
0
 71
3
 72
9
 73
5
 74
0
 42
0.0000001
 43
0.0000001
 44
0.0000000001
 40
0.0
 40
0.0
 40
0.0
 40
0.0
 40
0.2543937375
 40
1.0
 40
1.0
 40
1.0
 40
1.0
 10
41.9434722003
 20
72.2204970125
 30
0.0
 10
41.9545863393
 20
72.2362438184
 30
0.0
 10
41.9996949403
 20
72.2971241722
 30
0.0
 10
42.0505868709
 20
72.3537553853
 30
0.0
 10
42.0914574747
 20
72.3927522388
 30
0.0
  0
SPLINE
  5
632
100
AcDbEntity
  8
0
100
AcDbSpline
 62
7
  6
BYLAYER
 70
0
 71
3
 72
9
 73
5
 74
0
 42
0.0000001
 43
0.0000001
 44
0.0000000001
 40
0.0
 40
0.0
 40
0.0
 40
0.0
 40
0.2461996355
 40
1.0
 40
1.0
 40
1.0
 40
1.0
 10
76.7513684268
 20
49.0428895937
 30
0.0
 10
76.7331257801
 20
49.0374453268
 30
0.0
 10
76.6584651761
 20
49.0172490943
 30
0.0
 10
76.5817620575
 20
49.0047529261
 30
0.0
 10
76.5237161791
 20
48.9994392368
 30
0.0
  0
SPLINE
  5
633
100
AcDbEntity
  8
0
100
AcDbSpline
 62
7
  6
BYLAYER
 70
0
 71
3
 72
15
 73
11
 74
0
 42
0.0000001
 43
0.0000001
 44
0.0000000001
 40
0.0
 40
0.0
 40
0.0
 40
0.0
 40
0.1994164376
 40
0.2594900075
 40
0.3230217468
 40
0.4581981409
 40
0.5997143037
 40
0.7412523568
 40
0.8764822659
 40
1.0
 40
1.0
 40
1.0
 40
1.0
 10
76.5237161791
 20
48.9994392368
 30
0.0
 10
76.1440628895
 20
48.9646846657
 30
0.0
 10
75.6346466293
 20
49.1431244272
 30
0.0
 10
75.1215557075
 20
49.4808911119
 30
0.0
 10
74.7357276799
 20
49.7930239204
 30
0.0
 10
74.2890145798
 20
50.2698549518
 30
0.0
 10
73.8370162079
 20
50.9329915025
 30
0.0
 10
73.4880794288
 20
51.6559900133
 30
0.0
 10
73.2648591642
 20
52.3911579999
 30
0.0
 10
73.2063561844
 20
52.8863884271
 30
0.0
 10
73.2063561844
 20
53.1225273968
 30
0.0
  0
SPLINE
  5
634
100
AcDbEntity
  8
0
100
AcDbSpline
 62
7
  6
BYLAYER
 70
0
 71
3
 72
11
 73
7
 74
0
 42
0.0000001
 43
0.0000001
 44
0.0000000001
 40
0.0
 40
0.0
 40
0.0
 40
0.0
 40
0.2177839466
 40
0.4509170841
 40
0.710307871
 40
1.0
 40
1.0
 40
1.0
 40
1.0
 10
73.4293259816
 20
54.3081495493
 30
0.0
 10
73.3262505776
 20
54.2486205291
 30
0.0
 10
73.1333702063
 20
54.0864997894
 30
0.0
 10
72.9280442542
 20
53.7507656507
 30
0.0
 10
72.8060993227
 20
53.3370351684
 30
0.0
 10
72.7820938821
 20
53.0359129537
 30
0.0
 10
72.7820938821
 20
52.8775809045
 30
0.0
  0
SPLINE
  5
635
100
AcDbEntity
  8
0
100
AcDbSpline
 62
7
  6
BYLAYER
 70
0
 71
3
 72
9
 73
5
 74
0
 42
0.0000001
 43
0.0000001
 44
0.0000000001
 40
0.0
 40
0.0
 40
0.0
 40
0.0
 40
0.2461996355
 40
1.0
 40
1.0
 40
1.0
 40
1.0
 10
76.7513684268
 20
75.9389691154
 30
0.0
 10
76.7331257801
 20
75.9335248485
 30
0.0
 10
76.6584651761
 20
75.913328616
 30
0.0
 10
76.5817620575
 20
75.9008324478
 30
0.0
 10
76.5237161791
 20
75.8955187585
 30
0.0
  0
SPLINE
  5
636
100
AcDbEntity
  8
0
100
AcDbSpline
 62
7
  6
BYLAYER
 70
0
 71
3
 72
15
 73
11
 74
0
 42
0.0000001
 43
0.0000001
 44
0.0000000001
 40
0.0
 40
0.0
 40
0.0
 40
0.0
 40
0.1994164376
 40
0.2594900075
 40
0.3230217468
 40
0.4581981409
 40
0.5997143037
 40
0.7412523568
 40
0.8764822659
 40
1.0
 40
1.0
 40
1.0
 40
1.0
 10
76.5237161791
 20
75.8955187585
 30
0.0
 10
76.1440628895
 20
75.8607641874
 30
0.0
 10
75.6346466293
 20
76.0392039489
 30
0.0
 10
75.1215557075
 20
76.3769706336
 30
0.0
 10
74.7357276799
 20
76.6891034421
 30
0.0
 10
74.2890145798
 20
77.1659344735
 30
0.0
 10
73.8370162079
 20
77.8290710242
 30
0.0
 10
73.4880794288
 20
78.552069535
 30
0.0
 10
73.2648591642
 20
79.2872375216
 30
0.0
 10
73.2063561844
 20
79.7824679488
 30
0.0
 10
73.2063561844
 20
80.0186069185
 30
0.0
  0
SPLINE
  5
637
100
AcDbEntity
  8
0
100
AcDbSpline
 62
7
  6
BYLAYER
 70
0
 71
3
 72
10
 73
6
 74
0
 42
0.0000001
 43
0.0000001
 44
0.0000000001
 40
0.0
 40
0.0
 40
0.0
 40
0.0
 40
0.2783602789
 40
0.5377474743
 40
1.0
 40
1.0
 40
1.0
 40
1.0
 10
41.6461399548
 20
98.2625194109
 30
0.0
 10
41.6461399548
 20
98.3702047793
 30
0.0
 10
41.6576986458
 20
98.5786755115
 30
0.0
 10
41.7281183298
 20
98.9593016954
 30
0.0
 10
41.8403544713
 20
99.2231024595
 30
0.0
 10
41.9434722003
 20
99.3692023821
 30
0.0
  0
SPLINE
  5
638
100
AcDbEntity
  8
0
100
AcDbSpline
 62
7
  6
BYLAYER
 70
0
 71
3
 72
9
 73
5
 74
0
 42
0.0000001
 43
0.0000001
 44
0.0000000001
 40
0.0
 40
0.0
 40
0.0
 40
0.0
 40
0.2543937375
 40
1.0
 40
1.0
 40
1.0
 40
1.0
 10
41.9434722003
 20
99.3692023821
 30
0.0
 10
41.9545863393
 20
99.384949188
 30
0.0
 10
41.9996949403
 20
99.4458295417
 30
0.0
 10
42.0505868709
 20
99.5024607549
 30
0.0
 10
42.0914574747
 20
99.5414576084
 30
0.0
  0
SPLINE
  5
639
100
AcDbEntity
  8
0
100
AcDbSpline
 62
7
  6
BYLAYER
 70
0
 71
3
 72
11
 73
7
 74
0
 42
0.0000001
 43
0.0000001
 44
0.0000000001
 40
0.0
 40
0.0
 40
0.0
 40
0.0
 40
0.2177839466
 40
0.4509170841
 40
0.710307871
 40
1.0
 40
1.0
 40
1.0
 40
1.0
 10
73.4293259816
 20
81.204229071
 30
0.0
 10
73.3262505776
 20
81.1447000508
 30
0.0
 10
73.1333702063
 20
80.9825793111
 30
0.0
 10
72.9280442542
 20
80.6468451724
 30
0.0
 10
72.8060993227
 20
80.2331146901
 30
0.0
 10
72.7820938821
 20
79.9319924754
 30
0.0
 10
72.7820938821
 20
79.7736604262
 30
0.0
  0
SPLINE
  5
63A
100
AcDbEntity
  8
0
100
AcDbSpline
 62
7
  6
BYLAYER
 70
0
 71
3
 72
17
 73
13
 74
0
 42
0.0000001
 43
0.0000001
 44
0.0000000001
 40
0.0
 40
0.0
 40
0.0
 40
0.0
 40
0.1286930371
 40
0.2702795962
 40
0.4174375935
 40
0.5617786795
 40
0.6954478243
 40
0.81271112
 40
0.8646738576
 40
0.9125098523
 40
0.9571380034
 40
1.0
 40
1.0
 40
1.0
 40
1.0
 10
72.7820938821
 20
79.7736604262
 30
0.0
 10
72.7820938821
 20
79.5065423471
 30
0.0
 10
72.8568126064
 20
78.9449017391
 30
0.0
 10
73.1357487219
 20
78.1202612351
 30
0.0
 10
73.5655187319
 20
77.3258709518
 30
0.0
 10
74.1116295049
 20
76.6268769352
 30
0.0
 10
74.7294201542
 20
76.0797419146
 30
0.0
 10
75.2885931447
 20
75.7739572285
 30
0.0
 10
75.7260189477
 20
75.6576238043
 30
0.0
 10
76.027074576
 20
75.6354208428
 30
0.0
 10
76.3073983737
 20
75.6765768863
 30
0.0
 10
76.4772573161
 20
75.747094099
 30
0.0
 10
76.5542975647
 20
75.7915870656
 30
0.0
  0
SPLINE
  5
63B
100
AcDbEntity
  8
0
100
AcDbSpline
 62
7
  6
BYLAYER
 70
0
 71
3
 72
11
 73
7
 74
0
 42
0.0000001
 43
0.0000001
 44
0.0000000001
 40
0.0
 40
0.0
 40
0.0
 40
0.0
 40
0.2177839466
 40
0.4509170841
 40
0.710307871
 40
1.0
 40
1.0
 40
1.0
 40
1.0
 10
35.7526106295
 20
75.8307187205
 30
0.0
 10
35.6495352255
 20
75.7711897003
 30
0.0
 10
35.4566548543
 20
75.6090689606
 30
0.0
 10
35.2513289021
 20
75.2733348219
 30
0.0
 10
35.1293839706
 20
74.8596043396
 30
0.0
 10
35.10537853
 20
74.5584821249
 30
0.0
 10
35.10537853
 20
74.4001500757
 30
0.0
  0
SPLINE
  5
63C
100
AcDbEntity
  8
0
100
AcDbSpline
 62
7
  6
BYLAYER
 70
0
 71
3
 72
17
 73
13
 74
0
 42
0.0000001
 43
0.0000001
 44
0.0000000001
 40
0.0
 40
0.0
 40
0.0
 40
0.0
 40
0.1286930371
 40
0.2702795962
 40
0.4174375935
 40
0.5617786795
 40
0.6954478243
 40
0.81271112
 40
0.8646738576
 40
0.9125098523
 40
0.9571380034
 40
1.0
 40
1.0
 40
1.0
 40
1.0
 10
72.7820938821
 20
52.8775809045
 30
0.0
 10
72.7820938821
 20
52.6104628254
 30
0.0
 10
72.8568126064
 20
52.0488222174
 30
0.0
 10
73.1357487219
 20
51.2241817134
 30
0.0
 10
73.5655187319
 20
50.4297914301
 30
0.0
 10
74.1116295049
 20
49.7307974135
 30
0.0
 10
74.7294201542
 20
49.1836623929
 30
0.0
 10
75.2885931447
 20
48.8778777068
 30
0.0
 10
75.7260189477
 20
48.7615442826
 30
0.0
 10
76.027074576
 20
48.7393413211
 30
0.0
 10
76.3073983737
 20
48.7804973646
 30
0.0
 10
76.4772573161
 20
48.8510145773
 30
0.0
 10
76.5542975647
 20
48.8955075439
 30
0.0
  0
SPLINE
  5
63D
100
AcDbEntity
  8
0
100
AcDbSpline
 62
7
  6
BYLAYER
 70
0
 71
3
 72
10
 73
6
 74
0
 42
0.0000001
 43
0.0000001
 44
0.0000000001
 40
0.0
 40
0.0
 40
0.0
 40
0.0
 40
0.2783602789
 40
0.5377474743
 40
1.0
 40
1.0
 40
1.0
 40
1.0
 10
35.5296408323
 20
101.7938019375
 30
0.0
 10
35.5296408323
 20
101.9014873059
 30
0.0
 10
35.5411995233
 20
102.1099580381
 30
0.0
 10
35.6116192073
 20
102.490584222
 30
0.0
 10
35.7238553488
 20
102.7543849861
 30
0.0
 10
35.8269730777
 20
102.9004849087
 30
0.0
  0
SPLINE
  5
63E
100
AcDbEntity
  8
0
100
AcDbSpline
 62
7
  6
BYLAYER
 70
0
 71
3
 72
9
 73
5
 74
0
 42
0.0000001
 43
0.0000001
 44
0.0000000001
 40
0.0
 40
0.0
 40
0.0
 40
0.0
 40
0.2543937375
 40
1.0
 40
1.0
 40
1.0
 40
1.0
 10
35.8269730777
 20
102.9004849087
 30
0.0
 10
35.8380872168
 20
102.9162317146
 30
0.0
 10
35.8831958178
 20
102.9771120683
 30
0.0
 10
35.9340877483
 20
103.0337432815
 30
0.0
 10
35.9749583522
 20
103.072740135
 30
0.0
  0
SPLINE
  5
63F
100
AcDbEntity
  8
0
100
AcDbSpline
 62
7
  6
BYLAYER
 70
0
 71
3
 72
17
 73
13
 74
0
 42
0.0000001
 43
0.0000001
 44
0.0000000001
 40
0.0
 40
0.0
 40
0.0
 40
0.0
 40
0.1286930371
 40
0.2702795962
 40
0.4174375935
 40
0.5617786795
 40
0.6954478243
 40
0.81271112
 40
0.8646738576
 40
0.9125098523
 40
0.9571380034
 40
1.0
 40
1.0
 40
1.0
 40
1.0
 10
67.0667381066
 20
83.0963733409
 30
0.0
 10
67.0667381066
 20
82.8292552618
 30
0.0
 10
67.1414568309
 20
82.2676146539
 30
0.0
 10
67.4203929465
 20
81.4429741498
 30
0.0
 10
67.8501629565
 20
80.6485838666
 30
0.0
 10
68.3962737295
 20
79.94958985
 30
0.0
 10
69.0140643788
 20
79.4024548293
 30
0.0
 10
69.5732373692
 20
79.0966701432
 30
0.0
 10
70.0106631723
 20
78.980336719
 30
0.0
 10
70.3117188005
 20
78.9581337576
 30
0.0
 10
70.5920425982
 20
78.999289801
 30
0.0
 10
70.7619015407
 20
79.0698070137
 30
0.0
 10
70.8389417892
 20
79.1142999803
 30
0.0
  0
SPLINE
  5
640
100
AcDbEntity
  8
0
100
AcDbSpline
 62
7
  6
BYLAYER
 70
0
 71
3
 72
17
 73
13
 74
0
 42
0.0000001
 43
0.0000001
 44
0.0000000001
 40
0.0
 40
0.0
 40
0.0
 40
0.0
 40
0.1286930371
 40
0.2702795962
 40
0.4174375935
 40
0.5617786795
 40
0.6954478243
 40
0.81271112
 40
0.8646738576
 40
0.9125098523
 40
0.9571380034
 40
1.0
 40
1.0
 40
1.0
 40
1.0
 10
60.9502389841
 20
86.6276558675
 30
0.0
 10
60.9502389841
 20
86.3605377884
 30
0.0
 10
61.0249577084
 20
85.7988971805
 30
0.0
 10
61.303893824
 20
84.9742566764
 30
0.0
 10
61.7336638339
 20
84.1798663932
 30
0.0
 10
62.279774607
 20
83.4808723766
 30
0.0
 10
62.8975652563
 20
82.9337373559
 30
0.0
 10
63.4567382467
 20
82.6279526698
 30
0.0
 10
63.8941640497
 20
82.5116192456
 30
0.0
 10
64.195219678
 20
82.4894162842
 30
0.0
 10
64.4755434757
 20
82.5305723276
 30
0.0
 10
64.6454024181
 20
82.6010895403
 30
0.0
 10
64.7224426667
 20
82.6455825069
 30
0.0
  0
SPLINE
  5
641
100
AcDbEntity
  8
0
100
AcDbSpline
 62
7
  6
BYLAYER
 70
0
 71
3
 72
9
 73
5
 74
0
 42
0.0000001
 43
0.0000001
 44
0.0000000001
 40
0.0
 40
0.0
 40
0.0
 40
0.0
 40
0.2461996355
 40
1.0
 40
1.0
 40
1.0
 40
1.0
 10
39.0746530747
 20
70.5654587649
 30
0.0
 10
39.0564104281
 20
70.560014498
 30
0.0
 10
38.981749824
 20
70.5398182655
 30
0.0
 10
38.9050467054
 20
70.5273220973
 30
0.0
 10
38.847000827
 20
70.522008408
 30
0.0
  0
SPLINE
  5
642
100
AcDbEntity
  8
0
100
AcDbSpline
 62
7
  6
BYLAYER
 70
0
 71
3
 72
15
 73
11
 74
0
 42
0.0000001
 43
0.0000001
 44
0.0000000001
 40
0.0
 40
0.0
 40
0.0
 40
0.0
 40
0.1994164376
 40
0.2594900075
 40
0.3230217468
 40
0.4581981409
 40
0.5997143037
 40
0.7412523568
 40
0.8764822659
 40
1.0
 40
1.0
 40
1.0
 40
1.0
 10
38.847000827
 20
70.522008408
 30
0.0
 10
38.4673475374
 20
70.4872538369
 30
0.0
 10
37.9579312773
 20
70.6656935984
 30
0.0
 10
37.4448403554
 20
71.0034602831
 30
0.0
 10
37.0590123278
 20
71.3155930916
 30
0.0
 10
36.6122992277
 20
71.792424123
 30
0.0
 10
36.1603008558
 20
72.4555606737
 30
0.0
 10
35.8113640767
 20
73.1785591845
 30
0.0
 10
35.5881438122
 20
73.9137271711
 30
0.0
 10
35.5296408323
 20
74.4089575982
 30
0.0
 10
35.5296408323
 20
74.645096568
 30
0.0
  0
SPLINE
  5
643
100
AcDbEntity
  8
0
100
AcDbSpline
 62
7
  6
BYLAYER
 70
0
 71
3
 72
17
 73
13
 74
0
 42
0.0000001
 43
0.0000001
 44
0.0000000001
 40
0.0
 40
0.0
 40
0.0
 40
0.0
 40
0.1286930371
 40
0.2702795962
 40
0.4174375935
 40
0.5617786795
 40
0.6954478243
 40
0.81271112
 40
0.8646738576
 40
0.9125098523
 40
0.9571380034
 40
1.0
 40
1.0
 40
1.0
 40
1.0
 10
54.8337398616
 20
90.1589383941
 30
0.0
 10
54.8337398616
 20
89.891820315
 30
0.0
 10
54.9084585859
 20
89.3301797071
 30
0.0
 10
55.1873947015
 20
88.505539203
 30
0.0
 10
55.6171647114
 20
87.7111489198
 30
0.0
 10
56.1632754844
 20
87.0121549032
 30
0.0
 10
56.7810661338
 20
86.4650198825
 30
0.0
 10
57.3402391242
 20
86.1592351964
 30
0.0
 10
57.7776649272
 20
86.0429017722
 30
0.0
 10
58.0787205555
 20
86.0206988108
 30
0.0
 10
58.3590443532
 20
86.0618548542
 30
0.0
 10
58.5289032956
 20
86.1323720669
 30
0.0
 10
58.6059435442
 20
86.1768650335
 30
0.0
  0
SPLINE
  5
644
100
AcDbEntity
  8
0
100
AcDbSpline
 62
7
  6
BYLAYER
 70
0
 71
3
 72
10
 73
6
 74
0
 42
0.0000001
 43
0.0000001
 44
0.0000000001
 40
0.0
 40
0.0
 40
0.0
 40
0.0
 40
0.2783602789
 40
0.5377474743
 40
1.0
 40
1.0
 40
1.0
 40
1.0
 10
29.4131417098
 20
105.3250844641
 30
0.0
 10
29.4131417098
 20
105.4327698325
 30
0.0
 10
29.4247004008
 20
105.6412405647
 30
0.0
 10
29.4951200848
 20
106.0218667486
 30
0.0
 10
29.6073562263
 20
106.2856675127
 30
0.0
 10
29.7104739552
 20
106.4317674353
 30
0.0
  0
SPLINE
  5
645
100
AcDbEntity
  8
0
100
AcDbSpline
 62
7
  6
BYLAYER
 70
0
 71
3
 72
9
 73
5
 74
0
 42
0.0000001
 43
0.0000001
 44
0.0000000001
 40
0.0
 40
0.0
 40
0.0
 40
0.0
 40
0.2543937375
 40
1.0
 40
1.0
 40
1.0
 40
1.0
 10
29.7104739552
 20
106.4317674353
 30
0.0
 10
29.7215880943
 20
106.4475142412
 30
0.0
 10
29.7666966953
 20
106.5083945949
 30
0.0
 10
29.8175886258
 20
106.5650258081
 30
0.0
 10
29.8584592296
 20
106.6040226616
 30
0.0
  0
SPLINE
  5
646
100
AcDbEntity
  8
0
100
AcDbSpline
 62
7
  6
BYLAYER
 70
0
 71
3
 72
17
 73
13
 74
0
 42
0.0000001
 43
0.0000001
 44
0.0000000001
 40
0.0
 40
0.0
 40
0.0
 40
0.0
 40
0.1286930371
 40
0.2702795962
 40
0.4174375935
 40
0.5617786795
 40
0.6954478243
 40
0.81271112
 40
0.8646738576
 40
0.9125098523
 40
0.9571380034
 40
1.0
 40
1.0
 40
1.0
 40
1.0
 10
48.7172407391
 20
93.6902209207
 30
0.0
 10
48.7172407391
 20
93.4231028416
 30
0.0
 10
48.7919594634
 20
92.8614622337
 30
0.0
 10
49.0708955789
 20
92.0368217296
 30
0.0
 10
49.5006655889
 20
91.2424314464
 30
0.0
 10
50.0467763619
 20
90.5434374298
 30
0.0
 10
50.6645670112
 20
89.9963024091
 30
0.0
 10
51.2237400017
 20
89.690517723
 30
0.0
 10
51.6611658047
 20
89.5741842988
 30
0.0
 10
51.962221433
 20
89.5519813374
 30
0.0
 10
52.2425452307
 20
89.5931373808
 30
0.0
 10
52.4124041731
 20
89.6636545935
 30
0.0
 10
52.4894444216
 20
89.7081475601
 30
0.0
  0
SPLINE
  5
647
100
AcDbEntity
  8
0
100
AcDbSpline
 62
7
  6
BYLAYER
 70
0
 71
3
 72
17
 73
13
 74
0
 42
0.0000001
 43
0.0000001
 44
0.0000000001
 40
0.0
 40
0.0
 40
0.0
 40
0.0
 40
0.1286930371
 40
0.2702795962
 40
0.4174375935
 40
0.5617786795
 40
0.6954478243
 40
0.81271112
 40
0.8646738576
 40
0.9125098523
 40
0.9571380034
 40
1.0
 40
1.0
 40
1.0
 40
1.0
 10
48.7172407391
 20
66.5415155511
 30
0.0
 10
48.7172407391
 20
66.274397472
 30
0.0
 10
48.7919594634
 20
65.7127568641
 30
0.0
 10
49.0708955789
 20
64.88811636
 30
0.0
 10
49.5006655889
 20
64.0937260768
 30
0.0
 10
50.0467763619
 20
63.3947320602
 30
0.0
 10
50.6645670112
 20
62.8475970396
 30
0.0
 10
51.2237400017
 20
62.5418123534
 30
0.0
 10
51.6611658047
 20
62.4254789292
 30
0.0
 10
51.962221433
 20
62.4032759678
 30
0.0
 10
52.2425452307
 20
62.4444320112
 30
0.0
 10
52.4124041731
 20
62.514949224
 30
0.0
 10
52.4894444216
 20
62.5594421906
 30
0.0
  0
SPLINE
  5
648
100
AcDbEntity
  8
0
100
AcDbSpline
 62
7
  6
BYLAYER
 70
0
 71
3
 72
17
 73
13
 74
0
 42
0.0000001
 43
0.0000001
 44
0.0000000001
 40
0.0
 40
0.0
 40
0.0
 40
0.0
 40
0.1286930371
 40
0.2702795962
 40
0.4174375935
 40
0.5617786795
 40
0.6954478243
 40
0.81271112
 40
0.8646738576
 40
0.9125098523
 40
0.9571380034
 40
1.0
 40
1.0
 40
1.0
 40
1.0
 10
54.8337398616
 20
63.0102330245
 30
0.0
 10
54.8337398616
 20
62.7431149454
 30
0.0
 10
54.9084585859
 20
62.1814743375
 30
0.0
 10
55.1873947015
 20
61.3568338334
 30
0.0
 10
55.6171647114
 20
60.5624435502
 30
0.0
 10
56.1632754844
 20
59.8634495336
 30
0.0
 10
56.7810661338
 20
59.316314513
 30
0.0
 10
57.3402391242
 20
59.0105298268
 30
0.0
 10
57.7776649272
 20
58.8941964026
 30
0.0
 10
58.0787205555
 20
58.8719934412
 30
0.0
 10
58.3590443532
 20
58.9131494846
 30
0.0
 10
58.5289032956
 20
58.9836666974
 30
0.0
 10
58.6059435442
 20
59.028159664
 30
0.0
  0
SPLINE
  5
649
100
AcDbEntity
  8
0
100
AcDbSpline
 62
7
  6
BYLAYER
 70
0
 71
3
 72
9
 73
5
 74
0
 42
0.0000001
 43
0.0000001
 44
0.0000000001
 40
0.0
 40
0.0
 40
0.0
 40
0.0
 40
0.2461996355
 40
1.0
 40
1.0
 40
1.0
 40
1.0
 10
32.9581539522
 20
74.0967412915
 30
0.0
 10
32.9399113055
 20
74.0912970246
 30
0.0
 10
32.8652507014
 20
74.0711007921
 30
0.0
 10
32.7885475829
 20
74.0586046239
 30
0.0
 10
32.7305017045
 20
74.0532909346
 30
0.0
  0
SPLINE
  5
64A
100
AcDbEntity
  8
0
100
AcDbSpline
 62
7
  6
BYLAYER
 70
0
 71
3
 72
15
 73
11
 74
0
 42
0.0000001
 43
0.0000001
 44
0.0000000001
 40
0.0
 40
0.0
 40
0.0
 40
0.0
 40
0.1994164376
 40
0.2594900075
 40
0.3230217468
 40
0.4581981409
 40
0.5997143037
 40
0.7412523568
 40
0.8764822659
 40
1.0
 40
1.0
 40
1.0
 40
1.0
 10
32.7305017045
 20
74.0532909346
 30
0.0
 10
32.3508484149
 20
74.0185363635
 30
0.0
 10
31.8414321547
 20
74.196976125
 30
0.0
 10
31.3283412329
 20
74.5347428097
 30
0.0
 10
30.9425132053
 20
74.8468756182
 30
0.0
 10
30.4958001052
 20
75.3237066496
 30
0.0
 10
30.0438017333
 20
75.9868432003
 30
0.0
 10
29.6948649542
 20
76.7098417111
 30
0.0
 10
29.4716446896
 20
77.4450096977
 30
0.0
 10
29.4131417098
 20
77.9402401248
 30
0.0
 10
29.4131417098
 20
78.1763790946
 30
0.0
  0
SPLINE
  5
64B
100
AcDbEntity
  8
0
100
AcDbSpline
 62
7
  6
BYLAYER
 70
0
 71
3
 72
17
 73
13
 74
0
 42
0.0000001
 43
0.0000001
 44
0.0000000001
 40
0.0
 40
0.0
 40
0.0
 40
0.0
 40
0.1286930371
 40
0.2702795962
 40
0.4174375935
 40
0.5617786795
 40
0.6954478243
 40
0.81271112
 40
0.8646738576
 40
0.9125098523
 40
0.9571380034
 40
1.0
 40
1.0
 40
1.0
 40
1.0
 10
60.9502389841
 20
59.4789504979
 30
0.0
 10
60.9502389841
 20
59.2118324188
 30
0.0
 10
61.0249577084
 20
58.6501918109
 30
0.0
 10
61.303893824
 20
57.8255513068
 30
0.0
 10
61.7336638339
 20
57.0311610236
 30
0.0
 10
62.279774607
 20
56.332167007
 30
0.0
 10
62.8975652563
 20
55.7850319864
 30
0.0
 10
63.4567382467
 20
55.4792473002
 30
0.0
 10
63.8941640497
 20
55.362913876
 30
0.0
 10
64.195219678
 20
55.3407109146
 30
0.0
 10
64.4755434757
 20
55.381866958
 30
0.0
 10
64.6454024181
 20
55.4523841708
 30
0.0
 10
64.7224426667
 20
55.4968771374
 30
0.0
  0
SPLINE
  5
64C
100
AcDbEntity
  8
0
100
AcDbSpline
 62
7
  6
BYLAYER
 70
0
 71
3
 72
17
 73
13
 74
0
 42
0.0000001
 43
0.0000001
 44
0.0000000001
 40
0.0
 40
0.0
 40
0.0
 40
0.0
 40
0.1286930371
 40
0.2702795962
 40
0.4174375935
 40
0.5617786795
 40
0.6954478243
 40
0.81271112
 40
0.8646738576
 40
0.9125098523
 40
0.9571380034
 40
1.0
 40
1.0
 40
1.0
 40
1.0
 10
67.0667381066
 20
55.9476679713
 30
0.0
 10
67.0667381066
 20
55.6805498922
 30
0.0
 10
67.1414568309
 20
55.1189092843
 30
0.0
 10
67.4203929465
 20
54.2942687802
 30
0.0
 10
67.8501629565
 20
53.499878497
 30
0.0
 10
68.3962737295
 20
52.8008844804
 30
0.0
 10
69.0140643788
 20
52.2537494598
 30
0.0
 10
69.5732373692
 20
51.9479647736
 30
0.0
 10
70.0106631723
 20
51.8316313494
 30
0.0
 10
70.3117188005
 20
51.809428388
 30
0.0
 10
70.5920425982
 20
51.8505844314
 30
0.0
 10
70.7619015407
 20
51.9211016442
 30
0.0
 10
70.8389417892
 20
51.9655946108
 30
0.0
  0
SPLINE
  5
64D
100
AcDbEntity
  8
0
100
AcDbSpline
 62
7
  6
BYLAYER
 70
0
 71
3
 72
17
 73
13
 74
0
 42
0.0000001
 43
0.0000001
 44
0.0000000001
 40
0.0
 40
0.0
 40
0.0
 40
0.0
 40
0.1286930371
 40
0.2702795962
 40
0.4174375935
 40
0.5617786795
 40
0.6954478243
 40
0.81271112
 40
0.8646738576
 40
0.9125098523
 40
0.9571380034
 40
1.0
 40
1.0
 40
1.0
 40
1.0
 10
17.1570245095
 20
111.8880826768
 30
0.0
 10
17.1570245095
 20
111.6209645977
 30
0.0
 10
17.2317432338
 20
111.0593239898
 30
0.0
 10
17.5106793494
 20
110.2346834857
 30
0.0
 10
17.9404493593
 20
109.4402932025
 30
0.0
 10
18.4865601324
 20
108.7412991859
 30
0.0
 10
19.1043507817
 20
108.1941641653
 30
0.0
 10
19.6635237721
 20
107.8883794791
 30
0.0
 10
20.1009495751
 20
107.7720460549
 30
0.0
 10
20.4020052034
 20
107.7498430935
 30
0.0
 10
20.6823290011
 20
107.7909991369
 30
0.0
 10
20.8521879435
 20
107.8615163496
 30
0.0
 10
20.9292281921
 20
107.9060093162
 30
0.0
  0
SPLINE
  5
64E
100
AcDbEntity
  8
0
100
AcDbSpline
 62
7
  6
BYLAYER
 70
0
 71
3
 72
10
 73
6
 74
0
 42
0.0000001
 43
0.0000001
 44
0.0000000001
 40
0.0
 40
0.0
 40
0.0
 40
0.0
 40
0.2783602789
 40
0.5377474743
 40
1.0
 40
1.0
 40
1.0
 40
1.0
 10
73.2063561844
 20
80.0186069185
 30
0.0
 10
73.2063561844
 20
80.1262922869
 30
0.0
 10
73.2179148754
 20
80.334763019
 30
0.0
 10
73.2883345594
 20
80.7153892029
 30
0.0
 10
73.4005707009
 20
80.979189967
 30
0.0
 10
73.5036884298
 20
81.1252898897
 30
0.0
  0
SPLINE
  5
64F
100
AcDbEntity
  8
0
100
AcDbSpline
 62
7
  6
BYLAYER
 70
0
 71
3
 72
9
 73
5
 74
0
 42
0.0000001
 43
0.0000001
 44
0.0000000001
 40
0.0
 40
0.0
 40
0.0
 40
0.0
 40
0.2543937375
 40
1.0
 40
1.0
 40
1.0
 40
1.0
 10
73.5036884298
 20
81.1252898897
 30
0.0
 10
73.5148025689
 20
81.1410366955
 30
0.0
 10
73.5599111699
 20
81.2019170493
 30
0.0
 10
73.6108031004
 20
81.2585482624
 30
0.0
 10
73.6516737042
 20
81.2975451159
 30
0.0
  0
SPLINE
  5
650
100
AcDbEntity
  8
0
100
AcDbSpline
 62
7
  6
BYLAYER
 70
0
 71
3
 72
10
 73
6
 74
0
 42
0.0000001
 43
0.0000001
 44
0.0000000001
 40
0.0
 40
0.0
 40
0.0
 40
0.0
 40
0.2783602789
 40
0.5377474743
 40
1.0
 40
1.0
 40
1.0
 40
1.0
 10
23.2966425873
 20
108.8563669907
 30
0.0
 10
23.2966425873
 20
108.9640523591
 30
0.0
 10
23.3082012783
 20
109.1725230913
 30
0.0
 10
23.3786209623
 20
109.5531492752
 30
0.0
 10
23.4908571038
 20
109.8169500393
 30
0.0
 10
23.5939748327
 20
109.9630499619
 30
0.0
  0
SPLINE
  5
651
100
AcDbEntity
  8
0
100
AcDbSpline
 62
7
  6
BYLAYER
 70
0
 71
3
 72
9
 73
5
 74
0
 42
0.0000001
 43
0.0000001
 44
0.0000000001
 40
0.0
 40
0.0
 40
0.0
 40
0.0
 40
0.2543937375
 40
1.0
 40
1.0
 40
1.0
 40
1.0
 10
23.5939748327
 20
109.9630499619
 30
0.0
 10
23.6050889718
 20
109.9787967678
 30
0.0
 10
23.6501975728
 20
110.0396771215
 30
0.0
 10
23.7010895033
 20
110.0963083347
 30
0.0
 10
23.7419601071
 20
110.1353051882
 30
0.0
  0
SPLINE
  5
652
100
AcDbEntity
  8
0
100
AcDbSpline
 62
7
  6
BYLAYER
 70
0
 71
3
 72
9
 73
5
 74
0
 42
0.0000001
 43
0.0000001
 44
0.0000000001
 40
0.0
 40
0.0
 40
0.0
 40
0.0
 40
0.2461996355
 40
1.0
 40
1.0
 40
1.0
 40
1.0
 10
45.1911521972
 20
67.0341762383
 30
0.0
 10
45.1729095506
 20
67.0287319714
 30
0.0
 10
45.0982489465
 20
67.0085357389
 30
0.0
 10
45.021545828
 20
66.9960395707
 30
0.0
 10
44.9634999496
 20
66.9907258814
 30
0.0
  0
SPLINE
  5
653
100
AcDbEntity
  8
0
100
AcDbSpline
 62
7
  6
BYLAYER
 70
0
 71
3
 72
15
 73
11
 74
0
 42
0.0000001
 43
0.0000001
 44
0.0000000001
 40
0.0
 40
0.0
 40
0.0
 40
0.0
 40
0.1994164376
 40
0.2594900075
 40
0.3230217468
 40
0.4581981409
 40
0.5997143037
 40
0.7412523568
 40
0.8764822659
 40
1.0
 40
1.0
 40
1.0
 40
1.0
 10
44.9634999496
 20
66.9907258814
 30
0.0
 10
44.5838466599
 20
66.9559713103
 30
0.0
 10
44.0744303998
 20
67.1344110718
 30
0.0
 10
43.5613394779
 20
67.4721777565
 30
0.0
 10
43.1755114504
 20
67.784310565
 30
0.0
 10
42.7287983503
 20
68.2611415964
 30
0.0
 10
42.2767999783
 20
68.9242781471
 30
0.0
 10
41.9278631992
 20
69.6472766579
 30
0.0
 10
41.7046429347
 20
70.3824446445
 30
0.0
 10
41.6461399548
 20
70.8776750716
 30
0.0
 10
41.6461399548
 20
71.1138140414
 30
0.0
  0
SPLINE
  5
654
100
AcDbEntity
  8
0
100
AcDbSpline
 62
7
  6
BYLAYER
 70
0
 71
3
 72
17
 73
13
 74
0
 42
0.0000001
 43
0.0000001
 44
0.0000000001
 40
0.0
 40
0.0
 40
0.0
 40
0.0
 40
0.1286930371
 40
0.2702795962
 40
0.4174375935
 40
0.5617786795
 40
0.6954478243
 40
0.81271112
 40
0.8646738576
 40
0.9125098523
 40
0.9571380034
 40
1.0
 40
1.0
 40
1.0
 40
1.0
 10
17.1570245095
 20
84.9920031551
 30
0.0
 10
17.1570245095
 20
84.724885076
 30
0.0
 10
17.2317432338
 20
84.1632444681
 30
0.0
 10
17.5106793494
 20
83.338603964
 30
0.0
 10
17.9404493593
 20
82.5442136808
 30
0.0
 10
18.4865601324
 20
81.8452196642
 30
0.0
 10
19.1043507817
 20
81.2980846436
 30
0.0
 10
19.6635237721
 20
80.9922999574
 30
0.0
 10
20.1009495751
 20
80.8759665332
 30
0.0
 10
20.4020052034
 20
80.8537635718
 30
0.0
 10
20.6823290011
 20
80.8949196152
 30
0.0
 10
20.8521879435
 20
80.9654368279
 30
0.0
 10
20.9292281921
 20
81.0099297946
 30
0.0
  0
SPLINE
  5
655
100
AcDbEntity
  8
0
100
AcDbSpline
 62
7
  6
BYLAYER
 70
0
 71
3
 72
17
 73
13
 74
0
 42
0.0000001
 43
0.0000001
 44
0.0000000001
 40
0.0
 40
0.0
 40
0.0
 40
0.0
 40
0.1286930371
 40
0.2702795962
 40
0.4174375935
 40
0.5617786795
 40
0.6954478243
 40
0.81271112
 40
0.8646738576
 40
0.9125098523
 40
0.9571380034
 40
1.0
 40
1.0
 40
1.0
 40
1.0
 10
22.8723802849
 20
108.6114204984
 30
0.0
 10
22.8723802849
 20
108.3443024193
 30
0.0
 10
22.9470990092
 20
107.7826618114
 30
0.0
 10
23.2260351248
 20
106.9580213073
 30
0.0
 10
23.6558051348
 20
106.1636310241
 30
0.0
 10
24.2019159078
 20
105.4646370075
 30
0.0
 10
24.8197065571
 20
104.9175019869
 30
0.0
 10
25.3788795475
 20
104.6117173007
 30
0.0
 10
25.8163053506
 20
104.4953838765
 30
0.0
 10
26.1173609788
 20
104.4731809151
 30
0.0
 10
26.3976847765
 20
104.5143369585
 30
0.0
 10
26.567543719
 20
104.5848541712
 30
0.0
 10
26.6445839675
 20
104.6293471379
 30
0.0
  0
SPLINE
  5
656
100
AcDbEntity
  8
0
100
AcDbSpline
 62
7
  6
BYLAYER
 70
0
 71
3
 72
17
 73
13
 74
0
 42
0.0000001
 43
0.0000001
 44
0.0000000001
 40
0.0
 40
0.0
 40
0.0
 40
0.0
 40
0.1286930371
 40
0.2702795962
 40
0.4174375935
 40
0.5617786795
 40
0.6954478243
 40
0.81271112
 40
0.8646738576
 40
0.9125098523
 40
0.9571380034
 40
1.0
 40
1.0
 40
1.0
 40
1.0
 10
28.9888794075
 20
105.0801379718
 30
0.0
 10
28.9888794075
 20
104.8130198927
 30
0.0
 10
29.0635981318
 20
104.2513792848
 30
0.0
 10
29.3425342473
 20
103.4267387807
 30
0.0
 10
29.7723042573
 20
102.6323484975
 30
0.0
 10
30.3184150303
 20
101.9333544809
 30
0.0
 10
30.9362056796
 20
101.3862194603
 30
0.0
 10
31.4953786701
 20
101.0804347741
 30
0.0
 10
31.9328044731
 20
100.9641013499
 30
0.0
 10
32.2338601014
 20
100.9418983885
 30
0.0
 10
32.5141838991
 20
100.9830544319
 30
0.0
 10
32.6840428415
 20
101.0535716446
 30
0.0
 10
32.76108309
 20
101.0980646113
 30
0.0
  0
SPLINE
  5
657
100
AcDbEntity
  8
0
100
AcDbSpline
 62
7
  6
BYLAYER
 70
0
 71
3
 72
10
 73
6
 74
0
 42
0.0000001
 43
0.0000001
 44
0.0000000001
 40
0.0
 40
0.0
 40
0.0
 40
0.0
 40
0.2783602789
 40
0.5377474743
 40
1.0
 40
1.0
 40
1.0
 40
1.0
 10
73.2063561844
 20
53.1225273968
 30
0.0
 10
73.2063561844
 20
53.2302127652
 30
0.0
 10
73.2179148754
 20
53.4386834973
 30
0.0
 10
73.2883345594
 20
53.8193096812
 30
0.0
 10
73.4005707009
 20
54.0831104453
 30
0.0
 10
73.5036884298
 20
54.229210368
 30
0.0
  0
SPLINE
  5
658
100
AcDbEntity
  8
0
100
AcDbSpline
 62
7
  6
BYLAYER
 70
0
 71
3
 72
9
 73
5
 74
0
 42
0.0000001
 43
0.0000001
 44
0.0000000001
 40
0.0
 40
0.0
 40
0.0
 40
0.0
 40
0.2543937375
 40
1.0
 40
1.0
 40
1.0
 40
1.0
 10
73.5036884298
 20
54.229210368
 30
0.0
 10
73.5148025689
 20
54.2449571738
 30
0.0
 10
73.5599111699
 20
54.3058375276
 30
0.0
 10
73.6108031004
 20
54.3624687407
 30
0.0
 10
73.6516737042
 20
54.4014655942
 30
0.0
  0
SPLINE
  5
659
100
AcDbEntity
  8
0
100
AcDbSpline
 62
7
  6
BYLAYER
 70
0
 71
3
 72
17
 73
13
 74
0
 42
0.0000001
 43
0.0000001
 44
0.0000000001
 40
0.0
 40
0.0
 40
0.0
 40
0.0
 40
0.1286930371
 40
0.2702795962
 40
0.4174375935
 40
0.5617786795
 40
0.6954478243
 40
0.81271112
 40
0.8646738576
 40
0.9125098523
 40
0.9571380034
 40
1.0
 40
1.0
 40
1.0
 40
1.0
 10
35.10537853
 20
101.5488554452
 30
0.0
 10
35.10537853
 20
101.2817373661
 30
0.0
 10
35.1800972543
 20
100.7200967582
 30
0.0
 10
35.4590333699
 20
99.8954562541
 30
0.0
 10
35.8888033798
 20
99.1010659709
 30
0.0
 10
36.4349141528
 20
98.4020719543
 30
0.0
 10
37.0527048022
 20
97.8549369337
 30
0.0
 10
37.6118777926
 20
97.5491522475
 30
0.0
 10
38.0493035956
 20
97.4328188233
 30
0.0
 10
38.3503592239
 20
97.4106158619
 30
0.0
 10
38.6306830216
 20
97.4517719053
 30
0.0
 10
38.800541964
 20
97.522289118
 30
0.0
 10
38.8775822126
 20
97.5667820847
 30
0.0
  0
SPLINE
  5
65A
100
AcDbEntity
  8
0
100
AcDbSpline
 62
7
  6
BYLAYER
 70
0
 71
3
 72
17
 73
13
 74
0
 42
0.0000001
 43
0.0000001
 44
0.0000000001
 40
0.0
 40
0.0
 40
0.0
 40
0.0
 40
0.1286930371
 40
0.2702795962
 40
0.4174375935
 40
0.5617786795
 40
0.6954478243
 40
0.81271112
 40
0.8646738576
 40
0.9125098523
 40
0.9571380034
 40
1.0
 40
1.0
 40
1.0
 40
1.0
 10
41.2218776525
 20
98.0175729186
 30
0.0
 10
41.2218776525
 20
97.7504548395
 30
0.0
 10
41.2965963768
 20
97.1888142316
 30
0.0
 10
41.5755324924
 20
96.3641737275
 30
0.0
 10
42.0053025023
 20
95.5697834443
 30
0.0
 10
42.5514132754
 20
94.8707894277
 30
0.0
 10
43.1692039247
 20
94.3236544071
 30
0.0
 10
43.7283769151
 20
94.0178697209
 30
0.0
 10
44.1658027181
 20
93.9015362967
 30
0.0
 10
44.4668583464
 20
93.8793333353
 30
0.0
 10
44.7471821441
 20
93.9204893787
 30
0.0
 10
44.9170410865
 20
93.9910065914
 30
0.0
 10
44.9940813351
 20
94.035499558
 30
0.0
  0
SPLINE
  5
65B
100
AcDbEntity
  8
0
100
AcDbSpline
 62
7
  6
BYLAYER
 70
0
 71
3
 72
11
 73
7
 74
0
 42
0.0000001
 43
0.0000001
 44
0.0000000001
 40
0.0
 40
0.0
 40
0.0
 40
0.0
 40
0.2177839466
 40
0.4509170841
 40
0.710307871
 40
1.0
 40
1.0
 40
1.0
 40
1.0
 10
29.636111507
 20
79.3620012471
 30
0.0
 10
29.533036103
 20
79.3024722269
 30
0.0
 10
29.3401557317
 20
79.1403514872
 30
0.0
 10
29.1348297796
 20
78.8046173485
 30
0.0
 10
29.0128848481
 20
78.3908868662
 30
0.0
 10
28.9888794075
 20
78.0897646515
 30
0.0
 10
28.9888794075
 20
77.9314326023
 30
0.0
  0
SPLINE
  5
65C
100
AcDbEntity
  8
0
100
AcDbSpline
 62
7
  6
BYLAYER
 70
0
 71
3
 72
17
 73
13
 74
0
 42
0.0000001
 43
0.0000001
 44
0.0000000001
 40
0.0
 40
0.0
 40
0.0
 40
0.0
 40
0.1286930371
 40
0.2702795962
 40
0.4174375935
 40
0.5617786795
 40
0.6954478243
 40
0.81271112
 40
0.8646738576
 40
0.9125098523
 40
0.9571380034
 40
1.0
 40
1.0
 40
1.0
 40
1.0
 10
41.2218776525
 20
70.8688675491
 30
0.0
 10
41.2218776525
 20
70.6017494699
 30
0.0
 10
41.2965963768
 20
70.040108862
 30
0.0
 10
41.5755324924
 20
69.215468358
 30
0.0
 10
42.0053025023
 20
68.4210780747
 30
0.0
 10
42.5514132754
 20
67.7220840581
 30
0.0
 10
43.1692039247
 20
67.1749490375
 30
0.0
 10
43.7283769151
 20
66.8691643514
 30
0.0
 10
44.1658027181
 20
66.7528309271
 30
0.0
 10
44.4668583464
 20
66.7306279657
 30
0.0
 10
44.7471821441
 20
66.7717840091
 30
0.0
 10
44.9170410865
 20
66.8423012219
 30
0.0
 10
44.9940813351
 20
66.8867941885
 30
0.0
  0
SPLINE
  5
65D
100
AcDbEntity
  8
0
100
AcDbSpline
 62
7
  6
BYLAYER
 70
0
 71
3
 72
10
 73
6
 74
0
 42
0.0000001
 43
0.0000001
 44
0.0000000001
 40
0.0
 40
0.0
 40
0.0
 40
0.0
 40
0.2783602789
 40
0.5377474743
 40
1.0
 40
1.0
 40
1.0
 40
1.0
 10
17.5812868118
 20
85.2369496474
 30
0.0
 10
17.5812868118
 20
85.3446350158
 30
0.0
 10
17.5928455028
 20
85.553105748
 30
0.0
 10
17.6632651868
 20
85.9337319319
 30
0.0
 10
17.7755013283
 20
86.197532696
 30
0.0
 10
17.8786190572
 20
86.3436326186
 30
0.0
  0
SPLINE
  5
65E
100
AcDbEntity
  8
0
100
AcDbSpline
 62
7
  6
BYLAYER
 70
0
 71
3
 72
9
 73
5
 74
0
 42
0.0000001
 43
0.0000001
 44
0.0000000001
 40
0.0
 40
0.0
 40
0.0
 40
0.0
 40
0.2543937375
 40
1.0
 40
1.0
 40
1.0
 40
1.0
 10
17.8786190572
 20
86.3436326186
 30
0.0
 10
17.8897331963
 20
86.3593794245
 30
0.0
 10
17.9348417973
 20
86.4202597782
 30
0.0
 10
17.9857337279
 20
86.4768909914
 30
0.0
 10
18.0266043317
 20
86.5158878449
 30
0.0
  0
SPLINE
  5
65F
100
AcDbEntity
  8
0
100
AcDbSpline
 62
7
  6
BYLAYER
 70
0
 71
3
 72
10
 73
6
 74
0
 42
0.0000001
 43
0.0000001
 44
0.0000000001
 40
0.0
 40
0.0
 40
0.0
 40
0.0
 40
0.2783602789
 40
0.5377474743
 40
1.0
 40
1.0
 40
1.0
 40
1.0
 10
67.4910004089
 20
83.3413198332
 30
0.0
 10
67.4910004089
 20
83.4490052016
 30
0.0
 10
67.5025591
 20
83.6574759338
 30
0.0
 10
67.5729787839
 20
84.0381021177
 30
0.0
 10
67.6852149255
 20
84.3019028818
 30
0.0
 10
67.7883326544
 20
84.4480028044
 30
0.0
  0
SPLINE
  5
660
100
AcDbEntity
  8
0
100
AcDbSpline
 62
7
  6
BYLAYER
 70
0
 71
3
 72
9
 73
5
 74
0
 42
0.0000001
 43
0.0000001
 44
0.0000000001
 40
0.0
 40
0.0
 40
0.0
 40
0.0
 40
0.2543937375
 40
1.0
 40
1.0
 40
1.0
 40
1.0
 10
67.7883326544
 20
84.4480028044
 30
0.0
 10
67.7994467935
 20
84.4637496103
 30
0.0
 10
67.8445553945
 20
84.524629964
 30
0.0
 10
67.895447325
 20
84.5812611771
 30
0.0
 10
67.9363179288
 20
84.6202580307
 30
0.0
  0
SPLINE
  5
661
100
AcDbEntity
  8
0
100
AcDbSpline
 62
7
  6
BYLAYER
 70
0
 71
3
 72
17
 73
13
 74
0
 42
0.0000001
 43
0.0000001
 44
0.0000000001
 40
0.0
 40
0.0
 40
0.0
 40
0.0
 40
0.1286930371
 40
0.2702795962
 40
0.4174375935
 40
0.5617786795
 40
0.6954478243
 40
0.81271112
 40
0.8646738576
 40
0.9125098523
 40
0.9571380034
 40
1.0
 40
1.0
 40
1.0
 40
1.0
 10
35.10537853
 20
74.4001500757
 30
0.0
 10
35.10537853
 20
74.1330319965
 30
0.0
 10
35.1800972543
 20
73.5713913886
 30
0.0
 10
35.4590333699
 20
72.7467508846
 30
0.0
 10
35.8888033798
 20
71.9523606013
 30
0.0
 10
36.4349141528
 20
71.2533665847
 30
0.0
 10
37.0527048022
 20
70.7062315641
 30
0.0
 10
37.6118777926
 20
70.400446878
 30
0.0
 10
38.0493035956
 20
70.2841134537
 30
0.0
 10
38.3503592239
 20
70.2619104923
 30
0.0
 10
38.6306830216
 20
70.3030665357
 30
0.0
 10
38.800541964
 20
70.3735837485
 30
0.0
 10
38.8775822126
 20
70.4180767151
 30
0.0
  0
SPLINE
  5
662
100
AcDbEntity
  8
0
100
AcDbSpline
 62
7
  6
BYLAYER
 70
0
 71
3
 72
17
 73
13
 74
0
 42
0.0000001
 43
0.0000001
 44
0.0000000001
 40
0.0
 40
0.0
 40
0.0
 40
0.0
 40
0.1286930371
 40
0.2702795962
 40
0.4174375935
 40
0.5617786795
 40
0.6954478243
 40
0.81271112
 40
0.8646738576
 40
0.9125098523
 40
0.9571380034
 40
1.0
 40
1.0
 40
1.0
 40
1.0
 10
28.9888794075
 20
77.9314326023
 30
0.0
 10
28.9888794075
 20
77.6643145231
 30
0.0
 10
29.0635981318
 20
77.1026739152
 30
0.0
 10
29.3425342473
 20
76.2780334112
 30
0.0
 10
29.7723042573
 20
75.4836431279
 30
0.0
 10
30.3184150303
 20
74.7846491113
 30
0.0
 10
30.9362056796
 20
74.2375140907
 30
0.0
 10
31.4953786701
 20
73.9317294046
 30
0.0
 10
31.9328044731
 20
73.8153959803
 30
0.0
 10
32.2338601014
 20
73.7931930189
 30
0.0
 10
32.5141838991
 20
73.8343490623
 30
0.0
 10
32.6840428415
 20
73.9048662751
 30
0.0
 10
32.76108309
 20
73.9493592417
 30
0.0
  0
SPLINE
  5
663
100
AcDbEntity
  8
0
100
AcDbSpline
 62
7
  6
BYLAYER
 70
0
 71
3
 72
10
 73
6
 74
0
 42
0.0000001
 43
0.0000001
 44
0.0000000001
 40
0.0
 40
0.0
 40
0.0
 40
0.0
 40
0.2783602789
 40
0.5377474743
 40
1.0
 40
1.0
 40
1.0
 40
1.0
 10
61.3745012864
 20
86.8726023598
 30
0.0
 10
61.3745012864
 20
86.9802877282
 30
0.0
 10
61.3860599774
 20
87.1887584604
 30
0.0
 10
61.4564796614
 20
87.5693846443
 30
0.0
 10
61.5687158029
 20
87.8331854084
 30
0.0
 10
61.6718335319
 20
87.979285331
 30
0.0
  0
SPLINE
  5
664
100
AcDbEntity
  8
0
100
AcDbSpline
 62
7
  6
BYLAYER
 70
0
 71
3
 72
9
 73
5
 74
0
 42
0.0000001
 43
0.0000001
 44
0.0000000001
 40
0.0
 40
0.0
 40
0.0
 40
0.0
 40
0.2543937375
 40
1.0
 40
1.0
 40
1.0
 40
1.0
 10
61.6718335319
 20
87.979285331
 30
0.0
 10
61.6829476709
 20
87.9950321369
 30
0.0
 10
61.7280562719
 20
88.0559124906
 30
0.0
 10
61.7789482025
 20
88.1125437037
 30
0.0
 10
61.8198188063
 20
88.1515405573
 30
0.0
  0
SPLINE
  5
665
100
AcDbEntity
  8
0
100
AcDbSpline
 62
7
  6
BYLAYER
 70
0
 71
3
 72
17
 73
13
 74
0
 42
0.0000001
 43
0.0000001
 44
0.0000000001
 40
0.0
 40
0.0
 40
0.0
 40
0.0
 40
0.1286930371
 40
0.2702795962
 40
0.4174375935
 40
0.5617786795
 40
0.6954478243
 40
0.81271112
 40
0.8646738576
 40
0.9125098523
 40
0.9571380034
 40
1.0
 40
1.0
 40
1.0
 40
1.0
 10
22.8723802849
 20
81.4627151289
 30
0.0
 10
22.8723802849
 20
81.1955970497
 30
0.0
 10
22.9470990092
 20
80.6339564418
 30
0.0
 10
23.2260351248
 20
79.8093159378
 30
0.0
 10
23.6558051348
 20
79.0149256545
 30
0.0
 10
24.2019159078
 20
78.3159316379
 30
0.0
 10
24.8197065571
 20
77.7687966173
 30
0.0
 10
25.3788795475
 20
77.4630119312
 30
0.0
 10
25.8163053506
 20
77.3466785069
 30
0.0
 10
26.1173609788
 20
77.3244755455
 30
0.0
 10
26.3976847765
 20
77.3656315889
 30
0.0
 10
26.567543719
 20
77.4361488017
 30
0.0
 10
26.6445839675
 20
77.4806417683
 30
0.0
  0
SPLINE
  5
666
100
AcDbEntity
  8
0
100
AcDbSpline
 62
7
  6
BYLAYER
 70
0
 71
3
 72
10
 73
6
 74
0
 42
0.0000001
 43
0.0000001
 44
0.0000000001
 40
0.0
 40
0.0
 40
0.0
 40
0.0
 40
0.2783602789
 40
0.5377474743
 40
1.0
 40
1.0
 40
1.0
 40
1.0
 10
17.5812868118
 20
112.1330291691
 30
0.0
 10
17.5812868118
 20
112.2407145375
 30
0.0
 10
17.5928455028
 20
112.4491852697
 30
0.0
 10
17.6632651868
 20
112.8298114536
 30
0.0
 10
17.7755013283
 20
113.0936122177
 30
0.0
 10
17.8786190572
 20
113.2397121403
 30
0.0
  0
SPLINE
  5
667
100
AcDbEntity
  8
0
100
AcDbSpline
 62
7
  6
BYLAYER
 70
0
 71
3
 72
9
 73
5
 74
0
 42
0.0000001
 43
0.0000001
 44
0.0000000001
 40
0.0
 40
0.0
 40
0.0
 40
0.0
 40
0.2543937375
 40
1.0
 40
1.0
 40
1.0
 40
1.0
 10
17.8786190572
 20
113.2397121403
 30
0.0
 10
17.8897331963
 20
113.2554589462
 30
0.0
 10
17.9348417973
 20
113.3163392999
 30
0.0
 10
17.9857337279
 20
113.3729705131
 30
0.0
 10
18.0266043317
 20
113.4119673666
 30
0.0
  0
SPLINE
  5
668
100
AcDbEntity
  8
0
100
AcDbSpline
 62
7
  6
BYLAYER
 70
0
 71
3
 72
10
 73
6
 74
0
 42
0.0000001
 43
0.0000001
 44
0.0000000001
 40
0.0
 40
0.0
 40
0.0
 40
0.0
 40
0.2783602789
 40
0.5377474743
 40
1.0
 40
1.0
 40
1.0
 40
1.0
 10
55.2580021639
 20
90.4038848864
 30
0.0
 10
55.2580021639
 20
90.5115702548
 30
0.0
 10
55.2695608549
 20
90.720040987
 30
0.0
 10
55.3399805389
 20
91.1006671709
 30
0.0
 10
55.4522166804
 20
91.364467935
 30
0.0
 10
55.5553344093
 20
91.5105678576
 30
0.0
  0
SPLINE
  5
669
100
AcDbEntity
  8
0
100
AcDbSpline
 62
7
  6
BYLAYER
 70
0
 71
3
 72
9
 73
5
 74
0
 42
0.0000001
 43
0.0000001
 44
0.0000000001
 40
0.0
 40
0.0
 40
0.0
 40
0.0
 40
0.2543937375
 40
1.0
 40
1.0
 40
1.0
 40
1.0
 10
55.5553344093
 20
91.5105678576
 30
0.0
 10
55.5664485484
 20
91.5263146635
 30
0.0
 10
55.6115571494
 20
91.5871950172
 30
0.0
 10
55.6624490799
 20
91.6438262303
 30
0.0
 10
55.7033196838
 20
91.6828230839
 30
0.0
  0
SPLINE
  5
66A
100
AcDbEntity
  8
0
100
AcDbSpline
 62
7
  6
BYLAYER
 70
0
 71
3
 72
10
 73
6
 74
0
 42
0.0000001
 43
0.0000001
 44
0.0000000001
 40
0.0
 40
0.0
 40
0.0
 40
0.0
 40
0.2783602789
 40
0.5377474743
 40
1.0
 40
1.0
 40
1.0
 40
1.0
 10
49.1415030414
 20
93.935167413
 30
0.0
 10
49.1415030414
 20
94.0428527814
 30
0.0
 10
49.1530617324
 20
94.2513235136
 30
0.0
 10
49.2234814164
 20
94.6319496975
 30
0.0
 10
49.3357175579
 20
94.8957504616
 30
0.0
 10
49.4388352868
 20
95.0418503842
 30
0.0
  0
SPLINE
  5
66B
100
AcDbEntity
  8
0
100
AcDbSpline
 62
7
  6
BYLAYER
 70
0
 71
3
 72
9
 73
5
 74
0
 42
0.0000001
 43
0.0000001
 44
0.0000000001
 40
0.0
 40
0.0
 40
0.0
 40
0.0
 40
0.2543937375
 40
1.0
 40
1.0
 40
1.0
 40
1.0
 10
49.4388352868
 20
95.0418503842
 30
0.0
 10
49.4499494259
 20
95.0575971901
 30
0.0
 10
49.4950580269
 20
95.1184775438
 30
0.0
 10
49.5459499574
 20
95.1751087569
 30
0.0
 10
49.5868205612
 20
95.2141056105
 30
0.0
  0
SPLINE
  5
66C
100
AcDbEntity
  8
0
100
AcDbSpline
 62
7
  6
BYLAYER
 70
0
 71
3
 72
9
 73
5
 74
0
 42
0.0000001
 43
0.0000001
 44
0.0000000001
 40
0.0
 40
0.0
 40
0.0
 40
0.0
 40
0.2461996355
 40
1.0
 40
1.0
 40
1.0
 40
1.0
 10
39.0746530747
 20
97.7141641345
 30
0.0
 10
39.0564104281
 20
97.7087198676
 30
0.0
 10
38.981749824
 20
97.6885236351
 30
0.0
 10
38.9050467054
 20
97.6760274668
 30
0.0
 10
38.847000827
 20
97.6707137776
 30
0.0
  0
SPLINE
  5
66D
100
AcDbEntity
  8
0
100
AcDbSpline
 62
7
  6
BYLAYER
 70
0
 71
3
 72
15
 73
11
 74
0
 42
0.0000001
 43
0.0000001
 44
0.0000000001
 40
0.0
 40
0.0
 40
0.0
 40
0.0
 40
0.1994164376
 40
0.2594900075
 40
0.3230217468
 40
0.4581981409
 40
0.5997143037
 40
0.7412523568
 40
0.8764822659
 40
1.0
 40
1.0
 40
1.0
 40
1.0
 10
38.847000827
 20
97.6707137776
 30
0.0
 10
38.4673475374
 20
97.6359592065
 30
0.0
 10
37.9579312773
 20
97.814398968
 30
0.0
 10
37.4448403554
 20
98.1521656526
 30
0.0
 10
37.0590123278
 20
98.4642984612
 30
0.0
 10
36.6122992277
 20
98.9411294926
 30
0.0
 10
36.1603008558
 20
99.6042660432
 30
0.0
 10
35.8113640767
 20
100.3272645541
 30
0.0
 10
35.5881438122
 20
101.0624325407
 30
0.0
 10
35.5296408323
 20
101.5576629678
 30
0.0
 10
35.5296408323
 20
101.7938019375
 30
0.0
  0
SPLINE
  5
66E
100
AcDbEntity
  8
0
100
AcDbSpline
 62
7
  6
BYLAYER
 70
0
 71
3
 72
10
 73
6
 74
0
 42
0.0000001
 43
0.0000001
 44
0.0000000001
 40
0.0
 40
0.0
 40
0.0
 40
0.0
 40
0.2783602789
 40
0.5377474743
 40
1.0
 40
1.0
 40
1.0
 40
1.0
 10
67.4910004089
 20
56.1926144637
 30
0.0
 10
67.4910004089
 20
56.300299832
 30
0.0
 10
67.5025591
 20
56.5087705642
 30
0.0
 10
67.5729787839
 20
56.8893967481
 30
0.0
 10
67.6852149255
 20
57.1531975122
 30
0.0
 10
67.7883326544
 20
57.2992974348
 30
0.0
  0
SPLINE
  5
66F
100
AcDbEntity
  8
0
100
AcDbSpline
 62
7
  6
BYLAYER
 70
0
 71
3
 72
9
 73
5
 74
0
 42
0.0000001
 43
0.0000001
 44
0.0000000001
 40
0.0
 40
0.0
 40
0.0
 40
0.0
 40
0.2543937375
 40
1.0
 40
1.0
 40
1.0
 40
1.0
 10
67.7883326544
 20
57.2992974348
 30
0.0
 10
67.7994467935
 20
57.3150442407
 30
0.0
 10
67.8445553945
 20
57.3759245944
 30
0.0
 10
67.895447325
 20
57.4325558076
 30
0.0
 10
67.9363179288
 20
57.4715526611
 30
0.0
  0
SPLINE
  5
670
100
AcDbEntity
  8
0
100
AcDbSpline
 62
7
  6
BYLAYER
 70
0
 71
3
 72
10
 73
6
 74
0
 42
0.0000001
 43
0.0000001
 44
0.0000000001
 40
0.0
 40
0.0
 40
0.0
 40
0.0
 40
0.2783602789
 40
0.5377474743
 40
1.0
 40
1.0
 40
1.0
 40
1.0
 10
49.1415030414
 20
66.7864620435
 30
0.0
 10
49.1415030414
 20
66.8941474118
 30
0.0
 10
49.1530617324
 20
67.102618144
 30
0.0
 10
49.2234814164
 20
67.4832443279
 30
0.0
 10
49.3357175579
 20
67.747045092
 30
0.0
 10
49.4388352868
 20
67.8931450146
 30
0.0
  0
SPLINE
  5
671
100
AcDbEntity
  8
0
100
AcDbSpline
 62
7
  6
BYLAYER
 70
0
 71
3
 72
9
 73
5
 74
0
 42
0.0000001
 43
0.0000001
 44
0.0000000001
 40
0.0
 40
0.0
 40
0.0
 40
0.0
 40
0.2543937375
 40
1.0
 40
1.0
 40
1.0
 40
1.0
 10
49.4388352868
 20
67.8931450146
 30
0.0
 10
49.4499494259
 20
67.9088918205
 30
0.0
 10
49.4950580269
 20
67.9697721742
 30
0.0
 10
49.5459499574
 20
68.0264033874
 30
0.0
 10
49.5868205612
 20
68.0654002409
 30
0.0
  0
SPLINE
  5
672
100
AcDbEntity
  8
0
100
AcDbSpline
 62
7
  6
BYLAYER
 70
0
 71
3
 72
11
 73
7
 74
0
 42
0.0000001
 43
0.0000001
 44
0.0000000001
 40
0.0
 40
0.0
 40
0.0
 40
0.0
 40
0.2177839466
 40
0.4509170841
 40
0.710307871
 40
1.0
 40
1.0
 40
1.0
 40
1.0
 10
41.8691097521
 20
72.2994361939
 30
0.0
 10
41.766034348
 20
72.2399071737
 30
0.0
 10
41.5731539768
 20
72.077786434
 30
0.0
 10
41.3678280246
 20
71.7420522953
 30
0.0
 10
41.2458830931
 20
71.328321813
 30
0.0
 10
41.2218776525
 20
71.0271995983
 30
0.0
 10
41.2218776525
 20
70.8688675491
 30
0.0
  0
SPLINE
  5
673
100
AcDbEntity
  8
0
100
AcDbSpline
 62
7
  6
BYLAYER
 70
0
 71
3
 72
10
 73
6
 74
0
 42
0.0000001
 43
0.0000001
 44
0.0000000001
 40
0.0
 40
0.0
 40
0.0
 40
0.0
 40
0.2783602789
 40
0.5377474743
 40
1.0
 40
1.0
 40
1.0
 40
1.0
 10
55.2580021639
 20
63.2551795169
 30
0.0
 10
55.2580021639
 20
63.3628648852
 30
0.0
 10
55.2695608549
 20
63.5713356174
 30
0.0
 10
55.3399805389
 20
63.9519618013
 30
0.0
 10
55.4522166804
 20
64.2157625654
 30
0.0
 10
55.5553344093
 20
64.361862488
 30
0.0
  0
SPLINE
  5
674
100
AcDbEntity
  8
0
100
AcDbSpline
 62
7
  6
BYLAYER
 70
0
 71
3
 72
9
 73
5
 74
0
 42
0.0000001
 43
0.0000001
 44
0.0000000001
 40
0.0
 40
0.0
 40
0.0
 40
0.0
 40
0.2543937375
 40
1.0
 40
1.0
 40
1.0
 40
1.0
 10
55.5553344093
 20
64.361862488
 30
0.0
 10
55.5664485484
 20
64.3776092939
 30
0.0
 10
55.6115571494
 20
64.4384896476
 30
0.0
 10
55.6624490799
 20
64.4951208608
 30
0.0
 10
55.7033196838
 20
64.5341177143
 30
0.0
  0
SPLINE
  5
675
100
AcDbEntity
  8
0
100
AcDbSpline
 62
7
  6
BYLAYER
 70
0
 71
3
 72
11
 73
7
 74
0
 42
0.0000001
 43
0.0000001
 44
0.0000000001
 40
0.0
 40
0.0
 40
0.0
 40
0.0
 40
0.2177839466
 40
0.4509170841
 40
0.710307871
 40
1.0
 40
1.0
 40
1.0
 40
1.0
 10
35.7526106295
 20
102.97942409
 30
0.0
 10
35.6495352255
 20
102.9198950699
 30
0.0
 10
35.4566548543
 20
102.7577743301
 30
0.0
 10
35.2513289021
 20
102.4220401915
 30
0.0
 10
35.1293839706
 20
102.0083097092
 30
0.0
 10
35.10537853
 20
101.7071874944
 30
0.0
 10
35.10537853
 20
101.5488554452
 30
0.0
  0
SPLINE
  5
676
100
AcDbEntity
  8
0
100
AcDbSpline
 62
7
  6
BYLAYER
 70
0
 71
3
 72
10
 73
6
 74
0
 42
0.0000001
 43
0.0000001
 44
0.0000000001
 40
0.0
 40
0.0
 40
0.0
 40
0.0
 40
0.2783602789
 40
0.5377474743
 40
1.0
 40
1.0
 40
1.0
 40
1.0
 10
61.3745012864
 20
59.7238969903
 30
0.0
 10
61.3745012864
 20
59.8315823586
 30
0.0
 10
61.3860599774
 20
60.0400530908
 30
0.0
 10
61.4564796614
 20
60.4206792747
 30
0.0
 10
61.5687158029
 20
60.6844800388
 30
0.0
 10
61.6718335319
 20
60.8305799614
 30
0.0
  0
SPLINE
  5
677
100
AcDbEntity
  8
0
100
AcDbSpline
 62
7
  6
BYLAYER
 70
0
 71
3
 72
9
 73
5
 74
0
 42
0.0000001
 43
0.0000001
 44
0.0000000001
 40
0.0
 40
0.0
 40
0.0
 40
0.0
 40
0.2543937375
 40
1.0
 40
1.0
 40
1.0
 40
1.0
 10
61.6718335319
 20
60.8305799614
 30
0.0
 10
61.6829476709
 20
60.8463267673
 30
0.0
 10
61.7280562719
 20
60.907207121
 30
0.0
 10
61.7789482025
 20
60.9638383342
 30
0.0
 10
61.8198188063
 20
61.0028351877
 30
0.0
  0
SPLINE
  5
678
100
AcDbEntity
  8
0
100
AcDbSpline
 62
7
  6
BYLAYER
 70
0
 71
3
 72
11
 73
7
 74
0
 42
0.0000001
 43
0.0000001
 44
0.0000000001
 40
0.0
 40
0.0
 40
0.0
 40
0.0
 40
0.2177839466
 40
0.4509170841
 40
0.710307871
 40
1.0
 40
1.0
 40
1.0
 40
1.0
 10
23.5196123845
 20
82.8932837737
 30
0.0
 10
23.4165369805
 20
82.8337547535
 30
0.0
 10
23.2236566092
 20
82.6716340138
 30
0.0
 10
23.0183306571
 20
82.3358998751
 30
0.0
 10
22.8963857256
 20
81.9221693928
 30
0.0
 10
22.8723802849
 20
81.6210471781
 30
0.0
 10
22.8723802849
 20
81.4627151289
 30
0.0
  0
SPLINE
  5
679
100
AcDbEntity
  8
0
100
AcDbSpline
 62
7
  6
BYLAYER
 70
0
 71
3
 72
9
 73
5
 74
0
 42
0.0000001
 43
0.0000001
 44
0.0000000001
 40
0.0
 40
0.0
 40
0.0
 40
0.0
 40
0.2461996355
 40
1.0
 40
1.0
 40
1.0
 40
1.0
 10
32.9581539522
 20
101.2454466611
 30
0.0
 10
32.9399113055
 20
101.2400023942
 30
0.0
 10
32.8652507014
 20
101.2198061617
 30
0.0
 10
32.7885475829
 20
101.2073099934
 30
0.0
 10
32.7305017045
 20
101.2019963042
 30
0.0
  0
SPLINE
  5
67A
100
AcDbEntity
  8
0
100
AcDbSpline
 62
7
  6
BYLAYER
 70
0
 71
3
 72
15
 73
11
 74
0
 42
0.0000001
 43
0.0000001
 44
0.0000000001
 40
0.0
 40
0.0
 40
0.0
 40
0.0
 40
0.1994164376
 40
0.2594900075
 40
0.3230217468
 40
0.4581981409
 40
0.5997143037
 40
0.7412523568
 40
0.8764822659
 40
1.0
 40
1.0
 40
1.0
 40
1.0
 10
32.7305017045
 20
101.2019963042
 30
0.0
 10
32.3508484149
 20
101.1672417331
 30
0.0
 10
31.8414321547
 20
101.3456814946
 30
0.0
 10
31.3283412329
 20
101.6834481792
 30
0.0
 10
30.9425132053
 20
101.9955809878
 30
0.0
 10
30.4958001052
 20
102.4724120192
 30
0.0
 10
30.0438017333
 20
103.1355485698
 30
0.0
 10
29.6948649542
 20
103.8585470807
 30
0.0
 10
29.4716446896
 20
104.5937150673
 30
0.0
 10
29.4131417098
 20
105.0889454944
 30
0.0
 10
29.4131417098
 20
105.3250844641
 30
0.0
  0
ENDSEC
  0
SECTION
  2
OBJECTS
  0
DICTIONARY
  5
C
100
AcDbDictionary
280
0
281
1
  3
ACAD_GROUP
350
D
  3
ACAD_MLINESTYLE
350
17
  3
ACAD_LAYOUT
350
1A
  3
ACAD_PLOTSETTINGS
350
19
  3
ACAD_PLOTSTYLENAME
350
E
  0
DICTIONARY
  5
D
102
{ACAD_REACTORS
330
C
102
}
100
AcDbDictionary
280
0
281
1
  0
ACDBDICTIONARYWDFLT
  5
E
102
{ACAD_REACTORS
330
C
102
}
100
AcDbDictionary
281
1
  3
Normal
350
F
100
AcDbDictionaryWithDefault
340
F
  0
DICTIONARY
  5
17
102
{ACAD_REACTORS
330
C
102
}
100
AcDbDictionary
280
0
281
1
  3
Standard
350
18
  0
DICTIONARY
  5
19
102
{ACAD_REACTORS
330
C
102
}
100
AcDbDictionary
281
1
  0
DICTIONARY
  5
1A
102
{ACAD_REACTORS
330
C
102
}
100
AcDbDictionary
281
1
  3
Model
350
67B
  3
Layout1
350
67C
  0
ACDBPLACEHOLDER
  5
F
102
{ACAD_REACTORS
330
E
102
}
  0
MLINESTYLE
  5
18
102
{ACAD_REACTORS
330
17
102
}
100
AcDbMlineStyle
  2
STANDARD
 70
0
  3

 62
256
 51
90.0
 52
90.0
 71
2
 49
0.5
 62
256
  6
BYLAYER
 49
-0.5
 62
256
  6
BYLAYER
  0
LAYOUT
  5
67B
102
{ACAD_REACTORS
330
1A
102
}
100
AcDbPlotSettings
  1

  2
none_device
  4

  6

 40
0.0
 41
0.0
 42
0.0
 43
0.0
 44
210.0
 45
297.0
 46
0.0
 47
0.0
 48
0.0
 49
0.0
140
0.0
141
0.0
142
1.0
143
1.0
 70
1024
 72
1
 73
0
 74
0
  7

 75
0
147
1.0
148
0.0
149
0.0
100
AcDbLayout
  1
Model
 70
0
 71
0
 10
0.0
 20
0.0
 11
210.0
 21
297.0
 12
0.0
 22
0.0
 32
0.0
 14
0.0
 24
0.0
 34
0.0
 15
0.0
 25
0.0
 35
0.0
146
0.0
 13
0.0
 23
0.0
 33
0.0
 16
1.0
 26
0.0
 36
0.0
 17
0.0
 27
1.0
 37
0.0
 76
0
330
210
345
0
346
0
  0
LAYOUT
  5
67C
102
{ACAD_REACTORS
330
1A
102
}
100
AcDbPlotSettings
  1

  2
none_device
  4

  6

 40
0.0
 41
0.0
 42
0.0
 43
0.0
 44
210.0
 45
297.0
 46
0.0
 47
0.0
 48
0.0
 49
0.0
140
0.0
141
0.0
142
1.0
143
1.0
 70
0
 72
1
 73
0
 74
0
  7

 75
0
147
1.0
148
0.0
149
0.0
100
AcDbLayout
  1
Layout1
 70
0
 71
1
 10
0.0
 20
0.0
 11
210.0
 21
297.0
 12
0.0
 22
0.0
 32
0.0
 14
0.0
 24
0.0
 34
0.0
 15
0.0
 25
0.0
 35
0.0
146
0.0
 13
0.0
 23
0.0
 33
0.0
 16
1.0
 26
0.0
 36
0.0
 17
0.0
 27
1.0
 37
0.0
 76
0
330
211
345
0
346
0
  0
ENDSEC
  0
EOF
