999
DXF file: C:\Users\sesa63760\Dev\_Creo\CAD\MCADID0000920_3D-CAD\drw0001_5.dxf
999
Pro/ENGINEER 2019471 by Parametric Technology Corporation
  0
SECTION
  2
HEADER
  9
$ACADVER
  1
AC1024
  9
$DWGCODEPAGE
  3
ANSI_1252
  9
$EXTMAX
 10
340.7827788678
 20
481.9642158274
 30
0.0
  9
$EXTMIN
 10
0.0
 20
0.0
 30
0.0
  9
$LIMMIN
 10
0.0
 20
0.0
  9
$LIMMAX
 10
340.7827788678
 20
481.9642158274
  9
$VIEWCTR
 10
170.3913894339
 20
240.9821079137
  9
$VIEWSIZE
 40
481.9642158274
  9
$CLAYER
  8
0
  9
$LTSCALE
 40
31.4169266613
  9
$CELTYPE
  6
BYLAYER
  9
$DIMSCALE
 40
1.0
  9
$DIMASZ
 40
4.0569378437
  9
$DIMEXO
 40
1.0
  9
$DIMDLI
 40
21.7062402387
  9
$DIMEXE
 40
1.0
  9
$DIMCEN
 40
5.1409516355
  9
$DIMLFAC
 40
1.0
  9
$DIMBLK
  1
_FILLED
  9
$DIMALT
 70
0
  9
$DIMALTF
 40
0.0393700787
  9
$DIMTXT
 40
5.6797129811
  9
$DIMTOL
 70
1
  9
$DIMLIM
 70
0
  9
$DIMTFAC
 40
1.0
  9
$DIMTP
 40
0.01
  9
$DIMTM
 40
0.01
  9
$DIMGAP
 40
0.625
  9
$DIMDSEP
 70
46
  9
$AUNITS
 70
0
  9
$PDMODE
 70
3
  9
$PDSIZE
 40
0.3125
  9
$HANDSEED
  5
361
  9
$TILEMODE
 70
1
  9
$MEASUREMENT
 70
1
  9
$INSUNITS
 70
4
  0
ENDSEC
  0
SECTION
  2
CLASSES
  0
CLASS
  1
ACDBDICTIONARYWDFLT
  2
AcDbDictionaryWithDefault
  3
AutoCAD 2000
 90
0
 91
1
280
0
281
0
  0
CLASS
  1
ACDBPLACEHOLDER
  2
AcDbPlaceHolder
  3
AutoCAD 2000
 90
0
 91
1
280
0
281
0
  0
CLASS
  1
LAYOUT
  2
AcDbLayout
  3
AutoCAD 2000
 90
0
 91
0
280
0
281
0
  0
ENDSEC
  0
SECTION
  2
TABLES
  0
TABLE
  2
VPORT
  5
8
100
AcDbSymbolTable
 70
2
  0
VPORT
  5
1F4
100
AcDbSymbolTableRecord
100
AcDbViewportTableRecord
  2
*ACTIVE
 70
0
 10
0.0
 20
0.0
 11
1.0
 21
1.0
 12
170.3913894339
 22
240.9821079137
 13
0.0
 23
0.0
 14
1.0
 24
1.0
 15
0.0
 25
0.0
 16
0.0
 26
0.0
 36
1.0
 17
0.0
 27
0.0
 37
0.0
 40
481.9642158274
 41
0.7070707071
 42
50.0
 43
0.0
 44
0.0
 50
0.0
 51
0.0
 71
0
 72
100
 73
1
 74
1
 75
0
 76
0
 77
0
 78
0
  0
ENDTAB
  0
TABLE
  2
LTYPE
  5
5
100
AcDbSymbolTable
 70
6
  0
LTYPE
  5
14
100
AcDbSymbolTableRecord
100
AcDbLinetypeTableRecord
  2
BYBLOCK
 70
0
  3

 72
65
 73
0
 40
0.0
  0
LTYPE
  5
15
100
AcDbSymbolTableRecord
100
AcDbLinetypeTableRecord
  2
BYLAYER
 70
0
  3

 72
65
 73
0
 40
0.0
  0
LTYPE
  5
16
100
AcDbSymbolTableRecord
100
AcDbLinetypeTableRecord
  2
CONTINUOUS
 70
64
  3
Solid line
 72
65
 73
0
 40
0.0
  0
LTYPE
  5
1F5
100
AcDbSymbolTableRecord
100
AcDbLinetypeTableRecord
  2
CENTER
 70
64
  3
____ _ ____ _ ____ _ ____ _ ____ _ ____ _ ____
 72
65
 73
4
 40
0.6
 49
0.375
 74
0
 49
-0.075
 74
0
 49
0.075
 74
0
 49
-0.075
 74
0
  0
LTYPE
  5
1F6
100
AcDbSymbolTableRecord
100
AcDbLinetypeTableRecord
  2
HIDDEN
 70
64
  3
- - - - - - - - - - - - - - - - - - - -
 72
65
 73
2
 40
0.2
 49
0.1
 74
0
 49
-0.1
 74
0
  0
LTYPE
  5
1F7
100
AcDbSymbolTableRecord
100
AcDbLinetypeTableRecord
  2
PHANTOM
 70
64
  3
_____ _ _ _____ _ _ _____ _ _ _____
 72
65
 73
6
 40
0.8
 49
0.45
 74
0
 49
-0.05
 74
0
 49
0.1
 74
0
 49
-0.05
 74
0
 49
0.1
 74
0
 49
-0.05
 74
0
  0
LTYPE
  5
1F8
100
AcDbSymbolTableRecord
100
AcDbLinetypeTableRecord
  2
DOT
 70
64
  3
. . . . . . . . . . . . . . . . . . . .
 72
65
 73
2
 40
0.2
 49
0.1
 74
0
 49
-0.1
 74
0
  0
LTYPE
  5
1F9
100
AcDbSymbolTableRecord
100
AcDbLinetypeTableRecord
  2
DASHED
 70
64
  3
- - - - - - - - - - - - - - - - - - - -
 72
65
 73
2
 40
0.2
 49
0.1
 74
0
 49
-0.1
 74
0
  0
ENDTAB
  0
TABLE
  2
LAYER
  5
2
100
AcDbSymbolTable
 70
36
  0
LAYER
  5
10
100
AcDbSymbolTableRecord
100
AcDbLayerTableRecord
  2
0
 70
0
 62
7
  6
CONTINUOUS
370
-3
390
F
  0
LAYER
  5
1FA
100
AcDbSymbolTableRecord
100
AcDbLayerTableRecord
  2
DEFAULT_1
 70
0
 62
7
  6
CENTER
370
-3
390
F
  0
LAYER
  5
1FB
100
AcDbSymbolTableRecord
100
AcDbLayerTableRecord
  2
DEFAULT_2
 70
0
 62
8
  6
HIDDEN
370
-3
390
F
  0
LAYER
  5
1FC
100
AcDbSymbolTableRecord
100
AcDbLayerTableRecord
  2
DEFAULT_3
 70
0
 62
7
  6
PHANTOM
370
-3
390
F
  0
LAYER
  5
1FD
100
AcDbSymbolTableRecord
100
AcDbLayerTableRecord
  2
00_COMPONENTS
 70
0
 62
7
  6
CONTINUOUS
370
-3
390
F
  0
LAYER
  5
1FE
100
AcDbSymbolTableRecord
100
AcDbLayerTableRecord
  2
01_1_DEFAULT_DATUMS
 70
0
 62
7
  6
CONTINUOUS
370
-3
390
F
  0
LAYER
  5
1FF
100
AcDbSymbolTableRecord
100
AcDbLayerTableRecord
  2
01_PLANES
 70
0
 62
7
  6
CONTINUOUS
370
-3
390
F
  0
LAYER
  5
200
100
AcDbSymbolTableRecord
100
AcDbLayerTableRecord
  2
02_COORD_SYS
 70
0
 62
7
  6
CONTINUOUS
370
-3
390
F
  0
LAYER
  5
201
100
AcDbSymbolTableRecord
100
AcDbLayerTableRecord
  2
03_AXES
 70
0
 62
7
  6
CONTINUOUS
370
-3
390
F
  0
LAYER
  5
202
100
AcDbSymbolTableRecord
100
AcDbLayerTableRecord
  2
04_POINTS
 70
0
 62
7
  6
CONTINUOUS
370
-3
390
F
  0
LAYER
  5
203
100
AcDbSymbolTableRecord
100
AcDbLayerTableRecord
  2
05_CURVES
 70
0
 62
7
  6
CONTINUOUS
370
-3
390
F
  0
LAYER
  5
204
100
AcDbSymbolTableRecord
100
AcDbLayerTableRecord
  2
06_SURFS
 70
0
 62
7
  6
CONTINUOUS
370
-3
390
F
  0
LAYER
  5
205
100
AcDbSymbolTableRecord
100
AcDbLayerTableRecord
  2
07_COSMETICS
 70
0
 62
7
  6
CONTINUOUS
370
-3
390
F
  0
LAYER
  5
206
100
AcDbSymbolTableRecord
100
AcDbLayerTableRecord
  2
10_NOTES
 70
0
 62
7
  6
CONTINUOUS
370
-3
390
F
  0
LAYER
  5
207
100
AcDbSymbolTableRecord
100
AcDbLayerTableRecord
  2
11_NOTES_PUB
 70
0
 62
7
  6
CONTINUOUS
370
-3
390
F
  0
LAYER
  5
208
100
AcDbSymbolTableRecord
100
AcDbLayerTableRecord
  2
13_REF_GTOL
 70
0
 62
7
  6
CONTINUOUS
370
-3
390
F
  0
LAYER
  5
209
100
AcDbSymbolTableRecord
100
AcDbLayerTableRecord
  2
16_MISC
 70
0
 62
7
  6
CONTINUOUS
370
-3
390
F
  0
LAYER
  5
20A
100
AcDbSymbolTableRecord
100
AcDbLayerTableRecord
  2
17_NO_PRINT
 70
0
 62
7
  6
CONTINUOUS
370
-3
390
F
  0
LAYER
  5
20B
100
AcDbSymbolTableRecord
100
AcDbLayerTableRecord
  2
18_DATUM_CAMS_JOINTS
 70
0
 62
7
  6
CONTINUOUS
370
-3
390
F
  0
LAYER
  5
20C
100
AcDbSymbolTableRecord
100
AcDbLayerTableRecord
  2
19_DATUM_FUNCTIONAL
 70
0
 62
7
  6
CONTINUOUS
370
-3
390
F
  0
LAYER
  5
20D
100
AcDbSymbolTableRecord
100
AcDbLayerTableRecord
  2
20_DATUM_KINEMATIC_SCHEME
 70
0
 62
7
  6
CONTINUOUS
370
-3
390
F
  0
ENDTAB
  0
TABLE
  2
STYLE
  5
3
100
AcDbSymbolTable
 70
1
  0
STYLE
  5
11
100
AcDbSymbolTableRecord
100
AcDbTextStyleTableRecord
  2
STANDARD
 70
0
 40
0.0
 41
0.8
 50
0.0
 71
0
 42
0.2
  3
txt
  4

  0
STYLE
  5
20E
100
AcDbSymbolTableRecord
100
AcDbTextStyleTableRecord
  2
TEXTSTYLE_1
 70
0
 40
0.0
 41
0.8
 50
0.0
 71
0
 42
0.2
  3
gdt
  4

  0
ENDTAB
  0
TABLE
  2
VIEW
  5
6
100
AcDbSymbolTable
 70
0
  0
ENDTAB
  0
TABLE
  2
UCS
  5
7
100
AcDbSymbolTable
 70
0
  0
ENDTAB
  0
TABLE
  2
APPID
  5
9
100
AcDbSymbolTable
 70
1
  0
APPID
  5
20F
100
AcDbSymbolTableRecord
100
AcDbRegAppTableRecord
  2
ACAD
 70
0
  0
ENDTAB
  0
TABLE
  2
BLOCK_RECORD
  5
1
100
AcDbSymbolTable
 70
0
  0
BLOCK_RECORD
  5
210
100
AcDbSymbolTableRecord
100
AcDbBlockTableRecord
  2
*Model_Space
  0
BLOCK_RECORD
  5
211
100
AcDbSymbolTableRecord
100
AcDbBlockTableRecord
  2
*Paper_Space
  0
BLOCK_RECORD
  5
212
100
AcDbSymbolTableRecord
100
AcDbBlockTableRecord
  2
_FILLED
  0
ENDTAB
  0
TABLE
  2
DIMSTYLE
  5
A
100
AcDbSymbolTable
 70
1
100
AcDbDimStyleTable
 71
0
  0
DIMSTYLE
105
213
100
AcDbSymbolTableRecord
100
AcDbDimStyleTableRecord
  2
STANDARD
 70
0
  3

  4

 40
1.0
 41
4.0569378437
 42
1.0
 43
0.38
 44
1.0
 45
0.0
 46
0.0
 47
0.01
 48
0.01
140
5.6797129811
141
0.09
142
0.0
143
25.4
144
1.0
145
0.0
146
1.0
147
0.625
 71
1
 72
0
 73
0
 74
0
 75
0
 76
0
 77
1
 78
8
 79
2
170
0
171
1
172
0
173
0
174
0
175
0
176
0
177
0
178
0
270
2
179
2
271
2
272
2
273
2
274
2
275
0
280
0
281
0
282
0
283
1
284
8
285
0
286
0
287
3
288
0
340
11
278
46
341
212
342
212
343
212
344
212
  0
ENDTAB
  0
ENDSEC
  0
SECTION
  2
BLOCKS
  0
BLOCK
  5
20
100
AcDbEntity
  8
0
100
AcDbBlockBegin
  2
*Model_Space
 70
0
 10
0.0
 20
0.0
 30
0.0
  3
*Model_Space
  1

  0
ENDBLK
  5
21
100
AcDbEntity
  8
0
100
AcDbBlockEnd
  0
BLOCK
  5
1C
100
AcDbEntity
  8
0
100
AcDbBlockBegin
  2
*Paper_Space
 70
0
 10
0.0
 20
0.0
 30
0.0
  3
*Paper_Space
  1

  0
ENDBLK
  5
1D
100
AcDbEntity
  8
0
100
AcDbBlockEnd
  0
BLOCK
  5
214
100
AcDbEntity
  8
0
100
AcDbBlockBegin
  2
_FILLED
 70
64
 10
0.0
 20
0.0
  3
_FILLED
  1

  0
SOLID
  5
215
100
AcDbEntity
  8
0
  6
BYBLOCK
 62
0
100
AcDbTrace
 10
0.0
 20
0.0
 11
-1.0
 21
0.25
 12
-1.0
 22
-0.25
 13
-1.0
 23
-0.25
  0
ENDBLK
  5
216
100
AcDbEntity
  8
0
  6
BYBLOCK
 62
0
100
AcDbBlockEnd
  0
ENDSEC
  0
SECTION
  2
ENTITIES
  0
LINE
  5
217
100
AcDbEntity
  8
0
100
AcDbLine
 62
7
  6
CONTINUOUS
 10
162.585878704
 20
41.2256016809
 11
160.6277697638
 21
41.2256016809
  0
LINE
  5
218
100
AcDbEntity
  8
0
100
AcDbLine
 62
7
  6
CONTINUOUS
 10
174.735840447
 20
58.4144069305
 11
175.8552556368
 21
58.5123430694
  0
LINE
  5
219
100
AcDbEntity
  8
0
100
AcDbLine
 62
7
  6
CONTINUOUS
 10
174.735840447
 20
71.4144069305
 11
175.8552556368
 21
71.5123430694
  0
LINE
  5
21A
100
AcDbEntity
  8
0
100
AcDbLine
 62
7
  6
CONTINUOUS
 10
172.5596207205
 20
57.9144069305
 11
173.735840447
 21
57.9144069305
  0
LINE
  5
21B
100
AcDbEntity
  8
0
100
AcDbLine
 62
7
  6
CONTINUOUS
 10
173.735840447
 20
58.1144069305
 11
174.735840447
 21
58.1144069305
  0
LINE
  5
21C
100
AcDbEntity
  8
0
100
AcDbLine
 62
7
  6
CONTINUOUS
 10
176.9888199755
 20
59.4644069305
 11
176.9958684258
 21
59.4644069305
  0
LINE
  5
21D
100
AcDbEntity
  8
0
100
AcDbLine
 62
7
  6
CONTINUOUS
 10
154.735840447
 20
59.9144069305
 11
170.4358410729
 21
59.9144069305
  0
LINE
  5
21E
100
AcDbEntity
  8
0
100
AcDbLine
 62
7
  6
CONTINUOUS
 10
171.9358380926
 20
59.9144069305
 11
172.5596207205
 21
59.9144069305
  0
LINE
  5
21F
100
AcDbEntity
  8
0
100
AcDbLine
 62
7
  6
CONTINUOUS
 10
177.3050218829
 20
61.5644069305
 11
176.989286284
 21
61.5644069305
  0
LINE
  5
220
100
AcDbEntity
  8
0
100
AcDbLine
 62
7
  6
CONTINUOUS
 10
176.9892860831
 20
62.2644069305
 11
177.3050218828
 21
62.2644069305
  0
LINE
  5
221
100
AcDbEntity
  8
0
100
AcDbLine
 62
7
  6
CONTINUOUS
 10
172.5596207205
 20
63.9144069305
 11
171.9358380926
 21
63.9144069305
  0
LINE
  5
222
100
AcDbEntity
  8
0
100
AcDbLine
 62
7
  6
CONTINUOUS
 10
170.4358410729
 20
63.9144069305
 11
154.735840447
 21
63.9144069305
  0
LINE
  5
223
100
AcDbEntity
  8
0
100
AcDbLine
 62
7
  6
CONTINUOUS
 10
176.9958684258
 20
64.3644069305
 11
176.9888199755
 21
64.3644069305
  0
LINE
  5
224
100
AcDbEntity
  8
0
100
AcDbLine
 62
7
  6
CONTINUOUS
 10
174.735840447
 20
65.7144069305
 11
173.735840447
 21
65.7144069305
  0
LINE
  5
225
100
AcDbEntity
  8
0
100
AcDbLine
 62
7
  6
CONTINUOUS
 10
173.735840447
 20
65.9144069305
 11
172.5596207205
 21
65.9144069305
  0
LINE
  5
226
100
AcDbEntity
  8
0
100
AcDbLine
 62
7
  6
CONTINUOUS
 10
172.5596207205
 20
70.9144069305
 11
173.735840447
 21
70.9144069305
  0
LINE
  5
227
100
AcDbEntity
  8
0
100
AcDbLine
 62
7
  6
CONTINUOUS
 10
173.735840447
 20
71.1144069305
 11
174.735840447
 21
71.1144069305
  0
LINE
  5
228
100
AcDbEntity
  8
0
100
AcDbLine
 62
7
  6
CONTINUOUS
 10
176.9888199755
 20
72.4644069305
 11
176.9958684258
 21
72.4644069305
  0
LINE
  5
229
100
AcDbEntity
  8
0
100
AcDbLine
 62
7
  6
CONTINUOUS
 10
175.8552556368
 20
65.3164707916
 11
174.735840447
 21
65.4144069305
  0
LINE
  5
22A
100
AcDbEntity
  8
0
100
AcDbLine
 62
7
  6
CONTINUOUS
 10
154.735840447
 20
72.9144069305
 11
170.4358410729
 21
72.9144069305
  0
LINE
  5
22B
100
AcDbEntity
  8
0
100
AcDbLine
 62
7
  6
CONTINUOUS
 10
171.9358380926
 20
72.9144069305
 11
172.5596207205
 21
72.9144069305
  0
LINE
  5
22C
100
AcDbEntity
  8
0
100
AcDbLine
 62
7
  6
CONTINUOUS
 10
177.3050218829
 20
74.5644069305
 11
176.989286284
 21
74.5644069305
  0
LINE
  5
22D
100
AcDbEntity
  8
0
100
AcDbLine
 62
7
  6
CONTINUOUS
 10
176.9892860831
 20
75.2644069305
 11
177.3050218828
 21
75.2644069305
  0
LINE
  5
22E
100
AcDbEntity
  8
0
100
AcDbLine
 62
7
  6
CONTINUOUS
 10
172.5596207205
 20
76.9144069305
 11
171.9358380926
 21
76.9144069305
  0
LINE
  5
22F
100
AcDbEntity
  8
0
100
AcDbLine
 62
7
  6
CONTINUOUS
 10
170.4358410729
 20
76.9144069305
 11
154.735840447
 21
76.9144069305
  0
LINE
  5
230
100
AcDbEntity
  8
0
100
AcDbLine
 62
7
  6
CONTINUOUS
 10
176.9958684258
 20
77.3644069305
 11
176.9888199755
 21
77.3644069305
  0
LINE
  5
231
100
AcDbEntity
  8
0
100
AcDbLine
 62
7
  6
CONTINUOUS
 10
174.735840447
 20
78.7144069305
 11
173.735840447
 21
78.7144069305
  0
LINE
  5
232
100
AcDbEntity
  8
0
100
AcDbLine
 62
7
  6
CONTINUOUS
 10
173.735840447
 20
78.9144069305
 11
172.5596207205
 21
78.9144069305
  0
LINE
  5
233
100
AcDbEntity
  8
0
100
AcDbLine
 62
7
  6
CONTINUOUS
 10
175.8552556368
 20
78.3164707916
 11
174.735840447
 21
78.4144069305
  0
LINE
  5
234
100
AcDbEntity
  8
0
100
AcDbLine
 62
7
  6
CONTINUOUS
 10
161.3003056539
 20
39.6935157529
 11
160.1512398613
 21
40.6576953879
  0
LINE
  5
235
100
AcDbEntity
  8
0
100
AcDbLine
 62
7
  6
CONTINUOUS
 10
165.1170017449
 20
39.2296454743
 11
162.6488612083
 21
41.3006612883
  0
LINE
  5
236
100
AcDbEntity
  8
0
100
AcDbLine
 62
7
  6
CONTINUOUS
 10
161.4997956417
 20
42.2648417814
 11
157.8794953494
 21
45.3026344215
  0
LINE
  5
237
100
AcDbEntity
  8
0
100
AcDbLine
 62
7
  6
CONTINUOUS
 10
177.147339541
 20
102.5422698689
 11
175.6858419669
 21
102.4144081822
  0
LINE
  5
238
100
AcDbEntity
  8
0
100
AcDbLine
 62
7
  6
CONTINUOUS
 10
174.3858423127
 20
101.9143997183
 11
173.3858402861
 21
101.9143997183
  0
LINE
  5
239
100
AcDbEntity
  8
0
100
AcDbLine
 62
7
  6
CONTINUOUS
 10
175.6858419669
 20
102.3144064894
 11
174.3858423127
 21
102.3144064894
  0
LINE
  5
23A
100
AcDbEntity
  8
0
100
AcDbLine
 62
7
  6
CONTINUOUS
 10
173.3858402861
 20
103.3644019118
 11
171.9358380926
 21
103.3644019118
  0
LINE
  5
23B
100
AcDbEntity
  8
0
100
AcDbLine
 62
7
  6
CONTINUOUS
 10
170.4358410729
 20
103.3644019118
 11
168.4358384503
 21
103.3644019118
  0
LINE
  5
23C
100
AcDbEntity
  8
0
100
AcDbLine
 62
7
  6
CONTINUOUS
 10
165.5929466656
 20
54.4951677389
 11
169.2132464021
 21
51.4573755653
  0
LINE
  5
23D
100
AcDbEntity
  8
0
100
AcDbLine
 62
7
  6
CONTINUOUS
 10
170.3623136266
 20
50.4931936809
 11
172.8304530612
 21
48.4221787917
  0
LINE
  5
23E
100
AcDbEntity
  8
0
100
AcDbLine
 62
7
  6
CONTINUOUS
 10
168.4358235491
 20
104.4144122353
 11
163.68584
 21
104.4144122353
  0
LINE
  5
23F
100
AcDbEntity
  8
0
100
AcDbLine
 62
7
  6
CONTINUOUS
 10
178.7241113683
 20
104.4644069305
 11
178.7292902356
 21
104.4644069305
  0
LINE
  5
240
100
AcDbEntity
  8
0
100
AcDbLine
 62
7
  6
CONTINUOUS
 10
178.9720236637
 20
106.5644069305
 11
178.7241539034
 21
106.5644069305
  0
LINE
  5
241
100
AcDbEntity
  8
0
100
AcDbLine
 62
7
  6
CONTINUOUS
 10
178.7241539033
 20
107.2644069305
 11
178.9720236638
 21
107.2644069305
  0
LINE
  5
242
100
AcDbEntity
  8
0
100
AcDbLine
 62
7
  6
CONTINUOUS
 10
178.7292902356
 20
109.3644069305
 11
178.7241113683
 21
109.3644069305
  0
LINE
  5
243
100
AcDbEntity
  8
0
100
AcDbLine
 62
7
  6
CONTINUOUS
 10
163.68584
 20
109.4144016257
 11
168.4358235491
 21
109.4144016257
  0
LINE
  5
244
100
AcDbEntity
  8
0
100
AcDbLine
 62
7
  6
CONTINUOUS
 10
168.4358384503
 20
110.4644119492
 11
170.4358410729
 21
110.4644119492
  0
LINE
  5
245
100
AcDbEntity
  8
0
100
AcDbLine
 62
7
  6
CONTINUOUS
 10
171.9358380926
 20
110.4644119492
 11
173.3858402861
 21
110.4644119492
  0
LINE
  5
246
100
AcDbEntity
  8
0
100
AcDbLine
 62
7
  6
CONTINUOUS
 10
170.4358410729
 20
111.4144122948
 11
171.9358380926
 21
111.4144122948
  0
LINE
  5
247
100
AcDbEntity
  8
0
100
AcDbLine
 62
7
  6
CONTINUOUS
 10
174.3858423127
 20
111.5144073716
 11
175.6858419669
 21
111.5144073716
  0
LINE
  5
248
100
AcDbEntity
  8
0
100
AcDbLine
 62
7
  6
CONTINUOUS
 10
173.3858402861
 20
111.9144141427
 11
174.3858423127
 21
111.9144141427
  0
LINE
  5
249
100
AcDbEntity
  8
0
100
AcDbLine
 62
7
  6
CONTINUOUS
 10
171.9358380926
 20
113.4144014469
 11
170.4358410729
 21
113.4144014469
  0
LINE
  5
24A
100
AcDbEntity
  8
0
100
AcDbLine
 62
7
  6
CONTINUOUS
 10
153.4271871043
 20
113.9144111028
 11
165.1358415676
 21
113.9144111028
  0
LINE
  5
24B
100
AcDbEntity
  8
0
100
AcDbLine
 62
7
  6
CONTINUOUS
 10
165.1358415676
 20
114.3608330742
 11
152.9300213002
 21
114.3608330742
  0
LINE
  5
24C
100
AcDbEntity
  8
0
100
AcDbLine
 62
7
  6
CONTINUOUS
 10
169.4358410729
 20
114.4144085398
 11
167.9358410729
 21
114.4144085398
  0
LINE
  5
24D
100
AcDbEntity
  8
0
100
AcDbLine
 62
7
  6
CONTINUOUS
 10
165.1358415676
 20
115.9144151559
 11
165.4358391953
 21
115.9144151559
  0
LINE
  5
24E
100
AcDbEntity
  8
0
100
AcDbLine
 62
7
  6
CONTINUOUS
 10
167.9358410729
 20
115.9144085398
 11
169.4358404768
 21
115.9144155732
  0
LINE
  5
24F
100
AcDbEntity
  8
0
100
AcDbLine
 62
7
  6
CONTINUOUS
 10
175.6858419669
 20
111.4144056788
 11
177.147339541
 21
111.2865439921
  0
LINE
  5
250
100
AcDbEntity
  8
0
100
AcDbLine
 62
7
  6
CONTINUOUS
 10
67.4537877632
 20
133.9144069305
 11
67.6224379079
 21
133.2849985716
  0
LINE
  5
251
100
AcDbEntity
  8
0
100
AcDbLine
 62
7
  6
CONTINUOUS
 10
59.435840447
 20
133.9144069305
 11
59.435840447
 21
443.9144093147
  0
LINE
  5
252
100
AcDbEntity
  8
0
100
AcDbLine
 62
7
  6
CONTINUOUS
 10
61.435840447
 20
443.9144093147
 11
61.435840447
 21
418.4944069305
  0
LINE
  5
253
100
AcDbEntity
  8
0
100
AcDbLine
 62
7
  6
CONTINUOUS
 10
61.435840447
 20
159.3067921177
 11
61.435840447
 21
133.9144069305
  0
LINE
  5
254
100
AcDbEntity
  8
0
100
AcDbLine
 62
7
  6
CONTINUOUS
 10
177.147339541
 20
120.5422698689
 11
175.6858419669
 21
120.4144081822
  0
LINE
  5
255
100
AcDbEntity
  8
0
100
AcDbLine
 62
7
  6
CONTINUOUS
 10
168.8873361137
 20
120.5422760082
 11
167.425840447
 21
120.4144052616
  0
LINE
  5
256
100
AcDbEntity
  8
0
100
AcDbLine
 62
7
  6
CONTINUOUS
 10
174.3858423127
 20
119.9143997183
 11
173.3858402861
 21
119.9143997183
  0
LINE
  5
257
100
AcDbEntity
  8
0
100
AcDbLine
 62
7
  6
CONTINUOUS
 10
175.6858419669
 20
120.3144064894
 11
174.3858423127
 21
120.3144064894
  0
LINE
  5
258
100
AcDbEntity
  8
0
100
AcDbLine
 62
7
  6
CONTINUOUS
 10
167.425840447
 20
120.6644169441
 11
166.935842861
 21
120.6644169441
  0
LINE
  5
259
100
AcDbEntity
  8
0
100
AcDbLine
 62
7
  6
CONTINUOUS
 10
173.3858402861
 20
121.3644019118
 11
171.9358380926
 21
121.3644019118
  0
LINE
  5
25A
100
AcDbEntity
  8
0
100
AcDbLine
 62
7
  6
CONTINUOUS
 10
170.4358418384
 20
121.3644019118
 11
170.0672115846
 21
121.3644019118
  0
LINE
  5
25B
100
AcDbEntity
  8
0
100
AcDbLine
 62
7
  6
CONTINUOUS
 10
170.4629700813
 20
122.4644069305
 11
170.4681539948
 21
122.4644069305
  0
LINE
  5
25C
100
AcDbEntity
  8
0
100
AcDbLine
 62
7
  6
CONTINUOUS
 10
178.7241113683
 20
122.4644069305
 11
178.7292902356
 21
122.4644069305
  0
LINE
  5
25D
100
AcDbEntity
  8
0
100
AcDbLine
 62
7
  6
CONTINUOUS
 10
178.9720236637
 20
124.5644069305
 11
178.7241539034
 21
124.5644069305
  0
LINE
  5
25E
100
AcDbEntity
  8
0
100
AcDbLine
 62
7
  6
CONTINUOUS
 10
170.7172770327
 20
124.5644069305
 11
170.4630189633
 21
124.5644069305
  0
LINE
  5
25F
100
AcDbEntity
  8
0
100
AcDbLine
 62
7
  6
CONTINUOUS
 10
170.4630189633
 20
125.2644069305
 11
170.7172770327
 21
125.2644069305
  0
LINE
  5
260
100
AcDbEntity
  8
0
100
AcDbLine
 62
7
  6
CONTINUOUS
 10
178.7241539033
 20
125.2644069305
 11
178.9720236638
 21
125.2644069305
  0
LINE
  5
261
100
AcDbEntity
  8
0
100
AcDbLine
 62
7
  6
CONTINUOUS
 10
178.7292902356
 20
127.3644069305
 11
178.7241113683
 21
127.3644069305
  0
LINE
  5
262
100
AcDbEntity
  8
0
100
AcDbLine
 62
7
  6
CONTINUOUS
 10
170.4681539948
 20
127.3644069305
 11
170.4629700813
 21
127.3644069305
  0
LINE
  5
263
100
AcDbEntity
  8
0
100
AcDbLine
 62
7
  6
CONTINUOUS
 10
170.0672115846
 20
128.4644119492
 11
170.4358418384
 21
128.4644119492
  0
LINE
  5
264
100
AcDbEntity
  8
0
100
AcDbLine
 62
7
  6
CONTINUOUS
 10
171.9358380926
 20
128.4644119492
 11
173.3858402861
 21
128.4644119492
  0
LINE
  5
265
100
AcDbEntity
  8
0
100
AcDbLine
 62
7
  6
CONTINUOUS
 10
166.935842861
 20
129.1643969169
 11
167.425840447
 21
129.1643969169
  0
LINE
  5
266
100
AcDbEntity
  8
0
100
AcDbLine
 62
7
  6
CONTINUOUS
 10
174.3858423127
 20
129.5144073716
 11
175.6858419669
 21
129.5144073716
  0
LINE
  5
267
100
AcDbEntity
  8
0
100
AcDbLine
 62
7
  6
CONTINUOUS
 10
173.3858402861
 20
129.9144141427
 11
174.3858423127
 21
129.9144141427
  0
LINE
  5
268
100
AcDbEntity
  8
0
100
AcDbLine
 62
7
  6
CONTINUOUS
 10
165.4358399776
 20
130.9143996587
 11
166.935842861
 21
130.9143996587
  0
LINE
  5
269
100
AcDbEntity
  8
0
100
AcDbLine
 62
7
  6
CONTINUOUS
 10
170.4358423371
 20
130.9144037119
 11
171.9358380926
 21
130.9144037119
  0
LINE
  5
26A
100
AcDbEntity
  8
0
100
AcDbLine
 62
7
  6
CONTINUOUS
 10
171.9358380926
 20
132.9144037119
 11
170.4358425034
 21
132.9144037119
  0
LINE
  5
26B
100
AcDbEntity
  8
0
100
AcDbLine
 62
7
  6
CONTINUOUS
 10
166.935842861
 20
132.9144053212
 11
165.4358398212
 21
132.9144053212
  0
LINE
  5
26C
100
AcDbEntity
  8
0
100
AcDbLine
 62
7
  6
CONTINUOUS
 10
148.765226828
 20
132.9144081226
 11
68.1064540661
 21
132.9144081226
  0
LINE
  5
26D
100
AcDbEntity
  8
0
100
AcDbLine
 62
7
  6
CONTINUOUS
 10
149.2492429862
 20
133.2849985716
 11
67.6224379079
 21
133.2849985716
  0
LINE
  5
26E
100
AcDbEntity
  8
0
100
AcDbLine
 62
7
  6
CONTINUOUS
 10
152.5867392612
 20
133.9044063345
 11
165.4358391953
 21
133.9044063345
  0
LINE
  5
26F
100
AcDbEntity
  8
0
100
AcDbLine
 62
7
  6
CONTINUOUS
 10
59.435840447
 20
133.9144069305
 11
152.5867392612
 21
133.9144069305
  0
LINE
  5
270
100
AcDbEntity
  8
0
100
AcDbLine
 62
7
  6
CONTINUOUS
 10
165.4358391953
 20
133.9144069305
 11
226.5381886562
 21
133.9144081226
  0
LINE
  5
271
100
AcDbEntity
  8
0
100
AcDbLine
 62
7
  6
CONTINUOUS
 10
144.725840447
 20
134.8067921177
 11
61.435840447
 21
134.8067921177
  0
LINE
  5
272
100
AcDbEntity
  8
0
100
AcDbLine
 62
7
  6
CONTINUOUS
 10
227.5748852396
 20
134.8172514692
 11
144.725840447
 21
134.8172514692
  0
LINE
  5
273
100
AcDbEntity
  8
0
100
AcDbLine
 62
7
  6
CONTINUOUS
 10
167.425840447
 20
129.4144085994
 11
168.8873361137
 21
129.2865378528
  0
LINE
  5
274
100
AcDbEntity
  8
0
100
AcDbLine
 62
7
  6
CONTINUOUS
 10
175.6858419669
 20
129.4144056788
 11
177.147339541
 21
129.2865439921
  0
LINE
  5
275
100
AcDbEntity
  8
0
100
AcDbLine
 62
7
  6
CONTINUOUS
 10
61.435840447
 20
135.9106259135
 11
59.435840447
 21
135.9106259135
  0
LINE
  5
276
100
AcDbEntity
  8
0
100
AcDbLine
 62
7
  6
CONTINUOUS
 10
144.725840447
 20
142.0803754583
 11
230.2498662307
 21
142.0803754583
  0
LINE
  5
277
100
AcDbEntity
  8
0
100
AcDbLine
 62
7
  6
CONTINUOUS
 10
231.4541221236
 20
145.7165270105
 11
144.725840447
 21
145.7165270105
  0
LINE
  5
278
100
AcDbEntity
  8
0
100
AcDbLine
 62
7
  6
CONTINUOUS
 10
144.725840447
 20
146.4446871534
 11
231.6847199923
 21
146.4446871534
  0
LINE
  5
279
100
AcDbEntity
  8
0
100
AcDbLine
 62
7
  6
CONTINUOUS
 10
232.2859474616
 20
148.3974640405
 11
144.725840447
 21
148.3974640405
  0
LINE
  5
27A
100
AcDbEntity
  8
0
100
AcDbLine
 62
7
  6
CONTINUOUS
 10
61.435840447
 20
150.9967921177
 11
144.725840447
 21
150.9967921177
  0
LINE
  5
27B
100
AcDbEntity
  8
0
100
AcDbLine
 62
7
  6
CONTINUOUS
 10
144.725840447
 20
157.3567921177
 11
61.435840447
 21
157.3567921177
  0
LINE
  5
27C
100
AcDbEntity
  8
0
100
AcDbLine
 62
7
  6
CONTINUOUS
 10
61.435840447
 20
158.3067921177
 11
144.725840447
 21
158.3067921177
  0
LINE
  5
27D
100
AcDbEntity
  8
0
100
AcDbLine
 62
7
  6
CONTINUOUS
 10
144.725840447
 20
159.3067921177
 11
61.435840447
 21
159.3067921177
  0
LINE
  5
27E
100
AcDbEntity
  8
0
100
AcDbLine
 62
7
  6
CONTINUOUS
 10
144.725840447
 20
133.9144069305
 11
144.725840447
 21
159.3067921177
  0
LINE
  5
27F
100
AcDbEntity
  8
0
100
AcDbLine
 62
7
  6
CONTINUOUS
 10
264.9358471671
 20
199.5086926571
 11
285.0700726105
 21
199.5086926571
  0
LINE
  5
280
100
AcDbEntity
  8
0
100
AcDbLine
 62
7
  6
CONTINUOUS
 10
287.4358405663
 20
199.3778008571
 11
290.7856501139
 21
199.244964738
  0
LINE
  5
281
100
AcDbEntity
  8
0
100
AcDbLine
 62
7
  6
CONTINUOUS
 10
285.3358348204
 20
199.4831967703
 11
287.4358405663
 21
199.3778008571
  0
LINE
  5
282
100
AcDbEntity
  8
0
100
AcDbLine
 62
7
  6
CONTINUOUS
 10
285.0700726105
 20
199.5086926571
 11
285.3358348204
 21
199.4831967703
  0
LINE
  5
283
100
AcDbEntity
  8
0
100
AcDbLine
 62
7
  6
CONTINUOUS
 10
170.4681540348
 20
127.3644069305
 11
170.2897406607
 21
128.1200454029
  0
LINE
  5
284
100
AcDbEntity
  8
0
100
AcDbLine
 62
7
  6
CONTINUOUS
 10
152.5869138237
 20
133.9044063345
 11
152.9272680474
 21
114.4056874862
  0
LINE
  5
285
100
AcDbEntity
  8
0
100
AcDbLine
 62
7
  6
CONTINUOUS
 10
154.735840447
 20
59.9144069305
 11
154.735840447
 21
63.9144069305
  0
LINE
  5
286
100
AcDbEntity
  8
0
100
AcDbLine
 62
7
  6
CONTINUOUS
 10
154.735840447
 20
72.9144069305
 11
154.735840447
 21
76.9144069305
  0
LINE
  5
287
100
AcDbEntity
  8
0
100
AcDbLine
 62
7
  6
CONTINUOUS
 10
159.7442501351
 20
61.8062085314
 11
159.7442501351
 21
62.0226053296
  0
LINE
  5
288
100
AcDbEntity
  8
0
100
AcDbLine
 62
7
  6
CONTINUOUS
 10
159.7442501351
 20
74.8062085314
 11
159.7442501351
 21
75.0226053296
  0
LINE
  5
289
100
AcDbEntity
  8
0
100
AcDbLine
 62
7
  6
CONTINUOUS
 10
178.729290276
 20
109.3644069305
 11
178.5497408403
 21
110.120046114
  0
LINE
  5
28A
100
AcDbEntity
  8
0
100
AcDbLine
 62
7
  6
CONTINUOUS
 10
178.729290276
 20
127.3644069305
 11
178.5497408403
 21
128.120046114
  0
LINE
  5
28B
100
AcDbEntity
  8
0
100
AcDbLine
 62
7
  6
CONTINUOUS
 10
163.68584
 20
104.4144122353
 11
163.68584
 21
109.4144016257
  0
LINE
  5
28C
100
AcDbEntity
  8
0
100
AcDbLine
 62
7
  6
CONTINUOUS
 10
165.1358415676
 20
115.9144151559
 11
165.1358415676
 21
113.9144111028
  0
LINE
  5
28D
100
AcDbEntity
  8
0
100
AcDbLine
 62
7
  6
CONTINUOUS
 10
165.4358391953
 20
133.9144069305
 11
165.4358391953
 21
115.9144151559
  0
LINE
  5
28E
100
AcDbEntity
  8
0
100
AcDbLine
 62
7
  6
CONTINUOUS
 10
166.935842861
 20
132.9144053212
 11
166.935842861
 21
116.9144026986
  0
LINE
  5
28F
100
AcDbEntity
  8
0
100
AcDbLine
 62
7
  6
CONTINUOUS
 10
167.425840447
 20
120.4144052616
 11
167.425840447
 21
129.4144085994
  0
LINE
  5
290
100
AcDbEntity
  8
0
100
AcDbLine
 62
7
  6
CONTINUOUS
 10
168.4358309997
 20
103.3644019118
 11
168.4358309997
 21
110.4644119492
  0
LINE
  5
291
100
AcDbEntity
  8
0
100
AcDbLine
 62
7
  6
CONTINUOUS
 10
168.8873361137
 20
129.2865378528
 11
168.8873361137
 21
120.5422760082
  0
LINE
  5
292
100
AcDbEntity
  8
0
100
AcDbLine
 62
7
  6
CONTINUOUS
 10
170.2897406607
 20
128.1200454029
 11
170.2897406607
 21
121.7087684582
  0
LINE
  5
293
100
AcDbEntity
  8
0
100
AcDbLine
 62
7
  6
CONTINUOUS
 10
170.4358410729
 20
53.2783799381
 11
170.4358408824
 21
113.4144014469
  0
LINE
  5
294
100
AcDbEntity
  8
0
100
AcDbLine
 62
7
  6
CONTINUOUS
 10
170.4358410729
 20
115.7056963873
 11
170.4358416233
 21
122.327553394
  0
LINE
  5
295
100
AcDbEntity
  8
0
100
AcDbLine
 62
7
  6
CONTINUOUS
 10
170.4358420534
 20
127.5012586455
 11
170.4358425034
 21
132.9144037119
  0
LINE
  5
296
100
AcDbEntity
  8
0
100
AcDbLine
 62
7
  6
CONTINUOUS
 10
171.9358380926
 20
113.4144014469
 11
171.9358380926
 21
53.2783828726
  0
LINE
  5
297
100
AcDbEntity
  8
0
100
AcDbLine
 62
7
  6
CONTINUOUS
 10
171.9358380926
 20
113.4386207943
 11
171.9358380926
 21
132.9144037119
  0
LINE
  5
298
100
AcDbEntity
  8
0
100
AcDbLine
 62
7
  6
CONTINUOUS
 10
172.5596207205
 20
57.9144069305
 11
172.5596207205
 21
65.9144069305
  0
LINE
  5
299
100
AcDbEntity
  8
0
100
AcDbLine
 62
7
  6
CONTINUOUS
 10
172.5596207205
 20
70.9144069305
 11
172.5596207205
 21
78.9144069305
  0
LINE
  5
29A
100
AcDbEntity
  8
0
100
AcDbLine
 62
7
  6
CONTINUOUS
 10
173.3858402861
 20
101.9143997183
 11
173.3858402861
 21
111.9144141427
  0
LINE
  5
29B
100
AcDbEntity
  8
0
100
AcDbLine
 62
7
  6
CONTINUOUS
 10
173.3858402861
 20
119.9143997183
 11
173.3858402861
 21
129.9144141427
  0
LINE
  5
29C
100
AcDbEntity
  8
0
100
AcDbLine
 62
7
  6
CONTINUOUS
 10
173.735840447
 20
78.9144069305
 11
173.735840447
 21
70.9144069305
  0
LINE
  5
29D
100
AcDbEntity
  8
0
100
AcDbLine
 62
7
  6
CONTINUOUS
 10
173.735840447
 20
65.9144069305
 11
173.735840447
 21
57.9144069305
  0
LINE
  5
29E
100
AcDbEntity
  8
0
100
AcDbLine
 62
7
  6
CONTINUOUS
 10
174.3858423127
 20
129.9144141427
 11
174.3858423127
 21
119.9143997183
  0
LINE
  5
29F
100
AcDbEntity
  8
0
100
AcDbLine
 62
7
  6
CONTINUOUS
 10
174.3858423127
 20
111.9144141427
 11
174.3858423127
 21
101.9143997183
  0
LINE
  5
2A0
100
AcDbEntity
  8
0
100
AcDbLine
 62
7
  6
CONTINUOUS
 10
174.735840447
 20
78.7144069305
 11
174.735840447
 21
71.1144069305
  0
LINE
  5
2A1
100
AcDbEntity
  8
0
100
AcDbLine
 62
7
  6
CONTINUOUS
 10
174.735840447
 20
65.7144069305
 11
174.735840447
 21
58.1144069305
  0
LINE
  5
2A2
100
AcDbEntity
  8
0
100
AcDbLine
 62
7
  6
CONTINUOUS
 10
175.6858419669
 20
129.5144073716
 11
175.6858419669
 21
120.3144064894
  0
LINE
  5
2A3
100
AcDbEntity
  8
0
100
AcDbLine
 62
7
  6
CONTINUOUS
 10
175.6858419669
 20
111.5144073716
 11
175.6858419669
 21
102.3144064894
  0
LINE
  5
2A4
100
AcDbEntity
  8
0
100
AcDbLine
 62
7
  6
CONTINUOUS
 10
175.8552556368
 20
78.3164707916
 11
175.8552556368
 21
71.5123430694
  0
LINE
  5
2A5
100
AcDbEntity
  8
0
100
AcDbLine
 62
7
  6
CONTINUOUS
 10
175.8552556368
 20
65.3164707916
 11
175.8552556368
 21
58.5123430694
  0
LINE
  5
2A6
100
AcDbEntity
  8
0
100
AcDbLine
 62
7
  6
CONTINUOUS
 10
176.992335839
 20
77.352149232
 11
176.992335839
 21
75.2644085801
  0
LINE
  5
2A7
100
AcDbEntity
  8
0
100
AcDbLine
 62
7
  6
CONTINUOUS
 10
176.992335839
 20
74.5644052809
 11
176.992335839
 21
72.476664629
  0
LINE
  5
2A8
100
AcDbEntity
  8
0
100
AcDbLine
 62
7
  6
CONTINUOUS
 10
176.992335839
 20
64.352149232
 11
176.992335839
 21
62.2644085801
  0
LINE
  5
2A9
100
AcDbEntity
  8
0
100
AcDbLine
 62
7
  6
CONTINUOUS
 10
176.992335839
 20
61.5644052809
 11
176.992335839
 21
59.476664629
  0
LINE
  5
2AA
100
AcDbEntity
  8
0
100
AcDbLine
 62
7
  6
CONTINUOUS
 10
177.147339541
 20
129.2865439921
 11
177.147339541
 21
120.5422698689
  0
LINE
  5
2AB
100
AcDbEntity
  8
0
100
AcDbLine
 62
7
  6
CONTINUOUS
 10
177.147339541
 20
111.2865439921
 11
177.147339541
 21
102.5422698689
  0
LINE
  5
2AC
100
AcDbEntity
  8
0
100
AcDbLine
 62
7
  6
CONTINUOUS
 10
177.3137550099
 20
61.8062085314
 11
177.3137550099
 21
62.0226053296
  0
LINE
  5
2AD
100
AcDbEntity
  8
0
100
AcDbLine
 62
7
  6
CONTINUOUS
 10
177.3137550099
 20
74.8062085314
 11
177.3137550099
 21
75.0226053296
  0
LINE
  5
2AE
100
AcDbEntity
  8
0
100
AcDbLine
 62
7
  6
CONTINUOUS
 10
178.5497408403
 20
128.120046114
 11
178.5497408403
 21
121.708767747
  0
LINE
  5
2AF
100
AcDbEntity
  8
0
100
AcDbLine
 62
7
  6
CONTINUOUS
 10
178.5497408403
 20
110.120046114
 11
178.5497408403
 21
103.708767747
  0
LINE
  5
2B0
100
AcDbEntity
  8
0
100
AcDbLine
 62
7
  6
CONTINUOUS
 10
191.435840447
 20
418.4944069305
 11
191.435840447
 21
443.9144093147
  0
LINE
  5
2B1
100
AcDbEntity
  8
0
100
AcDbLine
 62
7
  6
CONTINUOUS
 10
149.2492429862
 20
133.2849985716
 11
149.4178931309
 21
133.9144069305
  0
LINE
  5
2B2
100
AcDbEntity
  8
0
100
AcDbLine
 62
7
  6
CONTINUOUS
 10
285.8826185891
 20
324.2662500482
 11
285.6950725743
 21
324.0946184736
  0
LINE
  5
2B3
100
AcDbEntity
  8
0
100
AcDbLine
 62
7
  6
CONTINUOUS
 10
170.4681540348
 20
122.4644069305
 11
170.2897406607
 21
121.7087684582
  0
LINE
  5
2B4
100
AcDbEntity
  8
0
100
AcDbLine
 62
7
  6
CONTINUOUS
 10
178.729290276
 20
122.4644069305
 11
178.5497408403
 21
121.708767747
  0
LINE
  5
2B5
100
AcDbEntity
  8
0
100
AcDbLine
 62
7
  6
CONTINUOUS
 10
277.8579299407
 20
389.8206705719
 11
278.7089139189
 21
391.5877187283
  0
LINE
  5
2B6
100
AcDbEntity
  8
0
100
AcDbLine
 62
7
  6
CONTINUOUS
 10
278.6125687096
 20
391.3913815991
 11
278.7089133046
 21
391.5877187287
  0
LINE
  5
2B7
100
AcDbEntity
  8
0
100
AcDbLine
 62
7
  6
CONTINUOUS
 10
277.3224234886
 20
391.5876899718
 11
276.4062988905
 21
389.8510982546
  0
LINE
  5
2B8
100
AcDbEntity
  8
0
100
AcDbLine
 62
7
  6
CONTINUOUS
 10
178.729290276
 20
104.4644069305
 11
178.5497408403
 21
103.708767747
  0
LINE
  5
2B9
100
AcDbEntity
  8
0
100
AcDbLine
 62
7
  6
CONTINUOUS
 10
285.7358415914
 20
285.9144069305
 11
284.138439317
 21
285.9144069305
  0
LINE
  5
2BA
100
AcDbEntity
  8
0
100
AcDbLine
 62
7
  6
CONTINUOUS
 10
286.5722987104
 20
286.3117689802
 11
285.7358415914
 21
286.3117689802
  0
LINE
  5
2BB
100
AcDbEntity
  8
0
100
AcDbLine
 62
7
  6
CONTINUOUS
 10
285.6950725743
 20
324.0946184736
 11
284.7879830379
 21
324.0452018203
  0
LINE
  5
2BC
100
AcDbEntity
  8
0
100
AcDbLine
 62
7
  6
CONTINUOUS
 10
285.1618778995
 20
313.4336927137
 11
286.5722987104
 21
313.4336927137
  0
LINE
  5
2BD
100
AcDbEntity
  8
0
100
AcDbLine
 62
7
  6
CONTINUOUS
 10
264.9358471228
 20
442.9144072881
 11
264.9358471228
 21
429.3817893868
  0
LINE
  5
2BE
100
AcDbEntity
  8
0
100
AcDbLine
 62
7
  6
CONTINUOUS
 10
264.945840447
 20
388.7086916319
 11
264.945840447
 21
199.5086926571
  0
LINE
  5
2BF
100
AcDbEntity
  8
0
100
AcDbLine
 62
7
  6
CONTINUOUS
 10
264.9408437849
 20
388.7086916319
 11
264.9358471228
 21
429.3888372474
  0
LINE
  5
2C0
100
AcDbEntity
  8
0
100
AcDbLine
 62
7
  6
CONTINUOUS
 10
239.3246551348
 20
184.1277885786
 11
264.4358386589
 21
198.6257318011
  0
LINE
  5
2C1
100
AcDbEntity
  8
0
100
AcDbLine
 62
7
  6
CONTINUOUS
 10
275.435840447
 20
388.7086916319
 11
275.435840447
 21
388.6486909924
  0
LINE
  5
2C2
100
AcDbEntity
  8
0
100
AcDbLine
 62
7
  6
CONTINUOUS
 10
275.5019476009
 20
388.7086916319
 11
275.5019476009
 21
389.0332011147
  0
LINE
  5
2C3
100
AcDbEntity
  8
0
100
AcDbLine
 62
7
  6
CONTINUOUS
 10
275.6206353498
 20
388.6489145608
 11
275.6206353498
 21
353.9144069305
  0
LINE
  5
2C4
100
AcDbEntity
  8
0
100
AcDbLine
 62
7
  6
CONTINUOUS
 10
276.8804242206
 20
388.9024422804
 11
276.8804242206
 21
353.9144069305
  0
LINE
  5
2C5
100
AcDbEntity
  8
0
100
AcDbLine
 62
7
  6
CONTINUOUS
 10
277.8586407495
 20
389.8220680009
 11
277.8586407495
 21
353.9144069305
  0
LINE
  5
2C6
100
AcDbEntity
  8
0
100
AcDbLine
 62
7
  6
CONTINUOUS
 10
278.7086610824
 20
391.5875366064
 11
278.7086610824
 21
353.9586770883
  0
LINE
  5
2C7
100
AcDbEntity
  8
0
100
AcDbLine
 62
7
  6
CONTINUOUS
 10
284.138439317
 20
351.5780243161
 11
284.138439317
 21
285.9144069305
  0
LINE
  5
2C8
100
AcDbEntity
  8
0
100
AcDbLine
 62
7
  6
CONTINUOUS
 10
284.6179415775
 20
351.3440681929
 11
284.6179415775
 21
285.9144069305
  0
LINE
  5
2C9
100
AcDbEntity
  8
0
100
AcDbLine
 62
7
  6
CONTINUOUS
 10
284.7879830379
 20
314.4336928776
 11
284.7879830379
 21
348.5336936041
  0
LINE
  5
2CA
100
AcDbEntity
  8
0
100
AcDbLine
 62
7
  6
CONTINUOUS
 10
285.6950725743
 20
346.9141953874
 11
285.6950725743
 21
324.0946184736
  0
LINE
  5
2CB
100
AcDbEntity
  8
0
100
AcDbLine
 62
7
  6
CONTINUOUS
 10
285.7358415914
 20
285.6276862393
 11
285.7358415914
 21
286.3117689802
  0
LINE
  5
2CC
100
AcDbEntity
  8
0
100
AcDbLine
 62
7
  6
CONTINUOUS
 10
285.8586420608
 20
350.6876588086
 11
285.8586420608
 21
349.5336943971
  0
LINE
  5
2CD
100
AcDbEntity
  8
0
100
AcDbLine
 62
7
  6
CONTINUOUS
 10
285.8586420608
 20
313.4336927137
 11
285.8586420608
 21
286.3117689802
  0
LINE
  5
2CE
100
AcDbEntity
  8
0
100
AcDbLine
 62
7
  6
CONTINUOUS
 10
285.8826185891
 20
324.2662500482
 11
285.8826185891
 21
346.7425638128
  0
LINE
  5
2CF
100
AcDbEntity
  8
0
100
AcDbLine
 62
7
  6
CONTINUOUS
 10
286.435840447
 20
329.4057258073
 11
285.8826185891
 21
324.2662500482
  0
LINE
  5
2D0
100
AcDbEntity
  8
0
100
AcDbLine
 62
7
  6
CONTINUOUS
 10
156.5009560432
 20
54.2757863676
 11
156.3620975503
 21
54.1103599039
  0
LINE
  5
2D1
100
AcDbEntity
  8
0
100
AcDbLine
 62
7
  6
CONTINUOUS
 10
286.5722987104
 20
349.5336941618
 11
285.1618778995
 21
349.5336947194
  0
LINE
  5
2D2
100
AcDbEntity
  8
0
100
AcDbLine
 62
7
  6
CONTINUOUS
 10
285.8826185891
 20
346.7425638128
 11
286.435840447
 21
341.6030880537
  0
LINE
  5
2D3
100
AcDbEntity
  8
0
100
AcDbLine
 62
7
  6
CONTINUOUS
 10
286.435840447
 20
341.6030880537
 11
286.435840447
 21
329.4057258073
  0
LINE
  5
2D4
100
AcDbEntity
  8
0
100
AcDbLine
 62
7
  6
CONTINUOUS
 10
286.5722987104
 20
349.8273509848
 11
286.5722987104
 21
349.5336939265
  0
LINE
  5
2D5
100
AcDbEntity
  8
0
100
AcDbLine
 62
7
  6
CONTINUOUS
 10
286.5722987104
 20
313.4336927137
 11
286.5722987104
 21
286.3117689802
  0
LINE
  5
2D6
100
AcDbEntity
  8
0
100
AcDbLine
 62
7
  6
CONTINUOUS
 10
288.1668021274
 20
280.880346212
 11
288.1668021274
 21
199.3488147027
  0
LINE
  5
2D7
100
AcDbEntity
  8
0
100
AcDbLine
 62
7
  6
CONTINUOUS
 10
289.0530337883
 20
278.940065494
 11
289.0530337883
 21
199.3136713392
  0
LINE
  5
2D8
100
AcDbEntity
  8
0
100
AcDbLine
 62
7
  6
CONTINUOUS
 10
289.8804878383
 20
276.9992232064
 11
289.8804878383
 21
199.2808587917
  0
LINE
  5
2D9
100
AcDbEntity
  8
0
100
AcDbLine
 62
7
  6
CONTINUOUS
 10
290.7856501139
 20
274.3621098233
 11
290.7856501139
 21
199.244964738
  0
LINE
  5
2DA
100
AcDbEntity
  8
0
100
AcDbLine
 62
7
  6
CONTINUOUS
 10
157.8794953494
 20
45.3026344215
 11
165.5929466656
 21
54.4951677389
  0
LINE
  5
2DB
100
AcDbEntity
  8
0
100
AcDbLine
 62
7
  6
CONTINUOUS
 10
165.9513789956
 20
54.194407303
 11
158.2379276793
 21
45.0018739856
  0
LINE
  5
2DC
100
AcDbEntity
  8
0
100
AcDbLine
 62
7
  6
CONTINUOUS
 10
160.6999562786
 20
42.935986696
 11
168.4134075948
 21
52.1285200134
  0
LINE
  5
2DD
100
AcDbEntity
  8
0
100
AcDbLine
 62
7
  6
CONTINUOUS
 10
161.2855987238
 20
42.4445743363
 11
168.99905004
 21
51.6371076537
  0
LINE
  5
2DE
100
AcDbEntity
  8
0
100
AcDbLine
 62
7
  6
CONTINUOUS
 10
160.1512398613
 20
40.6576953879
 11
170.2018868221
 21
52.6355914822
  0
LINE
  5
2DF
100
AcDbEntity
  8
0
100
AcDbLine
 62
7
  6
CONTINUOUS
 10
161.3003056539
 20
39.6935157529
 11
171.1729805959
 21
51.4593087187
  0
LINE
  5
2E0
100
AcDbEntity
  8
0
100
AcDbLine
 62
7
  6
CONTINUOUS
 10
162.764120776
 20
41.2039470275
 11
170.4775720923
 21
50.396480345
  0
LINE
  5
2E1
100
AcDbEntity
  8
0
100
AcDbLine
 62
7
  6
CONTINUOUS
 10
163.2784950814
 20
40.7723357376
 11
170.9919463977
 21
49.964869055
  0
LINE
  5
2E2
100
AcDbEntity
  8
0
100
AcDbLine
 62
7
  6
CONTINUOUS
 10
172.8304530612
 20
48.4221787917
 11
165.1170017449
 21
39.2296454743
  0
LINE
  5
2E3
100
AcDbEntity
  8
0
100
AcDbLine
 62
7
  6
CONTINUOUS
 10
169.9580063352
 20
42.9799774554
 11
169.8191478424
 21
42.8145509917
  0
LINE
  5
2E4
100
AcDbEntity
  8
0
100
AcDbLine
 62
7
  6
CONTINUOUS
 10
278.6506668324
 20
353.9144069305
 11
275.6206353498
 21
353.9144069305
  0
LINE
  5
2E5
100
AcDbEntity
  8
0
100
AcDbLine
 62
7
  6
CONTINUOUS
 10
278.7086610824
 20
353.9586770883
 11
278.650832161
 21
353.9586770883
  0
LINE
  5
2E6
100
AcDbEntity
  8
0
100
AcDbLine
 62
7
  6
CONTINUOUS
 10
284.7879830379
 20
346.9636120407
 11
285.6950725743
 21
346.9141953874
  0
LINE
  5
2E7
100
AcDbEntity
  8
0
100
AcDbLine
 62
7
  6
CONTINUOUS
 10
275.435840447
 20
388.6489145608
 11
275.6206353498
 21
388.6489145608
  0
LINE
  5
2E8
100
AcDbEntity
  8
0
100
AcDbLine
 62
7
  6
CONTINUOUS
 10
275.435840447
 20
388.7086916319
 11
264.9358471228
 21
388.7086916319
  0
LINE
  5
2E9
100
AcDbEntity
  8
0
100
AcDbLine
 62
7
  6
CONTINUOUS
 10
277.3221330573
 20
391.5877187287
 11
278.7086610824
 21
391.5877187287
  0
LINE
  5
2EA
100
AcDbEntity
  8
0
100
AcDbLine
 62
7
  6
CONTINUOUS
 10
285.8826185891
 20
346.7425638128
 11
285.6950725743
 21
346.9141953874
  0
LINE
  5
2EB
100
AcDbEntity
  8
0
100
AcDbLine
 62
7
  6
CONTINUOUS
 10
61.435840447
 20
418.4944069305
 11
191.435840447
 21
418.4944069305
  0
LINE
  5
2EC
100
AcDbEntity
  8
0
100
AcDbLine
 62
7
  6
CONTINUOUS
 10
191.435840447
 20
419.4944069305
 11
61.435840447
 21
419.4944069305
  0
LINE
  5
2ED
100
AcDbEntity
  8
0
100
AcDbLine
 62
7
  6
CONTINUOUS
 10
61.435840447
 20
420.3444069305
 11
191.435840447
 21
420.3444069305
  0
LINE
  5
2EE
100
AcDbEntity
  8
0
100
AcDbLine
 62
7
  6
CONTINUOUS
 10
191.435840447
 20
426.7550419054
 11
61.435840447
 21
426.7550419054
  0
LINE
  5
2EF
100
AcDbEntity
  8
0
100
AcDbLine
 62
7
  6
CONTINUOUS
 10
191.435840447
 20
429.3888372474
 11
264.9358471228
 21
429.3888372474
  0
LINE
  5
2F0
100
AcDbEntity
  8
0
100
AcDbLine
 62
7
  6
CONTINUOUS
 10
277.322372045
 20
391.5877187287
 11
277.3224234886
 21
391.5876899718
  0
LINE
  5
2F1
100
AcDbEntity
  8
0
100
AcDbLine
 62
7
  6
CONTINUOUS
 10
264.9358471228
 20
431.3741345747
 11
191.435840447
 21
431.3741345747
  0
LINE
  5
2F2
100
AcDbEntity
  8
0
100
AcDbLine
 62
7
  6
CONTINUOUS
 10
191.435840447
 20
432.102289745
 11
264.9358471228
 21
432.102289745
  0
LINE
  5
2F3
100
AcDbEntity
  8
0
100
AcDbLine
 62
7
  6
CONTINUOUS
 10
264.9358471228
 20
435.7384455663
 11
191.435840447
 21
435.7384455663
  0
LINE
  5
2F4
100
AcDbEntity
  8
0
100
AcDbLine
 62
7
  6
CONTINUOUS
 10
59.435840447
 20
441.9197500355
 11
61.435840447
 21
441.9197500355
  0
LINE
  5
2F5
100
AcDbEntity
  8
0
100
AcDbLine
 62
7
  6
CONTINUOUS
 10
61.435840447
 20
442.9888818983
 11
191.435840447
 21
442.9888818983
  0
LINE
  5
2F6
100
AcDbEntity
  8
0
100
AcDbLine
 62
7
  6
CONTINUOUS
 10
191.435840447
 20
443.0015635839
 11
264.932040826
 21
443.0015635839
  0
LINE
  5
2F7
100
AcDbEntity
  8
0
100
AcDbLine
 62
7
  6
CONTINUOUS
 10
191.435840447
 20
443.8481160091
 11
61.435840447
 21
443.8481160091
  0
LINE
  5
2F8
100
AcDbEntity
  8
0
100
AcDbLine
 62
7
  6
CONTINUOUS
 10
263.9358450962
 20
443.9144093147
 11
59.435840447
 21
443.9144093147
  0
ARC
  5
2F9
100
AcDbEntity
  8
0
100
AcDbCircle
 62
7
  6
CONTINUOUS
 10
64.7358404469
 20
198.9144081226
 40
175.0000000001
100
AcDbArc
 50
338.419007082
 51
355.017713562
  0
ARC
  5
2FA
100
AcDbEntity
  8
0
100
AcDbCircle
 62
7
  6
CONTINUOUS
 10
68.1054008134
 20
133.4144081226
 40
0.5
100
AcDbArc
 50
195.0000580274
 51
270.0
  0
ARC
  5
2FB
100
AcDbEntity
  8
0
100
AcDbCircle
 62
7
  6
CONTINUOUS
 10
163.2297488071
 20
48.6282007331
 40
8.7847524374
100
AcDbArc
 50
319.99
 51
353.085603454
  0
ARC
  5
2FC
100
AcDbEntity
  8
0
100
AcDbCircle
 62
7
  6
CONTINUOUS
 10
163.2297488071
 20
48.6282007331
 40
8.7847524374
100
AcDbArc
 50
357.6663781971
 51
20.9174829138
  0
ARC
  5
2FD
100
AcDbEntity
  8
0
100
AcDbCircle
 62
7
  6
CONTINUOUS
 10
163.2297488071
 20
48.6282007331
 40
8.7847524374
100
AcDbArc
 50
34.8856805932
 51
139.99
  0
ARC
  5
2FE
100
AcDbEntity
  8
0
100
AcDbCircle
 62
7
  6
CONTINUOUS
 10
163.0906226963
 20
48.4624554478
 40
8.7847524374
100
AcDbArc
 50
288.3654375021
 51
319.99
  0
ARC
  5
2FF
100
AcDbEntity
  8
0
100
AcDbCircle
 62
7
  6
CONTINUOUS
 10
163.0906226963
 20
48.4624554478
 40
8.7847524374
100
AcDbArc
 50
259.0460276353
 51
286.1193669911
  0
ARC
  5
300
100
AcDbEntity
  8
0
100
AcDbCircle
 62
7
  6
CONTINUOUS
 10
163.0906226963
 20
48.4624554478
 40
8.7847524374
100
AcDbArc
 50
139.99
 51
256.4060830074
  0
ARC
  5
301
100
AcDbEntity
  8
0
100
AcDbCircle
 62
7
  6
CONTINUOUS
 10
153.4266177961
 20
114.4138268583
 40
0.4994160799
100
AcDbArc
 50
180.933835197
 51
270.0653142054
  0
ARC
  5
302
100
AcDbEntity
  8
0
100
AcDbCircle
 62
7
  6
CONTINUOUS
 10
168.2131837792
 20
61.9873662862
 40
9.0962724012
100
AcDbArc
 50
1.7452989533
 51
6.3268779502
  0
ARC
  5
303
100
AcDbEntity
  8
0
100
AcDbCircle
 62
7
  6
CONTINUOUS
 10
168.2132616361
 20
61.8414428331
 40
9.096194436
100
AcDbArc
 50
353.6730976922
 51
358.2547159642
  0
ARC
  5
304
100
AcDbEntity
  8
0
100
AcDbCircle
 62
7
  6
CONTINUOUS
 10
168.0681952437
 20
61.9130715754
 40
8.9276746562
100
AcDbArc
 50
0.0085700047
 51
1.0790883475
  0
ARC
  5
305
100
AcDbEntity
  8
0
100
AcDbCircle
 62
7
  6
CONTINUOUS
 10
168.3892196231
 20
61.993853001
 40
8.9208438694
100
AcDbArc
 50
9.1572211489
 51
15.4104545274
  0
ARC
  5
306
100
AcDbEntity
  8
0
100
AcDbCircle
 62
7
  6
CONTINUOUS
 10
168.3892506758
 20
61.8349560674
 40
8.9208124668
100
AcDbArc
 50
344.5895218079
 51
350.8427775004
  0
ARC
  5
307
100
AcDbEntity
  8
0
100
AcDbCircle
 62
7
  6
CONTINUOUS
 10
168.4417239432
 20
61.8225030323
 40
8.8670387098
100
AcDbArc
 50
352.2480218712
 51
353.6320511023
  0
ARC
  5
308
100
AcDbEntity
  8
0
100
AcDbCircle
 62
7
  6
CONTINUOUS
 10
168.4420994755
 20
62.0063581271
 40
8.8666603084
100
AcDbArc
 50
6.367914293
 51
7.7520026103
  0
ARC
  5
309
100
AcDbEntity
  8
0
100
AcDbCircle
 62
7
  6
CONTINUOUS
 10
168.4818072119
 20
61.8170434093
 40
8.8265853304
100
AcDbArc
 50
350.8619562113
 51
352.248041939
  0
ARC
  5
30A
100
AcDbEntity
  8
0
100
AcDbCircle
 62
7
  6
CONTINUOUS
 10
168.4818241835
 20
62.0117689622
 40
8.8265687937
100
AcDbArc
 50
7.7519825077
 51
9.1380708308
  0
CIRCLE
  5
30B
100
AcDbEntity
  8
0
100
AcDbCircle
 62
7
  6
CONTINUOUS
 10
168.5290025725
 20
61.8062085314
 40
8.7847524374
  0
CIRCLE
  5
30C
100
AcDbEntity
  8
0
100
AcDbCircle
 62
7
  6
CONTINUOUS
 10
168.5290025725
 20
62.0226053296
 40
8.7847524374
  0
ARC
  5
30D
100
AcDbEntity
  8
0
100
AcDbCircle
 62
7
  6
CONTINUOUS
 10
168.335353329
 20
61.9120054952
 40
8.6605168039
100
AcDbArc
 50
358.3605713734
 51
0.0158872864
  0
ARC
  5
30E
100
AcDbEntity
  8
0
100
AcDbCircle
 62
7
  6
CONTINUOUS
 10
169.3491520383
 20
53.2936553009
 40
2.5867311401
100
AcDbArc
 50
314.8352630128
 51
359.6617156109
  0
ARC
  5
30F
100
AcDbEntity
  8
0
100
AcDbCircle
 62
7
  6
CONTINUOUS
 10
169.4358344714
 20
53.2783799381
 40
1.0000066014
100
AcDbArc
 50
320.0002540834
 51
359.9999999996
  0
ARC
  5
310
100
AcDbEntity
  8
0
100
AcDbCircle
 62
7
  6
CONTINUOUS
 10
168.7834930331
 20
61.9024888815
 40
8.2122889403
100
AcDbArc
 50
357.6405914632
 51
358.3374895972
  0
ARC
  5
311
100
AcDbEntity
  8
0
100
AcDbCircle
 62
7
  6
CONTINUOUS
 10
168.7834930331
 20
61.9263249795
 40
8.2122889402
100
AcDbArc
 50
1.6625104028
 51
2.3594085368
  0
ARC
  5
312
100
AcDbEntity
  8
0
100
AcDbCircle
 62
7
  6
CONTINUOUS
 10
168.8250798369
 20
61.9307317779
 40
8.1705924171
100
AcDbArc
 50
1.0552248926
 51
1.640081689
  0
ARC
  5
313
100
AcDbEntity
  8
0
100
AcDbCircle
 62
7
  6
CONTINUOUS
 10
168.2131837792
 20
74.9873662862
 40
9.0962724012
100
AcDbArc
 50
1.7452989533
 51
6.3268779502
  0
ARC
  5
314
100
AcDbEntity
  8
0
100
AcDbCircle
 62
7
  6
CONTINUOUS
 10
168.2132616361
 20
74.8414428331
 40
9.096194436
100
AcDbArc
 50
353.6730976922
 51
358.2547159642
  0
ARC
  5
315
100
AcDbEntity
  8
0
100
AcDbCircle
 62
7
  6
CONTINUOUS
 10
168.0681952435
 20
74.9130715754
 40
8.9276746563
100
AcDbArc
 50
0.0085700047
 51
1.0790883475
  0
ARC
  5
316
100
AcDbEntity
  8
0
100
AcDbCircle
 62
7
  6
CONTINUOUS
 10
168.389219623
 20
74.993853001
 40
8.9208438694
100
AcDbArc
 50
9.1572211489
 51
15.4104545274
  0
ARC
  5
317
100
AcDbEntity
  8
0
100
AcDbCircle
 62
7
  6
CONTINUOUS
 10
168.3892506758
 20
74.8349560674
 40
8.9208124668
100
AcDbArc
 50
344.5895218079
 51
350.8427775004
  0
ARC
  5
318
100
AcDbEntity
  8
0
100
AcDbCircle
 62
7
  6
CONTINUOUS
 10
168.4417239427
 20
74.8225030323
 40
8.8670387103
100
AcDbArc
 50
352.2480218709
 51
353.6320511023
  0
ARC
  5
319
100
AcDbEntity
  8
0
100
AcDbCircle
 62
7
  6
CONTINUOUS
 10
168.4420994756
 20
75.0063581271
 40
8.8666603083
100
AcDbArc
 50
6.367914293
 51
7.7520026104
  0
ARC
  5
31A
100
AcDbEntity
  8
0
100
AcDbCircle
 62
7
  6
CONTINUOUS
 10
168.4818072119
 20
74.8170434093
 40
8.8265853304
100
AcDbArc
 50
350.8619562113
 51
352.2480419386
  0
ARC
  5
31B
100
AcDbEntity
  8
0
100
AcDbCircle
 62
7
  6
CONTINUOUS
 10
168.4818241839
 20
75.0117689623
 40
8.8265687934
100
AcDbArc
 50
7.7519825078
 51
9.1380708308
  0
CIRCLE
  5
31C
100
AcDbEntity
  8
0
100
AcDbCircle
 62
7
  6
CONTINUOUS
 10
168.5290025725
 20
74.8062085314
 40
8.7847524374
  0
CIRCLE
  5
31D
100
AcDbEntity
  8
0
100
AcDbCircle
 62
7
  6
CONTINUOUS
 10
168.5290025725
 20
75.0226053296
 40
8.7847524374
  0
ARC
  5
31E
100
AcDbEntity
  8
0
100
AcDbCircle
 62
7
  6
CONTINUOUS
 10
168.3353533291
 20
74.9120054952
 40
8.6605168038
100
AcDbArc
 50
358.3605713734
 51
0.0158872864
  0
ARC
  5
31F
100
AcDbEntity
  8
0
100
AcDbCircle
 62
7
  6
CONTINUOUS
 10
168.7834930331
 20
74.9024888815
 40
8.2122889403
100
AcDbArc
 50
357.6405914632
 51
358.3374895972
  0
ARC
  5
320
100
AcDbEntity
  8
0
100
AcDbCircle
 62
7
  6
CONTINUOUS
 10
168.7834930331
 20
74.9263249795
 40
8.2122889402
100
AcDbArc
 50
1.6625104028
 51
2.3594085368
  0
ARC
  5
321
100
AcDbEntity
  8
0
100
AcDbCircle
 62
7
  6
CONTINUOUS
 10
168.8250798369
 20
74.9307317779
 40
8.1705924171
100
AcDbArc
 50
1.0552248926
 51
1.640081689
  0
ARC
  5
322
100
AcDbEntity
  8
0
100
AcDbCircle
 62
7
  6
CONTINUOUS
 10
175.7419531713
 20
64.0214176841
 40
1.3
100
AcDbArc
 50
15.8540418482
 51
85.0000000004
  0
ARC
  5
323
100
AcDbEntity
  8
0
100
AcDbCircle
 62
7
  6
CONTINUOUS
 10
175.7419531713
 20
59.8073961769
 40
1.3
100
AcDbArc
 50
274.9999999996
 51
344.1459581518
  0
ARC
  5
324
100
AcDbEntity
  8
0
100
AcDbCircle
 62
7
  6
CONTINUOUS
 10
175.7419531713
 20
77.0214176841
 40
1.3
100
AcDbArc
 50
15.8540418482
 51
85.0000000004
  0
ARC
  5
325
100
AcDbEntity
  8
0
100
AcDbCircle
 62
7
  6
CONTINUOUS
 10
175.7419531713
 20
72.8073961769
 40
1.3
100
AcDbArc
 50
274.9999999996
 51
344.1459581518
  0
ARC
  5
326
100
AcDbEntity
  8
0
100
AcDbCircle
 62
7
  6
CONTINUOUS
 10
166.4594896421
 20
106.9784168253
 40
12.5197233005
100
AcDbArc
 50
352.8212747927
 51
353.7927894123
  0
ARC
  5
327
100
AcDbEntity
  8
0
100
AcDbCircle
 62
7
  6
CONTINUOUS
 10
166.4594896426
 20
106.8503970358
 40
12.5197233
100
AcDbArc
 50
6.2072105878
 51
7.1787252073
  0
ARC
  5
328
100
AcDbEntity
  8
0
100
AcDbCircle
 62
7
  6
CONTINUOUS
 10
166.4734011357
 20
106.9767687587
 40
12.5057149068
100
AcDbArc
 50
348.4105762469
 51
352.8208015172
  0
ARC
  5
329
100
AcDbEntity
  8
0
100
AcDbCircle
 62
7
  6
CONTINUOUS
 10
166.4734011357
 20
106.8520451023
 40
12.5057149068
100
AcDbArc
 50
7.1791984828
 51
11.589423753
  0
ARC
  5
32A
100
AcDbEntity
  8
0
100
AcDbCircle
 62
7
  6
CONTINUOUS
 10
166.5348515046
 20
106.9702327415
 40
12.4439184464
100
AcDbArc
 50
353.7927325085
 51
354.7806678541
  0
ARC
  5
32B
100
AcDbEntity
  8
0
100
AcDbCircle
 62
7
  6
CONTINUOUS
 10
166.5348515049
 20
106.8585811195
 40
12.4439184461
100
AcDbArc
 50
5.2193321459
 51
6.2072674916
  0
ARC
  5
32C
100
AcDbEntity
  8
0
100
AcDbCircle
 62
7
  6
CONTINUOUS
 10
166.7414646094
 20
106.9552980372
 40
12.2368039389
100
AcDbArc
 50
354.7623016209
 51
358.1694385679
  0
ARC
  5
32D
100
AcDbEntity
  8
0
100
AcDbCircle
 62
7
  6
CONTINUOUS
 10
166.7414646094
 20
106.8735158238
 40
12.2368039389
100
AcDbArc
 50
1.8305614321
 51
5.2376983791
  0
ARC
  5
32E
100
AcDbEntity
  8
0
100
AcDbCircle
 62
7
  6
CONTINUOUS
 10
166.777518495
 20
106.9162177932
 40
11.9517719182
100
AcDbArc
 50
358.3132049505
 51
359.9913188779
  0
ARC
  5
32F
100
AcDbEntity
  8
0
100
AcDbCircle
 62
7
  6
CONTINUOUS
 10
166.7775185062
 20
106.912596068
 40
11.951771907
100
AcDbArc
 50
0.0086811212
 51
1.6867950502
  0
ARC
  5
330
100
AcDbEntity
  8
0
100
AcDbCircle
 62
7
  6
CONTINUOUS
 10
169.4357901584
 20
113.4142488461
 40
2.5001667275
100
AcDbArc
 50
0.5585355055
 51
89.9998630938
  0
ARC
  5
331
100
AcDbEntity
  8
0
100
AcDbCircle
 62
7
  6
CONTINUOUS
 10
167.9358410729
 20
116.9144085398
 40
2.5
100
AcDbArc
 50
180.0
 51
270.0
  0
ARC
  5
332
100
AcDbEntity
  8
0
100
AcDbCircle
 62
7
  6
CONTINUOUS
 10
168.7478869253
 20
122.1361875251
 40
1.6
100
AcDbArc
 50
275.0002507075
 51
344.5060324995
  0
ARC
  5
333
100
AcDbEntity
  8
0
100
AcDbCircle
 62
7
  6
CONTINUOUS
 10
169.4358410729
 20
113.4144085398
 40
1.0
100
AcDbArc
 50
359.9995936043
 51
90.0
  0
ARC
  5
334
100
AcDbEntity
  8
0
100
AcDbCircle
 62
7
  6
CONTINUOUS
 10
167.9358398085
 20
116.9144054873
 40
0.9999969475
100
AcDbArc
 50
180.0000000009
 51
270.0000000015
  0
ARC
  5
335
100
AcDbEntity
  8
0
100
AcDbCircle
 62
7
  6
CONTINUOUS
 10
157.691597868
 20
124.7472270503
 40
13.0368258145
100
AcDbArc
 50
7.3486878337
 51
11.5809868396
  0
ARC
  5
336
100
AcDbEntity
  8
0
100
AcDbCircle
 62
7
  6
CONTINUOUS
 10
157.691597868
 20
125.0815868107
 40
13.0368258145
100
AcDbArc
 50
348.4190131604
 51
352.6513121663
  0
ARC
  5
337
100
AcDbEntity
  8
0
100
AcDbCircle
 62
7
  6
CONTINUOUS
 10
157.7030541911
 20
124.7491249822
 40
13.0252208394
100
AcDbArc
 50
6.4137447051
 51
7.3468535486
  0
ARC
  5
338
100
AcDbEntity
  8
0
100
AcDbCircle
 62
7
  6
CONTINUOUS
 10
157.7030541911
 20
125.0796888789
 40
13.0252208394
100
AcDbArc
 50
352.6531464514
 51
353.5862552949
  0
ARC
  5
339
100
AcDbEntity
  8
0
100
AcDbCircle
 62
7
  6
CONTINUOUS
 10
157.7743693922
 20
124.7571296521
 40
12.9534579048
100
AcDbArc
 50
5.4640387851
 51
6.4137971696
  0
ARC
  5
33A
100
AcDbEntity
  8
0
100
AcDbCircle
 62
7
  6
CONTINUOUS
 10
157.7743693922
 20
125.0716842089
 40
12.9534579048
100
AcDbArc
 50
353.5862028304
 51
354.5359612149
  0
ARC
  5
33B
100
AcDbEntity
  8
0
100
AcDbCircle
 62
7
  6
CONTINUOUS
 10
166.459489644
 20
124.850397036
 40
12.5197232986
100
AcDbArc
 50
6.2072105882
 51
7.1787252074
  0
ARC
  5
33C
100
AcDbEntity
  8
0
100
AcDbCircle
 62
7
  6
CONTINUOUS
 10
166.4594896435
 20
124.9784168251
 40
12.5197232991
100
AcDbArc
 50
352.8212747926
 51
353.7927894121
  0
ARC
  5
33D
100
AcDbEntity
  8
0
100
AcDbCircle
 62
7
  6
CONTINUOUS
 10
166.4734011357
 20
124.8520451023
 40
12.5057149068
100
AcDbArc
 50
7.1791984828
 51
11.5894237531
  0
ARC
  5
33E
100
AcDbEntity
  8
0
100
AcDbCircle
 62
7
  6
CONTINUOUS
 10
166.4734011357
 20
124.9767687587
 40
12.5057149068
100
AcDbArc
 50
348.410576247
 51
352.8208015172
  0
ARC
  5
33F
100
AcDbEntity
  8
0
100
AcDbCircle
 62
7
  6
CONTINUOUS
 10
166.534851505
 20
124.8585811195
 40
12.443918446
100
AcDbArc
 50
5.2193321459
 51
6.207267492
  0
ARC
  5
340
100
AcDbEntity
  8
0
100
AcDbCircle
 62
7
  6
CONTINUOUS
 10
166.5348515048
 20
124.9702327415
 40
12.4439184462
100
AcDbArc
 50
353.7927325082
 51
354.7806678541
  0
ARC
  5
341
100
AcDbEntity
  8
0
100
AcDbCircle
 62
7
  6
CONTINUOUS
 10
158.4042458379
 20
124.8099672633
 40
12.3214143918
100
AcDbArc
 50
2.1136681915
 51
5.4983561725
  0
ARC
  5
342
100
AcDbEntity
  8
0
100
AcDbCircle
 62
7
  6
CONTINUOUS
 10
158.4042458379
 20
125.0188465977
 40
12.3214143918
100
AcDbArc
 50
354.5016438275
 51
357.8863318085
  0
ARC
  5
343
100
AcDbEntity
  8
0
100
AcDbCircle
 62
7
  6
CONTINUOUS
 10
166.7414646094
 20
124.8735158238
 40
12.2368039389
100
AcDbArc
 50
1.8305614321
 51
5.2376983791
  0
ARC
  5
344
100
AcDbEntity
  8
0
100
AcDbCircle
 62
7
  6
CONTINUOUS
 10
166.7414646094
 20
124.9552980372
 40
12.2368039389
100
AcDbArc
 50
354.7623016209
 51
358.1694385679
  0
ARC
  5
345
100
AcDbEntity
  8
0
100
AcDbCircle
 62
7
  6
CONTINUOUS
 10
158.505848676
 20
124.9165460807
 40
11.96230555
100
AcDbArc
 50
358.3131176407
 51
359.9897541259
  0
ARC
  5
346
100
AcDbEntity
  8
0
100
AcDbCircle
 62
7
  6
CONTINUOUS
 10
158.5058486892
 20
124.9122677806
 40
11.9623055368
100
AcDbArc
 50
0.0102458731
 51
1.6868823602
  0
ARC
  5
347
100
AcDbEntity
  8
0
100
AcDbCircle
 62
7
  6
CONTINUOUS
 10
166.777518495
 20
124.9162177932
 40
11.9517719182
100
AcDbArc
 50
358.3132049505
 51
359.9913188779
  0
ARC
  5
348
100
AcDbEntity
  8
0
100
AcDbCircle
 62
7
  6
CONTINUOUS
 10
166.7775185062
 20
124.912596068
 40
11.951771907
100
AcDbArc
 50
0.0086811212
 51
1.6867950502
  0
ARC
  5
349
100
AcDbEntity
  8
0
100
AcDbCircle
 62
7
  6
CONTINUOUS
 10
168.7478869253
 20
127.6926263359
 40
1.6
100
AcDbArc
 50
15.4939675005
 51
84.9997492925
  0
ARC
  5
34A
100
AcDbEntity
  8
0
100
AcDbCircle
 62
7
  6
CONTINUOUS
 10
148.7662800806
 20
133.4144081226
 40
0.5
100
AcDbArc
 50
270.0
 51
344.9999419726
  0
ARC
  5
34B
100
AcDbEntity
  8
0
100
AcDbCircle
 62
7
  6
CONTINUOUS
 10
212.8040560725
 20
245.2855800179
 40
83.3458509667
100
AcDbArc
 50
20.9565234002
 51
28.9491082817
  0
ARC
  5
34C
100
AcDbEntity
  8
0
100
AcDbCircle
 62
7
  6
CONTINUOUS
 10
255.735840447
 20
199.8444069305
 40
8.4975289205
100
AcDbArc
 50
251.0418732242
 51
349.0665647079
  0
ARC
  5
34D
100
AcDbEntity
  8
0
100
AcDbCircle
 62
7
  6
CONTINUOUS
 10
177.007895473
 20
122.1361689483
 40
1.5999871635
100
AcDbArc
 50
274.9998917332
 51
344.5065689699
  0
ARC
  5
34E
100
AcDbEntity
  8
0
100
AcDbCircle
 62
7
  6
CONTINUOUS
 10
177.007895473
 20
127.6926449127
 40
1.5999871635
100
AcDbArc
 50
15.4934310301
 51
85.0001082668
  0
ARC
  5
34F
100
AcDbEntity
  8
0
100
AcDbCircle
 62
7
  6
CONTINUOUS
 10
177.007895473
 20
104.1361689483
 40
1.5999871635
100
AcDbArc
 50
274.9998917332
 51
344.5065689699
  0
ARC
  5
350
100
AcDbEntity
  8
0
100
AcDbCircle
 62
7
  6
CONTINUOUS
 10
177.007895473
 20
109.6926449127
 40
1.5999871635
100
AcDbArc
 50
15.4934310301
 51
85.0001082668
  0
ARC
  5
351
100
AcDbEntity
  8
0
100
AcDbCircle
 62
7
  6
CONTINUOUS
 10
263.900790746
 20
199.5117763503
 40
1.0350609703
100
AcDbArc
 50
301.1261483633
 51
359.8301259993
  0
ARC
  5
352
100
AcDbEntity
  8
0
100
AcDbCircle
 62
7
  6
CONTINUOUS
 10
226.5381890085
 20
134.9144081226
 40
1.0
100
AcDbArc
 50
269.9999798147
 51
338.4190071112
  0
ARC
  5
353
100
AcDbEntity
  8
0
100
AcDbCircle
 62
7
  6
CONTINUOUS
 10
239.603783137
 20
183.6764946151
 40
0.5306398808
100
AcDbArc
 50
121.7370376708
 51
175.7249396469
  0
ARC
  5
354
100
AcDbEntity
  8
0
100
AcDbCircle
 62
7
  6
CONTINUOUS
 10
271.393326096
 20
324.8480569347
 40
29.612988151
100
AcDbArc
 50
60.6815295873
 51
75.2660903478
  0
ARC
  5
355
100
AcDbEntity
  8
0
100
AcDbCircle
 62
7
  6
CONTINUOUS
 10
275.6473196165
 20
392.8258100695
 40
4.1771168749
100
AcDbArc
 50
270.1393112603
 51
277.4169411182
  0
ARC
  5
356
100
AcDbEntity
  8
0
100
AcDbCircle
 62
7
  6
CONTINUOUS
 10
288.6650905707
 20
274.3128682757
 40
2.1211311856
100
AcDbArc
 50
1.3302271701
 51
21.6366872344
  0
ARC
  5
357
100
AcDbEntity
  8
0
100
AcDbCircle
 62
7
  6
CONTINUOUS
 10
284.9119456572
 20
349.181242451
 40
1.7816364664
100
AcDbArc
 50
21.2629644322
 51
56.5670294163
  0
ARC
  5
358
100
AcDbEntity
  8
0
100
AcDbCircle
 62
7
  6
CONTINUOUS
 10
263.9358336914
 20
442.9143958834
 40
1.0000134314
100
AcDbArc
 50
0.0006534369
 51
89.9993465632
  0
ARC
  5
359
100
AcDbEntity
  8
0
100
AcDbCircle
 62
7
  6
CONTINUOUS
 10
279.131824126
 20
353.9211267161
 40
0.4824554911
100
AcDbArc
 50
180.7980587034
 51
243.4428543454
  0
SPLINE
  5
35A
100
AcDbEntity
  8
0
100
AcDbSpline
 62
7
  6
CONTINUOUS
 70
0
 71
3
 72
11
 73
7
 74
0
 42
0.0000001
 43
0.0000001
 44
0.0000000001
 40
0.0
 40
0.0
 40
0.0
 40
0.0
 40
0.3515675207
 40
0.6507666566
 40
0.8667838274
 40
1.0
 40
1.0
 40
1.0
 40
1.0
 10
284.7879829513
 20
314.4336928776
 30
0.0
 10
284.7879830643
 20
314.3021377765
 30
0.0
 10
284.8065636842
 20
314.0582009105
 30
0.0
 10
284.8910458017
 20
313.7417459467
 30
0.0
 10
284.994351258
 20
313.5240694753
 30
0.0
 10
285.1120289629
 20
313.4336927444
 30
0.0
 10
285.1618778995
 20
313.4336927137
 30
0.0
  0
SPLINE
  5
35B
100
AcDbEntity
  8
0
100
AcDbSpline
 62
7
  6
CONTINUOUS
 70
0
 71
3
 72
11
 73
7
 74
0
 42
0.0000001
 43
0.0000001
 44
0.0000000001
 40
0.0
 40
0.0
 40
0.0
 40
0.0
 40
0.1331936439
 40
0.3492141898
 40
0.6484496238
 40
1.0
 40
1.0
 40
1.0
 40
1.0
 10
285.1618778995
 20
349.5336947194
 30
0.0
 10
285.1120373574
 20
349.5336946754
 30
0.0
 10
284.9943623583
 20
349.4433332998
 30
0.0
 10
284.8910476454
 20
349.225649853
 30
0.0
 10
284.8065669739
 20
348.9091863902
 30
0.0
 10
284.7879831675
 20
348.6652423841
 30
0.0
 10
284.7879831245
 20
348.5336936041
 30
0.0
  0
SPLINE
  5
35C
100
AcDbEntity
  8
0
100
AcDbSpline
 62
7
  6
CONTINUOUS
 70
0
 71
3
 72
9
 73
5
 74
0
 42
0.0000001
 43
0.0000001
 44
0.0000000001
 40
0.0
 40
0.0
 40
0.0
 40
0.0
 40
0.5940267208
 40
1.0
 40
1.0
 40
1.0
 40
1.0
 10
276.8809006886
 20
388.9029788474
 30
0.0
 10
277.1114162147
 20
389.0406567875
 30
0.0
 10
277.4847622004
 20
389.2927356099
 30
0.0
 10
277.7938653267
 20
389.648716795
 30
0.0
 10
277.8579299407
 20
389.8206705719
 30
0.0
  0
SPLINE
  5
35D
100
AcDbEntity
  8
0
100
AcDbSpline
 62
7
  6
CONTINUOUS
 70
0
 71
3
 72
9
 73
5
 74
0
 42
0.0000001
 43
0.0000001
 44
0.0000000001
 40
0.0
 40
0.0
 40
0.0
 40
0.0
 40
0.6149783444
 40
1.0
 40
1.0
 40
1.0
 40
1.0
 10
276.1865386489
 20
388.6836429771
 30
0.0
 10
276.3357810351
 20
388.703125866
 30
0.0
 10
276.5729464559
 20
388.7484318104
 30
0.0
 10
276.8131862277
 20
388.8374505774
 30
0.0
 10
276.8809006886
 20
388.9029788474
 30
0.0
  0
ELLIPSE
  5
35E
100
AcDbEntity
  8
0
100
AcDbEllipse
 62
7
  6
CONTINUOUS
 10
280.7132861023
 20
303.9928292774
 30
0.0
 11
-0.0
 21
87.5948894512
 31
0.0
 40
0.2481590281
 41
0.1994368859
 42
0.2420979946
  0
ENDSEC
  0
SECTION
  2
OBJECTS
  0
DICTIONARY
  5
C
100
AcDbDictionary
280
0
281
1
  3
ACAD_GROUP
350
D
  3
ACAD_MLINESTYLE
350
17
  3
ACAD_LAYOUT
350
1A
  3
ACAD_PLOTSETTINGS
350
19
  3
ACAD_PLOTSTYLENAME
350
E
  0
DICTIONARY
  5
D
102
{ACAD_REACTORS
330
C
102
}
100
AcDbDictionary
280
0
281
1
  0
ACDBDICTIONARYWDFLT
  5
E
102
{ACAD_REACTORS
330
C
102
}
100
AcDbDictionary
281
1
  3
Normal
350
F
100
AcDbDictionaryWithDefault
340
F
  0
DICTIONARY
  5
17
102
{ACAD_REACTORS
330
C
102
}
100
AcDbDictionary
280
0
281
1
  3
Standard
350
18
  0
DICTIONARY
  5
19
102
{ACAD_REACTORS
330
C
102
}
100
AcDbDictionary
281
1
  0
DICTIONARY
  5
1A
102
{ACAD_REACTORS
330
C
102
}
100
AcDbDictionary
281
1
  3
Model
350
35F
  3
Layout1
350
360
  0
ACDBPLACEHOLDER
  5
F
102
{ACAD_REACTORS
330
E
102
}
  0
MLINESTYLE
  5
18
102
{ACAD_REACTORS
330
17
102
}
100
AcDbMlineStyle
  2
STANDARD
 70
0
  3

 62
256
 51
90.0
 52
90.0
 71
2
 49
0.5
 62
256
  6
BYLAYER
 49
-0.5
 62
256
  6
BYLAYER
  0
LAYOUT
  5
35F
102
{ACAD_REACTORS
330
1A
102
}
100
AcDbPlotSettings
  1

  2
none_device
  4

  6

 40
0.0
 41
0.0
 42
0.0
 43
0.0
 44
210.0
 45
297.0
 46
0.0
 47
0.0
 48
0.0
 49
0.0
140
0.0
141
0.0
142
1.0
143
1.0
 70
1024
 72
1
 73
0
 74
0
  7

 75
0
147
1.0
148
0.0
149
0.0
100
AcDbLayout
  1
Model
 70
0
 71
0
 10
0.0
 20
0.0
 11
210.0
 21
297.0
 12
0.0
 22
0.0
 32
0.0
 14
0.0
 24
0.0
 34
0.0
 15
0.0
 25
0.0
 35
0.0
146
0.0
 13
0.0
 23
0.0
 33
0.0
 16
1.0
 26
0.0
 36
0.0
 17
0.0
 27
1.0
 37
0.0
 76
0
330
210
345
0
346
0
  0
LAYOUT
  5
360
102
{ACAD_REACTORS
330
1A
102
}
100
AcDbPlotSettings
  1

  2
none_device
  4

  6

 40
0.0
 41
0.0
 42
0.0
 43
0.0
 44
210.0
 45
297.0
 46
0.0
 47
0.0
 48
0.0
 49
0.0
140
0.0
141
0.0
142
1.0
143
1.0
 70
0
 72
1
 73
0
 74
0
  7

 75
0
147
1.0
148
0.0
149
0.0
100
AcDbLayout
  1
Layout1
 70
0
 71
1
 10
0.0
 20
0.0
 11
210.0
 21
297.0
 12
0.0
 22
0.0
 32
0.0
 14
0.0
 24
0.0
 34
0.0
 15
0.0
 25
0.0
 35
0.0
146
0.0
 13
0.0
 23
0.0
 33
0.0
 16
1.0
 26
0.0
 36
0.0
 17
0.0
 27
1.0
 37
0.0
 76
0
330
211
345
0
346
0
  0
ENDSEC
  0
EOF
