999
DXF file: C:\Users\sesa63760\Dev\_Creo\CAD\MCADID0000703_3D-CAD\drw0001_6.dxf
999
Pro/ENGINEER 2019471 by Parametric Technology Corporation
  0
SECTION
  2
HEADER
  9
$ACADVER
  1
AC1024
  9
$DWGCODEPAGE
  3
ANSI_1252
  9
$EXTMAX
 10
76.2330045653
 20
107.8152493138
 30
0.0
  9
$EXTMIN
 10
0.0
 20
0.0
 30
0.0
  9
$LIMMIN
 10
0.0
 20
0.0
  9
$LIMMAX
 10
76.2330045653
 20
107.8152493138
  9
$VIEWCTR
 10
38.1165022827
 20
53.9076246569
  9
$VIEWSIZE
 40
107.8152493138
  9
$CLAYER
  8
0
  9
$LTSCALE
 40
7.0279569923
  9
$CELTYPE
  6
BYLAYER
  9
$DIMSCALE
 40
1.0
  9
$DIMASZ
 40
0.9075357686
  9
$DIMEXO
 40
1.0
  9
$DIMDLI
 40
4.8556793765
  9
$DIMEXE
 40
1.0
  9
$DIMCEN
 40
1.150029326
  9
$DIMLFAC
 40
1.0
  9
$DIMBLK
  1
_FILLED
  9
$DIMALT
 70
0
  9
$DIMALTF
 40
0.0393700787
  9
$DIMTXT
 40
1.2705500761
  9
$DIMTOL
 70
1
  9
$DIMLIM
 70
0
  9
$DIMTFAC
 40
1.0
  9
$DIMTP
 40
0.01
  9
$DIMTM
 40
0.01
  9
$DIMGAP
 40
0.625
  9
$DIMDSEP
 70
46
  9
$AUNITS
 70
0
  9
$PDMODE
 70
3
  9
$PDSIZE
 40
0.3125
  9
$HANDSEED
  5
2AD
  9
$TILEMODE
 70
1
  9
$MEASUREMENT
 70
1
  9
$INSUNITS
 70
4
  0
ENDSEC
  0
SECTION
  2
CLASSES
  0
CLASS
  1
ACDBDICTIONARYWDFLT
  2
AcDbDictionaryWithDefault
  3
AutoCAD 2000
 90
0
 91
1
280
0
281
0
  0
CLASS
  1
ACDBPLACEHOLDER
  2
AcDbPlaceHolder
  3
AutoCAD 2000
 90
0
 91
1
280
0
281
0
  0
CLASS
  1
LAYOUT
  2
AcDbLayout
  3
AutoCAD 2000
 90
0
 91
0
280
0
281
0
  0
ENDSEC
  0
SECTION
  2
TABLES
  0
TABLE
  2
VPORT
  5
8
100
AcDbSymbolTable
 70
2
  0
VPORT
  5
1F4
100
AcDbSymbolTableRecord
100
AcDbViewportTableRecord
  2
*ACTIVE
 70
0
 10
0.0
 20
0.0
 11
1.0
 21
1.0
 12
38.1165022827
 22
53.9076246569
 13
0.0
 23
0.0
 14
1.0
 24
1.0
 15
0.0
 25
0.0
 16
0.0
 26
0.0
 36
1.0
 17
0.0
 27
0.0
 37
0.0
 40
107.8152493138
 41
0.7070707071
 42
50.0
 43
0.0
 44
0.0
 50
0.0
 51
0.0
 71
0
 72
100
 73
1
 74
1
 75
0
 76
0
 77
0
 78
0
  0
ENDTAB
  0
TABLE
  2
LTYPE
  5
5
100
AcDbSymbolTable
 70
6
  0
LTYPE
  5
14
100
AcDbSymbolTableRecord
100
AcDbLinetypeTableRecord
  2
BYBLOCK
 70
0
  3

 72
65
 73
0
 40
0.0
  0
LTYPE
  5
15
100
AcDbSymbolTableRecord
100
AcDbLinetypeTableRecord
  2
BYLAYER
 70
0
  3

 72
65
 73
0
 40
0.0
  0
LTYPE
  5
16
100
AcDbSymbolTableRecord
100
AcDbLinetypeTableRecord
  2
CONTINUOUS
 70
64
  3
Solid line
 72
65
 73
0
 40
0.0
  0
LTYPE
  5
1F5
100
AcDbSymbolTableRecord
100
AcDbLinetypeTableRecord
  2
CENTER
 70
64
  3
____ _ ____ _ ____ _ ____ _ ____ _ ____ _ ____
 72
65
 73
4
 40
0.6
 49
0.375
 74
0
 49
-0.075
 74
0
 49
0.075
 74
0
 49
-0.075
 74
0
  0
LTYPE
  5
1F6
100
AcDbSymbolTableRecord
100
AcDbLinetypeTableRecord
  2
HIDDEN
 70
64
  3
- - - - - - - - - - - - - - - - - - - -
 72
65
 73
2
 40
0.2
 49
0.1
 74
0
 49
-0.1
 74
0
  0
LTYPE
  5
1F7
100
AcDbSymbolTableRecord
100
AcDbLinetypeTableRecord
  2
PHANTOM
 70
64
  3
_____ _ _ _____ _ _ _____ _ _ _____
 72
65
 73
6
 40
0.8
 49
0.45
 74
0
 49
-0.05
 74
0
 49
0.1
 74
0
 49
-0.05
 74
0
 49
0.1
 74
0
 49
-0.05
 74
0
  0
LTYPE
  5
1F8
100
AcDbSymbolTableRecord
100
AcDbLinetypeTableRecord
  2
DOT
 70
64
  3
. . . . . . . . . . . . . . . . . . . .
 72
65
 73
2
 40
0.2
 49
0.1
 74
0
 49
-0.1
 74
0
  0
LTYPE
  5
1F9
100
AcDbSymbolTableRecord
100
AcDbLinetypeTableRecord
  2
DASHED
 70
64
  3
- - - - - - - - - - - - - - - - - - - -
 72
65
 73
2
 40
0.2
 49
0.1
 74
0
 49
-0.1
 74
0
  0
ENDTAB
  0
TABLE
  2
LAYER
  5
2
100
AcDbSymbolTable
 70
36
  0
LAYER
  5
10
100
AcDbSymbolTableRecord
100
AcDbLayerTableRecord
  2
0
 70
0
 62
7
  6
CONTINUOUS
370
-3
390
F
  0
LAYER
  5
1FA
100
AcDbSymbolTableRecord
100
AcDbLayerTableRecord
  2
DEFAULT_1
 70
0
 62
7
  6
CENTER
370
-3
390
F
  0
LAYER
  5
1FB
100
AcDbSymbolTableRecord
100
AcDbLayerTableRecord
  2
DEFAULT_2
 70
0
 62
8
  6
HIDDEN
370
-3
390
F
  0
LAYER
  5
1FC
100
AcDbSymbolTableRecord
100
AcDbLayerTableRecord
  2
DEFAULT_3
 70
0
 62
7
  6
PHANTOM
370
-3
390
F
  0
LAYER
  5
1FD
100
AcDbSymbolTableRecord
100
AcDbLayerTableRecord
  2
00_COMPONENTS
 70
0
 62
7
  6
CONTINUOUS
370
-3
390
F
  0
LAYER
  5
1FE
100
AcDbSymbolTableRecord
100
AcDbLayerTableRecord
  2
01_1_DEFAULT_DATUMS
 70
0
 62
7
  6
CONTINUOUS
370
-3
390
F
  0
LAYER
  5
1FF
100
AcDbSymbolTableRecord
100
AcDbLayerTableRecord
  2
01_PLANES
 70
0
 62
7
  6
CONTINUOUS
370
-3
390
F
  0
LAYER
  5
200
100
AcDbSymbolTableRecord
100
AcDbLayerTableRecord
  2
02_COORD_SYS
 70
0
 62
7
  6
CONTINUOUS
370
-3
390
F
  0
LAYER
  5
201
100
AcDbSymbolTableRecord
100
AcDbLayerTableRecord
  2
03_AXES
 70
0
 62
7
  6
CONTINUOUS
370
-3
390
F
  0
LAYER
  5
202
100
AcDbSymbolTableRecord
100
AcDbLayerTableRecord
  2
04_POINTS
 70
0
 62
7
  6
CONTINUOUS
370
-3
390
F
  0
LAYER
  5
203
100
AcDbSymbolTableRecord
100
AcDbLayerTableRecord
  2
05_CURVES
 70
0
 62
7
  6
CONTINUOUS
370
-3
390
F
  0
LAYER
  5
204
100
AcDbSymbolTableRecord
100
AcDbLayerTableRecord
  2
06_SURFS
 70
0
 62
7
  6
CONTINUOUS
370
-3
390
F
  0
LAYER
  5
205
100
AcDbSymbolTableRecord
100
AcDbLayerTableRecord
  2
07_COSMETICS
 70
0
 62
7
  6
CONTINUOUS
370
-3
390
F
  0
LAYER
  5
206
100
AcDbSymbolTableRecord
100
AcDbLayerTableRecord
  2
10_NOTES
 70
0
 62
7
  6
CONTINUOUS
370
-3
390
F
  0
LAYER
  5
207
100
AcDbSymbolTableRecord
100
AcDbLayerTableRecord
  2
11_NOTES_PUB
 70
0
 62
7
  6
CONTINUOUS
370
-3
390
F
  0
LAYER
  5
208
100
AcDbSymbolTableRecord
100
AcDbLayerTableRecord
  2
13_REF_GTOL
 70
0
 62
7
  6
CONTINUOUS
370
-3
390
F
  0
LAYER
  5
209
100
AcDbSymbolTableRecord
100
AcDbLayerTableRecord
  2
16_MISC
 70
0
 62
7
  6
CONTINUOUS
370
-3
390
F
  0
LAYER
  5
20A
100
AcDbSymbolTableRecord
100
AcDbLayerTableRecord
  2
17_NO_PRINT
 70
0
 62
7
  6
CONTINUOUS
370
-3
390
F
  0
LAYER
  5
20B
100
AcDbSymbolTableRecord
100
AcDbLayerTableRecord
  2
18_DATUM_CAMS_JOINTS
 70
0
 62
7
  6
CONTINUOUS
370
-3
390
F
  0
LAYER
  5
20C
100
AcDbSymbolTableRecord
100
AcDbLayerTableRecord
  2
19_DATUM_FUNCTIONAL
 70
0
 62
7
  6
CONTINUOUS
370
-3
390
F
  0
LAYER
  5
20D
100
AcDbSymbolTableRecord
100
AcDbLayerTableRecord
  2
20_DATUM_KINEMATIC_SCHEME
 70
0
 62
7
  6
CONTINUOUS
370
-3
390
F
  0
ENDTAB
  0
TABLE
  2
STYLE
  5
3
100
AcDbSymbolTable
 70
1
  0
STYLE
  5
11
100
AcDbSymbolTableRecord
100
AcDbTextStyleTableRecord
  2
STANDARD
 70
0
 40
0.0
 41
0.8
 50
0.0
 71
0
 42
0.2
  3
txt
  4

  0
STYLE
  5
20E
100
AcDbSymbolTableRecord
100
AcDbTextStyleTableRecord
  2
TEXTSTYLE_1
 70
0
 40
0.0
 41
0.8
 50
0.0
 71
0
 42
0.2
  3
gdt
  4

  0
ENDTAB
  0
TABLE
  2
VIEW
  5
6
100
AcDbSymbolTable
 70
0
  0
ENDTAB
  0
TABLE
  2
UCS
  5
7
100
AcDbSymbolTable
 70
0
  0
ENDTAB
  0
TABLE
  2
APPID
  5
9
100
AcDbSymbolTable
 70
1
  0
APPID
  5
20F
100
AcDbSymbolTableRecord
100
AcDbRegAppTableRecord
  2
ACAD
 70
0
  0
ENDTAB
  0
TABLE
  2
BLOCK_RECORD
  5
1
100
AcDbSymbolTable
 70
0
  0
BLOCK_RECORD
  5
210
100
AcDbSymbolTableRecord
100
AcDbBlockTableRecord
  2
*Model_Space
  0
BLOCK_RECORD
  5
211
100
AcDbSymbolTableRecord
100
AcDbBlockTableRecord
  2
*Paper_Space
  0
BLOCK_RECORD
  5
212
100
AcDbSymbolTableRecord
100
AcDbBlockTableRecord
  2
_FILLED
  0
ENDTAB
  0
TABLE
  2
DIMSTYLE
  5
A
100
AcDbSymbolTable
 70
1
100
AcDbDimStyleTable
 71
0
  0
DIMSTYLE
105
213
100
AcDbSymbolTableRecord
100
AcDbDimStyleTableRecord
  2
STANDARD
 70
0
  3

  4

 40
1.0
 41
0.9075357686
 42
1.0
 43
0.38
 44
1.0
 45
0.0
 46
0.0
 47
0.01
 48
0.01
140
1.2705500761
141
0.09
142
0.0
143
25.4
144
1.0
145
0.0
146
1.0
147
0.625
 71
1
 72
0
 73
0
 74
0
 75
0
 76
0
 77
1
 78
8
 79
2
170
0
171
1
172
0
173
0
174
0
175
0
176
0
177
0
178
0
270
2
179
2
271
2
272
2
273
2
274
2
275
0
280
0
281
0
282
0
283
1
284
8
285
0
286
0
287
3
288
0
340
11
278
46
341
212
342
212
343
212
344
212
  0
ENDTAB
  0
ENDSEC
  0
SECTION
  2
BLOCKS
  0
BLOCK
  5
20
100
AcDbEntity
  8
0
100
AcDbBlockBegin
  2
*Model_Space
 70
0
 10
0.0
 20
0.0
 30
0.0
  3
*Model_Space
  1

  0
ENDBLK
  5
21
100
AcDbEntity
  8
0
100
AcDbBlockEnd
  0
BLOCK
  5
1C
100
AcDbEntity
  8
0
100
AcDbBlockBegin
  2
*Paper_Space
 70
0
 10
0.0
 20
0.0
 30
0.0
  3
*Paper_Space
  1

  0
ENDBLK
  5
1D
100
AcDbEntity
  8
0
100
AcDbBlockEnd
  0
BLOCK
  5
214
100
AcDbEntity
  8
0
100
AcDbBlockBegin
  2
_FILLED
 70
64
 10
0.0
 20
0.0
  3
_FILLED
  1

  0
SOLID
  5
215
100
AcDbEntity
  8
0
  6
BYBLOCK
 62
0
100
AcDbTrace
 10
0.0
 20
0.0
 11
-1.0
 21
0.25
 12
-1.0
 22
-0.25
 13
-1.0
 23
-0.25
  0
ENDBLK
  5
216
100
AcDbEntity
  8
0
  6
BYBLOCK
 62
0
100
AcDbBlockEnd
  0
ENDSEC
  0
SECTION
  2
ENTITIES
  0
LINE
  5
217
100
AcDbEntity
  8
0
100
AcDbLine
 62
7
  6
CONTINUOUS
 10
34.6015217869
 20
9.557624657
 11
33.9519177493
 21
9.5349399842
  0
LINE
  5
218
100
AcDbEntity
  8
0
100
AcDbLine
 62
7
  6
CONTINUOUS
 10
34.6015217876
 20
8.9076246569
 11
54.4738240832
 21
8.9076246569
  0
LINE
  5
219
100
AcDbEntity
  8
0
100
AcDbLine
 62
7
  6
CONTINUOUS
 10
54.9738240832
 20
8.9076246569
 11
67.4738240832
 21
8.9076246569
  0
LINE
  5
21A
100
AcDbEntity
  8
0
100
AcDbLine
 62
7
  6
CONTINUOUS
 10
67.4738240832
 20
9.5576246569
 11
54.9738240832
 21
9.5576246569
  0
LINE
  5
21B
100
AcDbEntity
  8
0
100
AcDbLine
 62
7
  6
CONTINUOUS
 10
54.4738240832
 20
9.5576246573
 11
34.6015217876
 21
9.5576246573
  0
LINE
  5
21C
100
AcDbEntity
  8
0
100
AcDbLine
 62
7
  6
CONTINUOUS
 10
54.4738240832
 20
9.7076246569
 11
54.9738240832
 21
9.7076246569
  0
LINE
  5
21D
100
AcDbEntity
  8
0
100
AcDbLine
 62
7
  6
CONTINUOUS
 10
18.7238240836
 20
19.9076246569
 11
33.5896956192
 21
19.9076246569
  0
LINE
  5
21E
100
AcDbEntity
  8
0
100
AcDbLine
 62
7
  6
CONTINUOUS
 10
34.2173933232
 20
20.5576246573
 11
18.0738240832
 21
20.5576246565
  0
LINE
  5
21F
100
AcDbEntity
  8
0
100
AcDbLine
 62
7
  6
CONTINUOUS
 10
10.0738240832
 20
32.0576246569
 11
10.0738240832
 21
34.721681764
  0
LINE
  5
220
100
AcDbEntity
  8
0
100
AcDbLine
 62
7
  6
CONTINUOUS
 10
10.0738240832
 20
40.0957337667
 11
10.0738240832
 21
42.7076246576
  0
LINE
  5
221
100
AcDbEntity
  8
0
100
AcDbLine
 62
7
  6
CONTINUOUS
 10
10.0738240832
 20
73.2076246576
 11
10.0738240832
 21
75.7576246569
  0
LINE
  5
222
100
AcDbEntity
  8
0
100
AcDbLine
 62
7
  6
CONTINUOUS
 10
11.2436452874
 20
73.2076246576
 11
11.2436452874
 21
42.7076246576
  0
LINE
  5
223
100
AcDbEntity
  8
0
100
AcDbLine
 62
7
  6
CONTINUOUS
 10
11.4711050686
 20
47.4076246577
 11
11.4711050686
 21
69.4076246576
  0
LINE
  5
224
100
AcDbEntity
  8
0
100
AcDbLine
 62
7
  6
CONTINUOUS
 10
11.4830136219
 20
69.3076246576
 11
11.4830136219
 21
47.5076246577
  0
LINE
  5
225
100
AcDbEntity
  8
0
100
AcDbLine
 62
7
  6
CONTINUOUS
 10
12.7984074702
 20
47.5076246577
 11
12.7984074702
 21
69.3076246576
  0
LINE
  5
226
100
AcDbEntity
  8
0
100
AcDbLine
 62
7
  6
CONTINUOUS
 10
12.8151107142
 20
69.4076246576
 11
12.8151107142
 21
47.4076246576
  0
LINE
  5
227
100
AcDbEntity
  8
0
100
AcDbLine
 62
7
  6
CONTINUOUS
 10
13.2677266167
 20
75.7576246565
 11
13.2677266167
 21
32.0576246573
  0
LINE
  5
228
100
AcDbEntity
  8
0
100
AcDbLine
 62
7
  6
CONTINUOUS
 10
13.9177266167
 20
31.4076246569
 11
13.9177266167
 21
76.4076246569
  0
LINE
  5
229
100
AcDbEntity
  8
0
100
AcDbLine
 62
7
  6
CONTINUOUS
 10
61.9738240832
 20
32.9076246569
 11
54.9738240832
 21
31.162328637
  0
LINE
  5
22A
100
AcDbEntity
  8
0
100
AcDbLine
 62
7
  6
CONTINUOUS
 10
54.4738240832
 20
31.4076246569
 11
61.4738240832
 21
33.1529206769
  0
LINE
  5
22B
100
AcDbEntity
  8
0
100
AcDbLine
 62
7
  6
CONTINUOUS
 10
10.7239646732
 20
31.4076246569
 11
18.0738240832
 21
31.4076246569
  0
LINE
  5
22C
100
AcDbEntity
  8
0
100
AcDbLine
 62
7
  6
CONTINUOUS
 10
18.7238240832
 20
32.0576246573
 11
10.0738240832
 21
32.0576246562
  0
LINE
  5
22D
100
AcDbEntity
  8
0
100
AcDbLine
 62
7
  6
CONTINUOUS
 10
18.0738240832
 20
87.2576246565
 11
18.0738240832
 21
76.4076246569
  0
LINE
  5
22E
100
AcDbEntity
  8
0
100
AcDbLine
 62
7
  6
CONTINUOUS
 10
18.0738240832
 20
31.4076246569
 11
18.0738240832
 21
20.5576246573
  0
LINE
  5
22F
100
AcDbEntity
  8
0
100
AcDbLine
 62
7
  6
CONTINUOUS
 10
18.7238240831
 20
19.9076246569
 11
18.7238240832
 21
32.0576246573
  0
LINE
  5
230
100
AcDbEntity
  8
0
100
AcDbLine
 62
7
  6
CONTINUOUS
 10
18.7238240832
 20
75.7576246565
 11
18.7238240824
 21
87.9076246569
  0
LINE
  5
231
100
AcDbEntity
  8
0
100
AcDbLine
 62
7
  6
CONTINUOUS
 10
12.191854859
 20
34.576264202
 11
12.2778611957
 21
34.576264202
  0
LINE
  5
232
100
AcDbEntity
  8
0
100
AcDbLine
 62
7
  6
CONTINUOUS
 10
10.5939150604
 20
34.6840280749
 11
10.6353822207
 21
34.6840280749
  0
LINE
  5
233
100
AcDbEntity
  8
0
100
AcDbLine
 62
7
  6
CONTINUOUS
 10
61.9738240832
 20
36.1076246562
 11
67.4738240832
 21
36.1076246562
  0
LINE
  5
234
100
AcDbEntity
  8
0
100
AcDbLine
 62
7
  6
CONTINUOUS
 10
10.5939150604
 20
40.1290882269
 11
10.6366589727
 21
40.1290882269
  0
LINE
  5
235
100
AcDbEntity
  8
0
100
AcDbLine
 62
7
  6
CONTINUOUS
 10
12.191854859
 20
40.2409674378
 11
12.2774348428
 21
40.2409674378
  0
LINE
  5
236
100
AcDbEntity
  8
0
100
AcDbLine
 62
7
  6
CONTINUOUS
 10
10.073952697
 20
42.7076246576
 11
11.2436452874
 21
42.7076246576
  0
LINE
  5
237
100
AcDbEntity
  8
0
100
AcDbLine
 62
7
  6
CONTINUOUS
 10
67.4738240832
 20
35.3037770795
 11
64.4738240859
 21
36.1076246562
  0
LINE
  5
238
100
AcDbEntity
  8
0
100
AcDbLine
 62
7
  6
CONTINUOUS
 10
65.2707969858
 20
71.6076246562
 11
67.4738240832
 21
72.4094609456
  0
LINE
  5
239
100
AcDbEntity
  8
0
100
AcDbLine
 62
7
  6
CONTINUOUS
 10
33.5896956188
 20
19.9076246569
 11
33.9519177493
 21
9.5349399841
  0
LINE
  5
23A
100
AcDbEntity
  8
0
100
AcDbLine
 62
7
  6
CONTINUOUS
 10
34.2173933232
 20
20.5576246573
 11
34.6015217876
 21
9.5576246573
  0
LINE
  5
23B
100
AcDbEntity
  8
0
100
AcDbLine
 62
7
  6
CONTINUOUS
 10
34.6015217875
 20
8.9076246569
 11
34.6015217875
 21
9.5576246569
  0
LINE
  5
23C
100
AcDbEntity
  8
0
100
AcDbLine
 62
7
  6
CONTINUOUS
 10
34.6015217868
 20
98.2576246569
 11
34.6015217868
 21
98.9076246569
  0
LINE
  5
23D
100
AcDbEntity
  8
0
100
AcDbLine
 62
7
  6
CONTINUOUS
 10
33.9519177493
 20
98.2803093297
 11
33.5896956188
 21
87.9076246569
  0
LINE
  5
23E
100
AcDbEntity
  8
0
100
AcDbLine
 62
7
  6
CONTINUOUS
 10
34.6015217876
 20
98.2576246565
 11
34.2173933232
 21
87.2576246565
  0
LINE
  5
23F
100
AcDbEntity
  8
0
100
AcDbLine
 62
7
  6
CONTINUOUS
 10
11.4711050686
 20
47.4076246577
 11
12.8151107142
 21
47.4076246577
  0
LINE
  5
240
100
AcDbEntity
  8
0
100
AcDbLine
 62
7
  6
CONTINUOUS
 10
12.7984074702
 20
47.5076246577
 11
11.4830136219
 21
47.5076246577
  0
LINE
  5
241
100
AcDbEntity
  8
0
100
AcDbLine
 62
7
  6
CONTINUOUS
 10
65.7646852077
 20
36.1076246562
 11
63.1511743527
 21
37.9376246567
  0
LINE
  5
242
100
AcDbEntity
  8
0
100
AcDbLine
 62
7
  6
CONTINUOUS
 10
44.9738240832
 20
79.7076246576
 11
44.9738240832
 21
97.1076246562
  0
LINE
  5
243
100
AcDbEntity
  8
0
100
AcDbLine
 62
7
  6
CONTINUOUS
 10
45.0738240832
 20
79.8076246576
 11
45.0738240832
 21
97.0076246562
  0
LINE
  5
244
100
AcDbEntity
  8
0
100
AcDbLine
 62
7
  6
CONTINUOUS
 10
61.9738240832
 20
67.9076246569
 11
62.6738240825
 21
68.6076246561
  0
LINE
  5
245
100
AcDbEntity
  8
0
100
AcDbLine
 62
7
  6
CONTINUOUS
 10
49.6738240825
 20
78.6076246569
 11
49.6738240825
 21
79.7076246576
  0
LINE
  5
246
100
AcDbEntity
  8
0
100
AcDbLine
 62
7
  6
CONTINUOUS
 10
49.7738240825
 20
78.7076246569
 11
49.7738240825
 21
79.8076246576
  0
LINE
  5
247
100
AcDbEntity
  8
0
100
AcDbLine
 62
7
  6
CONTINUOUS
 10
53.3738240832
 20
79.8076246576
 11
53.3738240832
 21
78.7076246569
  0
LINE
  5
248
100
AcDbEntity
  8
0
100
AcDbLine
 62
7
  6
CONTINUOUS
 10
53.4738240832
 20
79.7076246576
 11
53.4738240832
 21
78.6076246569
  0
LINE
  5
249
100
AcDbEntity
  8
0
100
AcDbLine
 62
7
  6
CONTINUOUS
 10
67.4738240832
 20
67.9076246569
 11
65.6245504669
 21
67.9076246568
  0
LINE
  5
24A
100
AcDbEntity
  8
0
100
AcDbLine
 62
7
  6
CONTINUOUS
 10
54.4738240832
 20
31.4076246569
 11
54.4738240832
 21
8.9076246569
  0
LINE
  5
24B
100
AcDbEntity
  8
0
100
AcDbLine
 62
7
  6
CONTINUOUS
 10
54.9738240832
 20
8.9076246569
 11
54.9738240832
 21
31.162328637
  0
LINE
  5
24C
100
AcDbEntity
  8
0
100
AcDbLine
 62
7
  6
CONTINUOUS
 10
11.4830136219
 20
69.3076246576
 11
12.7984074702
 21
69.3076246576
  0
LINE
  5
24D
100
AcDbEntity
  8
0
100
AcDbLine
 62
7
  6
CONTINUOUS
 10
12.8151107142
 20
69.4076246576
 11
11.4711050686
 21
69.4076246576
  0
LINE
  5
24E
100
AcDbEntity
  8
0
100
AcDbLine
 62
7
  6
CONTINUOUS
 10
63.1738240826
 20
71.4076246569
 11
61.9738240834
 21
71.4076246569
  0
LINE
  5
24F
100
AcDbEntity
  8
0
100
AcDbLine
 62
7
  6
CONTINUOUS
 10
65.2707969857
 20
71.6076246562
 11
61.9738240832
 21
71.6076246562
  0
LINE
  5
250
100
AcDbEntity
  8
0
100
AcDbLine
 62
7
  6
CONTINUOUS
 10
58.0738240825
 20
97.0076246562
 11
58.0738240825
 21
79.8076246576
  0
LINE
  5
251
100
AcDbEntity
  8
0
100
AcDbLine
 62
7
  6
CONTINUOUS
 10
58.1738240825
 20
97.1076246562
 11
58.1738240825
 21
79.7076246576
  0
LINE
  5
252
100
AcDbEntity
  8
0
100
AcDbLine
 62
7
  6
CONTINUOUS
 10
11.2436452874
 20
73.2076246576
 11
10.073952697
 21
73.2076246576
  0
LINE
  5
253
100
AcDbEntity
  8
0
100
AcDbLine
 62
7
  6
CONTINUOUS
 10
60.6738240825
 20
98.9076246569
 11
60.6738240825
 21
74.8617910395
  0
LINE
  5
254
100
AcDbEntity
  8
0
100
AcDbLine
 62
7
  6
CONTINUOUS
 10
61.1738240825
 20
74.8617910395
 11
61.1738240825
 21
98.9076246569
  0
LINE
  5
255
100
AcDbEntity
  8
0
100
AcDbLine
 62
7
  6
CONTINUOUS
 10
61.4738240832
 20
74.6623286369
 11
61.4738240832
 21
33.1529206771
  0
LINE
  5
256
100
AcDbEntity
  8
0
100
AcDbLine
 62
7
  6
CONTINUOUS
 10
61.9738240832
 20
74.6623286368
 11
61.9738240832
 21
32.9076246569
  0
LINE
  5
257
100
AcDbEntity
  8
0
100
AcDbLine
 62
7
  6
CONTINUOUS
 10
62.5738240832
 20
36.1076246562
 11
62.5738240832
 21
36.9376246569
  0
LINE
  5
258
100
AcDbEntity
  8
0
100
AcDbLine
 62
7
  6
CONTINUOUS
 10
62.6738240825
 20
70.7076246576
 11
62.673824083
 21
68.6076246567
  0
LINE
  5
259
100
AcDbEntity
  8
0
100
AcDbLine
 62
7
  6
CONTINUOUS
 10
10.0738240832
 20
75.7576246569
 11
18.7238240832
 21
75.7576246565
  0
LINE
  5
25A
100
AcDbEntity
  8
0
100
AcDbLine
 62
7
  6
CONTINUOUS
 10
10.7239646732
 20
76.4076246569
 11
18.0738240832
 21
76.4076246569
  0
LINE
  5
25B
100
AcDbEntity
  8
0
100
AcDbLine
 62
7
  6
CONTINUOUS
 10
53.4738240832
 20
78.6076246569
 11
49.6738240825
 21
78.6076246569
  0
LINE
  5
25C
100
AcDbEntity
  8
0
100
AcDbLine
 62
7
  6
CONTINUOUS
 10
53.3738240832
 20
78.7076246569
 11
49.7738240825
 21
78.7076246569
  0
LINE
  5
25D
100
AcDbEntity
  8
0
100
AcDbLine
 62
7
  6
CONTINUOUS
 10
64.273824084
 20
36.1076246562
 11
64.273824084
 21
37.1515368521
  0
LINE
  5
25E
100
AcDbEntity
  8
0
100
AcDbLine
 62
7
  6
CONTINUOUS
 10
65.0738240832
 20
88.9722937385
 11
65.0738240832
 21
86.8421643708
  0
LINE
  5
25F
100
AcDbEntity
  8
0
100
AcDbLine
 62
7
  6
CONTINUOUS
 10
65.0738240832
 20
84.9722937385
 11
65.0738240832
 21
82.8421643708
  0
LINE
  5
260
100
AcDbEntity
  8
0
100
AcDbLine
 62
7
  6
CONTINUOUS
 10
65.2738240832
 20
82.957991325
 11
65.2738240832
 21
84.8582643754
  0
LINE
  5
261
100
AcDbEntity
  8
0
100
AcDbLine
 62
7
  6
CONTINUOUS
 10
65.2738240832
 20
86.957991325
 11
65.2738240832
 21
88.8582643754
  0
LINE
  5
262
100
AcDbEntity
  8
0
100
AcDbLine
 62
7
  6
CONTINUOUS
 10
67.4738240832
 20
98.9076246569
 11
67.4738240832
 21
67.9076246569
  0
LINE
  5
263
100
AcDbEntity
  8
0
100
AcDbLine
 62
7
  6
CONTINUOUS
 10
67.4738240832
 20
8.9076246569
 11
67.4738240832
 21
36.1076246562
  0
LINE
  5
264
100
AcDbEntity
  8
0
100
AcDbLine
 62
7
  6
CONTINUOUS
 10
58.1738240825
 20
79.7076246576
 11
53.4738240832
 21
79.7076246576
  0
LINE
  5
265
100
AcDbEntity
  8
0
100
AcDbLine
 62
7
  6
CONTINUOUS
 10
49.6738240825
 20
79.7076246576
 11
44.9738240832
 21
79.7076246576
  0
LINE
  5
266
100
AcDbEntity
  8
0
100
AcDbLine
 62
7
  6
CONTINUOUS
 10
58.0738240832
 20
79.8076246576
 11
53.3738240832
 21
79.8076246576
  0
LINE
  5
267
100
AcDbEntity
  8
0
100
AcDbLine
 62
7
  6
CONTINUOUS
 10
49.7738240825
 20
79.8076246576
 11
45.0738240832
 21
79.8076246576
  0
LINE
  5
268
100
AcDbEntity
  8
0
100
AcDbLine
 62
7
  6
CONTINUOUS
 10
61.4738240832
 20
74.6623286368
 11
60.6738240825
 21
74.8617910394
  0
LINE
  5
269
100
AcDbEntity
  8
0
100
AcDbLine
 62
7
  6
CONTINUOUS
 10
61.1738240825
 20
74.8617910395
 11
61.9738240832
 21
74.6623286368
  0
LINE
  5
26A
100
AcDbEntity
  8
0
100
AcDbLine
 62
7
  6
CONTINUOUS
 10
62.6738240825
 20
70.7076246577
 11
61.9738240832
 21
71.4076246569
  0
LINE
  5
26B
100
AcDbEntity
  8
0
100
AcDbLine
 62
7
  6
CONTINUOUS
 10
63.1511743527
 20
37.9376246567
 11
62.5738240828
 21
36.9376246569
  0
LINE
  5
26C
100
AcDbEntity
  8
0
100
AcDbLine
 62
7
  6
CONTINUOUS
 10
63.1738240826
 20
71.4076246569
 11
65.6245504668
 21
67.9076246569
  0
LINE
  5
26D
100
AcDbEntity
  8
0
100
AcDbLine
 62
7
  6
CONTINUOUS
 10
18.0738240832
 20
87.2576246576
 11
34.2173933232
 21
87.2576246565
  0
LINE
  5
26E
100
AcDbEntity
  8
0
100
AcDbLine
 62
7
  6
CONTINUOUS
 10
33.5896956188
 20
87.9076246569
 11
18.7238240832
 21
87.9076246569
  0
LINE
  5
26F
100
AcDbEntity
  8
0
100
AcDbLine
 62
7
  6
CONTINUOUS
 10
63.760792904
 20
92.9076246569
 11
65.1872493973
 21
92.9076246569
  0
LINE
  5
270
100
AcDbEntity
  8
0
100
AcDbLine
 62
7
  6
CONTINUOUS
 10
45.0738240832
 20
97.0076246562
 11
58.0738240825
 21
97.0076246562
  0
LINE
  5
271
100
AcDbEntity
  8
0
100
AcDbLine
 62
7
  6
CONTINUOUS
 10
44.9738240832
 20
97.1076246562
 11
58.1738240825
 21
97.1076246562
  0
LINE
  5
272
100
AcDbEntity
  8
0
100
AcDbLine
 62
7
  6
CONTINUOUS
 10
34.6015217876
 20
98.2576246565
 11
60.6738240825
 21
98.2576246565
  0
LINE
  5
273
100
AcDbEntity
  8
0
100
AcDbLine
 62
7
  6
CONTINUOUS
 10
61.1738240825
 20
98.2576246569
 11
67.4738240832
 21
98.2576246569
  0
LINE
  5
274
100
AcDbEntity
  8
0
100
AcDbLine
 62
7
  6
CONTINUOUS
 10
34.6015217876
 20
98.9076246569
 11
67.4738240832
 21
98.9076246569
  0
LINE
  5
275
100
AcDbEntity
  8
0
100
AcDbLine
 62
7
  6
CONTINUOUS
 10
33.9519177493
 20
98.2803093305
 11
34.6015217877
 21
98.2576246576
  0
CIRCLE
  5
276
100
AcDbEntity
  8
0
100
AcDbCircle
 62
7
  6
CONTINUOUS
 10
64.4738240832
 20
74.4076246569
 40
1.75
  0
CIRCLE
  5
277
100
AcDbEntity
  8
0
100
AcDbCircle
 62
7
  6
CONTINUOUS
 10
64.4738240832
 20
31.4076246569
 40
1.75
  0
CIRCLE
  5
278
100
AcDbEntity
  8
0
100
AcDbCircle
 62
7
  6
CONTINUOUS
 10
64.4738240832
 20
91.9076246569
 40
1.3
  0
CIRCLE
  5
279
100
AcDbEntity
  8
0
100
AcDbCircle
 62
7
  6
CONTINUOUS
 10
64.4738240832
 20
87.9076246569
 40
1.3
  0
CIRCLE
  5
27A
100
AcDbEntity
  8
0
100
AcDbCircle
 62
7
  6
CONTINUOUS
 10
64.4738240832
 20
83.9076246569
 40
1.3
  0
ARC
  5
27B
100
AcDbEntity
  8
0
100
AcDbCircle
 62
7
  6
CONTINUOUS
 10
18.7238240832
 20
87.2576246569
 40
0.65
100
AcDbArc
 50
90.0
 51
180.0000000353
  0
ARC
  5
27C
100
AcDbEntity
  8
0
100
AcDbCircle
 62
7
  6
CONTINUOUS
 10
13.9177266167
 20
75.7576246569
 40
0.65
100
AcDbArc
 50
90.0
 51
180.0000000353
  0
ARC
  5
27D
100
AcDbEntity
  8
0
100
AcDbCircle
 62
7
  6
CONTINUOUS
 10
13.9177266167
 20
32.0576246569
 40
0.65
100
AcDbArc
 50
179.9999999647
 51
270.0
  0
ARC
  5
27E
100
AcDbEntity
  8
0
100
AcDbCircle
 62
7
  6
CONTINUOUS
 10
10.7238240832
 20
32.0576246569
 40
0.65
100
AcDbArc
 50
180.0
 51
270.0
  0
ARC
  5
27F
100
AcDbEntity
  8
0
100
AcDbCircle
 62
7
  6
CONTINUOUS
 10
10.7238240832
 20
75.7576246569
 40
0.65
100
AcDbArc
 50
90.0
 51
180.0
  0
ARC
  5
280
100
AcDbEntity
  8
0
100
AcDbCircle
 62
7
  6
CONTINUOUS
 10
18.7238240832
 20
20.5576246569
 40
0.65
100
AcDbArc
 50
179.9999999647
 51
270.0
  0
ARC
  5
281
100
AcDbEntity
  8
0
100
AcDbCircle
 62
7
  6
CONTINUOUS
 10
34.6015217868
 20
9.5576246569
 40
0.65
100
AcDbArc
 50
182.0
 51
270.0000000705
  0
ARC
  5
282
100
AcDbEntity
  8
0
100
AcDbCircle
 62
7
  6
CONTINUOUS
 10
34.6015217868
 20
98.2576246569
 40
0.65
100
AcDbArc
 50
89.9999999295
 51
178.0
  0
SPLINE
  5
283
100
AcDbEntity
  8
0
100
AcDbSpline
 62
7
  6
CONTINUOUS
 70
0
 71
3
 72
9
 73
5
 74
0
 42
0.0000001
 43
0.0000001
 44
0.0000000001
 40
0.0
 40
0.0
 40
0.0
 40
0.0
 40
0.4354046948
 40
1.0
 40
1.0
 40
1.0
 40
1.0
 10
12.1918260289
 20
34.4742449721
 30
0.0
 10
12.2053917452
 20
34.4742453955
 30
0.0
 10
12.2364732914
 20
34.4853310683
 30
0.0
 10
12.2585680935
 20
34.5080976533
 30
0.0
 10
12.2697234357
 20
34.5216989926
 30
0.0
  0
SPLINE
  5
284
100
AcDbEntity
  8
0
100
AcDbSpline
 62
7
  6
CONTINUOUS
 70
0
 71
3
 72
15
 73
11
 74
0
 42
0.0000001
 43
0.0000001
 44
0.0000000001
 40
0.0
 40
0.0
 40
0.0
 40
0.0
 40
0.0229669344
 40
0.0521274961
 40
0.1295217044
 40
0.2315271106
 40
0.355863834
 40
0.4991491689
 40
0.6574255768
 40
1.0
 40
1.0
 40
1.0
 40
1.0
 10
12.2697234357
 20
34.5216989926
 30
0.0
 10
12.2839586916
 20
34.5390555687
 30
0.0
 10
12.3112553269
 20
34.5824795415
 30
0.0
 10
12.3640060915
 20
34.697714936
 30
0.0
 10
12.4232517425
 20
34.8935248488
 30
0.0
 10
12.485230484
 20
35.1839088275
 30
0.0
 10
12.5399411826
 20
35.5412199917
 30
0.0
 10
12.5852183522
 20
35.9551061255
 30
0.0
 10
12.6311227518
 20
36.5830928334
 30
0.0
 10
12.6445976668
 20
37.0727971158
 30
0.0
 10
12.6446159771
 20
37.4076246569
 30
0.0
  0
SPLINE
  5
285
100
AcDbEntity
  8
0
100
AcDbSpline
 62
7
  6
CONTINUOUS
 70
0
 71
3
 72
9
 73
5
 74
0
 42
0.0000001
 43
0.0000001
 44
0.0000000001
 40
0.0
 40
0.0
 40
0.0
 40
0.0
 40
0.4358018285
 40
1.0
 40
1.0
 40
1.0
 40
1.0
 10
12.1918584688
 20
40.3411426272
 30
0.0
 10
12.2053545423
 20
40.3411066867
 30
0.0
 10
12.2362009449
 20
40.3299876789
 30
0.0
 10
12.258188884
 20
40.3074182861
 30
0.0
 10
12.2693023434
 20
40.2939359113
 30
0.0
  0
SPLINE
  5
286
100
AcDbEntity
  8
0
100
AcDbSpline
 62
7
  6
CONTINUOUS
 70
0
 71
3
 72
15
 73
11
 74
0
 42
0.0000001
 43
0.0000001
 44
0.0000000001
 40
0.0
 40
0.0
 40
0.0
 40
0.0
 40
0.0228955931
 40
0.051984292
 40
0.1294064086
 40
0.2315491819
 40
0.3557761589
 40
0.4989591118
 40
0.65735086
 40
1.0
 40
1.0
 40
1.0
 40
1.0
 10
12.2693023434
 20
40.2939359113
 30
0.0
 10
12.2835385058
 20
40.2766652064
 30
0.0
 10
12.3108709546
 20
40.233417618
 30
0.0
 10
12.363745138
 20
40.1183316941
 30
0.0
 10
12.422958046
 20
39.92236413
 30
0.0
 10
12.4849049614
 20
39.6318739793
 30
0.0
 10
12.5397983976
 20
39.274599814
 30
0.0
 10
12.5851798858
 20
38.8607442762
 30
0.0
 10
12.6311496798
 20
38.2325632675
 30
0.0
 10
12.6445961335
 20
37.7425847109
 30
0.0
 10
12.6446159771
 20
37.4076246578
 30
0.0
  0
SPLINE
  5
287
100
AcDbEntity
  8
0
100
AcDbSpline
 62
7
  6
CONTINUOUS
 70
0
 71
3
 72
10
 73
6
 74
0
 42
0.0000001
 43
0.0000001
 44
0.0000000001
 40
0.0
 40
0.0
 40
0.0
 40
0.0
 40
0.3484074237
 40
0.6311093573
 40
1.0
 40
1.0
 40
1.0
 40
1.0
 10
10.5938983025
 20
34.5862261264
 30
0.0
 10
10.6019731995
 20
34.5862265098
 30
0.0
 10
10.6144419142
 20
34.5983569637
 30
0.0
 10
10.6253268717
 20
34.6179671585
 30
0.0
 10
10.6313259237
 20
34.6320787645
 30
0.0
 10
10.634350891
 20
34.640075371
 30
0.0
  0
SPLINE
  5
288
100
AcDbEntity
  8
0
100
AcDbSpline
 62
7
  6
CONTINUOUS
 70
0
 71
3
 72
15
 73
11
 74
0
 42
0.0000001
 43
0.0000001
 44
0.0000000001
 40
0.0
 40
0.0
 40
0.0
 40
0.0
 40
0.021577609
 40
0.0500587842
 40
0.1272769354
 40
0.2297931182
 40
0.3548173479
 40
0.4986901371
 40
0.6573239036
 40
1.0
 40
1.0
 40
1.0
 40
1.0
 10
10.634350891
 20
34.640075371
 30
0.0
 10
10.6414227966
 20
34.6587701997
 30
0.0
 10
10.6545254938
 20
34.7033566147
 30
0.0
 10
10.6800004677
 20
34.8184920759
 30
0.0
 10
10.7085892792
 20
35.0094241361
 30
0.0
 10
10.7389669613
 20
35.2900923983
 30
0.0
 10
10.7659224633
 20
35.6331348036
 30
0.0
 10
10.7883517334
 20
36.0285491407
 30
0.0
 10
10.8111600724
 20
36.6257808238
 30
0.0
 10
10.8179503117
 20
37.0901979324
 30
0.0
 10
10.8179608117
 20
37.4076246569
 30
0.0
  0
SPLINE
  5
289
100
AcDbEntity
  8
0
100
AcDbSpline
 62
7
  6
CONTINUOUS
 70
0
 71
3
 72
10
 73
6
 74
0
 42
0.0000001
 43
0.0000001
 44
0.0000000001
 40
0.0
 40
0.0
 40
0.0
 40
0.0
 40
0.3456603397
 40
0.6295042333
 40
1.0
 40
1.0
 40
1.0
 40
1.0
 10
10.5939181536
 20
40.2293401887
 30
0.0
 10
10.6023714678
 20
40.2292673568
 30
0.0
 10
10.6151549793
 20
40.2160195403
 30
0.0
 10
10.6263140138
 20
40.1952307587
 30
0.0
 10
10.6325024729
 20
40.1801886438
 30
0.0
 10
10.6356217446
 20
40.1716814628
 30
0.0
  0
SPLINE
  5
28A
100
AcDbEntity
  8
0
100
AcDbSpline
 62
7
  6
CONTINUOUS
 70
0
 71
3
 72
15
 73
11
 74
0
 42
0.0000001
 43
0.0000001
 44
0.0000000001
 40
0.0
 40
0.0
 40
0.0
 40
0.0
 40
0.0219754189
 40
0.0508008577
 40
0.1286855801
 40
0.2316376594
 40
0.3565401121
 40
0.5000805559
 40
0.6584141996
 40
1.0
 40
1.0
 40
1.0
 40
1.0
 10
10.6356217446
 20
40.1716814628
 30
0.0
 10
10.6426200252
 20
40.1525950717
 30
0.0
 10
10.6556483251
 20
40.1073463436
 30
0.0
 10
10.6809850855
 20
39.9910055336
 30
0.0
 10
10.7093576528
 20
39.7989579098
 30
0.0
 10
10.7394975285
 20
39.517731647
 30
0.0
 10
10.7663464552
 20
39.175162417
 30
0.0
 10
10.7886400076
 20
38.7809697672
 30
0.0
 10
10.8112745685
 20
38.1861272192
 30
0.0
 10
10.8179504831
 20
37.7236177718
 30
0.0
 10
10.8179608117
 20
37.4076246578
 30
0.0
  0
SPLINE
  5
28B
100
AcDbEntity
  8
0
100
AcDbSpline
 62
7
  6
CONTINUOUS
 70
0
 71
3
 72
11
 73
7
 74
0
 42
0.0000001
 43
0.0000001
 44
0.0000000001
 40
0.0
 40
0.0
 40
0.0
 40
0.0
 40
0.0785650897
 40
0.267144741
 40
0.5739658201
 40
1.0
 40
1.0
 40
1.0
 40
1.0
 10
10.1180050924
 20
34.6195452091
 30
0.0
 10
10.1196210884
 20
34.619546425
 30
0.0
 10
10.1223672063
 20
34.626169757
 30
0.0
 10
10.1248590639
 20
34.636309951
 30
0.0
 10
10.1281269442
 20
34.6557655606
 30
0.0
 10
10.1299226199
 20
34.670484016
 30
0.0
 10
10.1309120689
 20
34.679191026
 30
0.0
  0
SPLINE
  5
28C
100
AcDbEntity
  8
0
100
AcDbSpline
 62
7
  6
CONTINUOUS
 70
0
 71
3
 72
13
 73
9
 74
0
 42
0.0000001
 43
0.0000001
 44
0.0000000001
 40
0.0
 40
0.0
 40
0.0
 40
0.0
 40
0.0503008405
 40
0.1280470017
 40
0.2310015121
 40
0.3562444081
 40
0.6584117392
 40
1.0
 40
1.0
 40
1.0
 40
1.0
 10
10.1309120689
 20
34.679191026
 30
0.0
 10
10.1360799875
 20
34.7246679737
 30
0.0
 10
10.1444108752
 20
34.8409383451
 30
0.0
 10
10.1554926034
 20
35.050819828
 30
0.0
 10
10.1662103973
 20
35.3290145639
 30
0.0
 10
10.180397159
 20
35.8113939237
 30
0.0
 10
10.1925644868
 20
36.5110405551
 30
0.0
 10
10.1961214529
 20
37.0968073357
 30
0.0
 10
10.1961256758
 20
37.4076246569
 30
0.0
  0
SPLINE
  5
28D
100
AcDbEntity
  8
0
100
AcDbSpline
 62
7
  6
CONTINUOUS
 70
0
 71
3
 72
11
 73
7
 74
0
 42
0.0000001
 43
0.0000001
 44
0.0000000001
 40
0.0
 40
0.0
 40
0.0
 40
0.0
 40
0.0802515518
 40
0.2698490146
 40
0.5762422261
 40
1.0
 40
1.0
 40
1.0
 40
1.0
 10
10.1180171001
 20
40.1959585044
 30
0.0
 10
10.1195954007
 20
40.1959072058
 30
0.0
 10
10.1222190394
 20
40.1895833719
 30
0.0
 10
10.1246883479
 20
40.1797876758
 30
0.0
 10
10.1278416164
 20
40.161256705
 30
0.0
 10
10.1296012525
 20
40.1472203341
 30
0.0
 10
10.1305645975
 20
40.1389377592
 30
0.0
  0
SPLINE
  5
28E
100
AcDbEntity
  8
0
100
AcDbSpline
 62
7
  6
CONTINUOUS
 70
0
 71
3
 72
14
 73
10
 74
0
 42
0.0000001
 43
0.0000001
 44
0.0000000001
 40
0.0
 40
0.0
 40
0.0
 40
0.0
 40
0.0495927132
 40
0.1270578504
 40
0.2299558561
 40
0.3550254339
 40
0.4988897469
 40
0.6576186345
 40
1.0
 40
1.0
 40
1.0
 40
1.0
 10
10.1305645975
 20
40.1389377592
 30
0.0
 10
10.1357835139
 20
40.0940669572
 30
0.0
 10
10.1441457027
 20
39.9785735136
 30
0.0
 10
10.1552254741
 20
39.7694241229
 30
0.0
 10
10.1659592997
 20
39.4913984509
 30
0.0
 10
10.1760319429
 20
39.1528532243
 30
0.0
 10
10.1845667659
 20
38.7633894659
 30
0.0
 10
10.1934404677
 20
38.1759563281
 30
0.0
 10
10.1961213691
 20
37.7194949114
 30
0.0
 10
10.1961256758
 20
37.4076246577
 30
0.0
  0
SPLINE
  5
28F
100
AcDbEntity
  8
0
100
AcDbSpline
 62
7
  6
CONTINUOUS
 70
0
 71
3
 72
15
 73
11
 74
0
 42
0.0000001
 43
0.0000001
 44
0.0000000001
 40
0.0
 40
0.0
 40
0.0
 40
0.0
 40
0.3528028668
 40
0.5151287838
 40
0.6611022665
 40
0.7861581455
 40
0.8862624547
 40
0.9582755265
 40
0.983020561
 40
1.0
 40
1.0
 40
1.0
 40
1.0
 10
10.0795775689
 20
37.4087077653
 30
0.0
 10
10.0795775689
 20
37.7214945081
 30
0.0
 10
10.080029301
 20
38.1781961267
 30
0.0
 10
10.0824252799
 20
38.7643101857
 30
0.0
 10
10.0851964238
 20
39.148502135
 30
0.0
 10
10.0890115932
 20
39.4775244625
 30
0.0
 10
10.0940618558
 20
39.7409352857
 30
0.0
 10
10.0994207543
 20
39.9154161396
 30
0.0
 10
10.1051899435
 20
40.0160817715
 30
0.0
 10
10.1083166701
 20
40.0529655149
 30
0.0
 10
10.1102790513
 20
40.0678906312
 30
0.0
  0
SPLINE
  5
290
100
AcDbEntity
  8
0
100
AcDbSpline
 62
7
  6
CONTINUOUS
 70
0
 71
3
 72
10
 73
6
 74
0
 42
0.0000001
 43
0.0000001
 44
0.0000000001
 40
0.0
 40
0.0
 40
0.0
 40
0.0
 40
0.7201507655
 40
0.9095129555
 40
1.0
 40
1.0
 40
1.0
 40
1.0
 10
10.1102790513
 20
40.0678906312
 30
0.0
 10
10.1111996271
 20
40.0748921767
 30
0.0
 10
10.1126730611
 20
40.0840562748
 30
0.0
 10
10.1151976981
 20
40.0929633317
 30
0.0
 10
10.1171444795
 20
40.0956874545
 30
0.0
 10
10.1180317963
 20
40.0956876245
 30
0.0
  0
SPLINE
  5
291
100
AcDbEntity
  8
0
100
AcDbSpline
 62
7
  6
CONTINUOUS
 70
0
 71
3
 72
15
 73
11
 74
0
 42
0.0000001
 43
0.0000001
 44
0.0000000001
 40
0.0
 40
0.0
 40
0.0
 40
0.0
 40
0.351007594
 40
0.5127940871
 40
0.6583738893
 40
0.783219569
 40
0.8835446328
 40
0.9566298508
 40
0.9821773162
 40
1.0
 40
1.0
 40
1.0
 40
1.0
 10
10.0795775689
 20
37.4087077653
 30
0.0
 10
10.0795775689
 20
37.0978855007
 30
0.0
 10
10.0801295877
 20
36.6437985481
 30
0.0
 10
10.0824650499
 20
36.0608027402
 30
0.0
 10
10.0851199706
 20
35.6780825049
 30
0.0
 10
10.0888166676
 20
35.349793162
 30
0.0
 10
10.0938063338
 20
35.0857357789
 30
0.0
 10
10.0991582312
 20
34.909611916
 30
0.0
 10
10.1048404693
 20
34.80664986
 30
0.0
 10
10.1079337657
 20
34.7683496041
 30
0.0
 10
10.1098459126
 20
34.752683626
 30
0.0
  0
SPLINE
  5
292
100
AcDbEntity
  8
0
100
AcDbSpline
 62
7
  6
CONTINUOUS
 70
0
 71
3
 72
11
 73
7
 74
0
 42
0.0000001
 43
0.0000001
 44
0.0000000001
 40
0.0
 40
0.0
 40
0.0
 40
0.0
 40
0.4215738483
 40
0.7250600874
 40
0.9133053666
 40
1.0
 40
1.0
 40
1.0
 40
1.0
 10
10.1098459126
 20
34.752683626
 30
0.0
 10
10.1104074014
 20
34.7480834194
 30
0.0
 10
10.1114190191
 20
34.7402551635
 30
0.0
 10
10.1134984708
 20
34.7301648495
 30
0.0
 10
10.114983088
 20
34.7244638191
 30
0.0
 10
10.1170642492
 20
34.7213280949
 30
0.0
 10
10.1180169215
 20
34.7213542444
 30
0.0
  0
SPLINE
  5
293
100
AcDbEntity
  8
0
100
AcDbSpline
 62
7
  6
CONTINUOUS
 70
0
 71
3
 72
17
 73
13
 74
0
 42
0.0000001
 43
0.0000001
 44
0.0000000001
 40
0.0
 40
0.0
 40
0.0
 40
0.0
 40
0.1787606092
 40
0.352113486
 40
0.5140901194
 40
0.6597429028
 40
0.7845623907
 40
0.8846156948
 40
0.9244101301
 40
0.9569762579
 40
0.9821790094
 40
1.0
 40
1.0
 40
1.0
 40
1.0
 10
10.4158477761
 20
37.4065581509
 30
0.0
 10
10.4158477761
 20
37.5677101096
 30
0.0
 10
10.417512139
 20
37.8851413662
 30
0.0
 10
10.4248557517
 20
38.3485429447
 30
0.0
 10
10.4369582669
 20
38.7819887869
 30
0.0
 10
10.453766565
 20
39.1715022961
 30
0.0
 10
10.4748603571
 20
39.5048758796
 30
0.0
 10
10.4965864251
 20
39.7425660005
 30
0.0
 10
10.5169347182
 20
39.8966667234
 30
0.0
 10
10.5316836574
 20
39.9834362093
 30
0.0
 10
10.5469715602
 20
40.0498196039
 30
0.0
 10
10.5592145705
 20
40.086865769
 30
0.0
 10
10.566258615
 20
40.1013047211
 30
0.0
  0
SPLINE
  5
294
100
AcDbEntity
  8
0
100
AcDbSpline
 62
7
  6
CONTINUOUS
 70
0
 71
3
 72
9
 73
5
 74
0
 42
0.0000001
 43
0.0000001
 44
0.0000000001
 40
0.0
 40
0.0
 40
0.0
 40
0.0
 40
0.6149942885
 40
1.0
 40
1.0
 40
1.0
 40
1.0
 10
10.566258615
 20
40.1013047211
 30
0.0
 10
10.5698987449
 20
40.1087662953
 30
0.0
 10
10.576097215
 20
40.1207467363
 30
0.0
 10
10.5887213783
 20
40.1290421742
 30
0.0
 10
10.5939187823
 20
40.1290421197
 30
0.0
  0
SPLINE
  5
295
100
AcDbEntity
  8
0
100
AcDbSpline
 62
7
  6
CONTINUOUS
 70
0
 71
3
 72
17
 73
13
 74
0
 42
0.0000001
 43
0.0000001
 44
0.0000000001
 40
0.0
 40
0.0
 40
0.0
 40
0.0
 40
0.1789690639
 40
0.3525651072
 40
0.5148074851
 40
0.6604694791
 40
0.7850249251
 40
0.8847305807
 40
0.9244461722
 40
0.9570262446
 40
0.9822486352
 40
1.0
 40
1.0
 40
1.0
 40
1.0
 10
10.4158477762
 20
37.4065581509
 30
0.0
 10
10.4158477762
 20
37.2451182734
 30
0.0
 10
10.4175637487
 20
36.9270828855
 30
0.0
 10
10.4250082774
 20
36.4627486259
 30
0.0
 10
10.4371397376
 20
36.0285674854
 30
0.0
 10
10.4539414208
 20
35.6388018298
 30
0.0
 10
10.4750592647
 20
35.3057662606
 30
0.0
 10
10.4969217909
 20
35.0685629168
 30
0.0
 10
10.5173932118
 20
34.9147584358
 30
0.0
 10
10.5322138314
 20
34.8279841874
 30
0.0
 10
10.5475630363
 20
34.761612921
 30
0.0
 10
10.5598444234
 20
34.7245864866
 30
0.0
 10
10.5669572342
 20
34.7102402493
 30
0.0
  0
SPLINE
  5
296
100
AcDbEntity
  8
0
100
AcDbSpline
 62
7
  6
CONTINUOUS
 70
0
 71
3
 72
9
 73
5
 74
0
 42
0.0000001
 43
0.0000001
 44
0.0000000001
 40
0.0
 40
0.0
 40
0.0
 40
0.0
 40
0.3475098099
 40
1.0
 40
1.0
 40
1.0
 40
1.0
 10
10.5669572342
 20
34.7102402493
 30
0.0
 10
10.5689419234
 20
34.7062372154
 30
0.0
 10
10.5747969205
 20
34.6953969944
 30
0.0
 10
10.5855291348
 20
34.6836876674
 30
0.0
 10
10.5939181777
 20
34.6837456068
 30
0.0
  0
SPLINE
  5
297
100
AcDbEntity
  8
0
100
AcDbSpline
 62
7
  6
CONTINUOUS
 70
0
 71
3
 72
16
 73
12
 74
0
 42
0.0000001
 43
0.0000001
 44
0.0000000001
 40
0.0
 40
0.0
 40
0.0
 40
0.0
 40
0.3490848136
 40
0.5096525855
 40
0.6541152409
 40
0.7782021431
 40
0.8783609747
 40
0.9187210921
 40
0.9523545113
 40
0.9793303937
 40
1.0
 40
1.0
 40
1.0
 40
1.0
 10
11.7970063904
 20
37.4086158199
 30
0.0
 10
11.7970063904
 20
37.7398466318
 30
0.0
 10
11.8080063441
 20
38.2235751117
 30
0.0
 10
11.8466702695
 20
38.8430894851
 30
0.0
 10
11.8853239956
 20
39.2485331401
 30
0.0
 10
11.933103199
 20
39.5951883991
 30
0.0
 10
11.9817824703
 20
39.8418282114
 30
0.0
 10
12.0265362419
 20
40.0009801336
 30
0.0
 10
12.0591057107
 20
40.0912412931
 30
0.0
 10
12.0927051745
 20
40.1607667106
 30
0.0
 10
12.1191190107
 20
40.1981078651
 30
0.0
 10
12.1330063369
 20
40.2119567132
 30
0.0
  0
SPLINE
  5
298
100
AcDbEntity
  8
0
100
AcDbSpline
 62
7
  6
CONTINUOUS
 70
0
 71
3
 72
9
 73
5
 74
0
 42
0.0000001
 43
0.0000001
 44
0.0000000001
 40
0.0
 40
0.0
 40
0.0
 40
0.0
 40
0.5444874152
 40
1.0
 40
1.0
 40
1.0
 40
1.0
 10
12.1330063369
 20
40.2119567132
 30
0.0
 10
12.1416110987
 20
40.2205376336
 30
0.0
 10
12.1592980651
 20
40.2348527278
 30
0.0
 10
12.1817432903
 20
40.2409218726
 30
0.0
 10
12.1919096326
 20
40.2409218722
 30
0.0
  0
SPLINE
  5
299
100
AcDbEntity
  8
0
100
AcDbSpline
 62
7
  6
CONTINUOUS
 70
0
 71
3
 72
16
 73
12
 74
0
 42
0.0000001
 43
0.0000001
 44
0.0000000001
 40
0.0
 40
0.0
 40
0.0
 40
0.0
 40
0.3482123873
 40
0.5086107507
 40
0.6529914885
 40
0.7771231986
 40
0.877517108
 40
0.9180504824
 40
0.951884682
 40
0.9790884464
 40
1.0
 40
1.0
 40
1.0
 40
1.0
 10
11.79700639
 20
37.4086158197
 30
0.0
 10
11.79700639
 20
37.0785026228
 30
0.0
 10
11.808059891
 20
36.5961910351
 30
0.0
 10
11.8464142738
 20
35.9782724186
 30
0.0
 10
11.8847678792
 20
35.5733576043
 30
0.0
 10
11.9322589502
 20
35.226781807
 30
0.0
 10
11.9807155194
 20
34.9798923799
 30
0.0
 10
12.025236859
 20
34.8202279556
 30
0.0
 10
12.0576538333
 20
34.7294017391
 30
0.0
 10
12.0911051864
 20
34.6591759816
 30
0.0
 10
12.1173508694
 20
34.6212583367
 30
0.0
 10
12.1311578532
 20
34.6070322012
 30
0.0
  0
SPLINE
  5
29A
100
AcDbEntity
  8
0
100
AcDbSpline
 62
7
  6
CONTINUOUS
 70
0
 71
3
 72
9
 73
5
 74
0
 42
0.0000001
 43
0.0000001
 44
0.0000000001
 40
0.0
 40
0.0
 40
0.0
 40
0.0
 40
0.5467961585
 40
1.0
 40
1.0
 40
1.0
 40
1.0
 10
12.1311578532
 20
34.6070322012
 30
0.0
 10
12.1399823712
 20
34.597939789
 30
0.0
 10
12.1580700907
 20
34.5827379807
 30
0.0
 10
12.1813561641
 20
34.5761660466
 30
0.0
 10
12.1918579984
 20
34.5761587098
 30
0.0
  0
SPLINE
  5
29B
100
AcDbEntity
  8
0
100
AcDbSpline
 62
7
  6
CONTINUOUS
 70
0
 71
3
 72
11
 73
7
 74
0
 42
0.0000001
 43
0.0000001
 44
0.0000000001
 40
0.0
 40
0.0
 40
0.0
 40
0.0
 40
0.4264761813
 40
0.733309307
 40
0.9215132972
 40
1.0
 40
1.0
 40
1.0
 40
1.0
 10
10.1070384186
 20
34.6763134175
 30
0.0
 10
10.1077685165
 20
34.668027825
 30
0.0
 10
10.1091054494
 20
34.6540216329
 30
0.0
 10
10.1118040747
 20
34.6355122257
 30
0.0
 10
10.1138812569
 20
34.6258371556
 30
0.0
 10
10.1164743423
 20
34.6195440573
 30
0.0
 10
10.1180050924
 20
34.6195452091
 30
0.0
  0
SPLINE
  5
29C
100
AcDbEntity
  8
0
100
AcDbSpline
 62
7
  6
CONTINUOUS
 70
0
 71
3
 72
10
 73
6
 74
0
 42
0.0000001
 43
0.0000001
 44
0.0000000001
 40
0.0
 40
0.0
 40
0.0
 40
0.0
 40
0.3697165938
 40
0.6522912513
 40
1.0
 40
1.0
 40
1.0
 40
1.0
 10
10.5549770743
 20
34.6402206708
 30
0.0
 10
10.5577695284
 20
34.6322101392
 30
0.0
 10
10.5633661583
 20
34.6180783508
 30
0.0
 10
10.5736354565
 20
34.59839959
 30
0.0
 10
10.5859199795
 20
34.5862257475
 30
0.0
 10
10.5938983025
 20
34.5862261264
 30
0.0
  0
SPLINE
  5
29D
100
AcDbEntity
  8
0
100
AcDbSpline
 62
7
  6
CONTINUOUS
 70
0
 71
3
 72
12
 73
8
 74
0
 42
0.0000001
 43
0.0000001
 44
0.0000000001
 40
0.0
 40
0.0
 40
0.0
 40
0.0
 40
0.028491109
 40
0.1056291862
 40
0.2183301369
 40
0.3547124833
 40
1.0
 40
1.0
 40
1.0
 40
1.0
 10
18.0738240832
 20
76.4076246562
 30
0.0
 10
18.0798516238
 20
76.4013080275
 30
0.0
 10
18.1024110824
 20
76.3780994955
 30
0.0
 10
18.1501982001
 20
76.3312726209
 30
0.0
 10
18.2212777014
 20
76.260993956
 30
0.0
 10
18.4147268549
 20
76.0668766485
 30
0.0
 10
18.5840110119
 20
75.8974377289
 30
0.0
 10
18.7238240832
 20
75.7576246576
 30
0.0
  0
SPLINE
  5
29E
100
AcDbEntity
  8
0
100
AcDbSpline
 62
7
  6
CONTINUOUS
 70
0
 71
3
 72
9
 73
5
 74
0
 42
0.0000001
 43
0.0000001
 44
0.0000000001
 40
0.0
 40
0.0
 40
0.0
 40
0.0
 40
0.5639050083
 40
1.0
 40
1.0
 40
1.0
 40
1.0
 10
12.1146937361
 20
34.522682634
 30
0.0
 10
12.1254971691
 20
34.5088229655
 30
0.0
 10
12.1471063509
 20
34.4854926947
 30
0.0
 10
12.1782361055
 20
34.474244548
 30
0.0
 10
12.1918260289
 20
34.4742449721
 30
0.0
  0
SPLINE
  5
29F
100
AcDbEntity
  8
0
100
AcDbSpline
 62
7
  6
CONTINUOUS
 70
0
 71
3
 72
9
 73
5
 74
0
 42
0.0000001
 43
0.0000001
 44
0.0000000001
 40
0.0
 40
0.0
 40
0.0
 40
0.0
 40
0.4534981179
 40
1.0
 40
1.0
 40
1.0
 40
1.0
 10
12.1919096326
 20
40.2409218722
 30
0.0
 10
12.2021981162
 20
40.2409218717
 30
0.0
 10
12.2249861565
 20
40.2347121012
 30
0.0
 10
12.2430530315
 20
40.2203217492
 30
0.0
 10
12.2519319203
 20
40.2116680218
 30
0.0
  0
SPLINE
  5
2A0
100
AcDbEntity
  8
0
100
AcDbSpline
 62
7
  6
CONTINUOUS
 70
0
 71
3
 72
16
 73
12
 74
0
 42
0.0000001
 43
0.0000001
 44
0.0000000001
 40
0.0
 40
0.0
 40
0.0
 40
0.0
 40
0.0209436451
 40
0.0481932546
 40
0.0820676035
 40
0.122618774
 40
0.2229847635
 40
0.3470524204
 40
0.4913245434
 40
0.6516021021
 40
1.0
 40
1.0
 40
1.0
 40
1.0
 10
12.2519319203
 20
40.2116680218
 30
0.0
 10
12.2661971806
 20
40.1977645167
 30
0.0
 10
12.293604326
 20
40.1603945783
 30
0.0
 10
12.3291130732
 20
40.0907740122
 30
0.0
 10
12.3640899208
 20
40.0004563948
 30
0.0
 10
12.4129292716
 20
39.8414601048
 30
0.0
 10
12.4675590848
 20
39.5950721672
 30
0.0
 10
12.5225681957
 20
39.2486255993
 30
0.0
 10
12.5680769915
 20
38.8433695012
 30
0.0
 10
12.614411609
 20
38.223989075
 30
0.0
 10
12.6281185777
 20
37.7399848222
 30
0.0
 10
12.6281185777
 20
37.4086158199
 30
0.0
  0
SPLINE
  5
2A1
100
AcDbEntity
  8
0
100
AcDbSpline
 62
7
  6
CONTINUOUS
 70
0
 71
3
 72
9
 73
5
 74
0
 42
0.0000001
 43
0.0000001
 44
0.0000000001
 40
0.0
 40
0.0
 40
0.0
 40
0.0
 40
0.4550664196
 40
1.0
 40
1.0
 40
1.0
 40
1.0
 10
12.1918579984
 20
34.5761587098
 30
0.0
 10
12.2018463761
 20
34.5761517317
 30
0.0
 10
12.2239067708
 20
34.5819779928
 30
0.0
 10
12.2415603096
 20
34.5956781335
 30
0.0
 10
12.2502184866
 20
34.6039303508
 30
0.0
  0
SPLINE
  5
2A2
100
AcDbEntity
  8
0
100
AcDbSpline
 62
7
  6
CONTINUOUS
 70
0
 71
3
 72
16
 73
12
 74
0
 42
0.0000001
 43
0.0000001
 44
0.0000000001
 40
0.0
 40
0.0
 40
0.0
 40
0.0
 40
0.0208026719
 40
0.0479547724
 40
0.081756699
 40
0.1222312143
 40
0.2224094177
 40
0.3462843391
 40
0.4905519786
 40
0.6511115738
 40
1.0
 40
1.0
 40
1.0
 40
1.0
 10
12.2502184866
 20
34.6039303508
 30
0.0
 10
12.2645520285
 20
34.6175918298
 30
0.0
 10
12.292073494
 20
34.6546720621
 30
0.0
 10
12.3276699156
 20
34.7239793139
 30
0.0
 10
12.3627581052
 20
34.8140863131
 30
0.0
 10
12.4117866734
 20
34.9728224671
 30
0.0
 10
12.4666696497
 20
35.2189105209
 30
0.0
 10
12.5220385946
 20
35.5652038838
 30
0.0
 10
12.567847625
 20
35.9708276563
 30
0.0
 10
12.6144149982
 20
36.5914072179
 30
0.0
 10
12.6281185786
 20
37.0765238684
 30
0.0
 10
12.6281185786
 20
37.4086158199
 30
0.0
  0
SPLINE
  5
2A3
100
AcDbEntity
  8
0
100
AcDbSpline
 62
7
  6
CONTINUOUS
 70
0
 71
3
 72
12
 73
8
 74
0
 42
0.0000001
 43
0.0000001
 44
0.0000000001
 40
0.0
 40
0.0
 40
0.0
 40
0.0
 40
0.0279343816
 40
0.1041126462
 40
0.2159686142
 40
0.3518632088
 40
1.0
 40
1.0
 40
1.0
 40
1.0
 10
33.5896956189
 20
87.9076246577
 30
0.0
 10
33.5954010995
 20
87.9014399025
 30
0.0
 10
33.6168308293
 20
87.8785454649
 30
0.0
 10
33.662221079
 20
87.8319424058
 30
0.0
 10
33.7303285151
 20
87.7620810667
 30
0.0
 10
33.9182483531
 20
87.5684236504
 30
0.0
 10
34.0817812874
 20
87.3980550302
 30
0.0
 10
34.2173933232
 20
87.2576246561
 30
0.0
  0
SPLINE
  5
2A4
100
AcDbEntity
  8
0
100
AcDbSpline
 62
7
  6
CONTINUOUS
 70
0
 71
3
 72
11
 73
7
 74
0
 42
0.0000001
 43
0.0000001
 44
0.0000000001
 40
0.0
 40
0.0
 40
0.0
 40
0.0
 40
0.4286223427
 40
0.7358833074
 40
0.9230951673
 40
1.0
 40
1.0
 40
1.0
 40
1.0
 10
10.1069927327
 20
40.138273397
 30
0.0
 10
10.1077295242
 20
40.1467333889
 30
0.0
 10
10.109065003
 20
40.1610014341
 30
0.0
 10
10.1118089685
 20
40.179874714
 30
0.0
 10
10.1138386851
 20
40.1896140158
 30
0.0
 10
10.1164942389
 20
40.1960080011
 30
0.0
 10
10.1180171001
 20
40.1959585044
 30
0.0
  0
SPLINE
  5
2A5
100
AcDbEntity
  8
0
100
AcDbSpline
 62
7
  6
CONTINUOUS
 70
0
 71
3
 72
10
 73
6
 74
0
 42
0.0000001
 43
0.0000001
 44
0.0000000001
 40
0.0
 40
0.0
 40
0.0
 40
0.0
 40
0.3699337599
 40
0.6522768831
 40
1.0
 40
1.0
 40
1.0
 40
1.0
 10
10.5558623653
 20
40.177279195
 30
0.0
 10
10.5586001001
 20
40.1850408133
 30
0.0
 10
10.5640805716
 20
40.1987163846
 30
0.0
 10
10.5741214457
 20
40.217774389
 30
0.0
 10
10.5861822798
 20
40.2294068394
 30
0.0
 10
10.5939181536
 20
40.2293401887
 30
0.0
  0
SPLINE
  5
2A6
100
AcDbEntity
  8
0
100
AcDbSpline
 62
7
  6
CONTINUOUS
 70
0
 71
3
 72
9
 73
5
 74
0
 42
0.0000001
 43
0.0000001
 44
0.0000000001
 40
0.0
 40
0.0
 40
0.0
 40
0.0
 40
0.564533418
 40
1.0
 40
1.0
 40
1.0
 40
1.0
 10
12.1156281965
 20
40.2933035951
 30
0.0
 10
12.1262997104
 20
40.3070331911
 30
0.0
 10
12.1476307989
 20
40.3301470265
 30
0.0
 10
12.178444962
 20
40.3411783477
 30
0.0
 10
12.1918584688
 20
40.3411426272
 30
0.0
  0
SPLINE
  5
2A7
100
AcDbEntity
  8
0
100
AcDbSpline
 62
7
  6
CONTINUOUS
 70
0
 71
3
 72
12
 73
8
 74
0
 42
0.0000001
 43
0.0000001
 44
0.0000000001
 40
0.0
 40
0.0
 40
0.0
 40
0.0
 40
0.0284911099
 40
0.1056291868
 40
0.2183301366
 40
0.3547124833
 40
1.0
 40
1.0
 40
1.0
 40
1.0
 10
18.0738240828
 20
31.4076246569
 30
0.0
 10
18.0801407121
 20
31.4136521973
 30
0.0
 10
18.103349245
 20
31.4362116553
 30
0.0
 10
18.1501761184
 20
31.4839987742
 30
0.0
 10
18.2204547822
 20
31.5550782764
 30
0.0
 10
18.4145720914
 20
31.7485274284
 30
0.0
 10
18.5840110116
 20
31.9178115854
 30
0.0
 10
18.7238240831
 20
32.0576246569
 30
0.0
  0
SPLINE
  5
2A8
100
AcDbEntity
  8
0
100
AcDbSpline
 62
7
  6
CONTINUOUS
 70
0
 71
3
 72
9
 73
5
 74
0
 42
0.0000001
 43
0.0000001
 44
0.0000000001
 40
0.0
 40
0.0
 40
0.0
 40
0.0
 40
0.3845604025
 40
1.0
 40
1.0
 40
1.0
 40
1.0
 10
10.5939187823
 20
40.1290421197
 30
0.0
 10
10.5991769396
 20
40.1290420646
 30
0.0
 10
10.6119556173
 20
40.1207160723
 30
0.0
 10
10.6185084333
 20
40.108763508
 30
0.0
 10
10.6223649429
 20
40.1012842256
 30
0.0
  0
SPLINE
  5
2A9
100
AcDbEntity
  8
0
100
AcDbSpline
 62
7
  6
CONTINUOUS
 70
0
 71
3
 72
12
 73
8
 74
0
 42
0.0000001
 43
0.0000001
 44
0.0000000001
 40
0.0
 40
0.0
 40
0.0
 40
0.0
 40
0.0279343811
 40
0.1041126456
 40
0.2159686139
 40
0.3518632086
 40
1.0
 40
1.0
 40
1.0
 40
1.0
 10
33.5896956188
 20
19.9076246569
 30
0.0
 10
33.5956774878
 20
19.9135425068
 30
0.0
 10
33.6178100914
 20
19.9357581868
 30
0.0
 10
33.6628006643
 20
19.982747209
 30
0.0
 10
33.7302425308
 20
20.0532512811
 30
0.0
 10
33.9172236688
 20
20.2478151893
 30
0.0
 10
34.0817812874
 20
20.417194283
 30
0.0
 10
34.2173933231
 20
20.5576246569
 30
0.0
  0
SPLINE
  5
2AA
100
AcDbEntity
  8
0
100
AcDbSpline
 62
7
  6
CONTINUOUS
 70
0
 71
3
 72
9
 73
5
 74
0
 42
0.0000001
 43
0.0000001
 44
0.0000000001
 40
0.0
 40
0.0
 40
0.0
 40
0.0
 40
0.3828297096
 40
1.0
 40
1.0
 40
1.0
 40
1.0
 10
10.5939181777
 20
34.6837456068
 30
0.0
 10
10.599259234
 20
34.6837824951
 30
0.0
 10
10.6121746717
 20
34.6925091679
 30
0.0
 10
10.6187401795
 20
34.7047316525
 30
0.0
 10
10.6226326875
 20
34.7124122776
 30
0.0
  0
ENDSEC
  0
SECTION
  2
OBJECTS
  0
DICTIONARY
  5
C
100
AcDbDictionary
280
0
281
1
  3
ACAD_GROUP
350
D
  3
ACAD_MLINESTYLE
350
17
  3
ACAD_LAYOUT
350
1A
  3
ACAD_PLOTSETTINGS
350
19
  3
ACAD_PLOTSTYLENAME
350
E
  0
DICTIONARY
  5
D
102
{ACAD_REACTORS
330
C
102
}
100
AcDbDictionary
280
0
281
1
  0
ACDBDICTIONARYWDFLT
  5
E
102
{ACAD_REACTORS
330
C
102
}
100
AcDbDictionary
281
1
  3
Normal
350
F
100
AcDbDictionaryWithDefault
340
F
  0
DICTIONARY
  5
17
102
{ACAD_REACTORS
330
C
102
}
100
AcDbDictionary
280
0
281
1
  3
Standard
350
18
  0
DICTIONARY
  5
19
102
{ACAD_REACTORS
330
C
102
}
100
AcDbDictionary
281
1
  0
DICTIONARY
  5
1A
102
{ACAD_REACTORS
330
C
102
}
100
AcDbDictionary
281
1
  3
Model
350
2AB
  3
Layout1
350
2AC
  0
ACDBPLACEHOLDER
  5
F
102
{ACAD_REACTORS
330
E
102
}
  0
MLINESTYLE
  5
18
102
{ACAD_REACTORS
330
17
102
}
100
AcDbMlineStyle
  2
STANDARD
 70
0
  3

 62
256
 51
90.0
 52
90.0
 71
2
 49
0.5
 62
256
  6
BYLAYER
 49
-0.5
 62
256
  6
BYLAYER
  0
LAYOUT
  5
2AB
102
{ACAD_REACTORS
330
1A
102
}
100
AcDbPlotSettings
  1

  2
none_device
  4

  6

 40
0.0
 41
0.0
 42
0.0
 43
0.0
 44
210.0
 45
297.0
 46
0.0
 47
0.0
 48
0.0
 49
0.0
140
0.0
141
0.0
142
1.0
143
1.0
 70
1024
 72
1
 73
0
 74
0
  7

 75
0
147
1.0
148
0.0
149
0.0
100
AcDbLayout
  1
Model
 70
0
 71
0
 10
0.0
 20
0.0
 11
210.0
 21
297.0
 12
0.0
 22
0.0
 32
0.0
 14
0.0
 24
0.0
 34
0.0
 15
0.0
 25
0.0
 35
0.0
146
0.0
 13
0.0
 23
0.0
 33
0.0
 16
1.0
 26
0.0
 36
0.0
 17
0.0
 27
1.0
 37
0.0
 76
0
330
210
345
0
346
0
  0
LAYOUT
  5
2AC
102
{ACAD_REACTORS
330
1A
102
}
100
AcDbPlotSettings
  1

  2
none_device
  4

  6

 40
0.0
 41
0.0
 42
0.0
 43
0.0
 44
210.0
 45
297.0
 46
0.0
 47
0.0
 48
0.0
 49
0.0
140
0.0
141
0.0
142
1.0
143
1.0
 70
0
 72
1
 73
0
 74
0
  7

 75
0
147
1.0
148
0.0
149
0.0
100
AcDbLayout
  1
Layout1
 70
0
 71
1
 10
0.0
 20
0.0
 11
210.0
 21
297.0
 12
0.0
 22
0.0
 32
0.0
 14
0.0
 24
0.0
 34
0.0
 15
0.0
 25
0.0
 35
0.0
146
0.0
 13
0.0
 23
0.0
 33
0.0
 16
1.0
 26
0.0
 36
0.0
 17
0.0
 27
1.0
 37
0.0
 76
0
330
211
345
0
346
0
  0
ENDSEC
  0
EOF
