999
DXF file: C:\Users\sesa63760\Dev\_Creo\CAD\MCADID0001234_3D-CAD\drw0001_1.dxf
999
Pro/ENGINEER 2019471 by Parametric Technology Corporation
  0
SECTION
  2
HEADER
  9
$ACADVER
  1
AC1024
  9
$DWGCODEPAGE
  3
ANSI_1252
  9
$EXTMAX
 10
122.3468570106
 20
173.0334120579
 30
0.0
  9
$EXTMIN
 10
0.0
 20
0.0
 30
0.0
  9
$LIMMIN
 10
0.0
 20
0.0
  9
$LIMMAX
 10
122.3468570106
 20
173.0334120579
  9
$VIEWCTR
 10
61.1734285053
 20
86.5167060289
  9
$VIEWSIZE
 40
173.0334120579
  9
$CLAYER
  8
0
  9
$LTSCALE
 40
11.2792150082
  9
$CELTYPE
  6
BYLAYER
  9
$DIMSCALE
 40
1.0
  9
$DIMASZ
 40
1.4565102025
  9
$DIMEXO
 40
1.0
  9
$DIMDLI
 40
7.7929121875
  9
$DIMEXE
 40
1.0
  9
$DIMCEN
 40
1.8456897286
  9
$DIMLFAC
 40
1.0
  9
$DIMBLK
  1
_FILLED
  9
$DIMALT
 70
0
  9
$DIMALTF
 40
0.0393700787
  9
$DIMTXT
 40
2.0391142835
  9
$DIMTOL
 70
1
  9
$DIMLIM
 70
0
  9
$DIMTFAC
 40
1.0
  9
$DIMTP
 40
0.01
  9
$DIMTM
 40
0.01
  9
$DIMGAP
 40
0.625
  9
$DIMDSEP
 70
46
  9
$AUNITS
 70
0
  9
$PDMODE
 70
3
  9
$PDSIZE
 40
0.3125
  9
$HANDSEED
  5
337
  9
$TILEMODE
 70
1
  9
$MEASUREMENT
 70
1
  9
$INSUNITS
 70
4
  0
ENDSEC
  0
SECTION
  2
CLASSES
  0
CLASS
  1
ACDBDICTIONARYWDFLT
  2
AcDbDictionaryWithDefault
  3
AutoCAD 2000
 90
0
 91
1
280
0
281
0
  0
CLASS
  1
ACDBPLACEHOLDER
  2
AcDbPlaceHolder
  3
AutoCAD 2000
 90
0
 91
1
280
0
281
0
  0
CLASS
  1
LAYOUT
  2
AcDbLayout
  3
AutoCAD 2000
 90
0
 91
0
280
0
281
0
  0
ENDSEC
  0
SECTION
  2
TABLES
  0
TABLE
  2
VPORT
  5
8
100
AcDbSymbolTable
 70
2
  0
VPORT
  5
1F4
100
AcDbSymbolTableRecord
100
AcDbViewportTableRecord
  2
*ACTIVE
 70
0
 10
0.0
 20
0.0
 11
1.0
 21
1.0
 12
61.1734285053
 22
86.5167060289
 13
0.0
 23
0.0
 14
1.0
 24
1.0
 15
0.0
 25
0.0
 16
0.0
 26
0.0
 36
1.0
 17
0.0
 27
0.0
 37
0.0
 40
173.0334120579
 41
0.7070707071
 42
50.0
 43
0.0
 44
0.0
 50
0.0
 51
0.0
 71
0
 72
100
 73
1
 74
1
 75
0
 76
0
 77
0
 78
0
  0
ENDTAB
  0
TABLE
  2
LTYPE
  5
5
100
AcDbSymbolTable
 70
6
  0
LTYPE
  5
14
100
AcDbSymbolTableRecord
100
AcDbLinetypeTableRecord
  2
BYBLOCK
 70
0
  3

 72
65
 73
0
 40
0.0
  0
LTYPE
  5
15
100
AcDbSymbolTableRecord
100
AcDbLinetypeTableRecord
  2
BYLAYER
 70
0
  3

 72
65
 73
0
 40
0.0
  0
LTYPE
  5
16
100
AcDbSymbolTableRecord
100
AcDbLinetypeTableRecord
  2
CONTINUOUS
 70
64
  3
Solid line
 72
65
 73
0
 40
0.0
  0
LTYPE
  5
1F5
100
AcDbSymbolTableRecord
100
AcDbLinetypeTableRecord
  2
CENTER
 70
64
  3
____ _ ____ _ ____ _ ____ _ ____ _ ____ _ ____
 72
65
 73
4
 40
0.6
 49
0.375
 74
0
 49
-0.075
 74
0
 49
0.075
 74
0
 49
-0.075
 74
0
  0
LTYPE
  5
1F6
100
AcDbSymbolTableRecord
100
AcDbLinetypeTableRecord
  2
HIDDEN
 70
64
  3
- - - - - - - - - - - - - - - - - - - -
 72
65
 73
2
 40
0.2
 49
0.1
 74
0
 49
-0.1
 74
0
  0
LTYPE
  5
1F7
100
AcDbSymbolTableRecord
100
AcDbLinetypeTableRecord
  2
PHANTOM
 70
64
  3
_____ _ _ _____ _ _ _____ _ _ _____
 72
65
 73
6
 40
0.8
 49
0.45
 74
0
 49
-0.05
 74
0
 49
0.1
 74
0
 49
-0.05
 74
0
 49
0.1
 74
0
 49
-0.05
 74
0
  0
LTYPE
  5
1F8
100
AcDbSymbolTableRecord
100
AcDbLinetypeTableRecord
  2
DOT
 70
64
  3
. . . . . . . . . . . . . . . . . . . .
 72
65
 73
2
 40
0.2
 49
0.1
 74
0
 49
-0.1
 74
0
  0
LTYPE
  5
1F9
100
AcDbSymbolTableRecord
100
AcDbLinetypeTableRecord
  2
DASHED
 70
64
  3
- - - - - - - - - - - - - - - - - - - -
 72
65
 73
2
 40
0.2
 49
0.1
 74
0
 49
-0.1
 74
0
  0
ENDTAB
  0
TABLE
  2
LAYER
  5
2
100
AcDbSymbolTable
 70
36
  0
LAYER
  5
10
100
AcDbSymbolTableRecord
100
AcDbLayerTableRecord
  2
0
 70
0
 62
7
  6
CONTINUOUS
370
-3
390
F
  0
LAYER
  5
1FA
100
AcDbSymbolTableRecord
100
AcDbLayerTableRecord
  2
DEFAULT_1
 70
0
 62
7
  6
CENTER
370
-3
390
F
  0
LAYER
  5
1FB
100
AcDbSymbolTableRecord
100
AcDbLayerTableRecord
  2
DEFAULT_2
 70
0
 62
8
  6
HIDDEN
370
-3
390
F
  0
LAYER
  5
1FC
100
AcDbSymbolTableRecord
100
AcDbLayerTableRecord
  2
DEFAULT_3
 70
0
 62
7
  6
PHANTOM
370
-3
390
F
  0
LAYER
  5
1FD
100
AcDbSymbolTableRecord
100
AcDbLayerTableRecord
  2
00_COMPONENTS
 70
0
 62
7
  6
CONTINUOUS
370
-3
390
F
  0
LAYER
  5
1FE
100
AcDbSymbolTableRecord
100
AcDbLayerTableRecord
  2
01_1_DEFAULT_DATUMS
 70
0
 62
7
  6
CONTINUOUS
370
-3
390
F
  0
LAYER
  5
1FF
100
AcDbSymbolTableRecord
100
AcDbLayerTableRecord
  2
01_PLANES
 70
0
 62
7
  6
CONTINUOUS
370
-3
390
F
  0
LAYER
  5
200
100
AcDbSymbolTableRecord
100
AcDbLayerTableRecord
  2
02_COORD_SYS
 70
0
 62
7
  6
CONTINUOUS
370
-3
390
F
  0
LAYER
  5
201
100
AcDbSymbolTableRecord
100
AcDbLayerTableRecord
  2
03_AXES
 70
0
 62
7
  6
CONTINUOUS
370
-3
390
F
  0
LAYER
  5
202
100
AcDbSymbolTableRecord
100
AcDbLayerTableRecord
  2
04_POINTS
 70
0
 62
7
  6
CONTINUOUS
370
-3
390
F
  0
LAYER
  5
203
100
AcDbSymbolTableRecord
100
AcDbLayerTableRecord
  2
05_CURVES
 70
0
 62
7
  6
CONTINUOUS
370
-3
390
F
  0
LAYER
  5
204
100
AcDbSymbolTableRecord
100
AcDbLayerTableRecord
  2
06_SURFS
 70
0
 62
7
  6
CONTINUOUS
370
-3
390
F
  0
LAYER
  5
205
100
AcDbSymbolTableRecord
100
AcDbLayerTableRecord
  2
07_COSMETICS
 70
0
 62
7
  6
CONTINUOUS
370
-3
390
F
  0
LAYER
  5
206
100
AcDbSymbolTableRecord
100
AcDbLayerTableRecord
  2
10_NOTES
 70
0
 62
7
  6
CONTINUOUS
370
-3
390
F
  0
LAYER
  5
207
100
AcDbSymbolTableRecord
100
AcDbLayerTableRecord
  2
11_NOTES_PUB
 70
0
 62
7
  6
CONTINUOUS
370
-3
390
F
  0
LAYER
  5
208
100
AcDbSymbolTableRecord
100
AcDbLayerTableRecord
  2
13_REF_GTOL
 70
0
 62
7
  6
CONTINUOUS
370
-3
390
F
  0
LAYER
  5
209
100
AcDbSymbolTableRecord
100
AcDbLayerTableRecord
  2
16_MISC
 70
0
 62
7
  6
CONTINUOUS
370
-3
390
F
  0
LAYER
  5
20A
100
AcDbSymbolTableRecord
100
AcDbLayerTableRecord
  2
17_NO_PRINT
 70
0
 62
7
  6
CONTINUOUS
370
-3
390
F
  0
LAYER
  5
20B
100
AcDbSymbolTableRecord
100
AcDbLayerTableRecord
  2
18_DATUM_CAMS_JOINTS
 70
0
 62
7
  6
CONTINUOUS
370
-3
390
F
  0
LAYER
  5
20C
100
AcDbSymbolTableRecord
100
AcDbLayerTableRecord
  2
19_DATUM_FUNCTIONAL
 70
0
 62
7
  6
CONTINUOUS
370
-3
390
F
  0
LAYER
  5
20D
100
AcDbSymbolTableRecord
100
AcDbLayerTableRecord
  2
20_DATUM_KINEMATIC_SCHEME
 70
0
 62
7
  6
CONTINUOUS
370
-3
390
F
  0
ENDTAB
  0
TABLE
  2
STYLE
  5
3
100
AcDbSymbolTable
 70
1
  0
STYLE
  5
11
100
AcDbSymbolTableRecord
100
AcDbTextStyleTableRecord
  2
STANDARD
 70
0
 40
0.0
 41
0.8
 50
0.0
 71
0
 42
0.2
  3
txt
  4

  0
STYLE
  5
20E
100
AcDbSymbolTableRecord
100
AcDbTextStyleTableRecord
  2
TEXTSTYLE_1
 70
0
 40
0.0
 41
0.8
 50
0.0
 71
0
 42
0.2
  3
gdt
  4

  0
ENDTAB
  0
TABLE
  2
VIEW
  5
6
100
AcDbSymbolTable
 70
0
  0
ENDTAB
  0
TABLE
  2
UCS
  5
7
100
AcDbSymbolTable
 70
0
  0
ENDTAB
  0
TABLE
  2
APPID
  5
9
100
AcDbSymbolTable
 70
1
  0
APPID
  5
20F
100
AcDbSymbolTableRecord
100
AcDbRegAppTableRecord
  2
ACAD
 70
0
  0
ENDTAB
  0
TABLE
  2
BLOCK_RECORD
  5
1
100
AcDbSymbolTable
 70
0
  0
BLOCK_RECORD
  5
210
100
AcDbSymbolTableRecord
100
AcDbBlockTableRecord
  2
*Model_Space
  0
BLOCK_RECORD
  5
211
100
AcDbSymbolTableRecord
100
AcDbBlockTableRecord
  2
*Paper_Space
  0
BLOCK_RECORD
  5
212
100
AcDbSymbolTableRecord
100
AcDbBlockTableRecord
  2
_FILLED
  0
ENDTAB
  0
TABLE
  2
DIMSTYLE
  5
A
100
AcDbSymbolTable
 70
1
100
AcDbDimStyleTable
 71
0
  0
DIMSTYLE
105
213
100
AcDbSymbolTableRecord
100
AcDbDimStyleTableRecord
  2
STANDARD
 70
0
  3

  4

 40
1.0
 41
1.4565102025
 42
1.0
 43
0.38
 44
1.0
 45
0.0
 46
0.0
 47
0.01
 48
0.01
140
2.0391142835
141
0.09
142
0.0
143
25.4
144
1.0
145
0.0
146
1.0
147
0.625
 71
1
 72
0
 73
0
 74
0
 75
0
 76
0
 77
1
 78
8
 79
2
170
0
171
1
172
0
173
0
174
0
175
0
176
0
177
0
178
0
270
2
179
2
271
2
272
2
273
2
274
2
275
0
280
0
281
0
282
0
283
1
284
8
285
0
286
0
287
3
288
0
340
11
278
46
341
212
342
212
343
212
344
212
  0
ENDTAB
  0
ENDSEC
  0
SECTION
  2
BLOCKS
  0
BLOCK
  5
20
100
AcDbEntity
  8
0
100
AcDbBlockBegin
  2
*Model_Space
 70
0
 10
0.0
 20
0.0
 30
0.0
  3
*Model_Space
  1

  0
ENDBLK
  5
21
100
AcDbEntity
  8
0
100
AcDbBlockEnd
  0
BLOCK
  5
1C
100
AcDbEntity
  8
0
100
AcDbBlockBegin
  2
*Paper_Space
 70
0
 10
0.0
 20
0.0
 30
0.0
  3
*Paper_Space
  1

  0
ENDBLK
  5
1D
100
AcDbEntity
  8
0
100
AcDbBlockEnd
  0
BLOCK
  5
214
100
AcDbEntity
  8
0
100
AcDbBlockBegin
  2
_FILLED
 70
64
 10
0.0
 20
0.0
  3
_FILLED
  1

  0
SOLID
  5
215
100
AcDbEntity
  8
0
  6
BYBLOCK
 62
0
100
AcDbTrace
 10
0.0
 20
0.0
 11
-1.0
 21
0.25
 12
-1.0
 22
-0.25
 13
-1.0
 23
-0.25
  0
ENDBLK
  5
216
100
AcDbEntity
  8
0
  6
BYBLOCK
 62
0
100
AcDbBlockEnd
  0
ENDSEC
  0
SECTION
  2
ENTITIES
  0
LINE
  5
217
100
AcDbEntity
  8
0
100
AcDbLine
 62
7
  6
CONTINUOUS
 10
19.4057521691
 20
31.109232759
 11
35.3157121091
 21
21.9238209067
  0
LINE
  5
218
100
AcDbEntity
  8
0
100
AcDbLine
 62
7
  6
CONTINUOUS
 10
40.1172286423
 20
22.0265977143
 11
37.8054589838
 21
23.3612683546
  0
LINE
  5
219
100
AcDbEntity
  8
0
100
AcDbLine
 62
7
  6
CONTINUOUS
 10
14.1936430473
 20
37.3677050622
 11
30.1036029872
 21
28.1822932099
  0
LINE
  5
21A
100
AcDbEntity
  8
0
100
AcDbLine
 62
7
  6
CONTINUOUS
 10
19.4057521692
 20
31.1092327591
 11
14.1936430473
 21
37.3677050622
  0
LINE
  5
21B
100
AcDbEntity
  8
0
100
AcDbLine
 62
7
  6
CONTINUOUS
 10
38.5967653957
 20
23.8181265975
 11
40.1172286423
 21
22.0265977143
  0
LINE
  5
21C
100
AcDbEntity
  8
0
100
AcDbLine
 62
7
  6
CONTINUOUS
 10
30.1036029872
 20
28.1822932098
 11
35.3157121091
 21
21.9238209067
  0
LINE
  5
21D
100
AcDbEntity
  8
0
100
AcDbLine
 62
7
  6
CONTINUOUS
 10
14.1936430473
 20
100.0269753755
 11
14.1936430473
 21
37.3677050622
  0
LINE
  5
21E
100
AcDbEntity
  8
0
100
AcDbLine
 62
7
  6
CONTINUOUS
 10
14.1936430473
 20
100.0269753753
 11
19.4057521718
 21
112.3038369688
  0
LINE
  5
21F
100
AcDbEntity
  8
0
100
AcDbLine
 62
7
  6
CONTINUOUS
 10
55.6637813072
 20
31.0023505023
 11
53.3520116487
 21
32.3370211427
  0
LINE
  5
220
100
AcDbEntity
  8
0
100
AcDbLine
 62
7
  6
CONTINUOUS
 10
23.2062467409
 20
112.2925960295
 11
25.9829259889
 21
118.7705108795
  0
LINE
  5
221
100
AcDbEntity
  8
0
100
AcDbLine
 62
7
  6
CONTINUOUS
 10
87.3511237113
 20
151.5318813575
 11
85.2258221513
 21
150.3048452541
  0
LINE
  5
222
100
AcDbEntity
  8
0
100
AcDbLine
 62
7
  6
CONTINUOUS
 10
69.8841942525
 20
141.4474051287
 11
60.590753072
 21
136.0818663894
  0
LINE
  5
223
100
AcDbEntity
  8
0
100
AcDbLine
 62
7
  6
CONTINUOUS
 10
55.5555680747
 20
133.1748183286
 11
45.0442004071
 21
127.1061136014
  0
LINE
  5
224
100
AcDbEntity
  8
0
100
AcDbLine
 62
7
  6
CONTINUOUS
 10
40.0090154099
 20
124.1990655406
 11
29.4976477427
 21
118.1303608136
  0
LINE
  5
225
100
AcDbEntity
  8
0
100
AcDbLine
 62
7
  6
CONTINUOUS
 10
24.4624627446
 20
115.2233127523
 11
19.4057521714
 21
112.3038369686
  0
LINE
  5
226
100
AcDbEntity
  8
0
100
AcDbLine
 62
7
  6
CONTINUOUS
 10
69.8098163227
 20
140.3793017106
 11
61.9405720909
 21
135.8360185548
  0
LINE
  5
227
100
AcDbEntity
  8
0
100
AcDbLine
 62
7
  6
CONTINUOUS
 10
54.9716384358
 20
131.81252685
 11
46.3940194261
 21
126.8602657668
  0
LINE
  5
228
100
AcDbEntity
  8
0
100
AcDbLine
 62
7
  6
CONTINUOUS
 10
39.4250857709
 20
122.836774062
 11
30.8474667613
 21
117.8845129788
  0
LINE
  5
229
100
AcDbEntity
  8
0
100
AcDbLine
 62
7
  6
CONTINUOUS
 10
23.8785331061
 20
113.8610212741
 11
22.1840771985
 21
112.8827325393
  0
LINE
  5
22A
100
AcDbEntity
  8
0
100
AcDbLine
 62
7
  6
CONTINUOUS
 10
87.4310069765
 20
149.0317100039
 11
72.0893790777
 21
140.1742698785
  0
LINE
  5
22B
100
AcDbEntity
  8
0
100
AcDbLine
 62
7
  6
CONTINUOUS
 10
64.1913112542
 20
128.8852980951
 11
63.4533339987
 21
128.6078888262
  0
LINE
  5
22C
100
AcDbEntity
  8
0
100
AcDbLine
 62
7
  6
CONTINUOUS
 10
54.1433180605
 20
32.7938793855
 11
55.6637813072
 21
31.0023505023
  0
LINE
  5
22D
100
AcDbEntity
  8
0
100
AcDbLine
 62
7
  6
CONTINUOUS
 10
30.1036029872
 20
28.1822932099
 11
30.1036029872
 21
90.8415635232
  0
LINE
  5
22E
100
AcDbEntity
  8
0
100
AcDbLine
 62
7
  6
CONTINUOUS
 10
35.3550315201
 20
117.0635325203
 11
37.184655312
 21
121.3731195848
  0
LINE
  5
22F
100
AcDbEntity
  8
0
100
AcDbLine
 62
7
  6
CONTINUOUS
 10
38.6866307997
 20
121.1139793146
 11
41.5294786539
 21
127.7462636671
  0
LINE
  5
230
100
AcDbEntity
  8
0
100
AcDbLine
 62
7
  6
CONTINUOUS
 10
48.6511297111
 20
119.9132236541
 11
47.9131524557
 21
119.6358143851
  0
LINE
  5
231
100
AcDbEntity
  8
0
100
AcDbLine
 62
7
  6
CONTINUOUS
 10
67.7050049133
 20
126.8567120079
 11
66.9670276579
 21
126.579302739
  0
LINE
  5
232
100
AcDbEntity
  8
0
100
AcDbLine
 62
7
  6
CONTINUOUS
 10
33.1109481681
 20
110.941149213
 11
32.3729709127
 21
110.6637399441
  0
LINE
  5
233
100
AcDbEntity
  8
0
100
AcDbLine
 62
7
  6
CONTINUOUS
 10
52.1648233703
 20
117.8846375669
 11
51.4268461148
 21
117.6072282979
  0
LINE
  5
234
100
AcDbEntity
  8
0
100
AcDbLine
 62
7
  6
CONTINUOUS
 10
71.2103339721
 20
39.9781032904
 11
68.8985643136
 21
41.3127739307
  0
LINE
  5
235
100
AcDbEntity
  8
0
100
AcDbLine
 62
7
  6
CONTINUOUS
 10
35.3157121117
 20
103.1184251164
 11
30.1036029872
 21
90.841563523
  0
LINE
  5
236
100
AcDbEntity
  8
0
100
AcDbLine
 62
7
  6
CONTINUOUS
 10
40.1172286422
 20
110.6102520476
 11
38.0128357593
 21
105.700762442
  0
LINE
  5
237
100
AcDbEntity
  8
0
100
AcDbLine
 62
7
  6
CONTINUOUS
 10
98.9305972635
 20
142.3925686527
 11
83.5889693624
 21
133.535128526
  0
LINE
  5
238
100
AcDbEntity
  8
0
100
AcDbLine
 62
7
  6
CONTINUOUS
 10
83.944118976
 20
132.2190428786
 11
36.3183798518
 21
104.7224737073
  0
LINE
  5
239
100
AcDbEntity
  8
0
100
AcDbLine
 62
7
  6
CONTINUOUS
 10
35.3157121113
 20
103.1184251162
 11
85.7941541924
 21
132.2619932764
  0
LINE
  5
23A
100
AcDbEntity
  8
0
100
AcDbLine
 62
7
  6
CONTINUOUS
 10
101.1357820913
 20
141.1194334018
 11
103.2610836512
 21
142.3464695051
  0
LINE
  5
23B
100
AcDbEntity
  8
0
100
AcDbLine
 62
7
  6
CONTINUOUS
 10
36.6246418272
 20
108.9125631258
 11
35.8866645718
 21
108.6351538569
  0
LINE
  5
23C
100
AcDbEntity
  8
0
100
AcDbLine
 62
7
  6
CONTINUOUS
 10
26.0830154685
 20
110.7943067745
 11
25.3455835946
 21
114.7209121186
  0
LINE
  5
23D
100
AcDbEntity
  8
0
100
AcDbLine
 62
7
  6
CONTINUOUS
 10
25.9305832277
 20
114.6143638396
 11
26.5770769602
 21
111.1719770449
  0
LINE
  5
23E
100
AcDbEntity
  8
0
100
AcDbLine
 62
7
  6
CONTINUOUS
 10
26.0835608498
 20
114.9983213873
 11
26.7739062997
 21
111.322437243
  0
LINE
  5
23F
100
AcDbEntity
  8
0
100
AcDbLine
 62
7
  6
CONTINUOUS
 10
29.59739648
 20
108.7620607405
 11
28.8599272301
 21
112.688865101
  0
LINE
  5
240
100
AcDbEntity
  8
0
100
AcDbLine
 62
7
  6
CONTINUOUS
 10
29.4442768869
 20
112.5857777524
 11
30.0914579717
 21
109.1397310109
  0
LINE
  5
241
100
AcDbEntity
  8
0
100
AcDbLine
 62
7
  6
CONTINUOUS
 10
29.5976486874
 20
112.9676364183
 11
30.2882873114
 21
109.290191209
  0
LINE
  5
242
100
AcDbEntity
  8
0
100
AcDbLine
 62
7
  6
CONTINUOUS
 10
50.901584185
 20
126.0392853082
 11
52.7312079769
 21
130.3488723728
  0
LINE
  5
243
100
AcDbEntity
  8
0
100
AcDbLine
 62
7
  6
CONTINUOUS
 10
54.2331834646
 20
130.0897321026
 11
57.0760313187
 21
136.7220164552
  0
LINE
  5
244
100
AcDbEntity
  8
0
100
AcDbLine
 62
7
  6
CONTINUOUS
 10
98.155360429
 20
134.0991996795
 11
88.7745758523
 21
128.6832335078
  0
LINE
  5
245
100
AcDbEntity
  8
0
100
AcDbLine
 62
7
  6
CONTINUOUS
 10
69.6898707254
 20
41.7696321735
 11
71.2103339721
 21
39.9781032903
  0
LINE
  5
246
100
AcDbEntity
  8
0
100
AcDbLine
 62
7
  6
CONTINUOUS
 10
33.1089144129
 20
106.7450597482
 11
32.3715486308
 21
110.6713131733
  0
LINE
  5
247
100
AcDbEntity
  8
0
100
AcDbLine
 62
7
  6
CONTINUOUS
 10
32.9579705461
 20
110.5571916652
 11
33.6029759047
 21
107.1227300186
  0
LINE
  5
248
100
AcDbEntity
  8
0
100
AcDbLine
 62
7
  6
CONTINUOUS
 10
33.1101172967
 20
110.945573356
 11
33.7998052441
 21
107.2731902166
  0
LINE
  5
249
100
AcDbEntity
  8
0
100
AcDbLine
 62
7
  6
CONTINUOUS
 10
36.5918314327
 20
104.8803501087
 11
35.8859044694
 21
108.6392011762
  0
LINE
  5
24A
100
AcDbEntity
  8
0
100
AcDbLine
 62
7
  6
CONTINUOUS
 10
36.4716642052
 20
108.528605578
 11
37.1015528137
 21
105.1746361286
  0
LINE
  5
24B
100
AcDbEntity
  8
0
100
AcDbLine
 62
7
  6
CONTINUOUS
 10
36.6242149369
 20
108.9148361919
 11
37.3046209025
 21
105.2918768445
  0
LINE
  5
24C
100
AcDbEntity
  8
0
100
AcDbLine
 62
7
  6
CONTINUOUS
 10
55.6637813072
 20
119.5860048352
 11
53.5593884245
 21
114.6765152302
  0
LINE
  5
24D
100
AcDbEntity
  8
0
100
AcDbLine
 62
7
  6
CONTINUOUS
 10
66.4481368498
 20
135.0150380961
 11
68.277760642
 21
139.3246251612
  0
LINE
  5
24E
100
AcDbEntity
  8
0
100
AcDbLine
 62
7
  6
CONTINUOUS
 10
14.1936430473
 20
100.0269753755
 11
30.1036029872
 21
90.8415635232
  0
LINE
  5
24F
100
AcDbEntity
  8
0
100
AcDbLine
 62
7
  6
CONTINUOUS
 10
41.6269429084
 20
119.7464354292
 11
40.8857651376
 21
123.6929865596
  0
LINE
  5
250
100
AcDbEntity
  8
0
100
AcDbLine
 62
7
  6
CONTINUOUS
 10
41.4707647708
 20
123.5864382807
 11
42.1335514517
 21
120.0572963826
  0
LINE
  5
251
100
AcDbEntity
  8
0
100
AcDbLine
 62
7
  6
CONTINUOUS
 10
41.6237423928
 20
123.9703958284
 11
42.3130936501
 21
120.2998054637
  0
LINE
  5
252
100
AcDbEntity
  8
0
100
AcDbLine
 62
7
  6
CONTINUOUS
 10
45.1410695325
 20
117.7155439324
 11
44.4001087731
 21
121.660939542
  0
LINE
  5
253
100
AcDbEntity
  8
0
100
AcDbLine
 62
7
  6
CONTINUOUS
 10
44.9844584299
 20
121.5578521935
 11
45.6481460584
 21
118.0239130173
  0
LINE
  5
254
100
AcDbEntity
  8
0
100
AcDbLine
 62
7
  6
CONTINUOUS
 10
45.1378302304
 20
121.9397108594
 11
45.8276882571
 21
118.2664220986
  0
LINE
  5
255
100
AcDbEntity
  8
0
100
AcDbLine
 62
7
  6
CONTINUOUS
 10
71.2103339721
 20
128.5617576232
 11
69.1059410894
 21
123.6522680182
  0
LINE
  5
256
100
AcDbEntity
  8
0
100
AcDbLine
 62
7
  6
CONTINUOUS
 10
48.6533926963
 20
115.6942553252
 11
47.9117301738
 21
119.6433876144
  0
LINE
  5
257
100
AcDbEntity
  8
0
100
AcDbLine
 62
7
  6
CONTINUOUS
 10
48.4981520891
 20
119.5292661063
 11
49.1589878828
 21
116.010512102
  0
LINE
  5
258
100
AcDbEntity
  8
0
100
AcDbLine
 62
7
  6
CONTINUOUS
 10
48.6502988397
 20
119.917647797
 11
49.3385300813
 21
116.2530211831
  0
LINE
  5
259
100
AcDbEntity
  8
0
100
AcDbLine
 62
7
  6
CONTINUOUS
 10
52.1320129757
 20
113.8524245498
 11
51.4260860124
 21
117.6112756173
  0
LINE
  5
25A
100
AcDbEntity
  8
0
100
AcDbLine
 62
7
  6
CONTINUOUS
 10
83.7937950524
 20
146.9317772553
 11
85.2258221517
 21
150.3048452543
  0
LINE
  5
25B
100
AcDbEntity
  8
0
100
AcDbLine
 62
7
  6
CONTINUOUS
 10
107.7412052106
 20
117.7861706301
 11
106.3206841095
 21
116.9660372855
  0
LINE
  5
25C
100
AcDbEntity
  8
0
100
AcDbLine
 62
7
  6
CONTINUOUS
 10
104.5450327327
 20
61.8931492198
 11
102.3398479163
 21
63.166284465
  0
LINE
  5
25D
100
AcDbEntity
  8
0
100
AcDbLine
 62
7
  6
CONTINUOUS
 10
52.0118457482
 20
117.5006800191
 11
52.6417343567
 21
114.1467105696
  0
LINE
  5
25E
100
AcDbEntity
  8
0
100
AcDbLine
 62
7
  6
CONTINUOUS
 10
52.1643964799
 20
117.8869106329
 11
52.8448024455
 21
114.2639512855
  0
LINE
  5
25F
100
AcDbEntity
  8
0
100
AcDbLine
 62
7
  6
CONTINUOUS
 10
19.4057521714
 20
112.3038369686
 11
35.3157121113
 21
103.1184251162
  0
LINE
  5
260
100
AcDbEntity
  8
0
100
AcDbLine
 62
7
  6
CONTINUOUS
 10
36.3183798518
 20
104.7224737073
 11
22.1840771985
 21
112.8827325393
  0
LINE
  5
261
100
AcDbEntity
  8
0
100
AcDbLine
 62
7
  6
CONTINUOUS
 10
57.167604504
 20
128.7159537329
 11
56.4259466806
 21
132.6650610007
  0
LINE
  5
262
100
AcDbEntity
  8
0
100
AcDbLine
 62
7
  6
CONTINUOUS
 10
57.0109463138
 20
132.5585127217
 11
57.6750584469
 21
129.0223131848
  0
LINE
  5
263
100
AcDbEntity
  8
0
100
AcDbLine
 62
7
  6
CONTINUOUS
 10
57.1639239358
 20
132.9424702695
 11
57.85451894
 21
129.2652573227
  0
LINE
  5
264
100
AcDbEntity
  8
0
100
AcDbLine
 62
7
  6
CONTINUOUS
 10
60.6817311282
 20
126.6850622361
 11
59.9402903161
 21
130.6330139831
  0
LINE
  5
265
100
AcDbEntity
  8
0
100
AcDbLine
 62
7
  6
CONTINUOUS
 10
69.8098163227
 20
140.3793017106
 11
69.8098163227
 21
139.0602950663
  0
LINE
  5
266
100
AcDbEntity
  8
0
100
AcDbLine
 62
7
  6
CONTINUOUS
 10
103.2310507143
 20
110.7944580433
 11
106.3206841095
 21
113.2073195566
  0
LINE
  5
267
100
AcDbEntity
  8
0
100
AcDbLine
 62
7
  6
CONTINUOUS
 10
106.3206841095
 20
93.8239164488
 11
103.2310507143
 21
92.6691979129
  0
LINE
  5
268
100
AcDbEntity
  8
0
100
AcDbLine
 62
7
  6
CONTINUOUS
 10
40.1172286424
 20
110.6102520474
 11
25.982925989
 21
118.7705108793
  0
LINE
  5
269
100
AcDbEntity
  8
0
100
AcDbLine
 62
7
  6
CONTINUOUS
 10
60.5246399729
 20
130.5299266345
 11
61.1893462392
 21
126.9905635152
  0
LINE
  5
26A
100
AcDbEntity
  8
0
100
AcDbLine
 62
7
  6
CONTINUOUS
 10
60.6780117734
 20
130.9117853004
 11
61.3691145565
 21
127.2318685822
  0
LINE
  5
26B
100
AcDbEntity
  8
0
100
AcDbLine
 62
7
  6
CONTINUOUS
 10
64.1940542919
 20
124.6637736289
 11
63.4519117168
 21
128.6154620554
  0
LINE
  5
26C
100
AcDbEntity
  8
0
100
AcDbLine
 62
7
  6
CONTINUOUS
 10
64.0383336321
 20
128.5013405474
 11
64.7004926921
 21
124.9755405441
  0
LINE
  5
26D
100
AcDbEntity
  8
0
100
AcDbLine
 62
7
  6
CONTINUOUS
 10
64.1904803827
 20
128.8897222381
 11
64.8799531852
 21
125.218484682
  0
LINE
  5
26E
100
AcDbEntity
  8
0
100
AcDbLine
 62
7
  6
CONTINUOUS
 10
101.1357820916
 20
141.1194334019
 11
98.155360429
 21
134.0991996795
  0
LINE
  5
26F
100
AcDbEntity
  8
0
100
AcDbLine
 62
7
  6
CONTINUOUS
 10
107.7412052106
 20
117.7861706301
 11
109.2715680794
 21
119.4937474025
  0
LINE
  5
270
100
AcDbEntity
  8
0
100
AcDbLine
 62
7
  6
CONTINUOUS
 10
35.35503152
 20
117.06353252
 11
46.5245329294
 21
110.6149637606
  0
LINE
  5
271
100
AcDbEntity
  8
0
100
AcDbLine
 62
7
  6
CONTINUOUS
 10
101.5646108104
 20
65.4719092987
 11
104.5450327327
 21
61.8931492198
  0
LINE
  5
272
100
AcDbEntity
  8
0
100
AcDbLine
 62
7
  6
CONTINUOUS
 10
67.6721945187
 20
122.8244989908
 11
66.9662675554
 21
126.5833500583
  0
LINE
  5
273
100
AcDbEntity
  8
0
100
AcDbLine
 62
7
  6
CONTINUOUS
 10
67.5520272912
 20
126.4727544602
 11
68.1819158997
 21
123.1187850107
  0
LINE
  5
274
100
AcDbEntity
  8
0
100
AcDbLine
 62
7
  6
CONTINUOUS
 10
67.7045780229
 20
126.858985074
 11
68.3849839885
 21
123.2360257266
  0
LINE
  5
275
100
AcDbEntity
  8
0
100
AcDbLine
 62
7
  6
CONTINUOUS
 10
40.1172286423
 20
22.0265977143
 11
43.6319504016
 21
26.7251746633
  0
LINE
  5
276
100
AcDbEntity
  8
0
100
AcDbLine
 62
7
  6
CONTINUOUS
 10
107.8347079448
 20
92.3538669651
 11
108.844997405
 21
92.9371543752
  0
LINE
  5
277
100
AcDbEntity
  8
0
100
AcDbLine
 62
7
  6
CONTINUOUS
 10
36.4716642059
 20
108.5286055778
 11
35.8866645724
 21
108.6351538568
  0
LINE
  5
278
100
AcDbEntity
  8
0
100
AcDbLine
 62
7
  6
CONTINUOUS
 10
32.9579705467
 20
110.5571916649
 11
32.372970913
 21
110.6637399439
  0
LINE
  5
279
100
AcDbEntity
  8
0
100
AcDbLine
 62
7
  6
CONTINUOUS
 10
44.9817694145
 20
109.7242541468
 11
40.1172286422
 21
110.6102520476
  0
LINE
  5
27A
100
AcDbEntity
  8
0
100
AcDbLine
 62
7
  6
CONTINUOUS
 10
29.4442768875
 20
112.5857777521
 11
28.8592772538
 21
112.6923260311
  0
LINE
  5
27B
100
AcDbEntity
  8
0
100
AcDbLine
 62
7
  6
CONTINUOUS
 10
25.9305832283
 20
114.6143638398
 11
25.3455835947
 21
114.7209121188
  0
LINE
  5
27C
100
AcDbEntity
  8
0
100
AcDbLine
 62
7
  6
CONTINUOUS
 10
110.053519892
 20
90.7639904311
 11
106.3206841095
 21
92.0157623654
  0
LINE
  5
27D
100
AcDbEntity
  8
0
100
AcDbLine
 62
7
  6
CONTINUOUS
 10
37.1846553135
 20
121.3731195847
 11
51.1716024425
 21
113.2979345797
  0
LINE
  5
27E
100
AcDbEntity
  8
0
100
AcDbLine
 62
7
  6
CONTINUOUS
 10
38.6866308
 20
121.1139793147
 11
51.697376131
 21
113.6014883484
  0
LINE
  5
27F
100
AcDbEntity
  8
0
100
AcDbLine
 62
7
  6
CONTINUOUS
 10
25.9829259889
 20
118.7705108795
 11
35.3550315201
 21
117.0635325203
  0
LINE
  5
280
100
AcDbEntity
  8
0
100
AcDbLine
 62
7
  6
CONTINUOUS
 10
55.6637813073
 20
119.5860048353
 11
41.529478654
 21
127.7462636673
  0
LINE
  5
281
100
AcDbEntity
  8
0
100
AcDbLine
 62
7
  6
CONTINUOUS
 10
106.3206841095
 20
92.9190954196
 11
110.053519892
 21
90.7639904307
  0
LINE
  5
282
100
AcDbEntity
  8
0
100
AcDbLine
 62
7
  6
CONTINUOUS
 10
98.9305972635
 20
142.3925686535
 11
98.155360429
 21
134.09919968
  0
LINE
  5
283
100
AcDbEntity
  8
0
100
AcDbLine
 62
7
  6
CONTINUOUS
 10
55.6637813072
 20
31.0023505023
 11
59.1785030665
 21
35.7009274513
  0
LINE
  5
284
100
AcDbEntity
  8
0
100
AcDbLine
 62
7
  6
CONTINUOUS
 10
37.184655312
 20
121.3731195848
 11
38.6866307997
 21
121.1139793146
  0
LINE
  5
285
100
AcDbEntity
  8
0
100
AcDbLine
 62
7
  6
CONTINUOUS
 10
52.0118457489
 20
117.5006800188
 11
51.4268461154
 21
117.6072282978
  0
LINE
  5
286
100
AcDbEntity
  8
0
100
AcDbLine
 62
7
  6
CONTINUOUS
 10
48.4981520897
 20
119.529266106
 11
47.913152456
 21
119.635814385
  0
LINE
  5
287
100
AcDbEntity
  8
0
100
AcDbLine
 62
7
  6
CONTINUOUS
 10
60.5283220788
 20
118.7000069345
 11
55.6637813072
 21
119.5860048352
  0
LINE
  5
288
100
AcDbEntity
  8
0
100
AcDbLine
 62
7
  6
CONTINUOUS
 10
44.9844584305
 20
121.5578521932
 11
44.3994587968
 21
121.6644004722
  0
LINE
  5
289
100
AcDbEntity
  8
0
100
AcDbLine
 62
7
  6
CONTINUOUS
 10
41.4707647713
 20
123.5864382807
 11
40.8857651377
 21
123.6929865597
  0
LINE
  5
28A
100
AcDbEntity
  8
0
100
AcDbLine
 62
7
  6
CONTINUOUS
 10
107.8347079448
 20
92.3538669651
 11
106.3206841095
 21
93.2279692592
  0
LINE
  5
28B
100
AcDbEntity
  8
0
100
AcDbLine
 62
7
  6
CONTINUOUS
 10
103.2310507143
 20
95.6076767673
 11
106.3206841095
 21
93.823916449
  0
LINE
  5
28C
100
AcDbEntity
  8
0
100
AcDbLine
 62
7
  6
CONTINUOUS
 10
50.9015841849
 20
126.039285308
 11
62.0710855944
 21
119.5907165486
  0
LINE
  5
28D
100
AcDbEntity
  8
0
100
AcDbLine
 62
7
  6
CONTINUOUS
 10
108.844997405
 20
92.9371543752
 11
103.2310507143
 21
96.1782946838
  0
LINE
  5
28E
100
AcDbEntity
  8
0
100
AcDbLine
 62
7
  6
CONTINUOUS
 10
101.56461081
 20
65.4719092992
 11
102.3398479159
 21
63.1662844653
  0
LINE
  5
28F
100
AcDbEntity
  8
0
100
AcDbLine
 62
7
  6
CONTINUOUS
 10
85.7941541923
 20
51.0673890681
 11
88.7745761146
 21
58.0876234025
  0
LINE
  5
290
100
AcDbEntity
  8
0
100
AcDbLine
 62
7
  6
CONTINUOUS
 10
71.2103339721
 20
39.9781032903
 11
74.7250557314
 21
44.6766802394
  0
LINE
  5
291
100
AcDbEntity
  8
0
100
AcDbLine
 62
7
  6
CONTINUOUS
 10
101.5646108104
 20
65.4719092986
 11
88.7745761148
 21
58.0876234024
  0
LINE
  5
292
100
AcDbEntity
  8
0
100
AcDbLine
 62
7
  6
CONTINUOUS
 10
41.5294786539
 20
127.7462636671
 11
50.901584185
 21
126.0392853082
  0
LINE
  5
293
100
AcDbEntity
  8
0
100
AcDbLine
 62
7
  6
CONTINUOUS
 10
52.7312079784
 20
130.3488723728
 11
66.7181551074
 21
122.2736873678
  0
LINE
  5
294
100
AcDbEntity
  8
0
100
AcDbLine
 62
7
  6
CONTINUOUS
 10
54.2331834646
 20
130.0897321028
 11
67.2431462599
 21
122.5767893417
  0
LINE
  5
295
100
AcDbEntity
  8
0
100
AcDbLine
 62
7
  6
CONTINUOUS
 10
103.2310507143
 20
110.7944580435
 11
103.2310507143
 21
92.6691979127
  0
LINE
  5
296
100
AcDbEntity
  8
0
100
AcDbLine
 62
7
  6
CONTINUOUS
 10
102.3398479163
 20
63.166284465
 11
87.2261812859
 21
54.4404570537
  0
LINE
  5
297
100
AcDbEntity
  8
0
100
AcDbLine
 62
7
  6
CONTINUOUS
 10
105.9836300664
 20
62.7237188199
 11
104.5450327327
 21
61.8931492198
  0
LINE
  5
298
100
AcDbEntity
  8
0
100
AcDbLine
 62
7
  6
CONTINUOUS
 10
85.7941541923
 20
51.0673890681
 11
35.3157121091
 21
21.9238209067
  0
LINE
  5
299
100
AcDbEntity
  8
0
100
AcDbLine
 62
7
  6
CONTINUOUS
 10
52.7312079769
 20
130.3488723728
 11
54.2331834646
 21
130.0897321026
  0
LINE
  5
29A
100
AcDbEntity
  8
0
100
AcDbLine
 62
7
  6
CONTINUOUS
 10
67.552027292
 20
126.4727544599
 11
66.9670276584
 21
126.5793027389
  0
LINE
  5
29B
100
AcDbEntity
  8
0
100
AcDbLine
 62
7
  6
CONTINUOUS
 10
64.0383336327
 20
128.5013405471
 11
63.453333999
 21
128.6078888261
  0
LINE
  5
29C
100
AcDbEntity
  8
0
100
AcDbLine
 62
7
  6
CONTINUOUS
 10
76.0748747437
 20
127.6757597225
 11
71.2103339721
 21
128.5617576232
  0
LINE
  5
29D
100
AcDbEntity
  8
0
100
AcDbLine
 62
7
  6
CONTINUOUS
 10
60.5246399735
 20
130.5299266342
 11
59.9396403398
 21
130.6364749132
  0
LINE
  5
29E
100
AcDbEntity
  8
0
100
AcDbLine
 62
7
  6
CONTINUOUS
 10
71.2103339719
 20
128.5617576234
 11
57.0760313186
 21
136.7220164554
  0
LINE
  5
29F
100
AcDbEntity
  8
0
100
AcDbLine
 62
7
  6
CONTINUOUS
 10
106.3206841095
 20
116.9660372855
 11
106.3206841095
 21
113.2073195564
  0
LINE
  5
2A0
100
AcDbEntity
  8
0
100
AcDbLine
 62
7
  6
CONTINUOUS
 10
106.3206841095
 20
93.823916449
 11
106.3206841095
 21
92.015762365
  0
LINE
  5
2A1
100
AcDbEntity
  8
0
100
AcDbLine
 62
7
  6
CONTINUOUS
 10
107.8347079448
 20
92.0449931255
 11
107.8347079448
 21
92.3538669651
  0
LINE
  5
2A2
100
AcDbEntity
  8
0
100
AcDbLine
 62
7
  6
CONTINUOUS
 10
108.844997405
 20
91.4617154292
 11
108.844997405
 21
92.9371543752
  0
LINE
  5
2A3
100
AcDbEntity
  8
0
100
AcDbLine
 62
7
  6
CONTINUOUS
 10
110.053519892
 20
90.7639904307
 11
110.053519892
 21
71.9910930626
  0
LINE
  5
2A4
100
AcDbEntity
  8
0
100
AcDbLine
 62
7
  6
CONTINUOUS
 10
57.0109463143
 20
132.5585127217
 11
56.4259466807
 21
132.6650610007
  0
LINE
  5
2A5
100
AcDbEntity
  8
0
100
AcDbLine
 62
7
  6
CONTINUOUS
 10
57.0760313187
 20
136.7220164552
 11
66.4481368498
 21
135.0150380961
  0
LINE
  5
2A6
100
AcDbEntity
  8
0
100
AcDbLine
 62
7
  6
CONTINUOUS
 10
66.4481368498
 20
135.015038096
 11
77.6176382592
 21
128.5664693367
  0
LINE
  5
2A7
100
AcDbEntity
  8
0
100
AcDbLine
 62
7
  6
CONTINUOUS
 10
68.2777606419
 20
139.3246251609
 11
82.2647077718
 21
131.2494401555
  0
LINE
  5
2A8
100
AcDbEntity
  8
0
100
AcDbLine
 62
7
  6
CONTINUOUS
 10
88.7745758523
 20
128.6832335078
 11
85.7941541897
 21
132.2619932748
  0
LINE
  5
2A9
100
AcDbEntity
  8
0
100
AcDbLine
 62
7
  6
CONTINUOUS
 10
105.9836300663
 20
62.7237188198
 11
110.053519892
 21
71.9910930626
  0
LINE
  5
2AA
100
AcDbEntity
  8
0
100
AcDbLine
 62
7
  6
CONTINUOUS
 10
68.277760642
 20
139.3246251612
 11
69.8098163227
 21
139.0602950663
  0
LINE
  5
2AB
100
AcDbEntity
  8
0
100
AcDbLine
 62
7
  6
CONTINUOUS
 10
69.8098163227
 20
139.0602950663
 11
82.8018093841
 21
131.5595340649
  0
LINE
  5
2AC
100
AcDbEntity
  8
0
100
AcDbLine
 62
7
  6
CONTINUOUS
 10
83.944118976
 20
132.2190428786
 11
69.8098163227
 21
140.3793017106
  0
LINE
  5
2AD
100
AcDbEntity
  8
0
100
AcDbLine
 62
7
  6
CONTINUOUS
 10
85.7941541924
 20
132.2619932764
 11
83.5889693661
 21
133.5351285273
  0
LINE
  5
2AE
100
AcDbEntity
  8
0
100
AcDbLine
 62
7
  6
CONTINUOUS
 10
72.0893790777
 20
140.1742698785
 11
69.8841942525
 21
141.4474051287
  0
LINE
  5
2AF
100
AcDbEntity
  8
0
100
AcDbLine
 62
7
  6
CONTINUOUS
 10
101.1357820912
 20
141.1194334018
 11
98.9305972635
 21
142.3925686535
  0
LINE
  5
2B0
100
AcDbEntity
  8
0
100
AcDbLine
 62
7
  6
CONTINUOUS
 10
87.4310069785
 20
149.0317100027
 11
85.2258221513
 21
150.3048452541
  0
LINE
  5
2B1
100
AcDbEntity
  8
0
100
AcDbLine
 62
7
  6
CONTINUOUS
 10
87.3511237113
 20
151.5318813575
 11
103.2610836512
 21
142.3464695051
  0
ARC
  5
2B2
100
AcDbEntity
  8
0
100
AcDbCircle
 62
7
  6
CONTINUOUS
 10
26.9347319104
 20
113.1220828416
 40
1.798670941
100
AcDbArc
 50
116.4596723179
 51
123.9364197348
  0
ARC
  5
2B3
100
AcDbEntity
  8
0
100
AcDbCircle
 62
7
  6
CONTINUOUS
 10
30.448425568
 20
111.093496757
 40
1.798670938
100
AcDbArc
 50
116.4596723043
 51
123.9364197407
  0
ARC
  5
2B4
100
AcDbEntity
  8
0
100
AcDbCircle
 62
7
  6
CONTINUOUS
 10
33.962119227
 20
109.0649106701
 40
1.7986709377
100
AcDbArc
 50
116.4596723103
 51
123.9364197405
  0
ARC
  5
2B5
100
AcDbEntity
  8
0
100
AcDbCircle
 62
7
  6
CONTINUOUS
 10
37.4758128861
 20
107.036324583
 40
1.7986709376
100
AcDbArc
 50
116.4596722972
 51
123.9364197407
  0
ARC
  5
2B6
100
AcDbEntity
  8
0
100
AcDbCircle
 62
7
  6
CONTINUOUS
 10
33.2606189623
 20
109.4989204463
 40
1.454460516
100
AcDbArc
 50
86.5347390091
 51
95.9393659038
  0
ARC
  5
2B7
100
AcDbEntity
  8
0
100
AcDbCircle
 62
7
  6
CONTINUOUS
 10
36.7777033137
 20
107.4693268327
 40
1.4536354389
100
AcDbArc
 50
86.5293466418
 51
96.0611208299
  0
ARC
  5
2B8
100
AcDbEntity
  8
0
100
AcDbCircle
 62
7
  6
CONTINUOUS
 10
29.7562939311
 20
111.5298571026
 40
1.4465053315
100
AcDbArc
 50
86.447509508
 51
96.2965719845
  0
ARC
  5
2B9
100
AcDbEntity
  8
0
100
AcDbCircle
 62
7
  6
CONTINUOUS
 10
26.2394754143
 20
113.5607522743
 40
1.4459994143
100
AcDbArc
 50
86.4582943459
 51
96.1899386268
  0
ARC
  5
2BA
100
AcDbEntity
  8
0
100
AcDbCircle
 62
7
  6
CONTINUOUS
 10
25.8336974373
 20
113.6601769891
 40
1.4207138756
100
AcDbArc
 50
70.2481449258
 51
79.6690007147
  0
ARC
  5
2BB
100
AcDbEntity
  8
0
100
AcDbCircle
 62
7
  6
CONTINUOUS
 10
29.3505104192
 20
111.6297900008
 40
1.4207138755
100
AcDbArc
 50
70.2481449258
 51
79.6690007147
  0
ARC
  5
2BC
100
AcDbEntity
  8
0
100
AcDbCircle
 62
7
  6
CONTINUOUS
 10
32.85433026
 20
109.6069044362
 40
1.4207138755
100
AcDbArc
 50
70.2481449258
 51
79.6690007147
  0
ARC
  5
2BD
100
AcDbEntity
  8
0
100
AcDbCircle
 62
7
  6
CONTINUOUS
 10
36.371143242
 20
107.5765174479
 40
1.4207138755
100
AcDbArc
 50
70.2481449258
 51
79.6690007147
  0
ARC
  5
2BE
100
AcDbEntity
  8
0
100
AcDbCircle
 62
7
  6
CONTINUOUS
 10
45.4923253602
 20
119.4343044492
 40
2.0944803516
100
AcDbArc
 50
205.3323413732
 51
207.0055972725
  0
ARC
  5
2BF
100
AcDbEntity
  8
0
100
AcDbCircle
 62
7
  6
CONTINUOUS
 10
40.8749709905
 20
121.6023062505
 40
1.9957807411
100
AcDbArc
 50
308.8303735367
 51
309.3472512942
  0
ARC
  5
2C0
100
AcDbEntity
  8
0
100
AcDbCircle
 62
7
  6
CONTINUOUS
 10
42.4749134529
 20
122.0941572836
 40
1.7986709398
100
AcDbArc
 50
116.4596723157
 51
123.9364197374
  0
ARC
  5
2C1
100
AcDbEntity
  8
0
100
AcDbCircle
 62
7
  6
CONTINUOUS
 10
45.9886071111
 20
120.065571198
 40
1.798670938
100
AcDbArc
 50
116.4596723044
 51
123.9364197407
  0
ARC
  5
2C2
100
AcDbEntity
  8
0
100
AcDbCircle
 62
7
  6
CONTINUOUS
 10
45.2964665637
 20
120.5020075648
 40
1.4464287916
100
AcDbArc
 50
86.3185178287
 51
96.2965514229
  0
ARC
  5
2C3
100
AcDbEntity
  8
0
100
AcDbCircle
 62
7
  6
CONTINUOUS
 10
41.7796483545
 20
122.5329005512
 40
1.4459250813
100
AcDbArc
 50
86.3290365032
 51
96.1899151975
  0
ARC
  5
2C4
100
AcDbEntity
  8
0
100
AcDbCircle
 62
7
  6
CONTINUOUS
 10
41.378326229
 20
122.6314414349
 40
1.4207138755
100
AcDbArc
 50
70.2481449257
 51
79.6690007113
  0
ARC
  5
2C5
100
AcDbEntity
  8
0
100
AcDbCircle
 62
7
  6
CONTINUOUS
 10
44.8961065649
 20
120.6048089713
 40
1.416846766
100
AcDbArc
 50
70.2481449258
 51
80.3534564735
  0
ARC
  5
2C6
100
AcDbEntity
  8
0
100
AcDbCircle
 62
7
  6
CONTINUOUS
 10
47.894247175
 20
117.5507072289
 40
1.9979350664
100
AcDbArc
 50
308.8305885215
 51
309.5068404474
  0
ARC
  5
2C7
100
AcDbEntity
  8
0
100
AcDbCircle
 62
7
  6
CONTINUOUS
 10
53.0159944291
 20
116.008399024
 40
1.7986709376
100
AcDbArc
 50
116.4596722973
 51
123.9364197407
  0
ARC
  5
2C8
100
AcDbEntity
  8
0
100
AcDbCircle
 62
7
  6
CONTINUOUS
 10
49.5023007701
 20
118.0369851111
 40
1.7986709377
100
AcDbArc
 50
116.4596723103
 51
123.9364197405
  0
ARC
  5
2C9
100
AcDbEntity
  8
0
100
AcDbCircle
 62
7
  6
CONTINUOUS
 10
48.8007872113
 20
118.4711764788
 40
1.4542785237
100
AcDbArc
 50
86.405500617
 51
95.9395852599
  0
ARC
  5
2CA
100
AcDbEntity
  8
0
100
AcDbCircle
 62
7
  6
CONTINUOUS
 10
52.3178712474
 20
116.441581866
 40
1.4534544192
100
AcDbArc
 50
86.4002987447
 51
96.0613390375
  0
ARC
  5
2CB
100
AcDbEntity
  8
0
100
AcDbCircle
 62
7
  6
CONTINUOUS
 10
51.9157720337
 20
116.5477818937
 40
1.4207138756
100
AcDbArc
 50
70.2481449258
 51
79.6690007113
  0
ARC
  5
2CC
100
AcDbEntity
  8
0
100
AcDbCircle
 62
7
  6
CONTINUOUS
 10
48.3989590518
 20
118.5781688821
 40
1.4207138756
100
AcDbArc
 50
70.2481449258
 51
79.6690007113
  0
ARC
  5
2CD
100
AcDbEntity
  8
0
100
AcDbCircle
 62
7
  6
CONTINUOUS
 10
61.0352416402
 20
128.4077369938
 40
2.0975335834
100
AcDbArc
 50
205.1209875371
 51
207.0047296222
  0
ARC
  5
2CE
100
AcDbEntity
  8
0
100
AcDbCircle
 62
7
  6
CONTINUOUS
 10
63.4383911059
 20
126.5225896921
 40
1.9987207069
100
AcDbArc
 50
308.9679166183
 51
309.4606149025
  0
ARC
  5
2CF
100
AcDbEntity
  8
0
100
AcDbCircle
 62
7
  6
CONTINUOUS
 10
58.0150949959
 20
131.0662317247
 40
1.7986709398
100
AcDbArc
 50
116.4596723157
 51
123.9364197374
  0
ARC
  5
2D0
100
AcDbEntity
  8
0
100
AcDbCircle
 62
7
  6
CONTINUOUS
 10
61.5287886541
 20
129.0376456391
 40
1.798670938
100
AcDbArc
 50
116.4596723044
 51
123.9364197407
  0
ARC
  5
2D1
100
AcDbEntity
  8
0
100
AcDbCircle
 62
7
  6
CONTINUOUS
 10
68.5561759721
 20
124.9804734651
 40
1.7986709376
100
AcDbArc
 50
116.4596722972
 51
123.9364197407
  0
ARC
  5
2D2
100
AcDbEntity
  8
0
100
AcDbCircle
 62
7
  6
CONTINUOUS
 10
65.0424823131
 20
127.0090595522
 40
1.7986709377
100
AcDbArc
 50
116.4596723103
 51
123.9364197405
  0
ARC
  5
2D3
100
AcDbEntity
  8
0
100
AcDbCircle
 62
7
  6
CONTINUOUS
 10
64.3409555028
 20
127.4434318743
 40
1.4540971694
100
AcDbArc
 50
86.2762553502
 51
95.9398037419
  0
ARC
  5
2D4
100
AcDbEntity
  8
0
100
AcDbCircle
 62
7
  6
CONTINUOUS
 10
67.8580392224
 20
125.413836262
 40
1.4532740376
100
AcDbArc
 50
86.2712445167
 51
96.0615562654
  0
ARC
  5
2D5
100
AcDbEntity
  8
0
100
AcDbCircle
 62
7
  6
CONTINUOUS
 10
60.8366391581
 20
129.47415737
 40
1.4463529007
100
AcDbArc
 50
86.1895361258
 51
96.2965264996
  0
ARC
  5
2D6
100
AcDbEntity
  8
0
100
AcDbCircle
 62
7
  6
CONTINUOUS
 10
57.3198212555
 20
131.5050481661
 40
1.4458514023
100
AcDbArc
 50
86.1997886383
 51
96.1898873879
  0
ARC
  5
2D7
100
AcDbEntity
  8
0
100
AcDbCircle
 62
7
  6
CONTINUOUS
 10
67.4604008255
 20
125.5190463404
 40
1.4207138756
100
AcDbArc
 50
70.2481449258
 51
79.6690007153
  0
ARC
  5
2D8
100
AcDbEntity
  8
0
100
AcDbCircle
 62
7
  6
CONTINUOUS
 10
63.9435878435
 20
127.5494333287
 40
1.4207138755
100
AcDbArc
 50
70.2481449258
 51
79.6690007154
  0
ARC
  5
2D9
100
AcDbEntity
  8
0
100
AcDbCircle
 62
7
  6
CONTINUOUS
 10
60.4407293228
 20
129.576039184
 40
1.416881527
100
AcDbArc
 50
70.2481449257
 51
80.524038267
  0
ARC
  5
2DA
100
AcDbEntity
  8
0
100
AcDbCircle
 62
7
  6
CONTINUOUS
 10
56.9239201988
 20
131.606448094
 40
1.4168592689
100
AcDbArc
 50
70.2481449258
 51
80.4166947564
  0
SPLINE
  5
2DB
100
AcDbEntity
  8
0
100
AcDbSpline
 62
7
  6
CONTINUOUS
 70
0
 71
3
 72
11
 73
7
 74
0
 42
0.0000001
 43
0.0000001
 44
0.0000000001
 40
0.0
 40
0.0
 40
0.0
 40
0.0
 40
0.2728369507
 40
0.5299766551
 40
0.7719173801
 40
1.0
 40
1.0
 40
1.0
 40
1.0
 10
109.2715680794
 20
119.4937474025
 30
0.0
 10
109.182722206
 20
121.6610385335
 30
0.0
 10
108.8141160154
 20
125.8666707397
 30
0.0
 10
107.6238805241
 20
131.9004071983
 30
0.0
 10
105.8233462045
 20
137.4097288927
 30
0.0
 10
104.1807346518
 20
140.7836780182
 30
0.0
 10
103.2610836513
 20
142.3464695052
 30
0.0
  0
SPLINE
  5
2DC
100
AcDbEntity
  8
0
100
AcDbSpline
 62
7
  6
CONTINUOUS
 70
0
 71
3
 72
13
 73
9
 74
0
 42
0.0000001
 43
0.0000001
 44
0.0000000001
 40
0.0
 40
0.0
 40
0.0
 40
0.0
 40
0.109905793
 40
0.2238266097
 40
0.3431781936
 40
0.4682852858
 40
0.7310792535
 40
1.0
 40
1.0
 40
1.0
 40
1.0
 10
26.3138236999
 20
114.9973032688
 30
0.0
 10
26.4343431972
 20
114.9540167171
 30
0.0
 10
26.6688096249
 20
114.8319852273
 30
0.0
 10
26.9685051829
 20
114.5616995989
 30
0.0
 10
27.2082952329
 20
114.215597992
 30
0.0
 10
27.4378105756
 20
113.6670379902
 30
0.0
 10
27.522396002
 20
112.8888839656
 30
0.0
 10
27.3775156582
 20
112.2724460052
 30
0.0
 10
27.2540710334
 20
111.9844531558
 30
0.0
  0
SPLINE
  5
2DD
100
AcDbEntity
  8
0
100
AcDbSpline
 62
7
  6
CONTINUOUS
 70
0
 71
3
 72
13
 73
9
 74
0
 42
0.0000001
 43
0.0000001
 44
0.0000000001
 40
0.0
 40
0.0
 40
0.0
 40
0.0
 40
0.109905793
 40
0.2238266097
 40
0.3431781936
 40
0.4682852858
 40
0.7310792535
 40
1.0
 40
1.0
 40
1.0
 40
1.0
 10
29.8306366818
 20
112.9669162805
 30
0.0
 10
29.9511561791
 20
112.9236297288
 30
0.0
 10
30.1856226068
 20
112.801598239
 30
0.0
 10
30.4853181648
 20
112.5313126106
 30
0.0
 10
30.7251082148
 20
112.1852110037
 30
0.0
 10
30.9546235575
 20
111.6366510019
 30
0.0
 10
31.0392089839
 20
110.8584969773
 30
0.0
 10
30.8943286401
 20
110.2420590169
 30
0.0
 10
30.7708840153
 20
109.9540661676
 30
0.0
  0
SPLINE
  5
2DE
100
AcDbEntity
  8
0
100
AcDbSpline
 62
7
  6
CONTINUOUS
 70
0
 71
3
 72
13
 73
9
 74
0
 42
0.0000001
 43
0.0000001
 44
0.0000000001
 40
0.0
 40
0.0
 40
0.0
 40
0.0
 40
0.109905793
 40
0.2238266097
 40
0.3431781936
 40
0.4682852858
 40
0.7310792535
 40
1.0
 40
1.0
 40
1.0
 40
1.0
 10
33.3344565226
 20
110.944030716
 30
0.0
 10
33.45497602
 20
110.9007441643
 30
0.0
 10
33.6894424476
 20
110.7787126745
 30
0.0
 10
33.9891380056
 20
110.5084270461
 30
0.0
 10
34.2289280557
 20
110.1623254392
 30
0.0
 10
34.4584433984
 20
109.6137654374
 30
0.0
 10
34.5430288248
 20
108.8356114128
 30
0.0
 10
34.3981484809
 20
108.2191734524
 30
0.0
 10
34.2747038561
 20
107.931180603
 30
0.0
  0
SPLINE
  5
2DF
100
AcDbEntity
  8
0
100
AcDbSpline
 62
7
  6
CONTINUOUS
 70
0
 71
3
 72
13
 73
9
 74
0
 42
0.0000001
 43
0.0000001
 44
0.0000000001
 40
0.0
 40
0.0
 40
0.0
 40
0.0
 40
0.109905793
 40
0.2238266097
 40
0.3431781936
 40
0.4682852858
 40
0.7310792535
 40
1.0
 40
1.0
 40
1.0
 40
1.0
 10
36.8512695046
 20
108.9136437277
 30
0.0
 10
36.9717890019
 20
108.870357176
 30
0.0
 10
37.2062554296
 20
108.7483256862
 30
0.0
 10
37.5059509876
 20
108.4780400578
 30
0.0
 10
37.7457410376
 20
108.1319384508
 30
0.0
 10
37.9752563804
 20
107.5833784491
 30
0.0
 10
38.0598418067
 20
106.8052244245
 30
0.0
 10
37.9149614629
 20
106.1887864641
 30
0.0
 10
37.7915168381
 20
105.9007936147
 30
0.0
  0
SPLINE
  5
2E0
100
AcDbEntity
  8
0
100
AcDbSpline
 62
7
  6
CONTINUOUS
 70
0
 71
3
 72
13
 73
9
 74
0
 42
0.0000001
 43
0.0000001
 44
0.0000000001
 40
0.0
 40
0.0
 40
0.0
 40
0.0
 40
0.109905793
 40
0.2238266097
 40
0.3431781936
 40
0.4682852858
 40
0.7310792535
 40
1.0
 40
1.0
 40
1.0
 40
1.0
 10
67.9405270881
 20
126.8561726202
 30
0.0
 10
68.0610465854
 20
126.8128860685
 30
0.0
 10
68.2955130131
 20
126.6908545786
 30
0.0
 10
68.5952085711
 20
126.4205689502
 30
0.0
 10
68.8349986211
 20
126.0744673433
 30
0.0
 10
69.0645139639
 20
125.5259073415
 30
0.0
 10
69.1490993902
 20
124.7477533169
 30
0.0
 10
69.0042190464
 20
124.1313153565
 30
0.0
 10
68.8807744216
 20
123.8433225072
 30
0.0
  0
SPLINE
  5
2E1
100
AcDbEntity
  8
0
100
AcDbSpline
 62
7
  6
CONTINUOUS
 70
0
 71
3
 72
13
 73
9
 74
0
 42
0.0000001
 43
0.0000001
 44
0.0000000001
 40
0.0
 40
0.0
 40
0.0
 40
0.0
 40
0.109905793
 40
0.2238266097
 40
0.3431781936
 40
0.4682852858
 40
0.7310792535
 40
1.0
 40
1.0
 40
1.0
 40
1.0
 10
64.4237141061
 20
128.8865596085
 30
0.0
 10
64.5442336035
 20
128.8432730568
 30
0.0
 10
64.7787000311
 20
128.721241567
 30
0.0
 10
65.0783955891
 20
128.4509559386
 30
0.0
 10
65.3181856392
 20
128.1048543316
 30
0.0
 10
65.5477009819
 20
127.5562943299
 30
0.0
 10
65.6322864083
 20
126.7781403053
 30
0.0
 10
65.4874060644
 20
126.1617023449
 30
0.0
 10
65.3639614396
 20
125.8737094955
 30
0.0
  0
SPLINE
  5
2E2
100
AcDbEntity
  8
0
100
AcDbSpline
 62
7
  6
CONTINUOUS
 70
0
 71
3
 72
13
 73
9
 74
0
 42
0.0000001
 43
0.0000001
 44
0.0000000001
 40
0.0
 40
0.0
 40
0.0
 40
0.0
 40
0.109905793
 40
0.2238266097
 40
0.3431781936
 40
0.4682852858
 40
0.7310792535
 40
1.0
 40
1.0
 40
1.0
 40
1.0
 10
60.9198942653
 20
130.909445173
 30
0.0
 10
61.0404137626
 20
130.8661586213
 30
0.0
 10
61.2748801903
 20
130.7441271315
 30
0.0
 10
61.5745757483
 20
130.4738415031
 30
0.0
 10
61.8143657983
 20
130.1277398961
 30
0.0
 10
62.043881141
 20
129.5791798944
 30
0.0
 10
62.1284665674
 20
128.8010258698
 30
0.0
 10
61.9835862236
 20
128.1845879094
 30
0.0
 10
61.8601415988
 20
127.89659506
 30
0.0
  0
SPLINE
  5
2E3
100
AcDbEntity
  8
0
100
AcDbSpline
 62
7
  6
CONTINUOUS
 70
0
 71
3
 72
13
 73
9
 74
0
 42
0.0000001
 43
0.0000001
 44
0.0000000001
 40
0.0
 40
0.0
 40
0.0
 40
0.0
 40
0.109905793
 40
0.2238266097
 40
0.3431781936
 40
0.4682852858
 40
0.7310792535
 40
1.0
 40
1.0
 40
1.0
 40
1.0
 10
57.4030812834
 20
132.9398321613
 30
0.0
 10
57.5236007807
 20
132.8965456096
 30
0.0
 10
57.7580672084
 20
132.7745141198
 30
0.0
 10
58.0577627664
 20
132.5042284914
 30
0.0
 10
58.2975528164
 20
132.1581268844
 30
0.0
 10
58.5270681591
 20
131.6095668827
 30
0.0
 10
58.6116535855
 20
130.8314128581
 30
0.0
 10
58.4667732417
 20
130.2149748977
 30
0.0
 10
58.3433286169
 20
129.9269820483
 30
0.0
  0
SPLINE
  5
2E4
100
AcDbEntity
  8
0
100
AcDbSpline
 62
7
  6
CONTINUOUS
 70
0
 71
3
 72
13
 73
9
 74
0
 42
0.0000001
 43
0.0000001
 44
0.0000000001
 40
0.0
 40
0.0
 40
0.0
 40
0.0
 40
0.109905793
 40
0.2238266097
 40
0.3431781936
 40
0.4682852858
 40
0.7310792535
 40
1.0
 40
1.0
 40
1.0
 40
1.0
 10
52.3958982964
 20
117.8849081735
 30
0.0
 10
52.5164177937
 20
117.8416216218
 30
0.0
 10
52.7508842214
 20
117.719590132
 30
0.0
 10
53.0505797794
 20
117.4493045036
 30
0.0
 10
53.2903698294
 20
117.1032028966
 30
0.0
 10
53.5198851721
 20
116.5546428949
 30
0.0
 10
53.6044705985
 20
115.7764888703
 30
0.0
 10
53.4595902547
 20
115.1600509099
 30
0.0
 10
53.3361456299
 20
114.8720580605
 30
0.0
  0
SPLINE
  5
2E5
100
AcDbEntity
  8
0
100
AcDbSpline
 62
7
  6
CONTINUOUS
 70
0
 71
3
 72
13
 73
9
 74
0
 42
0.0000001
 43
0.0000001
 44
0.0000000001
 40
0.0
 40
0.0
 40
0.0
 40
0.0
 40
0.109905793
 40
0.2238266097
 40
0.3431781936
 40
0.4682852858
 40
0.7310792535
 40
1.0
 40
1.0
 40
1.0
 40
1.0
 10
48.8790853144
 20
119.9152951619
 30
0.0
 10
48.9996048117
 20
119.8720086102
 30
0.0
 10
49.2340712394
 20
119.7499771203
 30
0.0
 10
49.5337667974
 20
119.4796914919
 30
0.0
 10
49.7735568474
 20
119.133589885
 30
0.0
 10
50.0030721902
 20
118.5850298832
 30
0.0
 10
50.0876576165
 20
117.8068758586
 30
0.0
 10
49.9427772727
 20
117.1904378982
 30
0.0
 10
49.8193326479
 20
116.9024450489
 30
0.0
  0
SPLINE
  5
2E6
100
AcDbEntity
  8
0
100
AcDbSpline
 62
7
  6
CONTINUOUS
 70
0
 71
3
 72
13
 73
9
 74
0
 42
0.0000001
 43
0.0000001
 44
0.0000000001
 40
0.0
 40
0.0
 40
0.0
 40
0.0
 40
0.109905793
 40
0.2238266097
 40
0.3431781936
 40
0.4682852858
 40
0.7310792535
 40
1.0
 40
1.0
 40
1.0
 40
1.0
 10
45.3752654736
 20
121.9381807264
 30
0.0
 10
45.4957849709
 20
121.8948941747
 30
0.0
 10
45.7302513986
 20
121.7728626849
 30
0.0
 10
46.0299469566
 20
121.5025770564
 30
0.0
 10
46.2697370066
 20
121.1564754495
 30
0.0
 10
46.4992523493
 20
120.6079154477
 30
0.0
 10
46.5838377757
 20
119.8297614231
 30
0.0
 10
46.4389574319
 20
119.2133234627
 30
0.0
 10
46.315512807
 20
118.9253306134
 30
0.0
  0
SPLINE
  5
2E7
100
AcDbEntity
  8
0
100
AcDbSpline
 62
7
  6
CONTINUOUS
 70
0
 71
3
 72
13
 73
9
 74
0
 42
0.0000001
 43
0.0000001
 44
0.0000000001
 40
0.0
 40
0.0
 40
0.0
 40
0.0
 40
0.109905793
 40
0.2238266097
 40
0.3431781936
 40
0.4682852858
 40
0.7310792535
 40
1.0
 40
1.0
 40
1.0
 40
1.0
 10
41.8584524917
 20
123.9685677147
 30
0.0
 10
41.978971989
 20
123.925281163
 30
0.0
 10
42.2134384167
 20
123.8032496731
 30
0.0
 10
42.5131339747
 20
123.5329640447
 30
0.0
 10
42.7529240247
 20
123.1868624378
 30
0.0
 10
42.9824393674
 20
122.638302436
 30
0.0
 10
43.0670247938
 20
121.8601484114
 30
0.0
 10
42.92214445
 20
121.243710451
 30
0.0
 10
42.7986998251
 20
120.9557176017
 30
0.0
  0
SPLINE
  5
2E8
100
AcDbEntity
  8
0
100
AcDbSpline
 62
7
  6
CONTINUOUS
 70
0
 71
3
 72
9
 73
5
 74
0
 42
0.0000001
 43
0.0000001
 44
0.0000000001
 40
0.0
 40
0.0
 40
0.0
 40
0.0
 40
0.2543964221
 40
1.0
 40
1.0
 40
1.0
 40
1.0
 10
68.8807744216
 20
123.8433225072
 30
0.0
 10
68.856789847
 20
123.7873671669
 30
0.0
 10
68.7549028211
 20
123.5707954461
 30
0.0
 10
68.6227191956
 20
123.3681390699
 30
0.0
 10
68.5083856212
 20
123.2311548901
 30
0.0
  0
SPLINE
  5
2E9
100
AcDbEntity
  8
0
100
AcDbSpline
 62
7
  6
CONTINUOUS
 70
0
 71
3
 72
9
 73
5
 74
0
 42
0.0000001
 43
0.0000001
 44
0.0000000001
 40
0.0
 40
0.0
 40
0.0
 40
0.0
 40
0.5118404165
 40
1.0
 40
1.0
 40
1.0
 40
1.0
 10
58.3433286169
 20
129.9269820483
 30
0.0
 10
58.2679107168
 20
129.7510342016
 30
0.0
 10
58.0828474988
 20
129.4219796424
 30
0.0
 10
57.8250196748
 20
129.1448375127
 30
0.0
 10
57.6837393966
 20
129.0291960691
 30
0.0
  0
SPLINE
  5
2EA
100
AcDbEntity
  8
0
100
AcDbSpline
 62
7
  6
CONTINUOUS
 70
0
 71
3
 72
9
 73
5
 74
0
 42
0.0000001
 43
0.0000001
 44
0.0000000001
 40
0.0
 40
0.0
 40
0.0
 40
0.0
 40
0.5138999399
 40
1.0
 40
1.0
 40
1.0
 40
1.0
 10
57.6837393966
 20
129.0291960691
 30
0.0
 10
57.5477812483
 20
128.917910922
 30
0.0
 10
57.2529034725
 20
128.7347425862
 30
0.0
 10
56.9146246376
 20
128.6496940074
 30
0.0
 10
56.7488947147
 20
128.6373183933
 30
0.0
  0
SPLINE
  5
2EB
100
AcDbEntity
  8
0
100
AcDbSpline
 62
7
  6
CONTINUOUS
 70
0
 71
3
 72
9
 73
5
 74
0
 42
0.0000001
 43
0.0000001
 44
0.0000000001
 40
0.0
 40
0.0
 40
0.0
 40
0.0
 40
0.5118805012
 40
1.0
 40
1.0
 40
1.0
 40
1.0
 10
61.8601415988
 20
127.89659506
 30
0.0
 10
61.7845466956
 20
127.72023427
 30
0.0
 10
61.5989742124
 20
127.3904639305
 30
0.0
 10
61.3403036427
 20
127.1128977971
 30
0.0
 10
61.1985659501
 20
126.9971852656
 30
0.0
  0
SPLINE
  5
2EC
100
AcDbEntity
  8
0
100
AcDbSpline
 62
7
  6
CONTINUOUS
 70
0
 71
3
 72
9
 73
5
 74
0
 42
0.0000001
 43
0.0000001
 44
0.0000000001
 40
0.0
 40
0.0
 40
0.0
 40
0.0
 40
0.5138606259
 40
1.0
 40
1.0
 40
1.0
 40
1.0
 10
61.1985659501
 20
126.9971852656
 30
0.0
 10
61.0628124678
 20
126.8863581539
 30
0.0
 10
60.7684870743
 20
126.7039675486
 30
0.0
 10
60.4310407184
 20
126.6192773812
 30
0.0
 10
60.2657076966
 20
126.606931405
 30
0.0
  0
SPLINE
  5
2ED
100
AcDbEntity
  8
0
100
AcDbSpline
 62
7
  6
CONTINUOUS
 70
0
 71
3
 72
9
 73
5
 74
0
 42
0.0000001
 43
0.0000001
 44
0.0000000001
 40
0.0
 40
0.0
 40
0.0
 40
0.0
 40
0.5117535817
 40
1.0
 40
1.0
 40
1.0
 40
1.0
 10
65.3639614396
 20
125.8737094955
 30
0.0
 10
65.2889273565
 20
125.698657083
 30
0.0
 10
65.1049672417
 20
125.3711555347
 30
0.0
 10
64.8489632457
 20
125.0949371643
 30
0.0
 10
64.7086733654
 20
124.9794541033
 30
0.0
  0
SPLINE
  5
2EE
100
AcDbEntity
  8
0
100
AcDbSpline
 62
7
  6
CONTINUOUS
 70
0
 71
3
 72
9
 73
5
 74
0
 42
0.0000001
 43
0.0000001
 44
0.0000000001
 40
0.0
 40
0.0
 40
0.0
 40
0.0
 40
0.5137218969
 40
1.0
 40
1.0
 40
1.0
 40
1.0
 10
64.69535682
 20
124.9685878717
 30
0.0
 10
64.5603319957
 20
124.8593731267
 30
0.0
 10
64.2679658898
 20
124.6797178817
 30
0.0
 10
63.9334587644
 20
124.5962871399
 30
0.0
 10
63.7695275375
 20
124.5840458405
 30
0.0
  0
SPLINE
  5
2EF
100
AcDbEntity
  8
0
100
AcDbSpline
 62
7
  6
CONTINUOUS
 70
0
 71
3
 72
9
 73
5
 74
0
 42
0.0000001
 43
0.0000001
 44
0.0000000001
 40
0.0
 40
0.0
 40
0.0
 40
0.0
 40
0.2544835608
 40
1.0
 40
1.0
 40
1.0
 40
1.0
 10
53.3361456299
 20
114.8720580605
 30
0.0
 10
53.3118382808
 20
114.8153496966
 30
0.0
 10
53.2085134581
 20
114.5959864018
 30
0.0
 10
53.074075654
 20
114.390920344
 30
0.0
 10
52.9576797842
 20
114.2526399564
 30
0.0
  0
SPLINE
  5
2F0
100
AcDbEntity
  8
0
100
AcDbSpline
 62
7
  6
CONTINUOUS
 70
0
 71
3
 72
9
 73
5
 74
0
 42
0.0000001
 43
0.0000001
 44
0.0000000001
 40
0.0
 40
0.0
 40
0.0
 40
0.0
 40
0.5118129239
 40
1.0
 40
1.0
 40
1.0
 40
1.0
 10
42.7986998251
 20
120.9557176017
 30
0.0
 10
42.7233914232
 20
120.7800252109
 30
0.0
 10
42.5386417656
 20
120.4514117416
 30
0.0
 10
42.2813319567
 20
120.1745327896
 30
0.0
 10
42.1403335728
 20
120.0589338711
 30
0.0
  0
SPLINE
  5
2F1
100
AcDbEntity
  8
0
100
AcDbSpline
 62
7
  6
CONTINUOUS
 70
0
 71
3
 72
9
 73
5
 74
0
 42
0.0000001
 43
0.0000001
 44
0.0000000001
 40
0.0
 40
0.0
 40
0.0
 40
0.0
 40
0.5137289375
 40
1.0
 40
1.0
 40
1.0
 40
1.0
 10
42.1263591731
 20
120.0475817145
 30
0.0
 10
41.9905654072
 20
119.9382833299
 30
0.0
 10
41.6964983202
 20
119.7588310569
 30
0.0
 10
41.3602505014
 20
119.6767515753
 30
0.0
 10
41.1956398636
 20
119.6654350269
 30
0.0
  0
SPLINE
  5
2F2
100
AcDbEntity
  8
0
100
AcDbSpline
 62
7
  6
CONTINUOUS
 70
0
 71
3
 72
9
 73
5
 74
0
 42
0.0000001
 43
0.0000001
 44
0.0000000001
 40
0.0
 40
0.0
 40
0.0
 40
0.0
 40
0.5118531086
 40
1.0
 40
1.0
 40
1.0
 40
1.0
 10
46.315512807
 20
118.9253306134
 30
0.0
 10
46.2400270205
 20
118.7492243893
 30
0.0
 10
46.054767255
 20
118.4198934208
 30
0.0
 10
45.7966134987
 20
118.1425888418
 30
0.0
 10
45.6551570269
 20
118.026917884
 30
0.0
  0
SPLINE
  5
2F3
100
AcDbEntity
  8
0
100
AcDbSpline
 62
7
  6
CONTINUOUS
 70
0
 71
3
 72
9
 73
5
 74
0
 42
0.0000001
 43
0.0000001
 44
0.0000000001
 40
0.0
 40
0.0
 40
0.0
 40
0.0
 40
0.5139659708
 40
1.0
 40
1.0
 40
1.0
 40
1.0
 10
45.6551570269
 20
118.026917884
 30
0.0
 10
45.5181252142
 20
117.9148650326
 30
0.0
 10
45.2207195937
 20
117.7307400491
 30
0.0
 10
44.8794516308
 20
117.6465287658
 30
0.0
 10
44.7124528455
 20
117.6350480386
 30
0.0
  0
SPLINE
  5
2F4
100
AcDbEntity
  8
0
100
AcDbSpline
 62
7
  6
CONTINUOUS
 70
0
 71
3
 72
9
 73
5
 74
0
 42
0.0000001
 43
0.0000001
 44
0.0000000001
 40
0.0
 40
0.0
 40
0.0
 40
0.0
 40
0.5117258734
 40
1.0
 40
1.0
 40
1.0
 40
1.0
 10
49.8193326479
 20
116.9024450489
 30
0.0
 10
49.7444088871
 20
116.7276500152
 30
0.0
 10
49.5607641475
 20
116.4005932761
 30
0.0
 10
49.3052807432
 20
116.1246416143
 30
0.0
 10
49.1652742029
 20
116.0092031504
 30
0.0
  0
SPLINE
  5
2F5
100
AcDbEntity
  8
0
100
AcDbSpline
 62
7
  6
CONTINUOUS
 70
0
 71
3
 72
9
 73
5
 74
0
 42
0.0000001
 43
0.0000001
 44
0.0000000001
 40
0.0
 40
0.0
 40
0.0
 40
0.0
 40
0.5137289375
 40
1.0
 40
1.0
 40
1.0
 40
1.0
 10
49.1469919958
 20
115.9943091617
 30
0.0
 10
49.01119823
 20
115.8850107771
 30
0.0
 10
48.717131143
 20
115.7055585041
 30
0.0
 10
48.3808833242
 20
115.6234790225
 30
0.0
 10
48.2162726863
 20
115.6121624741
 30
0.0
  0
SPLINE
  5
2F6
100
AcDbEntity
  8
0
100
AcDbSpline
 62
7
  6
CONTINUOUS
 70
0
 71
3
 72
9
 73
5
 74
0
 42
0.0000001
 43
0.0000001
 44
0.0000000001
 40
0.0
 40
0.0
 40
0.0
 40
0.0
 40
0.510521575
 40
1.0
 40
1.0
 40
1.0
 40
1.0
 10
27.2540710334
 20
111.9844531558
 30
0.0
 10
27.1843417889
 20
111.821776783
 30
0.0
 10
27.015421793
 20
111.5158571406
 30
0.0
 10
26.7841283042
 20
111.2529570255
 30
0.0
 10
26.6572814705
 20
111.1402341618
 30
0.0
  0
SPLINE
  5
2F7
100
AcDbEntity
  8
0
100
AcDbSpline
 62
7
  6
CONTINUOUS
 70
0
 71
3
 72
9
 73
5
 74
0
 42
0.0000001
 43
0.0000001
 44
0.0000000001
 40
0.0
 40
0.0
 40
0.0
 40
0.0
 40
0.5129176385
 40
1.0
 40
1.0
 40
1.0
 40
1.0
 10
26.6572814705
 20
111.1402341618
 30
0.0
 10
26.5408953905
 20
111.036807282
 30
0.0
 10
26.2900080004
 20
110.8600328807
 30
0.0
 10
26.0011296977
 20
110.7534163934
 30
0.0
 10
25.8564515414
 20
110.7229141235
 30
0.0
  0
SPLINE
  5
2F8
100
AcDbEntity
  8
0
100
AcDbSpline
 62
7
  6
CONTINUOUS
 70
0
 71
3
 72
9
 73
5
 74
0
 42
0.0000001
 43
0.0000001
 44
0.0000000001
 40
0.0
 40
0.0
 40
0.0
 40
0.0
 40
0.5105695163
 40
1.0
 40
1.0
 40
1.0
 40
1.0
 10
30.7708840153
 20
109.9540661676
 30
0.0
 10
30.700939763
 20
109.7908881877
 30
0.0
 10
30.5314150777
 20
109.4840887525
 30
0.0
 10
30.2991383805
 20
109.2206256621
 30
0.0
 10
30.1717534738
 20
109.1077700303
 30
0.0
  0
SPLINE
  5
2F9
100
AcDbEntity
  8
0
100
AcDbSpline
 62
7
  6
CONTINUOUS
 70
0
 71
3
 72
9
 73
5
 74
0
 42
0.0000001
 43
0.0000001
 44
0.0000000001
 40
0.0
 40
0.0
 40
0.0
 40
0.0
 40
0.5128712106
 40
1.0
 40
1.0
 40
1.0
 40
1.0
 10
30.1717534738
 20
109.1077700303
 30
0.0
 10
30.0556186123
 20
109.0048812854
 30
0.0
 10
29.8053818933
 20
108.8290322008
 30
0.0
 10
29.517462992
 20
108.7229282733
 30
0.0
 10
29.3732645233
 20
108.6925271352
 30
0.0
  0
SPLINE
  5
2FA
100
AcDbEntity
  8
0
100
AcDbSpline
 62
7
  6
CONTINUOUS
 70
0
 71
3
 72
9
 73
5
 74
0
 42
0.0000001
 43
0.0000001
 44
0.0000000001
 40
0.0
 40
0.0
 40
0.0
 40
0.0
 40
0.5104179147
 40
1.0
 40
1.0
 40
1.0
 40
1.0
 10
34.2747038561
 20
107.931180603
 30
0.0
 10
34.2054401484
 20
107.7695903146
 30
0.0
 10
34.0378277007
 20
107.4655769205
 30
0.0
 10
33.808657692
 20
107.2039019732
 30
0.0
 10
33.6829735329
 20
107.0914723958
 30
0.0
  0
SPLINE
  5
2FB
100
AcDbEntity
  8
0
100
AcDbSpline
 62
7
  6
CONTINUOUS
 70
0
 71
3
 72
9
 73
5
 74
0
 42
0.0000001
 43
0.0000001
 44
0.0000000001
 40
0.0
 40
0.0
 40
0.0
 40
0.0
 40
0.5130181255
 40
1.0
 40
1.0
 40
1.0
 40
1.0
 10
33.6829735329
 20
107.0914723958
 30
0.0
 10
33.5660472857
 20
106.9868771258
 30
0.0
 10
33.3137564761
 20
106.8080927462
 30
0.0
 10
33.0228010459
 20
106.7003627913
 30
0.0
 10
32.8770843642
 20
106.6696415707
 30
0.0
  0
SPLINE
  5
2FC
100
AcDbEntity
  8
0
100
AcDbSpline
 62
7
  6
CONTINUOUS
 70
0
 71
3
 72
9
 73
5
 74
0
 42
0.0000001
 43
0.0000001
 44
0.0000000001
 40
0.0
 40
0.0
 40
0.0
 40
0.0
 40
0.2530125618
 40
1.0
 40
1.0
 40
1.0
 40
1.0
 10
37.7915168381
 20
105.9007936147
 30
0.0
 10
37.7725428984
 20
105.8565279453
 30
0.0
 10
37.6927367492
 20
105.6836905046
 30
0.0
 10
37.5938743917
 20
105.5195402404
 30
0.0
 10
37.5099181427
 20
105.4047842648
 30
0.0
  0
SPLINE
  5
2FD
100
AcDbEntity
  8
0
100
AcDbSpline
 62
7
  6
CONTINUOUS
 70
0
 71
3
 72
9
 73
5
 74
0
 42
0.0000001
 43
0.0000001
 44
0.0000000001
 40
0.0
 40
0.0
 40
0.0
 40
0.0
 40
0.4853362162
 40
1.0
 40
1.0
 40
1.0
 40
1.0
 10
28.8599272301
 20
112.688865101
 30
0.0
 10
28.6852431677
 20
112.5712327634
 30
0.0
 10
28.3648205588
 20
112.2673537669
 30
0.0
 10
28.1427602295
 20
111.8880055245
 30
0.0
 10
28.0547767667
 20
111.6827425722
 30
0.0
  0
SPLINE
  5
2FE
100
AcDbEntity
  8
0
100
AcDbSpline
 62
7
  6
CONTINUOUS
 70
0
 71
3
 72
9
 73
5
 74
0
 42
0.0000001
 43
0.0000001
 44
0.0000000001
 40
0.0
 40
0.0
 40
0.0
 40
0.0
 40
0.4906174646
 40
1.0
 40
1.0
 40
1.0
 40
1.0
 10
34.6570687124
 20
105.6222224436
 30
0.0
 10
34.5140808995
 20
105.9389363027
 30
0.0
 10
34.3776348527
 20
106.6589541177
 30
0.0
 10
34.5269815057
 20
107.3718617797
 30
0.0
 10
34.6691208883
 20
107.7034689749
 30
0.0
  0
SPLINE
  5
2FF
100
AcDbEntity
  8
0
100
AcDbSpline
 62
7
  6
CONTINUOUS
 70
0
 71
3
 72
9
 73
5
 74
0
 42
0.0000001
 43
0.0000001
 44
0.0000000001
 40
0.0
 40
0.0
 40
0.0
 40
0.0
 40
0.4851914574
 40
1.0
 40
1.0
 40
1.0
 40
1.0
 10
32.3715486308
 20
110.6713131733
 30
0.0
 10
32.1951270168
 20
110.5536691886
 30
0.0
 10
31.8712818873
 20
110.2486149866
 30
0.0
 10
31.6472371692
 20
109.8666529533
 30
0.0
 10
31.5585966075
 20
109.6598570077
 30
0.0
  0
SPLINE
  5
300
100
AcDbEntity
  8
0
100
AcDbSpline
 62
7
  6
CONTINUOUS
 70
0
 71
3
 72
9
 73
5
 74
0
 42
0.0000001
 43
0.0000001
 44
0.0000000001
 40
0.0
 40
0.0
 40
0.0
 40
0.0
 40
0.5124422351
 40
1.0
 40
1.0
 40
1.0
 40
1.0
 10
31.5585966075
 20
109.6598570077
 30
0.0
 10
31.4028033062
 20
109.2963956028
 30
0.0
 10
31.2527999271
 20
108.5127798068
 30
0.0
 10
31.4489092139
 20
107.7313260979
 30
0.0
 10
31.6351369463
 20
107.4044066117
 30
0.0
  0
SPLINE
  5
301
100
AcDbEntity
  8
0
100
AcDbSpline
 62
7
  6
CONTINUOUS
 70
0
 71
3
 72
9
 73
5
 74
0
 42
0.0000001
 43
0.0000001
 44
0.0000000001
 40
0.0
 40
0.0
 40
0.0
 40
0.0
 40
0.4852305686
 40
1.0
 40
1.0
 40
1.0
 40
1.0
 10
35.8859044694
 20
108.6392011762
 30
0.0
 10
35.7100136031
 20
108.5215984597
 30
0.0
 10
35.3872492212
 20
108.216910768
 30
0.0
 10
35.1638422123
 20
107.8357808495
 30
0.0
 10
35.0754095895
 20
107.6294700194
 30
0.0
  0
SPLINE
  5
302
100
AcDbEntity
  8
0
100
AcDbSpline
 62
7
  6
CONTINUOUS
 70
0
 71
3
 72
9
 73
5
 74
0
 42
0.0000001
 43
0.0000001
 44
0.0000000001
 40
0.0
 40
0.0
 40
0.0
 40
0.0
 40
0.5124390657
 40
1.0
 40
1.0
 40
1.0
 40
1.0
 10
35.0754095895
 20
107.6294700194
 30
0.0
 10
34.9196288201
 20
107.2660378511
 30
0.0
 10
34.7696249167
 20
106.4824865285
 30
0.0
 10
34.9656758893
 20
105.701087567
 30
0.0
 10
35.1518618441
 20
105.3741736223
 30
0.0
  0
SPLINE
  5
303
100
AcDbEntity
  8
0
100
AcDbSpline
 62
7
  6
CONTINUOUS
 70
0
 71
3
 72
9
 73
5
 74
0
 42
0.0000001
 43
0.0000001
 44
0.0000000001
 40
0.0
 40
0.0
 40
0.0
 40
0.0
 40
0.4852305686
 40
1.0
 40
1.0
 40
1.0
 40
1.0
 10
66.9662675554
 20
126.5833500583
 30
0.0
 10
66.7903766892
 20
126.4657473418
 30
0.0
 10
66.4676123072
 20
126.1610596501
 30
0.0
 10
66.2442052984
 20
125.7799297317
 30
0.0
 10
66.1557726755
 20
125.5736189015
 30
0.0
  0
SPLINE
  5
304
100
AcDbEntity
  8
0
100
AcDbSpline
 62
7
  6
CONTINUOUS
 70
0
 71
3
 72
9
 73
5
 74
0
 42
0.0000001
 43
0.0000001
 44
0.0000000001
 40
0.0
 40
0.0
 40
0.0
 40
0.0
 40
0.5086448621
 40
1.0
 40
1.0
 40
1.0
 40
1.0
 10
66.1557726755
 20
125.5736189015
 30
0.0
 10
66.0172611702
 20
125.2504754422
 30
0.0
 10
65.8684630574
 20
124.556388406
 30
0.0
 10
65.9904675648
 20
123.853248709
 30
0.0
 10
66.1227143381
 20
123.5404268737
 30
0.0
  0
SPLINE
  5
305
100
AcDbEntity
  8
0
100
AcDbSpline
 62
7
  6
CONTINUOUS
 70
0
 71
3
 72
9
 73
5
 74
0
 42
0.0000001
 43
0.0000001
 44
0.0000000001
 40
0.0
 40
0.0
 40
0.0
 40
0.0
 40
0.5131402346
 40
1.0
 40
1.0
 40
1.0
 40
1.0
 10
66.1227143381
 20
123.5404268737
 30
0.0
 10
66.1835511742
 20
123.3965209753
 30
0.0
 10
66.3325824355
 20
123.1275882465
 30
0.0
 10
66.5432620152
 20
122.902392608
 30
0.0
 10
66.6584236306
 20
122.8090569826
 30
0.0
  0
SPLINE
  5
306
100
AcDbEntity
  8
0
100
AcDbSpline
 62
7
  6
CONTINUOUS
 70
0
 71
3
 72
9
 73
5
 74
0
 42
0.0000001
 43
0.0000001
 44
0.0000000001
 40
0.0
 40
0.0
 40
0.0
 40
0.0
 40
0.4851914574
 40
1.0
 40
1.0
 40
1.0
 40
1.0
 10
63.4519117168
 20
128.6154620554
 30
0.0
 10
63.2754901028
 20
128.4978180708
 30
0.0
 10
62.9516449734
 20
128.1927638687
 30
0.0
 10
62.7276002552
 20
127.8108018354
 30
0.0
 10
62.6389596936
 20
127.6040058898
 30
0.0
  0
SPLINE
  5
307
100
AcDbEntity
  8
0
100
AcDbSpline
 62
7
  6
CONTINUOUS
 70
0
 71
3
 72
9
 73
5
 74
0
 42
0.0000001
 43
0.0000001
 44
0.0000000001
 40
0.0
 40
0.0
 40
0.0
 40
0.0
 40
0.5086412288
 40
1.0
 40
1.0
 40
1.0
 40
1.0
 10
62.6389596936
 20
127.6040058898
 30
0.0
 10
62.5004669137
 20
127.2809061166
 30
0.0
 10
62.3516721412
 20
126.5869163679
 30
0.0
 10
62.4736034221
 20
125.883864489
 30
0.0
 10
62.6057954697
 20
125.5710640103
 30
0.0
  0
SPLINE
  5
308
100
AcDbEntity
  8
0
100
AcDbSpline
 62
7
  6
CONTINUOUS
 70
0
 71
3
 72
9
 73
5
 74
0
 42
0.0000001
 43
0.0000001
 44
0.0000000001
 40
0.0
 40
0.0
 40
0.0
 40
0.0
 40
0.5131476785
 40
1.0
 40
1.0
 40
1.0
 40
1.0
 10
62.6057954697
 20
125.5710640103
 30
0.0
 10
62.6666502531
 20
125.4270658976
 30
0.0
 10
62.8157488326
 20
125.1579648983
 30
0.0
 10
63.0265696832
 20
124.932652534
 30
0.0
 10
63.1418104593
 20
124.8392830831
 30
0.0
  0
SPLINE
  5
309
100
AcDbEntity
  8
0
100
AcDbSpline
 62
7
  6
CONTINUOUS
 70
0
 71
3
 72
9
 73
5
 74
0
 42
0.0000001
 43
0.0000001
 44
0.0000000001
 40
0.0
 40
0.0
 40
0.0
 40
0.0
 40
0.5098272101
 40
1.0
 40
1.0
 40
1.0
 40
1.0
 10
59.1351398527
 20
129.6268914543
 30
0.0
 10
58.9908363945
 20
129.2902355314
 30
0.0
 10
58.8412241572
 20
128.5660884134
 30
0.0
 10
58.9865820168
 20
127.836107813
 30
0.0
 10
59.1361067248
 20
127.5172687426
 30
0.0
  0
SPLINE
  5
30A
100
AcDbEntity
  8
0
100
AcDbSpline
 62
7
  6
CONTINUOUS
 70
0
 71
3
 72
9
 73
5
 74
0
 42
0.0000001
 43
0.0000001
 44
0.0000000001
 40
0.0
 40
0.0
 40
0.0
 40
0.0
 40
0.2573834688
 40
1.0
 40
1.0
 40
1.0
 40
1.0
 10
59.1664041457
 20
127.455322403
 30
0.0
 10
59.1911238268
 20
127.4068258244
 30
0.0
 10
59.2944746897
 20
127.2222883037
 30
0.0
 10
59.4280796797
 20
127.0541585518
 30
0.0
 10
59.5421249352
 20
126.9461790726
 30
0.0
  0
SPLINE
  5
30B
100
AcDbEntity
  8
0
100
AcDbSpline
 62
7
  6
CONTINUOUS
 70
0
 71
3
 72
9
 73
5
 74
0
 42
0.0000001
 43
0.0000001
 44
0.0000000001
 40
0.0
 40
0.0
 40
0.0
 40
0.0
 40
0.4853362162
 40
1.0
 40
1.0
 40
1.0
 40
1.0
 10
59.9402903161
 20
130.6330139831
 30
0.0
 10
59.7656062537
 20
130.5153816456
 30
0.0
 10
59.4451836448
 20
130.211502649
 30
0.0
 10
59.2231233155
 20
129.8321544067
 30
0.0
 10
59.1351398527
 20
129.6268914543
 30
0.0
  0
SPLINE
  5
30C
100
AcDbEntity
  8
0
100
AcDbSpline
 62
7
  6
CONTINUOUS
 70
0
 71
3
 72
9
 73
5
 74
0
 42
0.0000001
 43
0.0000001
 44
0.0000000001
 40
0.0
 40
0.0
 40
0.0
 40
0.0
 40
0.5086490953
 40
1.0
 40
1.0
 40
1.0
 40
1.0
 10
55.6183268708
 20
131.6572784426
 30
0.0
 10
55.4797935495
 20
131.3340840874
 30
0.0
 10
55.3309915396
 20
130.6398837026
 30
0.0
 10
55.4530814088
 20
129.936641713
 30
0.0
 10
55.5853919314
 20
129.6237950023
 30
0.0
  0
SPLINE
  5
30D
100
AcDbEntity
  8
0
100
AcDbSpline
 62
7
  6
CONTINUOUS
 70
0
 71
3
 72
9
 73
5
 74
0
 42
0.0000001
 43
0.0000001
 44
0.0000000001
 40
0.0
 40
0.0
 40
0.0
 40
0.0
 40
0.5131312398
 40
1.0
 40
1.0
 40
1.0
 40
1.0
 10
55.5853919314
 20
129.6237950023
 30
0.0
 10
55.6462062878
 20
129.4800001553
 30
0.0
 10
55.7951546682
 20
129.2112698366
 30
0.0
 10
56.005662121
 20
128.9862138403
 30
0.0
 10
56.1207274646
 20
128.8929182834
 30
0.0
  0
SPLINE
  5
30E
100
AcDbEntity
  8
0
100
AcDbSpline
 62
7
  6
CONTINUOUS
 70
0
 71
3
 72
9
 73
5
 74
0
 42
0.0000001
 43
0.0000001
 44
0.0000000001
 40
0.0
 40
0.0
 40
0.0
 40
0.0
 40
0.485288319
 40
1.0
 40
1.0
 40
1.0
 40
1.0
 10
56.4259466806
 20
132.6650610007
 30
0.0
 10
56.2506994634
 20
132.5474509553
 30
0.0
 10
55.9292008188
 20
132.2431908228
 30
0.0
 10
55.7065173014
 20
131.863024245
 30
0.0
 10
55.6183268708
 20
131.6572784426
 30
0.0
  0
SPLINE
  5
30F
100
AcDbEntity
  8
0
100
AcDbSpline
 62
7
  6
CONTINUOUS
 70
0
 71
3
 72
9
 73
5
 74
0
 42
0.0000001
 43
0.0000001
 44
0.0000000001
 40
0.0
 40
0.0
 40
0.0
 40
0.0
 40
0.4906174646
 40
1.0
 40
1.0
 40
1.0
 40
1.0
 10
24.1196229077
 20
111.7058819847
 30
0.0
 10
23.9766350948
 20
112.0225958438
 30
0.0
 10
23.840189048
 20
112.7426136588
 30
0.0
 10
23.989535701
 20
113.4555213209
 30
0.0
 10
24.1316750836
 20
113.787128516
 30
0.0
  0
SPLINE
  5
310
100
AcDbEntity
  8
0
100
AcDbSpline
 62
7
  6
CONTINUOUS
 70
0
 71
3
 72
12
 73
8
 74
0
 42
0.0000001
 43
0.0000001
 44
0.0000000001
 40
0.0
 40
0.0
 40
0.0
 40
0.0
 40
0.2736528901
 40
0.5311287113
 40
0.7709006368
 40
0.8862593339
 40
1.0
 40
1.0
 40
1.0
 40
1.0
 10
65.7583784718
 20
125.6459978673
 30
0.0
 10
65.8485508607
 20
125.856367523
 30
0.0
 10
66.077799042
 20
126.2445412193
 30
0.0
 10
66.5569194508
 20
126.6903128924
 30
0.0
 10
67.0375470368
 20
126.901211606
 30
0.0
 10
67.4290048391
 20
126.948982086
 30
0.0
 10
67.6215910735
 20
126.9337698485
 30
0.0
 10
67.7151838517
 20
126.9167278226
 30
0.0
  0
SPLINE
  5
311
100
AcDbEntity
  8
0
100
AcDbSpline
 62
7
  6
CONTINUOUS
 70
0
 71
3
 72
9
 73
5
 74
0
 42
0.0000001
 43
0.0000001
 44
0.0000000001
 40
0.0
 40
0.0
 40
0.0
 40
0.0
 40
0.4876272422
 40
1.0
 40
1.0
 40
1.0
 40
1.0
 10
55.2964972403
 20
129.4758414962
 30
0.0
 10
55.1106451668
 20
129.8026930054
 30
0.0
 10
54.9153184798
 20
130.5836358356
 30
0.0
 10
55.0652840591
 20
131.3665335691
 30
0.0
 10
55.2209326671
 20
131.7296574085
 30
0.0
  0
SPLINE
  5
312
100
AcDbEntity
  8
0
100
AcDbSpline
 62
7
  6
CONTINUOUS
 70
0
 71
3
 72
12
 73
8
 74
0
 42
0.0000001
 43
0.0000001
 44
0.0000000001
 40
0.0
 40
0.0
 40
0.0
 40
0.0
 40
0.273497694
 40
0.5309969643
 40
0.770908851
 40
0.886299383
 40
1.0
 40
1.0
 40
1.0
 40
1.0
 10
55.2209326671
 20
131.7296574085
 30
0.0
 10
55.3104083592
 20
131.9384016899
 30
0.0
 10
55.537529202
 20
132.323830339
 30
0.0
 10
56.0115340512
 20
132.7679416863
 30
0.0
 10
56.4871457551
 20
132.9806471376
 30
0.0
 10
56.8753590681
 20
133.0320300415
 30
0.0
 10
57.0667016155
 20
133.0192531935
 30
0.0
 10
57.1598009725
 20
133.0035345081
 30
0.0
  0
SPLINE
  5
313
100
AcDbEntity
  8
0
100
AcDbSpline
 62
7
  6
CONTINUOUS
 70
0
 71
3
 72
9
 73
5
 74
0
 42
0.0000001
 43
0.0000001
 44
0.0000000001
 40
0.0
 40
0.0
 40
0.0
 40
0.0
 40
0.4876272422
 40
1.0
 40
1.0
 40
1.0
 40
1.0
 10
58.8133102223
 20
127.4454545079
 30
0.0
 10
58.6274581487
 20
127.772306017
 30
0.0
 10
58.4321314617
 20
128.5532488473
 30
0.0
 10
58.582097041
 20
129.3361465808
 30
0.0
 10
58.737745649
 20
129.6992704202
 30
0.0
  0
SPLINE
  5
314
100
AcDbEntity
  8
0
100
AcDbSpline
 62
7
  6
CONTINUOUS
 70
0
 71
3
 72
12
 73
8
 74
0
 42
0.0000001
 43
0.0000001
 44
0.0000000001
 40
0.0
 40
0.0
 40
0.0
 40
0.0
 40
0.2734748089
 40
0.5309772328
 40
0.7709094674
 40
0.8863048329
 40
1.0
 40
1.0
 40
1.0
 40
1.0
 10
58.737745649
 20
129.6992704202
 30
0.0
 10
58.8271197447
 20
129.90777768
 30
0.0
 10
59.0539308255
 20
130.2928057402
 30
0.0
 10
59.5271914552
 20
130.7366722757
 30
0.0
 10
60.0020724315
 20
130.9496354496
 30
0.0
 10
60.3898105111
 20
131.0015387325
 30
0.0
 10
60.5809696871
 20
130.9891141666
 30
0.0
 10
60.6739959103
 20
130.9735870225
 30
0.0
  0
SPLINE
  5
315
100
AcDbEntity
  8
0
100
AcDbSpline
 62
7
  6
CONTINUOUS
 70
0
 71
3
 72
9
 73
5
 74
0
 42
0.0000001
 43
0.0000001
 44
0.0000000001
 40
0.0
 40
0.0
 40
0.0
 40
0.0
 40
0.4876272422
 40
1.0
 40
1.0
 40
1.0
 40
1.0
 10
62.3171300631
 20
125.4225689434
 30
0.0
 10
62.1312779895
 20
125.7494204525
 30
0.0
 10
61.9359513025
 20
126.5303632828
 30
0.0
 10
62.0859168818
 20
127.3132610163
 30
0.0
 10
62.2415654898
 20
127.6763848557
 30
0.0
  0
SPLINE
  5
316
100
AcDbEntity
  8
0
100
AcDbSpline
 62
7
  6
CONTINUOUS
 70
0
 71
3
 72
12
 73
8
 74
0
 42
0.0000001
 43
0.0000001
 44
0.0000000001
 40
0.0
 40
0.0
 40
0.0
 40
0.0
 40
0.2736528901
 40
0.5311287113
 40
0.7709006368
 40
0.8862593339
 40
1.0
 40
1.0
 40
1.0
 40
1.0
 10
62.2415654898
 20
127.6763848557
 30
0.0
 10
62.3317378788
 20
127.8867545114
 30
0.0
 10
62.5609860601
 20
128.2749282076
 30
0.0
 10
63.0401064689
 20
128.7206998808
 30
0.0
 10
63.5207340549
 20
128.9315985943
 30
0.0
 10
63.9121918572
 20
128.9793690744
 30
0.0
 10
64.1047780916
 20
128.9641568368
 30
0.0
 10
64.1983708698
 20
128.9471148109
 30
0.0
  0
SPLINE
  5
317
100
AcDbEntity
  8
0
100
AcDbSpline
 62
7
  6
CONTINUOUS
 70
0
 71
3
 72
9
 73
5
 74
0
 42
0.0000001
 43
0.0000001
 44
0.0000000001
 40
0.0
 40
0.0
 40
0.0
 40
0.0
 40
0.4876272422
 40
1.0
 40
1.0
 40
1.0
 40
1.0
 10
65.833943045
 20
123.3921819551
 30
0.0
 10
65.6480909715
 20
123.7190334642
 30
0.0
 10
65.4527642845
 20
124.4999762945
 30
0.0
 10
65.6027298638
 20
125.282874028
 30
0.0
 10
65.7583784718
 20
125.6459978673
 30
0.0
  0
SPLINE
  5
318
100
AcDbEntity
  8
0
100
AcDbSpline
 62
7
  6
CONTINUOUS
 70
0
 71
3
 72
9
 73
5
 74
0
 42
0.0000001
 43
0.0000001
 44
0.0000000001
 40
0.0
 40
0.0
 40
0.0
 40
0.0
 40
0.4852305686
 40
1.0
 40
1.0
 40
1.0
 40
1.0
 10
51.4260860124
 20
117.6112756173
 30
0.0
 10
51.2501951461
 20
117.4936729008
 30
0.0
 10
50.9274307642
 20
117.188985209
 30
0.0
 10
50.7040237554
 20
116.8078552906
 30
0.0
 10
50.6155911325
 20
116.6015444604
 30
0.0
  0
SPLINE
  5
319
100
AcDbEntity
  8
0
100
AcDbSpline
 62
7
  6
CONTINUOUS
 70
0
 71
3
 72
9
 73
5
 74
0
 42
0.0000001
 43
0.0000001
 44
0.0000000001
 40
0.0
 40
0.0
 40
0.0
 40
0.0
 40
0.50876362
 40
1.0
 40
1.0
 40
1.0
 40
1.0
 10
50.6155911325
 20
116.6015444604
 30
0.0
 10
50.4765001922
 20
116.2770491958
 30
0.0
 10
50.327608854
 20
115.57996074
 30
0.0
 10
50.4518678581
 20
114.8741115683
 30
0.0
 10
50.5858096832
 20
114.5606424492
 30
0.0
  0
SPLINE
  5
31A
100
AcDbEntity
  8
0
100
AcDbSpline
 62
7
  6
CONTINUOUS
 70
0
 71
3
 72
9
 73
5
 74
0
 42
0.0000001
 43
0.0000001
 44
0.0000000001
 40
0.0
 40
0.0
 40
0.0
 40
0.0
 40
0.5138617949
 40
1.0
 40
1.0
 40
1.0
 40
1.0
 10
50.5858096832
 20
114.5606424492
 30
0.0
 10
50.6506631996
 20
114.4088633118
 30
0.0
 10
50.8109469154
 20
114.12639523
 30
0.0
 10
51.0399076883
 20
113.8944179759
 30
0.0
 10
51.1647818055
 20
113.8006680369
 30
0.0
  0
SPLINE
  5
31B
100
AcDbEntity
  8
0
100
AcDbSpline
 62
7
  6
CONTINUOUS
 70
0
 71
3
 72
9
 73
5
 74
0
 42
0.0000001
 43
0.0000001
 44
0.0000000001
 40
0.0
 40
0.0
 40
0.0
 40
0.0
 40
0.4906174646
 40
1.0
 40
1.0
 40
1.0
 40
1.0
 10
27.6364358896
 20
109.6754949964
 30
0.0
 10
27.4934480767
 20
109.9922088555
 30
0.0
 10
27.3570020299
 20
110.7122266705
 30
0.0
 10
27.5063486829
 20
111.4251343326
 30
0.0
 10
27.6484880655
 20
111.7567415277
 30
0.0
  0
SPLINE
  5
31C
100
AcDbEntity
  8
0
100
AcDbSpline
 62
7
  6
CONTINUOUS
 70
0
 71
3
 72
9
 73
5
 74
0
 42
0.0000001
 43
0.0000001
 44
0.0000000001
 40
0.0
 40
0.0
 40
0.0
 40
0.0
 40
0.4851914574
 40
1.0
 40
1.0
 40
1.0
 40
1.0
 10
47.9117301738
 20
119.6433876144
 30
0.0
 10
47.7353085598
 20
119.5257436297
 30
0.0
 10
47.4114634303
 20
119.2206894277
 30
0.0
 10
47.1874187122
 20
118.8387273943
 30
0.0
 10
47.0987781505
 20
118.6319314488
 30
0.0
  0
SPLINE
  5
31D
100
AcDbEntity
  8
0
100
AcDbSpline
 62
7
  6
CONTINUOUS
 70
0
 71
3
 72
9
 73
5
 74
0
 42
0.0000001
 43
0.0000001
 44
0.0000000001
 40
0.0
 40
0.0
 40
0.0
 40
0.0
 40
0.5087599609
 40
1.0
 40
1.0
 40
1.0
 40
1.0
 10
47.0987781505
 20
118.6319314488
 30
0.0
 10
46.9597059723
 20
118.3074799555
 30
0.0
 10
46.8108178962
 20
117.6104889971
 30
0.0
 10
46.9350029149
 20
116.9047275957
 30
0.0
 10
47.0688897045
 20
116.5912795408
 30
0.0
  0
SPLINE
  5
31E
100
AcDbEntity
  8
0
100
AcDbSpline
 62
7
  6
CONTINUOUS
 70
0
 71
3
 72
9
 73
5
 74
0
 42
0.0000001
 43
0.0000001
 44
0.0000000001
 40
0.0
 40
0.0
 40
0.0
 40
0.0
 40
0.5138798804
 40
1.0
 40
1.0
 40
1.0
 40
1.0
 10
47.0688897045
 20
116.5912795408
 30
0.0
 10
47.1338131217
 20
116.4392845689
 30
0.0
 10
47.2943196647
 20
116.1564332324
 30
0.0
 10
47.5236924023
 20
115.9242311125
 30
0.0
 10
47.6487890364
 20
115.8304404485
 30
0.0
  0
SPLINE
  5
31F
100
AcDbEntity
  8
0
100
AcDbSpline
 62
7
  6
CONTINUOUS
 70
0
 71
3
 72
9
 73
5
 74
0
 42
0.0000001
 43
0.0000001
 44
0.0000000001
 40
0.0
 40
0.0
 40
0.0
 40
0.0
 40
0.5099440142
 40
1.0
 40
1.0
 40
1.0
 40
1.0
 10
43.5949583097
 20
120.6548170133
 30
0.0
 10
43.4501128468
 20
120.3168966085
 30
0.0
 10
43.3004514477
 20
119.5899425034
 30
0.0
 10
43.4480572234
 20
118.8574767986
 30
0.0
 10
43.5992477724
 20
118.5381430854
 30
0.0
  0
SPLINE
  5
320
100
AcDbEntity
  8
0
100
AcDbSpline
 62
7
  6
CONTINUOUS
 70
0
 71
3
 72
9
 73
5
 74
0
 42
0.0000001
 43
0.0000001
 44
0.0000000001
 40
0.0
 40
0.0
 40
0.0
 40
0.0
 40
0.2576225701
 40
1.0
 40
1.0
 40
1.0
 40
1.0
 10
43.6262226027
 20
118.483247962
 30
0.0
 10
43.651684662
 20
118.4332949404
 30
0.0
 10
43.7582568508
 20
118.2435135497
 30
0.0
 10
43.8969576154
 20
118.0711755881
 30
0.0
 10
44.0155084536
 20
117.9614031542
 30
0.0
  0
SPLINE
  5
321
100
AcDbEntity
  8
0
100
AcDbSpline
 62
7
  6
CONTINUOUS
 70
0
 71
3
 72
9
 73
5
 74
0
 42
0.0000001
 43
0.0000001
 44
0.0000000001
 40
0.0
 40
0.0
 40
0.0
 40
0.0
 40
0.4853362162
 40
1.0
 40
1.0
 40
1.0
 40
1.0
 10
44.4001087731
 20
121.660939542
 30
0.0
 10
44.2254247107
 20
121.5433072045
 30
0.0
 10
43.9050021018
 20
121.2394282079
 30
0.0
 10
43.6829417725
 20
120.8600799656
 30
0.0
 10
43.5949583097
 20
120.6548170133
 30
0.0
  0
SPLINE
  5
322
100
AcDbEntity
  8
0
100
AcDbSpline
 62
7
  6
CONTINUOUS
 70
0
 71
3
 72
9
 73
5
 74
0
 42
0.0000001
 43
0.0000001
 44
0.0000000001
 40
0.0
 40
0.0
 40
0.0
 40
0.0
 40
0.508767883
 40
1.0
 40
1.0
 40
1.0
 40
1.0
 10
40.0781453278
 20
122.6852040016
 30
0.0
 10
39.9390325305
 20
122.3606577451
 30
0.0
 10
39.7901373874
 20
121.6634557044
 30
0.0
 10
39.9144826289
 20
120.9575043023
 30
0.0
 10
40.0484885608
 20
120.6440106507
 30
0.0
  0
SPLINE
  5
323
100
AcDbEntity
  8
0
100
AcDbSpline
 62
7
  6
CONTINUOUS
 70
0
 71
3
 72
9
 73
5
 74
0
 42
0.0000001
 43
0.0000001
 44
0.0000000001
 40
0.0
 40
0.0
 40
0.0
 40
0.0
 40
0.5138407408
 40
1.0
 40
1.0
 40
1.0
 40
1.0
 10
40.0484885608
 20
120.6440106507
 30
0.0
 10
40.11326067
 20
120.4924826941
 30
0.0
 10
40.273285126
 20
120.2104606872
 30
0.0
 10
40.5017668005
 20
119.9787455365
 30
0.0
 10
40.6263820872
 20
119.8850433853
 30
0.0
  0
SPLINE
  5
324
100
AcDbEntity
  8
0
100
AcDbSpline
 62
7
  6
CONTINUOUS
 70
0
 71
3
 72
9
 73
5
 74
0
 42
0.0000001
 43
0.0000001
 44
0.0000000001
 40
0.0
 40
0.0
 40
0.0
 40
0.0
 40
0.485288319
 40
1.0
 40
1.0
 40
1.0
 40
1.0
 10
40.8857651376
 20
123.6929865596
 30
0.0
 10
40.7105179204
 20
123.5753765143
 30
0.0
 10
40.3890192758
 20
123.2711163818
 30
0.0
 10
40.1663357584
 20
122.8909498039
 30
0.0
 10
40.0781453278
 20
122.6852040016
 30
0.0
  0
SPLINE
  5
325
100
AcDbEntity
  8
0
100
AcDbSpline
 62
7
  6
CONTINUOUS
 70
0
 71
3
 72
12
 73
8
 74
0
 42
0.0000001
 43
0.0000001
 44
0.0000000001
 40
0.0
 40
0.0
 40
0.0
 40
0.0
 40
0.2736528901
 40
0.5311287113
 40
0.7709006368
 40
0.8862593339
 40
1.0
 40
1.0
 40
1.0
 40
1.0
 10
50.2137496801
 20
116.6747334207
 30
0.0
 10
50.303922069
 20
116.8851030764
 30
0.0
 10
50.5331702503
 20
117.2732767727
 30
0.0
 10
51.0122906591
 20
117.7190484458
 30
0.0
 10
51.4929182452
 20
117.9299471593
 30
0.0
 10
51.8843760475
 20
117.9777176394
 30
0.0
 10
52.0769622819
 20
117.9625054018
 30
0.0
 10
52.1705550601
 20
117.9454633759
 30
0.0
  0
SPLINE
  5
326
100
AcDbEntity
  8
0
100
AcDbSpline
 62
7
  6
CONTINUOUS
 70
0
 71
3
 72
9
 73
5
 74
0
 42
0.0000001
 43
0.0000001
 44
0.0000000001
 40
0.0
 40
0.0
 40
0.0
 40
0.0
 40
0.4874673875
 40
1.0
 40
1.0
 40
1.0
 40
1.0
 10
39.7566467623
 20
120.4962192864
 30
0.0
 10
39.5685474194
 20
120.8233906309
 30
0.0
 10
39.3700284784
 20
121.6072884481
 30
0.0
 10
39.5199785824
 20
122.3936904356
 30
0.0
 10
39.6763038754
 20
122.7583929618
 30
0.0
  0
SPLINE
  5
327
100
AcDbEntity
  8
0
100
AcDbSpline
 62
7
  6
CONTINUOUS
 70
0
 71
3
 72
12
 73
8
 74
0
 42
0.0000001
 43
0.0000001
 44
0.0000000001
 40
0.0
 40
0.0
 40
0.0
 40
0.0
 40
0.2736528901
 40
0.5311287113
 40
0.7709006368
 40
0.8862593339
 40
1.0
 40
1.0
 40
1.0
 40
1.0
 10
39.6763038754
 20
122.7583929618
 30
0.0
 10
39.7664762643
 20
122.9687626175
 30
0.0
 10
39.9957244456
 20
123.3569363138
 30
0.0
 10
40.4748448544
 20
123.802707987
 30
0.0
 10
40.9554724405
 20
124.0136067005
 30
0.0
 10
41.3469302428
 20
124.0613771806
 30
0.0
 10
41.5395164772
 20
124.046164943
 30
0.0
 10
41.6331092554
 20
124.0291229171
 30
0.0
  0
SPLINE
  5
328
100
AcDbEntity
  8
0
100
AcDbSpline
 62
7
  6
CONTINUOUS
 70
0
 71
3
 72
9
 73
5
 74
0
 42
0.0000001
 43
0.0000001
 44
0.0000000001
 40
0.0
 40
0.0
 40
0.0
 40
0.0
 40
0.4874673875
 40
1.0
 40
1.0
 40
1.0
 40
1.0
 10
43.2734597442
 20
118.4658322981
 30
0.0
 10
43.0853604013
 20
118.7930036426
 30
0.0
 10
42.8868414603
 20
119.5769014598
 30
0.0
 10
43.0367915643
 20
120.3633034473
 30
0.0
 10
43.1931168573
 20
120.7280059735
 30
0.0
  0
SPLINE
  5
329
100
AcDbEntity
  8
0
100
AcDbSpline
 62
7
  6
CONTINUOUS
 70
0
 71
3
 72
12
 73
8
 74
0
 42
0.0000001
 43
0.0000001
 44
0.0000000001
 40
0.0
 40
0.0
 40
0.0
 40
0.0
 40
0.2735111448
 40
0.5310085258
 40
0.7709084188
 40
0.8862961261
 40
1.0
 40
1.0
 40
1.0
 40
1.0
 10
43.1931168573
 20
120.7280059735
 30
0.0
 10
43.2826523962
 20
120.9368898761
 30
0.0
 10
43.5099557637
 20
121.3225544634
 30
0.0
 10
43.9843992164
 20
121.7668097007
 30
0.0
 10
44.4604414529
 20
121.9793626524
 30
0.0
 10
44.8489344619
 20
122.0304382582
 30
0.0
 10
45.0403847886
 20
122.01745355
 30
0.0
 10
45.1335270864
 20
122.0016218629
 30
0.0
  0
SPLINE
  5
32A
100
AcDbEntity
  8
0
100
AcDbSpline
 62
7
  6
CONTINUOUS
 70
0
 71
3
 72
9
 73
5
 74
0
 42
0.0000001
 43
0.0000001
 44
0.0000000001
 40
0.0
 40
0.0
 40
0.0
 40
0.0
 40
0.4906174646
 40
1.0
 40
1.0
 40
1.0
 40
1.0
 10
31.1402557304
 20
107.6526094319
 30
0.0
 10
30.9972679175
 20
107.969323291
 30
0.0
 10
30.8608218708
 20
108.689341106
 30
0.0
 10
31.0101685237
 20
109.4022487681
 30
0.0
 10
31.1523079063
 20
109.7338559632
 30
0.0
  0
SPLINE
  5
32B
100
AcDbEntity
  8
0
100
AcDbSpline
 62
7
  6
CONTINUOUS
 70
0
 71
3
 72
9
 73
5
 74
0
 42
0.0000001
 43
0.0000001
 44
0.0000000001
 40
0.0
 40
0.0
 40
0.0
 40
0.0
 40
0.4874673875
 40
1.0
 40
1.0
 40
1.0
 40
1.0
 10
46.7772795851
 20
116.4429467336
 30
0.0
 10
46.5891802421
 20
116.7701180781
 30
0.0
 10
46.3906613012
 20
117.5540158952
 30
0.0
 10
46.5406114052
 20
118.3404178827
 30
0.0
 10
46.6969366981
 20
118.705120409
 30
0.0
  0
SPLINE
  5
32C
100
AcDbEntity
  8
0
100
AcDbSpline
 62
7
  6
CONTINUOUS
 70
0
 71
3
 72
12
 73
8
 74
0
 42
0.0000001
 43
0.0000001
 44
0.0000000001
 40
0.0
 40
0.0
 40
0.0
 40
0.0
 40
0.2736528901
 40
0.5311287113
 40
0.7709006368
 40
0.8862593339
 40
1.0
 40
1.0
 40
1.0
 40
1.0
 10
46.6969366981
 20
118.705120409
 30
0.0
 10
46.7871090871
 20
118.9154900647
 30
0.0
 10
47.0163572684
 20
119.303663761
 30
0.0
 10
47.4954776772
 20
119.7494354341
 30
0.0
 10
47.9761052632
 20
119.9603341477
 30
0.0
 10
48.3675630655
 20
120.0081046277
 30
0.0
 10
48.5601492999
 20
119.9928923902
 30
0.0
 10
48.6537420781
 20
119.9758503643
 30
0.0
  0
SPLINE
  5
32D
100
AcDbEntity
  8
0
100
AcDbSpline
 62
7
  6
CONTINUOUS
 70
0
 71
3
 72
9
 73
5
 74
0
 42
0.0000001
 43
0.0000001
 44
0.0000000001
 40
0.0
 40
0.0
 40
0.0
 40
0.0
 40
0.4874673875
 40
1.0
 40
1.0
 40
1.0
 40
1.0
 10
50.294092567
 20
114.4125597453
 30
0.0
 10
50.1059932241
 20
114.7397310898
 30
0.0
 10
49.9074742831
 20
115.5236289069
 30
0.0
 10
50.0574243871
 20
116.3100308944
 30
0.0
 10
50.2137496801
 20
116.6747334207
 30
0.0
  0
SPLINE
  5
32E
100
AcDbEntity
  8
0
100
AcDbSpline
 62
7
  6
CONTINUOUS
 70
0
 71
3
 72
9
 73
5
 74
0
 42
0.0000001
 43
0.0000001
 44
0.0000000001
 40
0.0
 40
0.0
 40
0.0
 40
0.0
 40
0.5124353402
 40
1.0
 40
1.0
 40
1.0
 40
1.0
 10
24.5379637848
 20
113.7131295605
 30
0.0
 10
24.3821977593
 20
113.3497317895
 30
0.0
 10
24.2321932512
 20
112.5662563294
 30
0.0
 10
24.4281755999
 20
111.7849217739
 30
0.0
 10
24.6143124192
 20
111.4580143691
 30
0.0
  0
SPLINE
  5
32F
100
AcDbEntity
  8
0
100
AcDbSpline
 62
7
  6
CONTINUOUS
 70
0
 71
3
 72
9
 73
5
 74
0
 42
0.0000001
 43
0.0000001
 44
0.0000000001
 40
0.0
 40
0.0
 40
0.0
 40
0.0
 40
0.485288319
 40
1.0
 40
1.0
 40
1.0
 40
1.0
 10
25.3455835946
 20
114.7209121186
 30
0.0
 10
25.1703363774
 20
114.6033020732
 30
0.0
 10
24.8488377328
 20
114.2990419407
 30
0.0
 10
24.6261542153
 20
113.9188753628
 30
0.0
 10
24.5379637848
 20
113.7131295605
 30
0.0
  0
SPLINE
  5
330
100
AcDbEntity
  8
0
100
AcDbSpline
 62
7
  6
CONTINUOUS
 70
0
 71
3
 72
12
 73
8
 74
0
 42
0.0000001
 43
0.0000001
 44
0.0000000001
 40
0.0
 40
0.0
 40
0.0
 40
0.0
 40
0.2736528901
 40
0.5311287113
 40
0.7709006368
 40
0.8862593339
 40
1.0
 40
1.0
 40
1.0
 40
1.0
 10
24.1316750836
 20
113.787128516
 30
0.0
 10
24.2218474725
 20
113.9974981717
 30
0.0
 10
24.4510956538
 20
114.385671868
 30
0.0
 10
24.9302160626
 20
114.8314435411
 30
0.0
 10
25.4108436486
 20
115.0423422547
 30
0.0
 10
25.8023014509
 20
115.0901127347
 30
0.0
 10
25.9948876853
 20
115.0749004972
 30
0.0
 10
26.0884804635
 20
115.0578584713
 30
0.0
  0
SPLINE
  5
331
100
AcDbEntity
  8
0
100
AcDbSpline
 62
7
  6
CONTINUOUS
 70
0
 71
3
 72
12
 73
8
 74
0
 42
0.0000001
 43
0.0000001
 44
0.0000000001
 40
0.0
 40
0.0
 40
0.0
 40
0.0
 40
0.2736528901
 40
0.5311287113
 40
0.7709006368
 40
0.8862593339
 40
1.0
 40
1.0
 40
1.0
 40
1.0
 10
27.6484880655
 20
111.7567415277
 30
0.0
 10
27.7386604544
 20
111.9671111834
 30
0.0
 10
27.9679086357
 20
112.3552848797
 30
0.0
 10
28.4470290445
 20
112.8010565528
 30
0.0
 10
28.9276566305
 20
113.0119552664
 30
0.0
 10
29.3191144328
 20
113.0597257464
 30
0.0
 10
29.5117006672
 20
113.0445135089
 30
0.0
 10
29.6052934454
 20
113.027471483
 30
0.0
  0
SPLINE
  5
332
100
AcDbEntity
  8
0
100
AcDbSpline
 62
7
  6
CONTINUOUS
 70
0
 71
3
 72
12
 73
8
 74
0
 42
0.0000001
 43
0.0000001
 44
0.0000000001
 40
0.0
 40
0.0
 40
0.0
 40
0.0
 40
0.2736528901
 40
0.5311287113
 40
0.7709006368
 40
0.8862593339
 40
1.0
 40
1.0
 40
1.0
 40
1.0
 10
31.1523079063
 20
109.7338559632
 30
0.0
 10
31.2424802953
 20
109.9442256189
 30
0.0
 10
31.4717284766
 20
110.3323993152
 30
0.0
 10
31.9508488854
 20
110.7781709883
 30
0.0
 10
32.4314764714
 20
110.9890697018
 30
0.0
 10
32.8229342737
 20
111.0368401819
 30
0.0
 10
33.0155205081
 20
111.0216279443
 30
0.0
 10
33.1091132863
 20
111.0045859185
 30
0.0
  0
SPLINE
  5
333
100
AcDbEntity
  8
0
100
AcDbSpline
 62
7
  6
CONTINUOUS
 70
0
 71
3
 72
12
 73
8
 74
0
 42
0.0000001
 43
0.0000001
 44
0.0000000001
 40
0.0
 40
0.0
 40
0.0
 40
0.0
 40
0.2736528901
 40
0.5311287113
 40
0.7709006368
 40
0.8862593339
 40
1.0
 40
1.0
 40
1.0
 40
1.0
 10
34.6691208883
 20
107.7034689749
 30
0.0
 10
34.7592932772
 20
107.9138386306
 30
0.0
 10
34.9885414585
 20
108.3020123268
 30
0.0
 10
35.4676618673
 20
108.747784
 30
0.0
 10
35.9482894534
 20
108.9586827135
 30
0.0
 10
36.3397472556
 20
109.0064531936
 30
0.0
 10
36.53233349
 20
108.991240956
 30
0.0
 10
36.6259262682
 20
108.9741989301
 30
0.0
  0
SPLINE
  5
334
100
AcDbEntity
  8
0
100
AcDbSpline
 62
7
  6
CONTINUOUS
 70
0
 71
3
 72
9
 73
5
 74
0
 42
0.0000001
 43
0.0000001
 44
0.0000000001
 40
0.0
 40
0.0
 40
0.0
 40
0.0
 40
0.5125786922
 40
1.0
 40
1.0
 40
1.0
 40
1.0
 10
28.0547767667
 20
111.6827425722
 30
0.0
 10
27.8983019606
 20
111.3176912359
 30
0.0
 10
27.7483679856
 20
110.5305410357
 30
0.0
 10
27.9475458875
 20
109.7459819456
 30
0.0
 10
28.1361638477
 20
109.4187730626
 30
0.0
  0
ENDSEC
  0
SECTION
  2
OBJECTS
  0
DICTIONARY
  5
C
100
AcDbDictionary
280
0
281
1
  3
ACAD_GROUP
350
D
  3
ACAD_MLINESTYLE
350
17
  3
ACAD_LAYOUT
350
1A
  3
ACAD_PLOTSETTINGS
350
19
  3
ACAD_PLOTSTYLENAME
350
E
  0
DICTIONARY
  5
D
102
{ACAD_REACTORS
330
C
102
}
100
AcDbDictionary
280
0
281
1
  0
ACDBDICTIONARYWDFLT
  5
E
102
{ACAD_REACTORS
330
C
102
}
100
AcDbDictionary
281
1
  3
Normal
350
F
100
AcDbDictionaryWithDefault
340
F
  0
DICTIONARY
  5
17
102
{ACAD_REACTORS
330
C
102
}
100
AcDbDictionary
280
0
281
1
  3
Standard
350
18
  0
DICTIONARY
  5
19
102
{ACAD_REACTORS
330
C
102
}
100
AcDbDictionary
281
1
  0
DICTIONARY
  5
1A
102
{ACAD_REACTORS
330
C
102
}
100
AcDbDictionary
281
1
  3
Model
350
335
  3
Layout1
350
336
  0
ACDBPLACEHOLDER
  5
F
102
{ACAD_REACTORS
330
E
102
}
  0
MLINESTYLE
  5
18
102
{ACAD_REACTORS
330
17
102
}
100
AcDbMlineStyle
  2
STANDARD
 70
0
  3

 62
256
 51
90.0
 52
90.0
 71
2
 49
0.5
 62
256
  6
BYLAYER
 49
-0.5
 62
256
  6
BYLAYER
  0
LAYOUT
  5
335
102
{ACAD_REACTORS
330
1A
102
}
100
AcDbPlotSettings
  1

  2
none_device
  4

  6

 40
0.0
 41
0.0
 42
0.0
 43
0.0
 44
210.0
 45
297.0
 46
0.0
 47
0.0
 48
0.0
 49
0.0
140
0.0
141
0.0
142
1.0
143
1.0
 70
1024
 72
1
 73
0
 74
0
  7

 75
0
147
1.0
148
0.0
149
0.0
100
AcDbLayout
  1
Model
 70
0
 71
0
 10
0.0
 20
0.0
 11
210.0
 21
297.0
 12
0.0
 22
0.0
 32
0.0
 14
0.0
 24
0.0
 34
0.0
 15
0.0
 25
0.0
 35
0.0
146
0.0
 13
0.0
 23
0.0
 33
0.0
 16
1.0
 26
0.0
 36
0.0
 17
0.0
 27
1.0
 37
0.0
 76
0
330
210
345
0
346
0
  0
LAYOUT
  5
336
102
{ACAD_REACTORS
330
1A
102
}
100
AcDbPlotSettings
  1

  2
none_device
  4

  6

 40
0.0
 41
0.0
 42
0.0
 43
0.0
 44
210.0
 45
297.0
 46
0.0
 47
0.0
 48
0.0
 49
0.0
140
0.0
141
0.0
142
1.0
143
1.0
 70
0
 72
1
 73
0
 74
0
  7

 75
0
147
1.0
148
0.0
149
0.0
100
AcDbLayout
  1
Layout1
 70
0
 71
1
 10
0.0
 20
0.0
 11
210.0
 21
297.0
 12
0.0
 22
0.0
 32
0.0
 14
0.0
 24
0.0
 34
0.0
 15
0.0
 25
0.0
 35
0.0
146
0.0
 13
0.0
 23
0.0
 33
0.0
 16
1.0
 26
0.0
 36
0.0
 17
0.0
 27
1.0
 37
0.0
 76
0
330
211
345
0
346
0
  0
ENDSEC
  0
EOF
