999
DXF file: C:\Users\sesa63760\Dev\_Creo\CAD\MCADID0001054_3D-CAD\drw0001_6.dxf
999
Pro/ENGINEER 2019471 by Parametric Technology Corporation
  0
SECTION
  2
HEADER
  9
$ACADVER
  1
AC1024
  9
$DWGCODEPAGE
  3
ANSI_1252
  9
$EXTMAX
 10
696.5155514085
 20
985.0719941349
 30
0.0
  9
$EXTMIN
 10
0.0
 20
0.0
 30
0.0
  9
$LIMMIN
 10
0.0
 20
0.0
  9
$LIMMAX
 10
696.5155514085
 20
985.0719941349
  9
$VIEWCTR
 10
348.2577757043
 20
492.5359970674
  9
$VIEWSIZE
 40
985.0719941349
  9
$CLAYER
  8
0
  9
$LTSCALE
 40
64.2121003584
  9
$CELTYPE
  6
BYLAYER
  9
$DIMSCALE
 40
1.0
  9
$DIMASZ
 40
8.2918518025
  9
$DIMEXO
 40
1.0
  9
$DIMDLI
 40
44.364723884
  9
$DIMEXE
 40
1.0
  9
$DIMCEN
 40
10.5074346041
  9
$DIMLFAC
 40
1.0
  9
$DIMBLK
  1
_FILLED
  9
$DIMALT
 70
0
  9
$DIMALTF
 40
0.0393700787
  9
$DIMTXT
 40
11.6085925235
  9
$DIMTOL
 70
1
  9
$DIMLIM
 70
0
  9
$DIMTFAC
 40
1.0
  9
$DIMTP
 40
0.01
  9
$DIMTM
 40
0.01
  9
$DIMGAP
 40
0.625
  9
$DIMDSEP
 70
46
  9
$AUNITS
 70
0
  9
$PDMODE
 70
3
  9
$PDSIZE
 40
0.3125
  9
$HANDSEED
  5
445
  9
$TILEMODE
 70
1
  9
$MEASUREMENT
 70
1
  9
$INSUNITS
 70
4
  0
ENDSEC
  0
SECTION
  2
CLASSES
  0
CLASS
  1
ACDBDICTIONARYWDFLT
  2
AcDbDictionaryWithDefault
  3
AutoCAD 2000
 90
0
 91
1
280
0
281
0
  0
CLASS
  1
ACDBPLACEHOLDER
  2
AcDbPlaceHolder
  3
AutoCAD 2000
 90
0
 91
1
280
0
281
0
  0
CLASS
  1
LAYOUT
  2
AcDbLayout
  3
AutoCAD 2000
 90
0
 91
0
280
0
281
0
  0
ENDSEC
  0
SECTION
  2
TABLES
  0
TABLE
  2
VPORT
  5
8
100
AcDbSymbolTable
 70
2
  0
VPORT
  5
1F4
100
AcDbSymbolTableRecord
100
AcDbViewportTableRecord
  2
*ACTIVE
 70
0
 10
0.0
 20
0.0
 11
1.0
 21
1.0
 12
348.2577757043
 22
492.5359970674
 13
0.0
 23
0.0
 14
1.0
 24
1.0
 15
0.0
 25
0.0
 16
0.0
 26
0.0
 36
1.0
 17
0.0
 27
0.0
 37
0.0
 40
985.0719941349
 41
0.7070707071
 42
50.0
 43
0.0
 44
0.0
 50
0.0
 51
0.0
 71
0
 72
100
 73
1
 74
1
 75
0
 76
0
 77
0
 78
0
  0
ENDTAB
  0
TABLE
  2
LTYPE
  5
5
100
AcDbSymbolTable
 70
6
  0
LTYPE
  5
14
100
AcDbSymbolTableRecord
100
AcDbLinetypeTableRecord
  2
BYBLOCK
 70
0
  3

 72
65
 73
0
 40
0.0
  0
LTYPE
  5
15
100
AcDbSymbolTableRecord
100
AcDbLinetypeTableRecord
  2
BYLAYER
 70
0
  3

 72
65
 73
0
 40
0.0
  0
LTYPE
  5
16
100
AcDbSymbolTableRecord
100
AcDbLinetypeTableRecord
  2
CONTINUOUS
 70
64
  3
Solid line
 72
65
 73
0
 40
0.0
  0
LTYPE
  5
1F5
100
AcDbSymbolTableRecord
100
AcDbLinetypeTableRecord
  2
CENTER
 70
64
  3
____ _ ____ _ ____ _ ____ _ ____ _ ____ _ ____
 72
65
 73
4
 40
0.6
 49
0.375
 74
0
 49
-0.075
 74
0
 49
0.075
 74
0
 49
-0.075
 74
0
  0
LTYPE
  5
1F6
100
AcDbSymbolTableRecord
100
AcDbLinetypeTableRecord
  2
HIDDEN
 70
64
  3
- - - - - - - - - - - - - - - - - - - -
 72
65
 73
2
 40
0.2
 49
0.1
 74
0
 49
-0.1
 74
0
  0
LTYPE
  5
1F7
100
AcDbSymbolTableRecord
100
AcDbLinetypeTableRecord
  2
PHANTOM
 70
64
  3
_____ _ _ _____ _ _ _____ _ _ _____
 72
65
 73
6
 40
0.8
 49
0.45
 74
0
 49
-0.05
 74
0
 49
0.1
 74
0
 49
-0.05
 74
0
 49
0.1
 74
0
 49
-0.05
 74
0
  0
LTYPE
  5
1F8
100
AcDbSymbolTableRecord
100
AcDbLinetypeTableRecord
  2
DOT
 70
64
  3
. . . . . . . . . . . . . . . . . . . .
 72
65
 73
2
 40
0.2
 49
0.1
 74
0
 49
-0.1
 74
0
  0
LTYPE
  5
1F9
100
AcDbSymbolTableRecord
100
AcDbLinetypeTableRecord
  2
DASHED
 70
64
  3
- - - - - - - - - - - - - - - - - - - -
 72
65
 73
2
 40
0.2
 49
0.1
 74
0
 49
-0.1
 74
0
  0
ENDTAB
  0
TABLE
  2
LAYER
  5
2
100
AcDbSymbolTable
 70
36
  0
LAYER
  5
10
100
AcDbSymbolTableRecord
100
AcDbLayerTableRecord
  2
0
 70
0
 62
7
  6
CONTINUOUS
370
-3
390
F
  0
LAYER
  5
1FA
100
AcDbSymbolTableRecord
100
AcDbLayerTableRecord
  2
DEFAULT_1
 70
0
 62
7
  6
CENTER
370
-3
390
F
  0
LAYER
  5
1FB
100
AcDbSymbolTableRecord
100
AcDbLayerTableRecord
  2
DEFAULT_2
 70
0
 62
8
  6
HIDDEN
370
-3
390
F
  0
LAYER
  5
1FC
100
AcDbSymbolTableRecord
100
AcDbLayerTableRecord
  2
DEFAULT_3
 70
0
 62
7
  6
PHANTOM
370
-3
390
F
  0
LAYER
  5
1FD
100
AcDbSymbolTableRecord
100
AcDbLayerTableRecord
  2
00_COMPONENTS
 70
0
 62
7
  6
CONTINUOUS
370
-3
390
F
  0
LAYER
  5
1FE
100
AcDbSymbolTableRecord
100
AcDbLayerTableRecord
  2
01_1_DEFAULT_DATUMS
 70
0
 62
7
  6
CONTINUOUS
370
-3
390
F
  0
LAYER
  5
1FF
100
AcDbSymbolTableRecord
100
AcDbLayerTableRecord
  2
01_PLANES
 70
0
 62
7
  6
CONTINUOUS
370
-3
390
F
  0
LAYER
  5
200
100
AcDbSymbolTableRecord
100
AcDbLayerTableRecord
  2
02_COORD_SYS
 70
0
 62
7
  6
CONTINUOUS
370
-3
390
F
  0
LAYER
  5
201
100
AcDbSymbolTableRecord
100
AcDbLayerTableRecord
  2
03_AXES
 70
0
 62
7
  6
CONTINUOUS
370
-3
390
F
  0
LAYER
  5
202
100
AcDbSymbolTableRecord
100
AcDbLayerTableRecord
  2
04_POINTS
 70
0
 62
7
  6
CONTINUOUS
370
-3
390
F
  0
LAYER
  5
203
100
AcDbSymbolTableRecord
100
AcDbLayerTableRecord
  2
05_CURVES
 70
0
 62
7
  6
CONTINUOUS
370
-3
390
F
  0
LAYER
  5
204
100
AcDbSymbolTableRecord
100
AcDbLayerTableRecord
  2
06_SURFS
 70
0
 62
7
  6
CONTINUOUS
370
-3
390
F
  0
LAYER
  5
205
100
AcDbSymbolTableRecord
100
AcDbLayerTableRecord
  2
07_COSMETICS
 70
0
 62
7
  6
CONTINUOUS
370
-3
390
F
  0
LAYER
  5
206
100
AcDbSymbolTableRecord
100
AcDbLayerTableRecord
  2
10_NOTES
 70
0
 62
7
  6
CONTINUOUS
370
-3
390
F
  0
LAYER
  5
207
100
AcDbSymbolTableRecord
100
AcDbLayerTableRecord
  2
11_NOTES_PUB
 70
0
 62
7
  6
CONTINUOUS
370
-3
390
F
  0
LAYER
  5
208
100
AcDbSymbolTableRecord
100
AcDbLayerTableRecord
  2
13_REF_GTOL
 70
0
 62
7
  6
CONTINUOUS
370
-3
390
F
  0
LAYER
  5
209
100
AcDbSymbolTableRecord
100
AcDbLayerTableRecord
  2
16_MISC
 70
0
 62
7
  6
CONTINUOUS
370
-3
390
F
  0
LAYER
  5
20A
100
AcDbSymbolTableRecord
100
AcDbLayerTableRecord
  2
17_NO_PRINT
 70
0
 62
7
  6
CONTINUOUS
370
-3
390
F
  0
LAYER
  5
20B
100
AcDbSymbolTableRecord
100
AcDbLayerTableRecord
  2
18_DATUM_CAMS_JOINTS
 70
0
 62
7
  6
CONTINUOUS
370
-3
390
F
  0
LAYER
  5
20C
100
AcDbSymbolTableRecord
100
AcDbLayerTableRecord
  2
19_DATUM_FUNCTIONAL
 70
0
 62
7
  6
CONTINUOUS
370
-3
390
F
  0
LAYER
  5
20D
100
AcDbSymbolTableRecord
100
AcDbLayerTableRecord
  2
20_DATUM_KINEMATIC_SCHEME
 70
0
 62
7
  6
CONTINUOUS
370
-3
390
F
  0
ENDTAB
  0
TABLE
  2
STYLE
  5
3
100
AcDbSymbolTable
 70
1
  0
STYLE
  5
11
100
AcDbSymbolTableRecord
100
AcDbTextStyleTableRecord
  2
STANDARD
 70
0
 40
0.0
 41
0.8
 50
0.0
 71
0
 42
0.2
  3
txt
  4

  0
STYLE
  5
20E
100
AcDbSymbolTableRecord
100
AcDbTextStyleTableRecord
  2
TEXTSTYLE_1
 70
0
 40
0.0
 41
0.8
 50
0.0
 71
0
 42
0.2
  3
gdt
  4

  0
ENDTAB
  0
TABLE
  2
VIEW
  5
6
100
AcDbSymbolTable
 70
0
  0
ENDTAB
  0
TABLE
  2
UCS
  5
7
100
AcDbSymbolTable
 70
0
  0
ENDTAB
  0
TABLE
  2
APPID
  5
9
100
AcDbSymbolTable
 70
1
  0
APPID
  5
20F
100
AcDbSymbolTableRecord
100
AcDbRegAppTableRecord
  2
ACAD
 70
0
  0
ENDTAB
  0
TABLE
  2
BLOCK_RECORD
  5
1
100
AcDbSymbolTable
 70
0
  0
BLOCK_RECORD
  5
210
100
AcDbSymbolTableRecord
100
AcDbBlockTableRecord
  2
*Model_Space
  0
BLOCK_RECORD
  5
211
100
AcDbSymbolTableRecord
100
AcDbBlockTableRecord
  2
*Paper_Space
  0
BLOCK_RECORD
  5
212
100
AcDbSymbolTableRecord
100
AcDbBlockTableRecord
  2
_FILLED
  0
ENDTAB
  0
TABLE
  2
DIMSTYLE
  5
A
100
AcDbSymbolTable
 70
1
100
AcDbDimStyleTable
 71
0
  0
DIMSTYLE
105
213
100
AcDbSymbolTableRecord
100
AcDbDimStyleTableRecord
  2
STANDARD
 70
0
  3

  4

 40
1.0
 41
8.2918518025
 42
1.0
 43
0.38
 44
1.0
 45
0.0
 46
0.0
 47
0.01
 48
0.01
140
11.6085925235
141
0.09
142
0.0
143
25.4
144
1.0
145
0.0
146
1.0
147
0.625
 71
1
 72
0
 73
0
 74
0
 75
0
 76
0
 77
1
 78
8
 79
2
170
0
171
1
172
0
173
0
174
0
175
0
176
0
177
0
178
0
270
2
179
2
271
2
272
2
273
2
274
2
275
0
280
0
281
0
282
0
283
1
284
8
285
0
286
0
287
3
288
0
340
11
278
46
341
212
342
212
343
212
344
212
  0
ENDTAB
  0
ENDSEC
  0
SECTION
  2
BLOCKS
  0
BLOCK
  5
20
100
AcDbEntity
  8
0
100
AcDbBlockBegin
  2
*Model_Space
 70
0
 10
0.0
 20
0.0
 30
0.0
  3
*Model_Space
  1

  0
ENDBLK
  5
21
100
AcDbEntity
  8
0
100
AcDbBlockEnd
  0
BLOCK
  5
1C
100
AcDbEntity
  8
0
100
AcDbBlockBegin
  2
*Paper_Space
 70
0
 10
0.0
 20
0.0
 30
0.0
  3
*Paper_Space
  1

  0
ENDBLK
  5
1D
100
AcDbEntity
  8
0
100
AcDbBlockEnd
  0
BLOCK
  5
214
100
AcDbEntity
  8
0
100
AcDbBlockBegin
  2
_FILLED
 70
64
 10
0.0
 20
0.0
  3
_FILLED
  1

  0
SOLID
  5
215
100
AcDbEntity
  8
0
  6
BYBLOCK
 62
0
100
AcDbTrace
 10
0.0
 20
0.0
 11
-1.0
 21
0.25
 12
-1.0
 22
-0.25
 13
-1.0
 23
-0.25
  0
ENDBLK
  5
216
100
AcDbEntity
  8
0
  6
BYBLOCK
 62
0
100
AcDbBlockEnd
  0
ENDSEC
  0
SECTION
  2
ENTITIES
  0
LINE
  5
217
100
AcDbEntity
  8
0
100
AcDbLine
 62
7
  6
CONTINUOUS
 10
339.1998727019
 20
81.3859970674
 11
277.1998727019
 21
81.3859970674
  0
LINE
  5
218
100
AcDbEntity
  8
0
100
AcDbLine
 62
7
  6
CONTINUOUS
 10
253.4998133893
 20
88.6859970674
 11
232.7999320146
 21
88.6859970674
  0
LINE
  5
219
100
AcDbEntity
  8
0
100
AcDbLine
 62
7
  6
CONTINUOUS
 10
269.9998727019
 20
90.1859970674
 11
346.3998727019
 21
90.1859970674
  0
LINE
  5
21A
100
AcDbEntity
  8
0
100
AcDbLine
 62
7
  6
CONTINUOUS
 10
257.043556782
 20
91.4539970674
 11
232.7760071757
 21
91.4539970674
  0
LINE
  5
21B
100
AcDbEntity
  8
0
100
AcDbLine
 62
7
  6
CONTINUOUS
 10
232.7380946059
 20
91.4539970674
 11
229.2561886218
 21
91.4539970674
  0
LINE
  5
21C
100
AcDbEntity
  8
0
100
AcDbLine
 62
7
  6
CONTINUOUS
 10
211.2998727019
 20
96.1859970674
 11
385.6998727019
 21
96.1859970674
  0
LINE
  5
21D
100
AcDbEntity
  8
0
100
AcDbLine
 62
7
  6
CONTINUOUS
 10
209.2876999379
 20
102.9459970674
 11
209.2633037022
 21
102.9459970674
  0
LINE
  5
21E
100
AcDbEntity
  8
0
100
AcDbLine
 62
7
  6
CONTINUOUS
 10
209.2876999379
 20
110.3459970674
 11
209.2633315289
 21
110.3459970674
  0
LINE
  5
21F
100
AcDbEntity
  8
0
100
AcDbLine
 62
7
  6
CONTINUOUS
 10
240.6498727019
 20
125.0359970674
 11
258.4498727019
 21
125.0359970674
  0
LINE
  5
220
100
AcDbEntity
  8
0
100
AcDbLine
 62
7
  6
CONTINUOUS
 10
261.6498727019
 20
125.0359970674
 11
279.4498727019
 21
125.0359970674
  0
LINE
  5
221
100
AcDbEntity
  8
0
100
AcDbLine
 62
7
  6
CONTINUOUS
 10
282.6498727019
 20
125.0359970674
 11
300.4498727019
 21
125.0359970674
  0
LINE
  5
222
100
AcDbEntity
  8
0
100
AcDbLine
 62
7
  6
CONTINUOUS
 10
303.6498727019
 20
125.0359970674
 11
321.4498727019
 21
125.0359970674
  0
LINE
  5
223
100
AcDbEntity
  8
0
100
AcDbLine
 62
7
  6
CONTINUOUS
 10
324.6498727019
 20
125.0359970674
 11
342.4498727019
 21
125.0359970674
  0
LINE
  5
224
100
AcDbEntity
  8
0
100
AcDbLine
 62
7
  6
CONTINUOUS
 10
342.4498727019
 20
129.3359970674
 11
324.6498727019
 21
129.3359970674
  0
LINE
  5
225
100
AcDbEntity
  8
0
100
AcDbLine
 62
7
  6
CONTINUOUS
 10
321.4498727019
 20
129.3359970674
 11
303.6498727019
 21
129.3359970674
  0
LINE
  5
226
100
AcDbEntity
  8
0
100
AcDbLine
 62
7
  6
CONTINUOUS
 10
300.4498727019
 20
129.3359970674
 11
282.6498727019
 21
129.3359970674
  0
LINE
  5
227
100
AcDbEntity
  8
0
100
AcDbLine
 62
7
  6
CONTINUOUS
 10
279.4498727019
 20
129.3359970674
 11
261.6498727019
 21
129.3359970674
  0
LINE
  5
228
100
AcDbEntity
  8
0
100
AcDbLine
 62
7
  6
CONTINUOUS
 10
258.4498727019
 20
129.3359970674
 11
240.6498727019
 21
129.3359970674
  0
LINE
  5
229
100
AcDbEntity
  8
0
100
AcDbLine
 62
7
  6
CONTINUOUS
 10
240.6498727019
 20
134.0359970674
 11
258.4498727019
 21
134.0359970674
  0
LINE
  5
22A
100
AcDbEntity
  8
0
100
AcDbLine
 62
7
  6
CONTINUOUS
 10
261.6498727019
 20
134.0359970674
 11
279.4498727019
 21
134.0359970674
  0
LINE
  5
22B
100
AcDbEntity
  8
0
100
AcDbLine
 62
7
  6
CONTINUOUS
 10
282.6498727019
 20
134.0359970674
 11
300.4498727019
 21
134.0359970674
  0
LINE
  5
22C
100
AcDbEntity
  8
0
100
AcDbLine
 62
7
  6
CONTINUOUS
 10
303.6498727019
 20
134.0359970674
 11
321.4498727019
 21
134.0359970674
  0
LINE
  5
22D
100
AcDbEntity
  8
0
100
AcDbLine
 62
7
  6
CONTINUOUS
 10
324.6498727019
 20
134.0359970674
 11
342.4498727019
 21
134.0359970674
  0
LINE
  5
22E
100
AcDbEntity
  8
0
100
AcDbLine
 62
7
  6
CONTINUOUS
 10
342.4498727019
 20
138.3359970674
 11
324.6498727019
 21
138.3359970674
  0
LINE
  5
22F
100
AcDbEntity
  8
0
100
AcDbLine
 62
7
  6
CONTINUOUS
 10
321.4498727019
 20
138.3359970674
 11
303.6498727019
 21
138.3359970674
  0
LINE
  5
230
100
AcDbEntity
  8
0
100
AcDbLine
 62
7
  6
CONTINUOUS
 10
300.4498727019
 20
138.3359970674
 11
282.6498727019
 21
138.3359970674
  0
LINE
  5
231
100
AcDbEntity
  8
0
100
AcDbLine
 62
7
  6
CONTINUOUS
 10
279.4498727019
 20
138.3359970674
 11
261.6498727019
 21
138.3359970674
  0
LINE
  5
232
100
AcDbEntity
  8
0
100
AcDbLine
 62
7
  6
CONTINUOUS
 10
258.4498727019
 20
138.3359970674
 11
240.6498727019
 21
138.3359970674
  0
LINE
  5
233
100
AcDbEntity
  8
0
100
AcDbLine
 62
7
  6
CONTINUOUS
 10
240.6498727019
 20
143.0359970674
 11
258.4498727019
 21
143.0359970674
  0
LINE
  5
234
100
AcDbEntity
  8
0
100
AcDbLine
 62
7
  6
CONTINUOUS
 10
261.6498727019
 20
143.0359970674
 11
279.4498727019
 21
143.0359970674
  0
LINE
  5
235
100
AcDbEntity
  8
0
100
AcDbLine
 62
7
  6
CONTINUOUS
 10
282.6498727019
 20
143.0359970674
 11
300.4498727019
 21
143.0359970674
  0
LINE
  5
236
100
AcDbEntity
  8
0
100
AcDbLine
 62
7
  6
CONTINUOUS
 10
303.6498727019
 20
143.0359970674
 11
321.4498727019
 21
143.0359970674
  0
LINE
  5
237
100
AcDbEntity
  8
0
100
AcDbLine
 62
7
  6
CONTINUOUS
 10
324.6498727019
 20
143.0359970674
 11
342.4498727019
 21
143.0359970674
  0
LINE
  5
238
100
AcDbEntity
  8
0
100
AcDbLine
 62
7
  6
CONTINUOUS
 10
342.4498727019
 20
147.3359970674
 11
324.6498727019
 21
147.3359970674
  0
LINE
  5
239
100
AcDbEntity
  8
0
100
AcDbLine
 62
7
  6
CONTINUOUS
 10
321.4498727019
 20
147.3359970674
 11
303.6498727019
 21
147.3359970674
  0
LINE
  5
23A
100
AcDbEntity
  8
0
100
AcDbLine
 62
7
  6
CONTINUOUS
 10
300.4498727019
 20
147.3359970674
 11
282.6498727019
 21
147.3359970674
  0
LINE
  5
23B
100
AcDbEntity
  8
0
100
AcDbLine
 62
7
  6
CONTINUOUS
 10
279.4498727019
 20
147.3359970674
 11
261.6498727019
 21
147.3359970674
  0
LINE
  5
23C
100
AcDbEntity
  8
0
100
AcDbLine
 62
7
  6
CONTINUOUS
 10
258.4498727019
 20
147.3359970674
 11
240.6498727019
 21
147.3359970674
  0
LINE
  5
23D
100
AcDbEntity
  8
0
100
AcDbLine
 62
7
  6
CONTINUOUS
 10
240.6498727019
 20
152.0359970674
 11
258.4498727019
 21
152.0359970674
  0
LINE
  5
23E
100
AcDbEntity
  8
0
100
AcDbLine
 62
7
  6
CONTINUOUS
 10
261.6498727019
 20
152.0359970674
 11
279.4498727019
 21
152.0359970674
  0
LINE
  5
23F
100
AcDbEntity
  8
0
100
AcDbLine
 62
7
  6
CONTINUOUS
 10
282.6498727019
 20
152.0359970674
 11
300.4498727019
 21
152.0359970674
  0
LINE
  5
240
100
AcDbEntity
  8
0
100
AcDbLine
 62
7
  6
CONTINUOUS
 10
303.6498727019
 20
152.0359970674
 11
321.4498727019
 21
152.0359970674
  0
LINE
  5
241
100
AcDbEntity
  8
0
100
AcDbLine
 62
7
  6
CONTINUOUS
 10
324.6498727019
 20
152.0359970674
 11
342.4498727019
 21
152.0359970674
  0
LINE
  5
242
100
AcDbEntity
  8
0
100
AcDbLine
 62
7
  6
CONTINUOUS
 10
342.4498727019
 20
156.3359970674
 11
324.6498727019
 21
156.3359970674
  0
LINE
  5
243
100
AcDbEntity
  8
0
100
AcDbLine
 62
7
  6
CONTINUOUS
 10
321.4498727019
 20
156.3359970674
 11
303.6498727019
 21
156.3359970674
  0
LINE
  5
244
100
AcDbEntity
  8
0
100
AcDbLine
 62
7
  6
CONTINUOUS
 10
300.4498727019
 20
156.3359970674
 11
282.6498727019
 21
156.3359970674
  0
LINE
  5
245
100
AcDbEntity
  8
0
100
AcDbLine
 62
7
  6
CONTINUOUS
 10
279.4498727019
 20
156.3359970674
 11
261.6498727019
 21
156.3359970674
  0
LINE
  5
246
100
AcDbEntity
  8
0
100
AcDbLine
 62
7
  6
CONTINUOUS
 10
258.4498727019
 20
156.3359970674
 11
240.6498727019
 21
156.3359970674
  0
LINE
  5
247
100
AcDbEntity
  8
0
100
AcDbLine
 62
7
  6
CONTINUOUS
 10
240.6498727019
 20
161.0359970674
 11
258.4498727019
 21
161.0359970674
  0
LINE
  5
248
100
AcDbEntity
  8
0
100
AcDbLine
 62
7
  6
CONTINUOUS
 10
261.6498727019
 20
161.0359970674
 11
279.4498727019
 21
161.0359970674
  0
LINE
  5
249
100
AcDbEntity
  8
0
100
AcDbLine
 62
7
  6
CONTINUOUS
 10
282.6498727019
 20
161.0359970674
 11
300.4498727019
 21
161.0359970674
  0
LINE
  5
24A
100
AcDbEntity
  8
0
100
AcDbLine
 62
7
  6
CONTINUOUS
 10
303.6498727019
 20
161.0359970674
 11
321.4498727019
 21
161.0359970674
  0
LINE
  5
24B
100
AcDbEntity
  8
0
100
AcDbLine
 62
7
  6
CONTINUOUS
 10
324.6498727019
 20
161.0359970674
 11
342.4498727019
 21
161.0359970674
  0
LINE
  5
24C
100
AcDbEntity
  8
0
100
AcDbLine
 62
7
  6
CONTINUOUS
 10
342.4498727019
 20
165.3359970674
 11
324.6498727019
 21
165.3359970674
  0
LINE
  5
24D
100
AcDbEntity
  8
0
100
AcDbLine
 62
7
  6
CONTINUOUS
 10
321.4498727019
 20
165.3359970674
 11
303.6498727019
 21
165.3359970674
  0
LINE
  5
24E
100
AcDbEntity
  8
0
100
AcDbLine
 62
7
  6
CONTINUOUS
 10
300.4498727019
 20
165.3359970674
 11
282.6498727019
 21
165.3359970674
  0
LINE
  5
24F
100
AcDbEntity
  8
0
100
AcDbLine
 62
7
  6
CONTINUOUS
 10
279.4498727019
 20
165.3359970674
 11
261.6498727019
 21
165.3359970674
  0
LINE
  5
250
100
AcDbEntity
  8
0
100
AcDbLine
 62
7
  6
CONTINUOUS
 10
258.4498727019
 20
165.3359970674
 11
240.6498727019
 21
165.3359970674
  0
LINE
  5
251
100
AcDbEntity
  8
0
100
AcDbLine
 62
7
  6
CONTINUOUS
 10
240.6498727019
 20
170.0359970674
 11
258.4498727019
 21
170.0359970674
  0
LINE
  5
252
100
AcDbEntity
  8
0
100
AcDbLine
 62
7
  6
CONTINUOUS
 10
261.6498727019
 20
170.0359970674
 11
279.4498727019
 21
170.0359970674
  0
LINE
  5
253
100
AcDbEntity
  8
0
100
AcDbLine
 62
7
  6
CONTINUOUS
 10
282.6498727019
 20
170.0359970674
 11
300.4498727019
 21
170.0359970674
  0
LINE
  5
254
100
AcDbEntity
  8
0
100
AcDbLine
 62
7
  6
CONTINUOUS
 10
303.6498727019
 20
170.0359970674
 11
321.4498727019
 21
170.0359970674
  0
LINE
  5
255
100
AcDbEntity
  8
0
100
AcDbLine
 62
7
  6
CONTINUOUS
 10
324.6498727019
 20
170.0359970674
 11
342.4498727019
 21
170.0359970674
  0
LINE
  5
256
100
AcDbEntity
  8
0
100
AcDbLine
 62
7
  6
CONTINUOUS
 10
342.4498727019
 20
174.3359970674
 11
324.6498727019
 21
174.3359970674
  0
LINE
  5
257
100
AcDbEntity
  8
0
100
AcDbLine
 62
7
  6
CONTINUOUS
 10
321.4498727019
 20
174.3359970674
 11
303.6498727019
 21
174.3359970674
  0
LINE
  5
258
100
AcDbEntity
  8
0
100
AcDbLine
 62
7
  6
CONTINUOUS
 10
300.4498727019
 20
174.3359970674
 11
282.6498727019
 21
174.3359970674
  0
LINE
  5
259
100
AcDbEntity
  8
0
100
AcDbLine
 62
7
  6
CONTINUOUS
 10
279.4498727019
 20
174.3359970674
 11
261.6498727019
 21
174.3359970674
  0
LINE
  5
25A
100
AcDbEntity
  8
0
100
AcDbLine
 62
7
  6
CONTINUOUS
 10
258.4498727019
 20
174.3359970674
 11
240.6498727019
 21
174.3359970674
  0
LINE
  5
25B
100
AcDbEntity
  8
0
100
AcDbLine
 62
7
  6
CONTINUOUS
 10
240.6498727019
 20
179.0359970674
 11
258.4498727019
 21
179.0359970674
  0
LINE
  5
25C
100
AcDbEntity
  8
0
100
AcDbLine
 62
7
  6
CONTINUOUS
 10
261.6498727019
 20
179.0359970674
 11
279.4498727019
 21
179.0359970674
  0
LINE
  5
25D
100
AcDbEntity
  8
0
100
AcDbLine
 62
7
  6
CONTINUOUS
 10
282.6498727019
 20
179.0359970674
 11
300.4498727019
 21
179.0359970674
  0
LINE
  5
25E
100
AcDbEntity
  8
0
100
AcDbLine
 62
7
  6
CONTINUOUS
 10
303.6498727019
 20
179.0359970674
 11
321.4498727019
 21
179.0359970674
  0
LINE
  5
25F
100
AcDbEntity
  8
0
100
AcDbLine
 62
7
  6
CONTINUOUS
 10
324.6498727019
 20
179.0359970674
 11
342.4498727019
 21
179.0359970674
  0
LINE
  5
260
100
AcDbEntity
  8
0
100
AcDbLine
 62
7
  6
CONTINUOUS
 10
342.4498727019
 20
183.3359970674
 11
324.6498727019
 21
183.3359970674
  0
LINE
  5
261
100
AcDbEntity
  8
0
100
AcDbLine
 62
7
  6
CONTINUOUS
 10
321.4498727019
 20
183.3359970674
 11
303.6498727019
 21
183.3359970674
  0
LINE
  5
262
100
AcDbEntity
  8
0
100
AcDbLine
 62
7
  6
CONTINUOUS
 10
300.4498727019
 20
183.3359970674
 11
282.6498727019
 21
183.3359970674
  0
LINE
  5
263
100
AcDbEntity
  8
0
100
AcDbLine
 62
7
  6
CONTINUOUS
 10
279.4498727019
 20
183.3359970674
 11
261.6498727019
 21
183.3359970674
  0
LINE
  5
264
100
AcDbEntity
  8
0
100
AcDbLine
 62
7
  6
CONTINUOUS
 10
258.4498727019
 20
183.3359970674
 11
240.6498727019
 21
183.3359970674
  0
LINE
  5
265
100
AcDbEntity
  8
0
100
AcDbLine
 62
7
  6
CONTINUOUS
 10
240.6498727019
 20
188.0359970674
 11
258.4498727019
 21
188.0359970674
  0
LINE
  5
266
100
AcDbEntity
  8
0
100
AcDbLine
 62
7
  6
CONTINUOUS
 10
261.6498727019
 20
188.0359970674
 11
279.4498727019
 21
188.0359970674
  0
LINE
  5
267
100
AcDbEntity
  8
0
100
AcDbLine
 62
7
  6
CONTINUOUS
 10
282.6498727019
 20
188.0359970674
 11
300.4498727019
 21
188.0359970674
  0
LINE
  5
268
100
AcDbEntity
  8
0
100
AcDbLine
 62
7
  6
CONTINUOUS
 10
303.6498727019
 20
188.0359970674
 11
321.4498727019
 21
188.0359970674
  0
LINE
  5
269
100
AcDbEntity
  8
0
100
AcDbLine
 62
7
  6
CONTINUOUS
 10
324.6498727019
 20
188.0359970674
 11
342.4498727019
 21
188.0359970674
  0
LINE
  5
26A
100
AcDbEntity
  8
0
100
AcDbLine
 62
7
  6
CONTINUOUS
 10
342.4498727019
 20
192.3359970674
 11
324.6498727019
 21
192.3359970674
  0
LINE
  5
26B
100
AcDbEntity
  8
0
100
AcDbLine
 62
7
  6
CONTINUOUS
 10
321.4498727019
 20
192.3359970674
 11
303.6498727019
 21
192.3359970674
  0
LINE
  5
26C
100
AcDbEntity
  8
0
100
AcDbLine
 62
7
  6
CONTINUOUS
 10
300.4498727019
 20
192.3359970674
 11
282.6498727019
 21
192.3359970674
  0
LINE
  5
26D
100
AcDbEntity
  8
0
100
AcDbLine
 62
7
  6
CONTINUOUS
 10
279.4498727019
 20
192.3359970674
 11
261.6498727019
 21
192.3359970674
  0
LINE
  5
26E
100
AcDbEntity
  8
0
100
AcDbLine
 62
7
  6
CONTINUOUS
 10
258.4498727019
 20
192.3359970674
 11
240.6498727019
 21
192.3359970674
  0
LINE
  5
26F
100
AcDbEntity
  8
0
100
AcDbLine
 62
7
  6
CONTINUOUS
 10
240.6498727019
 20
197.0359970674
 11
258.4498727019
 21
197.0359970674
  0
LINE
  5
270
100
AcDbEntity
  8
0
100
AcDbLine
 62
7
  6
CONTINUOUS
 10
261.6498727019
 20
197.0359970674
 11
279.4498727019
 21
197.0359970674
  0
LINE
  5
271
100
AcDbEntity
  8
0
100
AcDbLine
 62
7
  6
CONTINUOUS
 10
282.6498727019
 20
197.0359970674
 11
300.4498727019
 21
197.0359970674
  0
LINE
  5
272
100
AcDbEntity
  8
0
100
AcDbLine
 62
7
  6
CONTINUOUS
 10
303.6498727019
 20
197.0359970674
 11
321.4498727019
 21
197.0359970674
  0
LINE
  5
273
100
AcDbEntity
  8
0
100
AcDbLine
 62
7
  6
CONTINUOUS
 10
324.6498727019
 20
197.0359970674
 11
342.4498727019
 21
197.0359970674
  0
LINE
  5
274
100
AcDbEntity
  8
0
100
AcDbLine
 62
7
  6
CONTINUOUS
 10
342.4498727019
 20
201.3359970674
 11
324.6498727019
 21
201.3359970674
  0
LINE
  5
275
100
AcDbEntity
  8
0
100
AcDbLine
 62
7
  6
CONTINUOUS
 10
321.4498727019
 20
201.3359970674
 11
303.6498727019
 21
201.3359970674
  0
LINE
  5
276
100
AcDbEntity
  8
0
100
AcDbLine
 62
7
  6
CONTINUOUS
 10
300.4498727019
 20
201.3359970674
 11
282.6498727019
 21
201.3359970674
  0
LINE
  5
277
100
AcDbEntity
  8
0
100
AcDbLine
 62
7
  6
CONTINUOUS
 10
279.4498727019
 20
201.3359970674
 11
261.6498727019
 21
201.3359970674
  0
LINE
  5
278
100
AcDbEntity
  8
0
100
AcDbLine
 62
7
  6
CONTINUOUS
 10
258.4498727019
 20
201.3359970674
 11
240.6498727019
 21
201.3359970674
  0
LINE
  5
279
100
AcDbEntity
  8
0
100
AcDbLine
 62
7
  6
CONTINUOUS
 10
240.6498727019
 20
206.0359970674
 11
258.4498727019
 21
206.0359970674
  0
LINE
  5
27A
100
AcDbEntity
  8
0
100
AcDbLine
 62
7
  6
CONTINUOUS
 10
261.6498727019
 20
206.0359970674
 11
279.4498727019
 21
206.0359970674
  0
LINE
  5
27B
100
AcDbEntity
  8
0
100
AcDbLine
 62
7
  6
CONTINUOUS
 10
282.6498727019
 20
206.0359970674
 11
300.4498727019
 21
206.0359970674
  0
LINE
  5
27C
100
AcDbEntity
  8
0
100
AcDbLine
 62
7
  6
CONTINUOUS
 10
303.6498727019
 20
206.0359970674
 11
321.4498727019
 21
206.0359970674
  0
LINE
  5
27D
100
AcDbEntity
  8
0
100
AcDbLine
 62
7
  6
CONTINUOUS
 10
324.6498727019
 20
206.0359970674
 11
342.4498727019
 21
206.0359970674
  0
LINE
  5
27E
100
AcDbEntity
  8
0
100
AcDbLine
 62
7
  6
CONTINUOUS
 10
342.4498727019
 20
210.3359970674
 11
324.6498727019
 21
210.3359970674
  0
LINE
  5
27F
100
AcDbEntity
  8
0
100
AcDbLine
 62
7
  6
CONTINUOUS
 10
321.4498727019
 20
210.3359970674
 11
303.6498727019
 21
210.3359970674
  0
LINE
  5
280
100
AcDbEntity
  8
0
100
AcDbLine
 62
7
  6
CONTINUOUS
 10
300.4498727019
 20
210.3359970674
 11
282.6498727019
 21
210.3359970674
  0
LINE
  5
281
100
AcDbEntity
  8
0
100
AcDbLine
 62
7
  6
CONTINUOUS
 10
279.4498727019
 20
210.3359970674
 11
261.6498727019
 21
210.3359970674
  0
LINE
  5
282
100
AcDbEntity
  8
0
100
AcDbLine
 62
7
  6
CONTINUOUS
 10
258.4498727019
 20
210.3359970674
 11
240.6498727019
 21
210.3359970674
  0
LINE
  5
283
100
AcDbEntity
  8
0
100
AcDbLine
 62
7
  6
CONTINUOUS
 10
240.6498727019
 20
215.0359970674
 11
258.4498727019
 21
215.0359970674
  0
LINE
  5
284
100
AcDbEntity
  8
0
100
AcDbLine
 62
7
  6
CONTINUOUS
 10
261.6498727019
 20
215.0359970674
 11
279.4498727019
 21
215.0359970674
  0
LINE
  5
285
100
AcDbEntity
  8
0
100
AcDbLine
 62
7
  6
CONTINUOUS
 10
282.6498727019
 20
215.0359970674
 11
300.4498727019
 21
215.0359970674
  0
LINE
  5
286
100
AcDbEntity
  8
0
100
AcDbLine
 62
7
  6
CONTINUOUS
 10
303.6498727019
 20
215.0359970674
 11
321.4498727019
 21
215.0359970674
  0
LINE
  5
287
100
AcDbEntity
  8
0
100
AcDbLine
 62
7
  6
CONTINUOUS
 10
324.6498727019
 20
215.0359970674
 11
342.4498727019
 21
215.0359970674
  0
LINE
  5
288
100
AcDbEntity
  8
0
100
AcDbLine
 62
7
  6
CONTINUOUS
 10
342.4498727019
 20
219.3359970674
 11
324.6498727019
 21
219.3359970674
  0
LINE
  5
289
100
AcDbEntity
  8
0
100
AcDbLine
 62
7
  6
CONTINUOUS
 10
321.4498727019
 20
219.3359970674
 11
303.6498727019
 21
219.3359970674
  0
LINE
  5
28A
100
AcDbEntity
  8
0
100
AcDbLine
 62
7
  6
CONTINUOUS
 10
300.4498727019
 20
219.3359970674
 11
282.6498727019
 21
219.3359970674
  0
LINE
  5
28B
100
AcDbEntity
  8
0
100
AcDbLine
 62
7
  6
CONTINUOUS
 10
279.4498727019
 20
219.3359970674
 11
261.6498727019
 21
219.3359970674
  0
LINE
  5
28C
100
AcDbEntity
  8
0
100
AcDbLine
 62
7
  6
CONTINUOUS
 10
258.4498727019
 20
219.3359970674
 11
240.6498727019
 21
219.3359970674
  0
LINE
  5
28D
100
AcDbEntity
  8
0
100
AcDbLine
 62
7
  6
CONTINUOUS
 10
240.6498727019
 20
224.0359970674
 11
258.4498727019
 21
224.0359970674
  0
LINE
  5
28E
100
AcDbEntity
  8
0
100
AcDbLine
 62
7
  6
CONTINUOUS
 10
261.6498727019
 20
224.0359970674
 11
279.4498727019
 21
224.0359970674
  0
LINE
  5
28F
100
AcDbEntity
  8
0
100
AcDbLine
 62
7
  6
CONTINUOUS
 10
282.6498727019
 20
224.0359970674
 11
300.4498727019
 21
224.0359970674
  0
LINE
  5
290
100
AcDbEntity
  8
0
100
AcDbLine
 62
7
  6
CONTINUOUS
 10
303.6498727019
 20
224.0359970674
 11
321.4498727019
 21
224.0359970674
  0
LINE
  5
291
100
AcDbEntity
  8
0
100
AcDbLine
 62
7
  6
CONTINUOUS
 10
324.6498727019
 20
224.0359970674
 11
342.4498727019
 21
224.0359970674
  0
LINE
  5
292
100
AcDbEntity
  8
0
100
AcDbLine
 62
7
  6
CONTINUOUS
 10
342.4498727019
 20
228.3359970674
 11
324.6498727019
 21
228.3359970674
  0
LINE
  5
293
100
AcDbEntity
  8
0
100
AcDbLine
 62
7
  6
CONTINUOUS
 10
321.4498727019
 20
228.3359970674
 11
303.6498727019
 21
228.3359970674
  0
LINE
  5
294
100
AcDbEntity
  8
0
100
AcDbLine
 62
7
  6
CONTINUOUS
 10
300.4498727019
 20
228.3359970674
 11
282.6498727019
 21
228.3359970674
  0
LINE
  5
295
100
AcDbEntity
  8
0
100
AcDbLine
 62
7
  6
CONTINUOUS
 10
279.4498727019
 20
228.3359970674
 11
261.6498727019
 21
228.3359970674
  0
LINE
  5
296
100
AcDbEntity
  8
0
100
AcDbLine
 62
7
  6
CONTINUOUS
 10
258.4498727019
 20
228.3359970674
 11
240.6498727019
 21
228.3359970674
  0
LINE
  5
297
100
AcDbEntity
  8
0
100
AcDbLine
 62
7
  6
CONTINUOUS
 10
209.2876999379
 20
229.4459970674
 11
209.2633037022
 21
229.4459970674
  0
LINE
  5
298
100
AcDbEntity
  8
0
100
AcDbLine
 62
7
  6
CONTINUOUS
 10
402.3998727019
 20
232.1859970674
 11
501.1998727019
 21
232.1859970674
  0
LINE
  5
299
100
AcDbEntity
  8
0
100
AcDbLine
 62
7
  6
CONTINUOUS
 10
240.6498727019
 20
233.0359970674
 11
258.4498727019
 21
233.0359970674
  0
LINE
  5
29A
100
AcDbEntity
  8
0
100
AcDbLine
 62
7
  6
CONTINUOUS
 10
261.6498727019
 20
233.0359970674
 11
279.4498727019
 21
233.0359970674
  0
LINE
  5
29B
100
AcDbEntity
  8
0
100
AcDbLine
 62
7
  6
CONTINUOUS
 10
282.6498727019
 20
233.0359970674
 11
300.4498727019
 21
233.0359970674
  0
LINE
  5
29C
100
AcDbEntity
  8
0
100
AcDbLine
 62
7
  6
CONTINUOUS
 10
303.6498727019
 20
233.0359970674
 11
321.4498727019
 21
233.0359970674
  0
LINE
  5
29D
100
AcDbEntity
  8
0
100
AcDbLine
 62
7
  6
CONTINUOUS
 10
324.6498727019
 20
233.0359970674
 11
342.4498727019
 21
233.0359970674
  0
LINE
  5
29E
100
AcDbEntity
  8
0
100
AcDbLine
 62
7
  6
CONTINUOUS
 10
209.2876999379
 20
236.8459970674
 11
209.2633315289
 21
236.8459970674
  0
LINE
  5
29F
100
AcDbEntity
  8
0
100
AcDbLine
 62
7
  6
CONTINUOUS
 10
342.4498727019
 20
237.3359970674
 11
324.6498727019
 21
237.3359970674
  0
LINE
  5
2A0
100
AcDbEntity
  8
0
100
AcDbLine
 62
7
  6
CONTINUOUS
 10
321.4498727019
 20
237.3359970674
 11
303.6498727019
 21
237.3359970674
  0
LINE
  5
2A1
100
AcDbEntity
  8
0
100
AcDbLine
 62
7
  6
CONTINUOUS
 10
300.4498727019
 20
237.3359970674
 11
282.6498727019
 21
237.3359970674
  0
LINE
  5
2A2
100
AcDbEntity
  8
0
100
AcDbLine
 62
7
  6
CONTINUOUS
 10
279.4498727019
 20
237.3359970674
 11
261.6498727019
 21
237.3359970674
  0
LINE
  5
2A3
100
AcDbEntity
  8
0
100
AcDbLine
 62
7
  6
CONTINUOUS
 10
258.4498727019
 20
237.3359970674
 11
240.6498727019
 21
237.3359970674
  0
LINE
  5
2A4
100
AcDbEntity
  8
0
100
AcDbLine
 62
7
  6
CONTINUOUS
 10
240.6498727019
 20
242.0359970674
 11
258.4498727019
 21
242.0359970674
  0
LINE
  5
2A5
100
AcDbEntity
  8
0
100
AcDbLine
 62
7
  6
CONTINUOUS
 10
261.6498727019
 20
242.0359970674
 11
279.4498727019
 21
242.0359970674
  0
LINE
  5
2A6
100
AcDbEntity
  8
0
100
AcDbLine
 62
7
  6
CONTINUOUS
 10
282.6498727019
 20
242.0359970674
 11
300.4498727019
 21
242.0359970674
  0
LINE
  5
2A7
100
AcDbEntity
  8
0
100
AcDbLine
 62
7
  6
CONTINUOUS
 10
303.6498727019
 20
242.0359970674
 11
321.4498727019
 21
242.0359970674
  0
LINE
  5
2A8
100
AcDbEntity
  8
0
100
AcDbLine
 62
7
  6
CONTINUOUS
 10
324.6498727019
 20
242.0359970674
 11
342.4498727019
 21
242.0359970674
  0
LINE
  5
2A9
100
AcDbEntity
  8
0
100
AcDbLine
 62
7
  6
CONTINUOUS
 10
342.4498727019
 20
246.3359970674
 11
324.6498727019
 21
246.3359970674
  0
LINE
  5
2AA
100
AcDbEntity
  8
0
100
AcDbLine
 62
7
  6
CONTINUOUS
 10
321.4498727019
 20
246.3359970674
 11
303.6498727019
 21
246.3359970674
  0
LINE
  5
2AB
100
AcDbEntity
  8
0
100
AcDbLine
 62
7
  6
CONTINUOUS
 10
300.4498727019
 20
246.3359970674
 11
282.6498727019
 21
246.3359970674
  0
LINE
  5
2AC
100
AcDbEntity
  8
0
100
AcDbLine
 62
7
  6
CONTINUOUS
 10
279.4498727019
 20
246.3359970674
 11
261.6498727019
 21
246.3359970674
  0
LINE
  5
2AD
100
AcDbEntity
  8
0
100
AcDbLine
 62
7
  6
CONTINUOUS
 10
258.4498727019
 20
246.3359970674
 11
240.6498727019
 21
246.3359970674
  0
LINE
  5
2AE
100
AcDbEntity
  8
0
100
AcDbLine
 62
7
  6
CONTINUOUS
 10
220.2998727019
 20
254.1859970674
 11
212.7998727019
 21
254.1859970674
  0
LINE
  5
2AF
100
AcDbEntity
  8
0
100
AcDbLine
 62
7
  6
CONTINUOUS
 10
219.2998727019
 20
254.6459970674
 11
212.7998727019
 21
254.6459970674
  0
LINE
  5
2B0
100
AcDbEntity
  8
0
100
AcDbLine
 62
7
  6
CONTINUOUS
 10
219.2998727019
 20
256.1859970674
 11
211.2998727019
 21
256.1859970674
  0
LINE
  5
2B1
100
AcDbEntity
  8
0
100
AcDbLine
 62
7
  6
CONTINUOUS
 10
213.2998727019
 20
258.1859970674
 11
219.2998727019
 21
258.1859970674
  0
LINE
  5
2B2
100
AcDbEntity
  8
0
100
AcDbLine
 62
7
  6
CONTINUOUS
 10
213.2998727019
 20
259.1859970674
 11
385.6998727019
 21
259.1859970674
  0
LINE
  5
2B3
100
AcDbEntity
  8
0
100
AcDbLine
 62
7
  6
CONTINUOUS
 10
384.1998727019
 20
259.6859970674
 11
418.8312699101
 21
259.6859970674
  0
LINE
  5
2B4
100
AcDbEntity
  8
0
100
AcDbLine
 62
7
  6
CONTINUOUS
 10
209.3789354344
 20
278.4359970674
 11
209.4070700454
 21
278.4359970674
  0
LINE
  5
2B5
100
AcDbEntity
  8
0
100
AcDbLine
 62
7
  6
CONTINUOUS
 10
208.7998727019
 20
281.6859970674
 11
208.8046752565
 21
281.6859970674
  0
LINE
  5
2B6
100
AcDbEntity
  8
0
100
AcDbLine
 62
7
  6
CONTINUOUS
 10
208.8046752565
 20
282.6859970674
 11
208.7998727019
 21
282.6859970674
  0
LINE
  5
2B7
100
AcDbEntity
  8
0
100
AcDbLine
 62
7
  6
CONTINUOUS
 10
209.3789047883
 20
285.9359970674
 11
209.4070700454
 21
285.9359970674
  0
LINE
  5
2B8
100
AcDbEntity
  8
0
100
AcDbLine
 62
7
  6
CONTINUOUS
 10
207.3728634573
 20
698.7259970674
 11
207.3728634573
 21
811.1259970674
  0
LINE
  5
2B9
100
AcDbEntity
  8
0
100
AcDbLine
 62
7
  6
CONTINUOUS
 10
208.799872702
 20
104.4522111521
 11
208.7998727019
 21
108.8398084918
  0
LINE
  5
2BA
100
AcDbEntity
  8
0
100
AcDbLine
 62
7
  6
CONTINUOUS
 10
208.799872702
 20
230.9522111521
 11
208.7998727019
 21
235.3398084918
  0
LINE
  5
2BB
100
AcDbEntity
  8
0
100
AcDbLine
 62
7
  6
CONTINUOUS
 10
208.7998727019
 20
280.0944002511
 11
208.7998727019
 21
281.6871763647
  0
LINE
  5
2BC
100
AcDbEntity
  8
0
100
AcDbLine
 62
7
  6
CONTINUOUS
 10
208.7998727019
 20
282.6848137216
 11
208.7998727019
 21
284.2773123082
  0
LINE
  5
2BD
100
AcDbEntity
  8
0
100
AcDbLine
 62
7
  6
CONTINUOUS
 10
208.7998727019
 20
505.0944002511
 11
208.7998727019
 21
506.6871763647
  0
LINE
  5
2BE
100
AcDbEntity
  8
0
100
AcDbLine
 62
7
  6
CONTINUOUS
 10
208.7998727019
 20
507.6848137216
 11
208.7998727019
 21
509.2773123082
  0
LINE
  5
2BF
100
AcDbEntity
  8
0
100
AcDbLine
 62
7
  6
CONTINUOUS
 10
208.7998727019
 20
810.0944002511
 11
208.7998727019
 21
811.6871763647
  0
LINE
  5
2C0
100
AcDbEntity
  8
0
100
AcDbLine
 62
7
  6
CONTINUOUS
 10
208.7998727019
 20
812.6848137216
 11
208.7998727019
 21
814.2773123082
  0
LINE
  5
2C1
100
AcDbEntity
  8
0
100
AcDbLine
 62
7
  6
CONTINUOUS
 10
209.2998727019
 20
497.437975508
 11
209.2998727019
 21
500.1859970674
  0
LINE
  5
2C2
100
AcDbEntity
  8
0
100
AcDbLine
 62
7
  6
CONTINUOUS
 10
209.2998727019
 20
501.1859970674
 11
209.2998727019
 21
503.5981214299
  0
LINE
  5
2C3
100
AcDbEntity
  8
0
100
AcDbLine
 62
7
  6
CONTINUOUS
 10
210.2998727019
 20
493.6859970674
 11
210.2998727019
 21
502.773109591
  0
LINE
  5
2C4
100
AcDbEntity
  8
0
100
AcDbLine
 62
7
  6
CONTINUOUS
 10
210.2998727019
 20
511.421772002
 11
210.2998727019
 21
674.6859970674
  0
LINE
  5
2C5
100
AcDbEntity
  8
0
100
AcDbLine
 62
7
  6
CONTINUOUS
 10
211.2998727019
 20
903.6859970674
 11
211.2998727019
 21
861.1859970674
  0
LINE
  5
2C6
100
AcDbEntity
  8
0
100
AcDbLine
 62
7
  6
CONTINUOUS
 10
211.2998727019
 20
96.1859970674
 11
211.2998727019
 21
837.1859970674
  0
LINE
  5
2C7
100
AcDbEntity
  8
0
100
AcDbLine
 62
7
  6
CONTINUOUS
 10
212.7998727019
 20
254.6459970674
 11
212.7998727019
 21
96.1859970674
  0
LINE
  5
2C8
100
AcDbEntity
  8
0
100
AcDbLine
 62
7
  6
CONTINUOUS
 10
213.2998727019
 20
835.1859970674
 11
213.2998727019
 21
258.1859970674
  0
LINE
  5
2C9
100
AcDbEntity
  8
0
100
AcDbLine
 62
7
  6
CONTINUOUS
 10
214.2998727019
 20
861.1859970674
 11
214.2998727019
 21
838.6859970674
  0
LINE
  5
2CA
100
AcDbEntity
  8
0
100
AcDbLine
 62
7
  6
CONTINUOUS
 10
219.2998727019
 20
258.1859970674
 11
219.2998727019
 21
254.6459970674
  0
LINE
  5
2CB
100
AcDbEntity
  8
0
100
AcDbLine
 62
7
  6
CONTINUOUS
 10
220.2998727019
 20
254.1859970674
 11
220.2998727019
 21
259.1859970674
  0
LINE
  5
2CC
100
AcDbEntity
  8
0
100
AcDbLine
 62
7
  6
CONTINUOUS
 10
221.2998727019
 20
837.1859970674
 11
221.2998727019
 21
835.1859970674
  0
LINE
  5
2CD
100
AcDbEntity
  8
0
100
AcDbLine
 62
7
  6
CONTINUOUS
 10
222.2998727019
 20
842.6859970674
 11
222.2998727019
 21
857.6859970674
  0
LINE
  5
2CE
100
AcDbEntity
  8
0
100
AcDbLine
 62
7
  6
CONTINUOUS
 10
222.2998727019
 20
862.6859970674
 11
222.2998727019
 21
877.6859970674
  0
LINE
  5
2CF
100
AcDbEntity
  8
0
100
AcDbLine
 62
7
  6
CONTINUOUS
 10
222.2998727019
 20
882.6859970674
 11
222.2998727019
 21
897.6859970674
  0
LINE
  5
2D0
100
AcDbEntity
  8
0
100
AcDbLine
 62
7
  6
CONTINUOUS
 10
222.7998727019
 20
838.6859970674
 11
222.7998727019
 21
835.1859970674
  0
LINE
  5
2D1
100
AcDbEntity
  8
0
100
AcDbLine
 62
7
  6
CONTINUOUS
 10
229.2561886218
 20
96.1859970674
 11
229.2561886218
 21
91.4539970674
  0
LINE
  5
2D2
100
AcDbEntity
  8
0
100
AcDbLine
 62
7
  6
CONTINUOUS
 10
229.9507813325
 20
91.4539970674
 11
229.9507813325
 21
96.1859970674
  0
LINE
  5
2D3
100
AcDbEntity
  8
0
100
AcDbLine
 62
7
  6
CONTINUOUS
 10
231.3456629466
 20
96.1859970674
 11
231.3456629466
 21
91.4539970674
  0
LINE
  5
2D4
100
AcDbEntity
  8
0
100
AcDbLine
 62
7
  6
CONTINUOUS
 10
232.7760071757
 20
96.1859970674
 11
232.7760071757
 21
91.4539970674
  0
LINE
  5
2D5
100
AcDbEntity
  8
0
100
AcDbLine
 62
7
  6
CONTINUOUS
 10
232.7998727019
 20
88.6859970674
 11
232.7998727019
 21
91.4539970674
  0
LINE
  5
2D6
100
AcDbEntity
  8
0
100
AcDbLine
 62
7
  6
CONTINUOUS
 10
234.3499946992
 20
631.4091040928
 11
234.3499946992
 21
631.4683970674
  0
LINE
  5
2D7
100
AcDbEntity
  8
0
100
AcDbLine
 62
7
  6
CONTINUOUS
 10
235.8401849482
 20
91.4539970674
 11
235.8401849482
 21
96.1859970674
  0
LINE
  5
2D8
100
AcDbEntity
  8
0
100
AcDbLine
 62
7
  6
CONTINUOUS
 10
236.7506292615
 20
96.1859970674
 11
236.7506292615
 21
91.4539970674
  0
LINE
  5
2D9
100
AcDbEntity
  8
0
100
AcDbLine
 62
7
  6
CONTINUOUS
 10
240.6498727019
 20
246.3359970674
 11
240.6498727019
 21
242.0359970674
  0
LINE
  5
2DA
100
AcDbEntity
  8
0
100
AcDbLine
 62
7
  6
CONTINUOUS
 10
240.6498727019
 20
237.3359970674
 11
240.6498727019
 21
233.0359970674
  0
LINE
  5
2DB
100
AcDbEntity
  8
0
100
AcDbLine
 62
7
  6
CONTINUOUS
 10
240.6498727019
 20
228.3359970674
 11
240.6498727019
 21
224.0359970674
  0
LINE
  5
2DC
100
AcDbEntity
  8
0
100
AcDbLine
 62
7
  6
CONTINUOUS
 10
240.6498727019
 20
219.3359970674
 11
240.6498727019
 21
215.0359970674
  0
LINE
  5
2DD
100
AcDbEntity
  8
0
100
AcDbLine
 62
7
  6
CONTINUOUS
 10
240.6498727019
 20
210.3359970674
 11
240.6498727019
 21
206.0359970674
  0
LINE
  5
2DE
100
AcDbEntity
  8
0
100
AcDbLine
 62
7
  6
CONTINUOUS
 10
240.6498727019
 20
201.3359970674
 11
240.6498727019
 21
197.0359970674
  0
LINE
  5
2DF
100
AcDbEntity
  8
0
100
AcDbLine
 62
7
  6
CONTINUOUS
 10
240.6498727019
 20
192.3359970674
 11
240.6498727019
 21
188.0359970674
  0
LINE
  5
2E0
100
AcDbEntity
  8
0
100
AcDbLine
 62
7
  6
CONTINUOUS
 10
240.6498727019
 20
183.3359970674
 11
240.6498727019
 21
179.0359970674
  0
LINE
  5
2E1
100
AcDbEntity
  8
0
100
AcDbLine
 62
7
  6
CONTINUOUS
 10
240.6498727019
 20
174.3359970674
 11
240.6498727019
 21
170.0359970674
  0
LINE
  5
2E2
100
AcDbEntity
  8
0
100
AcDbLine
 62
7
  6
CONTINUOUS
 10
240.6498727019
 20
165.3359970674
 11
240.6498727019
 21
161.0359970674
  0
LINE
  5
2E3
100
AcDbEntity
  8
0
100
AcDbLine
 62
7
  6
CONTINUOUS
 10
240.6498727019
 20
156.3359970674
 11
240.6498727019
 21
152.0359970674
  0
LINE
  5
2E4
100
AcDbEntity
  8
0
100
AcDbLine
 62
7
  6
CONTINUOUS
 10
240.6498727019
 20
147.3359970674
 11
240.6498727019
 21
143.0359970674
  0
LINE
  5
2E5
100
AcDbEntity
  8
0
100
AcDbLine
 62
7
  6
CONTINUOUS
 10
240.6498727019
 20
138.3359970674
 11
240.6498727019
 21
134.0359970674
  0
LINE
  5
2E6
100
AcDbEntity
  8
0
100
AcDbLine
 62
7
  6
CONTINUOUS
 10
240.6498727019
 20
129.3359970674
 11
240.6498727019
 21
125.0359970674
  0
LINE
  5
2E7
100
AcDbEntity
  8
0
100
AcDbLine
 62
7
  6
CONTINUOUS
 10
241.1298923721
 20
96.1859970674
 11
241.1298923721
 21
91.4539970674
  0
LINE
  5
2E8
100
AcDbEntity
  8
0
100
AcDbLine
 62
7
  6
CONTINUOUS
 10
245.1298923721
 20
91.4539970674
 11
245.1298923721
 21
96.1859970674
  0
LINE
  5
2E9
100
AcDbEntity
  8
0
100
AcDbLine
 62
7
  6
CONTINUOUS
 10
247.3522378967
 20
631.4683970674
 11
247.3522378967
 21
631.4091041225
  0
LINE
  5
2EA
100
AcDbEntity
  8
0
100
AcDbLine
 62
7
  6
CONTINUOUS
 10
249.5491161424
 20
91.4539970674
 11
249.5491161424
 21
96.1859970674
  0
LINE
  5
2EB
100
AcDbEntity
  8
0
100
AcDbLine
 62
7
  6
CONTINUOUS
 10
250.4595604557
 20
96.1859970674
 11
250.4595604557
 21
91.4539970674
  0
LINE
  5
2EC
100
AcDbEntity
  8
0
100
AcDbLine
 62
7
  6
CONTINUOUS
 10
253.4998727019
 20
88.6859970674
 11
253.4998727019
 21
91.4539970674
  0
LINE
  5
2ED
100
AcDbEntity
  8
0
100
AcDbLine
 62
7
  6
CONTINUOUS
 10
253.5237382282
 20
91.4539970674
 11
253.5237382282
 21
96.1859970674
  0
LINE
  5
2EE
100
AcDbEntity
  8
0
100
AcDbLine
 62
7
  6
CONTINUOUS
 10
254.9540824572
 20
91.4539970674
 11
254.9540824572
 21
96.1859970674
  0
LINE
  5
2EF
100
AcDbEntity
  8
0
100
AcDbLine
 62
7
  6
CONTINUOUS
 10
256.3489640713
 20
96.1859970674
 11
256.3489640713
 21
91.4539970674
  0
LINE
  5
2F0
100
AcDbEntity
  8
0
100
AcDbLine
 62
7
  6
CONTINUOUS
 10
257.043556782
 20
91.4539970674
 11
257.043556782
 21
96.1859970674
  0
LINE
  5
2F1
100
AcDbEntity
  8
0
100
AcDbLine
 62
7
  6
CONTINUOUS
 10
258.4498727019
 20
125.0359970674
 11
258.4498727019
 21
129.3359970674
  0
LINE
  5
2F2
100
AcDbEntity
  8
0
100
AcDbLine
 62
7
  6
CONTINUOUS
 10
258.4498727019
 20
134.0359970674
 11
258.4498727019
 21
138.3359970674
  0
LINE
  5
2F3
100
AcDbEntity
  8
0
100
AcDbLine
 62
7
  6
CONTINUOUS
 10
258.4498727019
 20
143.0359970674
 11
258.4498727019
 21
147.3359970674
  0
LINE
  5
2F4
100
AcDbEntity
  8
0
100
AcDbLine
 62
7
  6
CONTINUOUS
 10
258.4498727019
 20
152.0359970674
 11
258.4498727019
 21
156.3359970674
  0
LINE
  5
2F5
100
AcDbEntity
  8
0
100
AcDbLine
 62
7
  6
CONTINUOUS
 10
258.4498727019
 20
161.0359970674
 11
258.4498727019
 21
165.3359970674
  0
LINE
  5
2F6
100
AcDbEntity
  8
0
100
AcDbLine
 62
7
  6
CONTINUOUS
 10
258.4498727019
 20
170.0359970674
 11
258.4498727019
 21
174.3359970674
  0
LINE
  5
2F7
100
AcDbEntity
  8
0
100
AcDbLine
 62
7
  6
CONTINUOUS
 10
258.4498727019
 20
179.0359970674
 11
258.4498727019
 21
183.3359970674
  0
LINE
  5
2F8
100
AcDbEntity
  8
0
100
AcDbLine
 62
7
  6
CONTINUOUS
 10
258.4498727019
 20
188.0359970674
 11
258.4498727019
 21
192.3359970674
  0
LINE
  5
2F9
100
AcDbEntity
  8
0
100
AcDbLine
 62
7
  6
CONTINUOUS
 10
258.4498727019
 20
197.0359970674
 11
258.4498727019
 21
201.3359970674
  0
LINE
  5
2FA
100
AcDbEntity
  8
0
100
AcDbLine
 62
7
  6
CONTINUOUS
 10
258.4498727019
 20
206.0359970674
 11
258.4498727019
 21
210.3359970674
  0
LINE
  5
2FB
100
AcDbEntity
  8
0
100
AcDbLine
 62
7
  6
CONTINUOUS
 10
258.4498727019
 20
215.0359970674
 11
258.4498727019
 21
219.3359970674
  0
LINE
  5
2FC
100
AcDbEntity
  8
0
100
AcDbLine
 62
7
  6
CONTINUOUS
 10
258.4498727019
 20
224.0359970674
 11
258.4498727019
 21
228.3359970674
  0
LINE
  5
2FD
100
AcDbEntity
  8
0
100
AcDbLine
 62
7
  6
CONTINUOUS
 10
258.4498727019
 20
233.0359970674
 11
258.4498727019
 21
237.3359970674
  0
LINE
  5
2FE
100
AcDbEntity
  8
0
100
AcDbLine
 62
7
  6
CONTINUOUS
 10
258.4498727019
 20
242.0359970674
 11
258.4498727019
 21
246.3359970674
  0
LINE
  5
2FF
100
AcDbEntity
  8
0
100
AcDbLine
 62
7
  6
CONTINUOUS
 10
261.6498727019
 20
246.3359970674
 11
261.6498727019
 21
242.0359970674
  0
LINE
  5
300
100
AcDbEntity
  8
0
100
AcDbLine
 62
7
  6
CONTINUOUS
 10
261.6498727019
 20
237.3359970674
 11
261.6498727019
 21
233.0359970674
  0
LINE
  5
301
100
AcDbEntity
  8
0
100
AcDbLine
 62
7
  6
CONTINUOUS
 10
261.6498727019
 20
228.3359970674
 11
261.6498727019
 21
224.0359970674
  0
LINE
  5
302
100
AcDbEntity
  8
0
100
AcDbLine
 62
7
  6
CONTINUOUS
 10
261.6498727019
 20
219.3359970674
 11
261.6498727019
 21
215.0359970674
  0
LINE
  5
303
100
AcDbEntity
  8
0
100
AcDbLine
 62
7
  6
CONTINUOUS
 10
261.6498727019
 20
210.3359970674
 11
261.6498727019
 21
206.0359970674
  0
LINE
  5
304
100
AcDbEntity
  8
0
100
AcDbLine
 62
7
  6
CONTINUOUS
 10
261.6498727019
 20
201.3359970674
 11
261.6498727019
 21
197.0359970674
  0
LINE
  5
305
100
AcDbEntity
  8
0
100
AcDbLine
 62
7
  6
CONTINUOUS
 10
261.6498727019
 20
192.3359970674
 11
261.6498727019
 21
188.0359970674
  0
LINE
  5
306
100
AcDbEntity
  8
0
100
AcDbLine
 62
7
  6
CONTINUOUS
 10
261.6498727019
 20
183.3359970674
 11
261.6498727019
 21
179.0359970674
  0
LINE
  5
307
100
AcDbEntity
  8
0
100
AcDbLine
 62
7
  6
CONTINUOUS
 10
261.6498727019
 20
174.3359970674
 11
261.6498727019
 21
170.0359970674
  0
LINE
  5
308
100
AcDbEntity
  8
0
100
AcDbLine
 62
7
  6
CONTINUOUS
 10
261.6498727019
 20
165.3359970674
 11
261.6498727019
 21
161.0359970674
  0
LINE
  5
309
100
AcDbEntity
  8
0
100
AcDbLine
 62
7
  6
CONTINUOUS
 10
261.6498727019
 20
156.3359970674
 11
261.6498727019
 21
152.0359970674
  0
LINE
  5
30A
100
AcDbEntity
  8
0
100
AcDbLine
 62
7
  6
CONTINUOUS
 10
261.6498727019
 20
147.3359970674
 11
261.6498727019
 21
143.0359970674
  0
LINE
  5
30B
100
AcDbEntity
  8
0
100
AcDbLine
 62
7
  6
CONTINUOUS
 10
261.6498727019
 20
138.3359970674
 11
261.6498727019
 21
134.0359970674
  0
LINE
  5
30C
100
AcDbEntity
  8
0
100
AcDbLine
 62
7
  6
CONTINUOUS
 10
261.6498727019
 20
129.3359970674
 11
261.6498727019
 21
125.0359970674
  0
LINE
  5
30D
100
AcDbEntity
  8
0
100
AcDbLine
 62
7
  6
CONTINUOUS
 10
262.2998727019
 20
897.6859970674
 11
262.2998727019
 21
882.6859970674
  0
LINE
  5
30E
100
AcDbEntity
  8
0
100
AcDbLine
 62
7
  6
CONTINUOUS
 10
262.2998727019
 20
877.6859970674
 11
262.2998727019
 21
862.6859970674
  0
LINE
  5
30F
100
AcDbEntity
  8
0
100
AcDbLine
 62
7
  6
CONTINUOUS
 10
262.2998727019
 20
857.6859970674
 11
262.2998727019
 21
842.6859970674
  0
LINE
  5
310
100
AcDbEntity
  8
0
100
AcDbLine
 62
7
  6
CONTINUOUS
 10
267.2998727019
 20
842.6859970674
 11
267.2998727019
 21
857.6859970674
  0
LINE
  5
311
100
AcDbEntity
  8
0
100
AcDbLine
 62
7
  6
CONTINUOUS
 10
267.2998727019
 20
862.6859970674
 11
267.2998727019
 21
877.6859970674
  0
LINE
  5
312
100
AcDbEntity
  8
0
100
AcDbLine
 62
7
  6
CONTINUOUS
 10
267.2998727019
 20
882.6859970674
 11
267.2998727019
 21
897.6859970674
  0
LINE
  5
313
100
AcDbEntity
  8
0
100
AcDbLine
 62
7
  6
CONTINUOUS
 10
269.9998727019
 20
90.1859970674
 11
269.9998727019
 21
96.1859970674
  0
LINE
  5
314
100
AcDbEntity
  8
0
100
AcDbLine
 62
7
  6
CONTINUOUS
 10
270.2297643988
 20
90.1859970674
 11
270.2297643988
 21
96.1859970674
  0
LINE
  5
315
100
AcDbEntity
  8
0
100
AcDbLine
 62
7
  6
CONTINUOUS
 10
272.7503199327
 20
96.1859970674
 11
272.7503199327
 21
90.1859970674
  0
LINE
  5
316
100
AcDbEntity
  8
0
100
AcDbLine
 62
7
  6
CONTINUOUS
 10
276.5026020679
 20
96.1859970674
 11
276.5026020679
 21
90.1859970674
  0
LINE
  5
317
100
AcDbEntity
  8
0
100
AcDbLine
 62
7
  6
CONTINUOUS
 10
277.1998727019
 20
81.3859970674
 11
277.1998727019
 21
90.1859970674
  0
LINE
  5
318
100
AcDbEntity
  8
0
100
AcDbLine
 62
7
  6
CONTINUOUS
 10
279.4498727019
 20
125.0359970674
 11
279.4498727019
 21
129.3359970674
  0
LINE
  5
319
100
AcDbEntity
  8
0
100
AcDbLine
 62
7
  6
CONTINUOUS
 10
279.4498727019
 20
134.0359970674
 11
279.4498727019
 21
138.3359970674
  0
LINE
  5
31A
100
AcDbEntity
  8
0
100
AcDbLine
 62
7
  6
CONTINUOUS
 10
279.4498727019
 20
143.0359970674
 11
279.4498727019
 21
147.3359970674
  0
LINE
  5
31B
100
AcDbEntity
  8
0
100
AcDbLine
 62
7
  6
CONTINUOUS
 10
279.4498727019
 20
152.0359970674
 11
279.4498727019
 21
156.3359970674
  0
LINE
  5
31C
100
AcDbEntity
  8
0
100
AcDbLine
 62
7
  6
CONTINUOUS
 10
279.4498727019
 20
161.0359970674
 11
279.4498727019
 21
165.3359970674
  0
LINE
  5
31D
100
AcDbEntity
  8
0
100
AcDbLine
 62
7
  6
CONTINUOUS
 10
279.4498727019
 20
170.0359970674
 11
279.4498727019
 21
174.3359970674
  0
LINE
  5
31E
100
AcDbEntity
  8
0
100
AcDbLine
 62
7
  6
CONTINUOUS
 10
279.4498727019
 20
179.0359970674
 11
279.4498727019
 21
183.3359970674
  0
LINE
  5
31F
100
AcDbEntity
  8
0
100
AcDbLine
 62
7
  6
CONTINUOUS
 10
279.4498727019
 20
188.0359970674
 11
279.4498727019
 21
192.3359970674
  0
LINE
  5
320
100
AcDbEntity
  8
0
100
AcDbLine
 62
7
  6
CONTINUOUS
 10
279.4498727019
 20
197.0359970674
 11
279.4498727019
 21
201.3359970674
  0
LINE
  5
321
100
AcDbEntity
  8
0
100
AcDbLine
 62
7
  6
CONTINUOUS
 10
279.4498727019
 20
206.0359970674
 11
279.4498727019
 21
210.3359970674
  0
LINE
  5
322
100
AcDbEntity
  8
0
100
AcDbLine
 62
7
  6
CONTINUOUS
 10
279.4498727019
 20
215.0359970674
 11
279.4498727019
 21
219.3359970674
  0
LINE
  5
323
100
AcDbEntity
  8
0
100
AcDbLine
 62
7
  6
CONTINUOUS
 10
279.4498727019
 20
224.0359970674
 11
279.4498727019
 21
228.3359970674
  0
LINE
  5
324
100
AcDbEntity
  8
0
100
AcDbLine
 62
7
  6
CONTINUOUS
 10
279.4498727019
 20
233.0359970674
 11
279.4498727019
 21
237.3359970674
  0
LINE
  5
325
100
AcDbEntity
  8
0
100
AcDbLine
 62
7
  6
CONTINUOUS
 10
279.4498727019
 20
242.0359970674
 11
279.4498727019
 21
246.3359970674
  0
LINE
  5
326
100
AcDbEntity
  8
0
100
AcDbLine
 62
7
  6
CONTINUOUS
 10
281.8059029268
 20
90.1859970674
 11
281.8059029268
 21
96.1859970674
  0
LINE
  5
327
100
AcDbEntity
  8
0
100
AcDbLine
 62
7
  6
CONTINUOUS
 10
282.6498727019
 20
246.3359970674
 11
282.6498727019
 21
242.0359970674
  0
LINE
  5
328
100
AcDbEntity
  8
0
100
AcDbLine
 62
7
  6
CONTINUOUS
 10
282.6498727019
 20
237.3359970674
 11
282.6498727019
 21
233.0359970674
  0
LINE
  5
329
100
AcDbEntity
  8
0
100
AcDbLine
 62
7
  6
CONTINUOUS
 10
282.6498727019
 20
228.3359970674
 11
282.6498727019
 21
224.0359970674
  0
LINE
  5
32A
100
AcDbEntity
  8
0
100
AcDbLine
 62
7
  6
CONTINUOUS
 10
282.6498727019
 20
219.3359970674
 11
282.6498727019
 21
215.0359970674
  0
LINE
  5
32B
100
AcDbEntity
  8
0
100
AcDbLine
 62
7
  6
CONTINUOUS
 10
282.6498727019
 20
210.3359970674
 11
282.6498727019
 21
206.0359970674
  0
LINE
  5
32C
100
AcDbEntity
  8
0
100
AcDbLine
 62
7
  6
CONTINUOUS
 10
282.6498727019
 20
201.3359970674
 11
282.6498727019
 21
197.0359970674
  0
LINE
  5
32D
100
AcDbEntity
  8
0
100
AcDbLine
 62
7
  6
CONTINUOUS
 10
282.6498727019
 20
192.3359970674
 11
282.6498727019
 21
188.0359970674
  0
LINE
  5
32E
100
AcDbEntity
  8
0
100
AcDbLine
 62
7
  6
CONTINUOUS
 10
282.6498727019
 20
183.3359970674
 11
282.6498727019
 21
179.0359970674
  0
LINE
  5
32F
100
AcDbEntity
  8
0
100
AcDbLine
 62
7
  6
CONTINUOUS
 10
282.6498727019
 20
174.3359970674
 11
282.6498727019
 21
170.0359970674
  0
LINE
  5
330
100
AcDbEntity
  8
0
100
AcDbLine
 62
7
  6
CONTINUOUS
 10
282.6498727019
 20
165.3359970674
 11
282.6498727019
 21
161.0359970674
  0
LINE
  5
331
100
AcDbEntity
  8
0
100
AcDbLine
 62
7
  6
CONTINUOUS
 10
282.6498727019
 20
156.3359970674
 11
282.6498727019
 21
152.0359970674
  0
LINE
  5
332
100
AcDbEntity
  8
0
100
AcDbLine
 62
7
  6
CONTINUOUS
 10
282.6498727019
 20
147.3359970674
 11
282.6498727019
 21
143.0359970674
  0
LINE
  5
333
100
AcDbEntity
  8
0
100
AcDbLine
 62
7
  6
CONTINUOUS
 10
282.6498727019
 20
138.3359970674
 11
282.6498727019
 21
134.0359970674
  0
LINE
  5
334
100
AcDbEntity
  8
0
100
AcDbLine
 62
7
  6
CONTINUOUS
 10
282.6498727019
 20
129.3359970674
 11
282.6498727019
 21
125.0359970674
  0
LINE
  5
335
100
AcDbEntity
  8
0
100
AcDbLine
 62
7
  6
CONTINUOUS
 10
283.5882048371
 20
96.1859970674
 11
283.5882048371
 21
90.1859970674
  0
LINE
  5
336
100
AcDbEntity
  8
0
100
AcDbLine
 62
7
  6
CONTINUOUS
 10
296.9498727019
 20
96.1859970674
 11
296.9498727019
 21
90.1859970674
  0
LINE
  5
337
100
AcDbEntity
  8
0
100
AcDbLine
 62
7
  6
CONTINUOUS
 10
300.4498727019
 20
125.0359970674
 11
300.4498727019
 21
129.3359970674
  0
LINE
  5
338
100
AcDbEntity
  8
0
100
AcDbLine
 62
7
  6
CONTINUOUS
 10
300.4498727019
 20
134.0359970674
 11
300.4498727019
 21
138.3359970674
  0
LINE
  5
339
100
AcDbEntity
  8
0
100
AcDbLine
 62
7
  6
CONTINUOUS
 10
300.4498727019
 20
143.0359970674
 11
300.4498727019
 21
147.3359970674
  0
LINE
  5
33A
100
AcDbEntity
  8
0
100
AcDbLine
 62
7
  6
CONTINUOUS
 10
300.4498727019
 20
152.0359970674
 11
300.4498727019
 21
156.3359970674
  0
LINE
  5
33B
100
AcDbEntity
  8
0
100
AcDbLine
 62
7
  6
CONTINUOUS
 10
300.4498727019
 20
161.0359970674
 11
300.4498727019
 21
165.3359970674
  0
LINE
  5
33C
100
AcDbEntity
  8
0
100
AcDbLine
 62
7
  6
CONTINUOUS
 10
300.4498727019
 20
170.0359970674
 11
300.4498727019
 21
174.3359970674
  0
LINE
  5
33D
100
AcDbEntity
  8
0
100
AcDbLine
 62
7
  6
CONTINUOUS
 10
300.4498727019
 20
179.0359970674
 11
300.4498727019
 21
183.3359970674
  0
LINE
  5
33E
100
AcDbEntity
  8
0
100
AcDbLine
 62
7
  6
CONTINUOUS
 10
300.4498727019
 20
188.0359970674
 11
300.4498727019
 21
192.3359970674
  0
LINE
  5
33F
100
AcDbEntity
  8
0
100
AcDbLine
 62
7
  6
CONTINUOUS
 10
300.4498727019
 20
197.0359970674
 11
300.4498727019
 21
201.3359970674
  0
LINE
  5
340
100
AcDbEntity
  8
0
100
AcDbLine
 62
7
  6
CONTINUOUS
 10
300.4498727019
 20
206.0359970674
 11
300.4498727019
 21
210.3359970674
  0
LINE
  5
341
100
AcDbEntity
  8
0
100
AcDbLine
 62
7
  6
CONTINUOUS
 10
300.4498727019
 20
215.0359970674
 11
300.4498727019
 21
219.3359970674
  0
LINE
  5
342
100
AcDbEntity
  8
0
100
AcDbLine
 62
7
  6
CONTINUOUS
 10
300.4498727019
 20
224.0359970674
 11
300.4498727019
 21
228.3359970674
  0
LINE
  5
343
100
AcDbEntity
  8
0
100
AcDbLine
 62
7
  6
CONTINUOUS
 10
300.4498727019
 20
233.0359970674
 11
300.4498727019
 21
237.3359970674
  0
LINE
  5
344
100
AcDbEntity
  8
0
100
AcDbLine
 62
7
  6
CONTINUOUS
 10
300.4498727019
 20
242.0359970674
 11
300.4498727019
 21
246.3359970674
  0
LINE
  5
345
100
AcDbEntity
  8
0
100
AcDbLine
 62
7
  6
CONTINUOUS
 10
303.6498727019
 20
246.3359970674
 11
303.6498727019
 21
242.0359970674
  0
LINE
  5
346
100
AcDbEntity
  8
0
100
AcDbLine
 62
7
  6
CONTINUOUS
 10
303.6498727019
 20
237.3359970674
 11
303.6498727019
 21
233.0359970674
  0
LINE
  5
347
100
AcDbEntity
  8
0
100
AcDbLine
 62
7
  6
CONTINUOUS
 10
303.6498727019
 20
228.3359970674
 11
303.6498727019
 21
224.0359970674
  0
LINE
  5
348
100
AcDbEntity
  8
0
100
AcDbLine
 62
7
  6
CONTINUOUS
 10
303.6498727019
 20
219.3359970674
 11
303.6498727019
 21
215.0359970674
  0
LINE
  5
349
100
AcDbEntity
  8
0
100
AcDbLine
 62
7
  6
CONTINUOUS
 10
303.6498727019
 20
210.3359970674
 11
303.6498727019
 21
206.0359970674
  0
LINE
  5
34A
100
AcDbEntity
  8
0
100
AcDbLine
 62
7
  6
CONTINUOUS
 10
303.6498727019
 20
201.3359970674
 11
303.6498727019
 21
197.0359970674
  0
LINE
  5
34B
100
AcDbEntity
  8
0
100
AcDbLine
 62
7
  6
CONTINUOUS
 10
303.6498727019
 20
192.3359970674
 11
303.6498727019
 21
188.0359970674
  0
LINE
  5
34C
100
AcDbEntity
  8
0
100
AcDbLine
 62
7
  6
CONTINUOUS
 10
303.6498727019
 20
183.3359970674
 11
303.6498727019
 21
179.0359970674
  0
LINE
  5
34D
100
AcDbEntity
  8
0
100
AcDbLine
 62
7
  6
CONTINUOUS
 10
303.6498727019
 20
174.3359970674
 11
303.6498727019
 21
170.0359970674
  0
LINE
  5
34E
100
AcDbEntity
  8
0
100
AcDbLine
 62
7
  6
CONTINUOUS
 10
303.6498727019
 20
165.3359970674
 11
303.6498727019
 21
161.0359970674
  0
LINE
  5
34F
100
AcDbEntity
  8
0
100
AcDbLine
 62
7
  6
CONTINUOUS
 10
303.6498727019
 20
156.3359970674
 11
303.6498727019
 21
152.0359970674
  0
LINE
  5
350
100
AcDbEntity
  8
0
100
AcDbLine
 62
7
  6
CONTINUOUS
 10
303.6498727019
 20
147.3359970674
 11
303.6498727019
 21
143.0359970674
  0
LINE
  5
351
100
AcDbEntity
  8
0
100
AcDbLine
 62
7
  6
CONTINUOUS
 10
303.6498727019
 20
138.3359970674
 11
303.6498727019
 21
134.0359970674
  0
LINE
  5
352
100
AcDbEntity
  8
0
100
AcDbLine
 62
7
  6
CONTINUOUS
 10
303.6498727019
 20
129.3359970674
 11
303.6498727019
 21
125.0359970674
  0
LINE
  5
353
100
AcDbEntity
  8
0
100
AcDbLine
 62
7
  6
CONTINUOUS
 10
304.4498727019
 20
90.1859970674
 11
304.4498727019
 21
96.1859970674
  0
LINE
  5
354
100
AcDbEntity
  8
0
100
AcDbLine
 62
7
  6
CONTINUOUS
 10
307.2998727019
 20
897.6859970674
 11
307.2998727019
 21
882.6859970674
  0
LINE
  5
355
100
AcDbEntity
  8
0
100
AcDbLine
 62
7
  6
CONTINUOUS
 10
307.2998727019
 20
877.6859970674
 11
307.2998727019
 21
862.6859970674
  0
LINE
  5
356
100
AcDbEntity
  8
0
100
AcDbLine
 62
7
  6
CONTINUOUS
 10
307.2998727019
 20
857.6859970674
 11
307.2998727019
 21
842.6859970674
  0
LINE
  5
357
100
AcDbEntity
  8
0
100
AcDbLine
 62
7
  6
CONTINUOUS
 10
312.2998727019
 20
842.6859970674
 11
312.2998727019
 21
857.6859970674
  0
LINE
  5
358
100
AcDbEntity
  8
0
100
AcDbLine
 62
7
  6
CONTINUOUS
 10
312.2998727019
 20
862.6859970674
 11
312.2998727019
 21
877.6859970674
  0
LINE
  5
359
100
AcDbEntity
  8
0
100
AcDbLine
 62
7
  6
CONTINUOUS
 10
312.2998727019
 20
882.6859970674
 11
312.2998727019
 21
897.6859970674
  0
LINE
  5
35A
100
AcDbEntity
  8
0
100
AcDbLine
 62
7
  6
CONTINUOUS
 10
317.8115405667
 20
90.1859970674
 11
317.8115405667
 21
96.1859970674
  0
LINE
  5
35B
100
AcDbEntity
  8
0
100
AcDbLine
 62
7
  6
CONTINUOUS
 10
319.5938424771
 20
96.1859970674
 11
319.5938424771
 21
90.1859970674
  0
LINE
  5
35C
100
AcDbEntity
  8
0
100
AcDbLine
 62
7
  6
CONTINUOUS
 10
321.4498727019
 20
125.0359970674
 11
321.4498727019
 21
129.3359970674
  0
LINE
  5
35D
100
AcDbEntity
  8
0
100
AcDbLine
 62
7
  6
CONTINUOUS
 10
321.4498727019
 20
134.0359970674
 11
321.4498727019
 21
138.3359970674
  0
LINE
  5
35E
100
AcDbEntity
  8
0
100
AcDbLine
 62
7
  6
CONTINUOUS
 10
321.4498727019
 20
143.0359970674
 11
321.4498727019
 21
147.3359970674
  0
LINE
  5
35F
100
AcDbEntity
  8
0
100
AcDbLine
 62
7
  6
CONTINUOUS
 10
321.4498727019
 20
152.0359970674
 11
321.4498727019
 21
156.3359970674
  0
LINE
  5
360
100
AcDbEntity
  8
0
100
AcDbLine
 62
7
  6
CONTINUOUS
 10
321.4498727019
 20
161.0359970674
 11
321.4498727019
 21
165.3359970674
  0
LINE
  5
361
100
AcDbEntity
  8
0
100
AcDbLine
 62
7
  6
CONTINUOUS
 10
321.4498727019
 20
170.0359970674
 11
321.4498727019
 21
174.3359970674
  0
LINE
  5
362
100
AcDbEntity
  8
0
100
AcDbLine
 62
7
  6
CONTINUOUS
 10
321.4498727019
 20
179.0359970674
 11
321.4498727019
 21
183.3359970674
  0
LINE
  5
363
100
AcDbEntity
  8
0
100
AcDbLine
 62
7
  6
CONTINUOUS
 10
321.4498727019
 20
188.0359970674
 11
321.4498727019
 21
192.3359970674
  0
LINE
  5
364
100
AcDbEntity
  8
0
100
AcDbLine
 62
7
  6
CONTINUOUS
 10
321.4498727019
 20
197.0359970674
 11
321.4498727019
 21
201.3359970674
  0
LINE
  5
365
100
AcDbEntity
  8
0
100
AcDbLine
 62
7
  6
CONTINUOUS
 10
321.4498727019
 20
206.0359970674
 11
321.4498727019
 21
210.3359970674
  0
LINE
  5
366
100
AcDbEntity
  8
0
100
AcDbLine
 62
7
  6
CONTINUOUS
 10
321.4498727019
 20
215.0359970674
 11
321.4498727019
 21
219.3359970674
  0
LINE
  5
367
100
AcDbEntity
  8
0
100
AcDbLine
 62
7
  6
CONTINUOUS
 10
321.4498727019
 20
224.0359970674
 11
321.4498727019
 21
228.3359970674
  0
LINE
  5
368
100
AcDbEntity
  8
0
100
AcDbLine
 62
7
  6
CONTINUOUS
 10
321.4498727019
 20
233.0359970674
 11
321.4498727019
 21
237.3359970674
  0
LINE
  5
369
100
AcDbEntity
  8
0
100
AcDbLine
 62
7
  6
CONTINUOUS
 10
321.4498727019
 20
242.0359970674
 11
321.4498727019
 21
246.3359970674
  0
LINE
  5
36A
100
AcDbEntity
  8
0
100
AcDbLine
 62
7
  6
CONTINUOUS
 10
324.1998727019
 20
81.3859970674
 11
324.1998727019
 21
90.1859970674
  0
LINE
  5
36B
100
AcDbEntity
  8
0
100
AcDbLine
 62
7
  6
CONTINUOUS
 10
324.6498727019
 20
246.3359970674
 11
324.6498727019
 21
242.0359970674
  0
LINE
  5
36C
100
AcDbEntity
  8
0
100
AcDbLine
 62
7
  6
CONTINUOUS
 10
324.6498727019
 20
237.3359970674
 11
324.6498727019
 21
233.0359970674
  0
LINE
  5
36D
100
AcDbEntity
  8
0
100
AcDbLine
 62
7
  6
CONTINUOUS
 10
324.6498727019
 20
228.3359970674
 11
324.6498727019
 21
224.0359970674
  0
LINE
  5
36E
100
AcDbEntity
  8
0
100
AcDbLine
 62
7
  6
CONTINUOUS
 10
324.6498727019
 20
219.3359970674
 11
324.6498727019
 21
215.0359970674
  0
LINE
  5
36F
100
AcDbEntity
  8
0
100
AcDbLine
 62
7
  6
CONTINUOUS
 10
324.6498727019
 20
210.3359970674
 11
324.6498727019
 21
206.0359970674
  0
LINE
  5
370
100
AcDbEntity
  8
0
100
AcDbLine
 62
7
  6
CONTINUOUS
 10
324.6498727019
 20
201.3359970674
 11
324.6498727019
 21
197.0359970674
  0
LINE
  5
371
100
AcDbEntity
  8
0
100
AcDbLine
 62
7
  6
CONTINUOUS
 10
324.6498727019
 20
192.3359970674
 11
324.6498727019
 21
188.0359970674
  0
LINE
  5
372
100
AcDbEntity
  8
0
100
AcDbLine
 62
7
  6
CONTINUOUS
 10
324.6498727019
 20
183.3359970674
 11
324.6498727019
 21
179.0359970674
  0
LINE
  5
373
100
AcDbEntity
  8
0
100
AcDbLine
 62
7
  6
CONTINUOUS
 10
324.6498727019
 20
174.3359970674
 11
324.6498727019
 21
170.0359970674
  0
LINE
  5
374
100
AcDbEntity
  8
0
100
AcDbLine
 62
7
  6
CONTINUOUS
 10
324.6498727019
 20
165.3359970674
 11
324.6498727019
 21
161.0359970674
  0
LINE
  5
375
100
AcDbEntity
  8
0
100
AcDbLine
 62
7
  6
CONTINUOUS
 10
324.6498727019
 20
156.3359970674
 11
324.6498727019
 21
152.0359970674
  0
LINE
  5
376
100
AcDbEntity
  8
0
100
AcDbLine
 62
7
  6
CONTINUOUS
 10
324.6498727019
 20
147.3359970674
 11
324.6498727019
 21
143.0359970674
  0
LINE
  5
377
100
AcDbEntity
  8
0
100
AcDbLine
 62
7
  6
CONTINUOUS
 10
324.6498727019
 20
138.3359970674
 11
324.6498727019
 21
134.0359970674
  0
LINE
  5
378
100
AcDbEntity
  8
0
100
AcDbLine
 62
7
  6
CONTINUOUS
 10
324.6498727019
 20
129.3359970674
 11
324.6498727019
 21
125.0359970674
  0
LINE
  5
379
100
AcDbEntity
  8
0
100
AcDbLine
 62
7
  6
CONTINUOUS
 10
324.8971433359
 20
90.1859970674
 11
324.8971433359
 21
96.1859970674
  0
LINE
  5
37A
100
AcDbEntity
  8
0
100
AcDbLine
 62
7
  6
CONTINUOUS
 10
328.6494254712
 20
90.1859970674
 11
328.6494254712
 21
96.1859970674
  0
LINE
  5
37B
100
AcDbEntity
  8
0
100
AcDbLine
 62
7
  6
CONTINUOUS
 10
426.1998727019
 20
862.1859970674
 11
418.6972953139
 21
834.1859970674
  0
LINE
  5
37C
100
AcDbEntity
  8
0
100
AcDbLine
 62
7
  6
CONTINUOUS
 10
331.169981005
 20
96.1859970674
 11
331.169981005
 21
90.1859970674
  0
LINE
  5
37D
100
AcDbEntity
  8
0
100
AcDbLine
 62
7
  6
CONTINUOUS
 10
331.3998727019
 20
96.1859970674
 11
331.3998727019
 21
90.1859970674
  0
LINE
  5
37E
100
AcDbEntity
  8
0
100
AcDbLine
 62
7
  6
CONTINUOUS
 10
332.8115405667
 20
90.1859970674
 11
332.8115405667
 21
96.1859970674
  0
LINE
  5
37F
100
AcDbEntity
  8
0
100
AcDbLine
 62
7
  6
CONTINUOUS
 10
334.5938424771
 20
96.1859970674
 11
334.5938424771
 21
90.1859970674
  0
LINE
  5
380
100
AcDbEntity
  8
0
100
AcDbLine
 62
7
  6
CONTINUOUS
 10
339.1998727019
 20
81.3859970674
 11
339.1998727019
 21
90.1859970674
  0
LINE
  5
381
100
AcDbEntity
  8
0
100
AcDbLine
 62
7
  6
CONTINUOUS
 10
339.8971433359
 20
90.1859970674
 11
339.8971433359
 21
96.1859970674
  0
LINE
  5
382
100
AcDbEntity
  8
0
100
AcDbLine
 62
7
  6
CONTINUOUS
 10
342.4498727019
 20
125.0359970674
 11
342.4498727019
 21
129.3359970674
  0
LINE
  5
383
100
AcDbEntity
  8
0
100
AcDbLine
 62
7
  6
CONTINUOUS
 10
342.4498727019
 20
134.0359970674
 11
342.4498727019
 21
138.3359970674
  0
LINE
  5
384
100
AcDbEntity
  8
0
100
AcDbLine
 62
7
  6
CONTINUOUS
 10
342.4498727019
 20
143.0359970674
 11
342.4498727019
 21
147.3359970674
  0
LINE
  5
385
100
AcDbEntity
  8
0
100
AcDbLine
 62
7
  6
CONTINUOUS
 10
342.4498727019
 20
152.0359970674
 11
342.4498727019
 21
156.3359970674
  0
LINE
  5
386
100
AcDbEntity
  8
0
100
AcDbLine
 62
7
  6
CONTINUOUS
 10
342.4498727019
 20
161.0359970674
 11
342.4498727019
 21
165.3359970674
  0
LINE
  5
387
100
AcDbEntity
  8
0
100
AcDbLine
 62
7
  6
CONTINUOUS
 10
342.4498727019
 20
170.0359970674
 11
342.4498727019
 21
174.3359970674
  0
LINE
  5
388
100
AcDbEntity
  8
0
100
AcDbLine
 62
7
  6
CONTINUOUS
 10
342.4498727019
 20
179.0359970674
 11
342.4498727019
 21
183.3359970674
  0
LINE
  5
389
100
AcDbEntity
  8
0
100
AcDbLine
 62
7
  6
CONTINUOUS
 10
342.4498727019
 20
188.0359970674
 11
342.4498727019
 21
192.3359970674
  0
LINE
  5
38A
100
AcDbEntity
  8
0
100
AcDbLine
 62
7
  6
CONTINUOUS
 10
342.4498727019
 20
197.0359970674
 11
342.4498727019
 21
201.3359970674
  0
LINE
  5
38B
100
AcDbEntity
  8
0
100
AcDbLine
 62
7
  6
CONTINUOUS
 10
342.4498727019
 20
206.0359970674
 11
342.4498727019
 21
210.3359970674
  0
LINE
  5
38C
100
AcDbEntity
  8
0
100
AcDbLine
 62
7
  6
CONTINUOUS
 10
342.4498727019
 20
215.0359970674
 11
342.4498727019
 21
219.3359970674
  0
LINE
  5
38D
100
AcDbEntity
  8
0
100
AcDbLine
 62
7
  6
CONTINUOUS
 10
342.4498727019
 20
224.0359970674
 11
342.4498727019
 21
228.3359970674
  0
LINE
  5
38E
100
AcDbEntity
  8
0
100
AcDbLine
 62
7
  6
CONTINUOUS
 10
342.4498727019
 20
233.0359970674
 11
342.4498727019
 21
237.3359970674
  0
LINE
  5
38F
100
AcDbEntity
  8
0
100
AcDbLine
 62
7
  6
CONTINUOUS
 10
342.4498727019
 20
242.0359970674
 11
342.4498727019
 21
246.3359970674
  0
LINE
  5
390
100
AcDbEntity
  8
0
100
AcDbLine
 62
7
  6
CONTINUOUS
 10
343.6494254712
 20
90.1859970674
 11
343.6494254712
 21
96.1859970674
  0
LINE
  5
391
100
AcDbEntity
  8
0
100
AcDbLine
 62
7
  6
CONTINUOUS
 10
346.169981005
 20
96.1859970674
 11
346.169981005
 21
90.1859970674
  0
LINE
  5
392
100
AcDbEntity
  8
0
100
AcDbLine
 62
7
  6
CONTINUOUS
 10
346.3998727019
 20
96.1859970674
 11
346.3998727019
 21
90.1859970674
  0
LINE
  5
393
100
AcDbEntity
  8
0
100
AcDbLine
 62
7
  6
CONTINUOUS
 10
352.2998727019
 20
897.6859970674
 11
352.2998727019
 21
882.6859970674
  0
LINE
  5
394
100
AcDbEntity
  8
0
100
AcDbLine
 62
7
  6
CONTINUOUS
 10
352.2998727019
 20
877.6859970674
 11
352.2998727019
 21
862.6859970674
  0
LINE
  5
395
100
AcDbEntity
  8
0
100
AcDbLine
 62
7
  6
CONTINUOUS
 10
352.2998727019
 20
857.6859970674
 11
352.2998727019
 21
842.6859970674
  0
LINE
  5
396
100
AcDbEntity
  8
0
100
AcDbLine
 62
7
  6
CONTINUOUS
 10
357.2998727019
 20
842.6859970674
 11
357.2998727019
 21
857.6859970674
  0
LINE
  5
397
100
AcDbEntity
  8
0
100
AcDbLine
 62
7
  6
CONTINUOUS
 10
357.2998727019
 20
862.6859970674
 11
357.2998727019
 21
877.6859970674
  0
LINE
  5
398
100
AcDbEntity
  8
0
100
AcDbLine
 62
7
  6
CONTINUOUS
 10
357.2998727019
 20
882.6859970674
 11
357.2998727019
 21
897.6859970674
  0
LINE
  5
399
100
AcDbEntity
  8
0
100
AcDbLine
 62
7
  6
CONTINUOUS
 10
210.2998727019
 20
493.6859970674
 11
211.2998727019
 21
493.6859970674
  0
LINE
  5
39A
100
AcDbEntity
  8
0
100
AcDbLine
 62
7
  6
CONTINUOUS
 10
418.8312699101
 20
259.6859970674
 11
426.1998727019
 21
232.1859970674
  0
LINE
  5
39B
100
AcDbEntity
  8
0
100
AcDbLine
 62
7
  6
CONTINUOUS
 10
382.6998727019
 20
836.6859970674
 11
382.6998727019
 21
835.1859970674
  0
LINE
  5
39C
100
AcDbEntity
  8
0
100
AcDbLine
 62
7
  6
CONTINUOUS
 10
384.1998727019
 20
259.1859970674
 11
384.1998727019
 21
835.1859970674
  0
LINE
  5
39D
100
AcDbEntity
  8
0
100
AcDbLine
 62
7
  6
CONTINUOUS
 10
385.6998727019
 20
259.1859970674
 11
385.6998727019
 21
96.1859970674
  0
LINE
  5
39E
100
AcDbEntity
  8
0
100
AcDbLine
 62
7
  6
CONTINUOUS
 10
209.2998727019
 20
497.4359970674
 11
210.2998727019
 21
497.4359970674
  0
LINE
  5
39F
100
AcDbEntity
  8
0
100
AcDbLine
 62
7
  6
CONTINUOUS
 10
210.2998727019
 20
500.1859970674
 11
209.2998727019
 21
500.1859970674
  0
LINE
  5
3A0
100
AcDbEntity
  8
0
100
AcDbLine
 62
7
  6
CONTINUOUS
 10
209.2998727019
 20
501.1859970674
 11
210.2998727019
 21
501.1859970674
  0
LINE
  5
3A1
100
AcDbEntity
  8
0
100
AcDbLine
 62
7
  6
CONTINUOUS
 10
209.3789354344
 20
503.4359970674
 11
209.4070700454
 21
503.4359970674
  0
LINE
  5
3A2
100
AcDbEntity
  8
0
100
AcDbLine
 62
7
  6
CONTINUOUS
 10
208.7998727019
 20
506.6859970674
 11
208.8046752565
 21
506.6859970674
  0
LINE
  5
3A3
100
AcDbEntity
  8
0
100
AcDbLine
 62
7
  6
CONTINUOUS
 10
208.8046752565
 20
507.6859970674
 11
208.7998727019
 21
507.6859970674
  0
LINE
  5
3A4
100
AcDbEntity
  8
0
100
AcDbLine
 62
7
  6
CONTINUOUS
 10
209.3789047883
 20
510.9359970674
 11
209.4070700454
 21
510.9359970674
  0
LINE
  5
3A5
100
AcDbEntity
  8
0
100
AcDbLine
 62
7
  6
CONTINUOUS
 10
397.2998727019
 20
897.6859970674
 11
397.2998727019
 21
882.6859970674
  0
LINE
  5
3A6
100
AcDbEntity
  8
0
100
AcDbLine
 62
7
  6
CONTINUOUS
 10
397.2998727019
 20
877.6859970674
 11
397.2998727019
 21
862.6859970674
  0
LINE
  5
3A7
100
AcDbEntity
  8
0
100
AcDbLine
 62
7
  6
CONTINUOUS
 10
397.2998727019
 20
857.6859970674
 11
397.2998727019
 21
842.6859970674
  0
LINE
  5
3A8
100
AcDbEntity
  8
0
100
AcDbLine
 62
7
  6
CONTINUOUS
 10
402.2998727019
 20
842.6859970674
 11
402.2998727019
 21
857.6859970674
  0
LINE
  5
3A9
100
AcDbEntity
  8
0
100
AcDbLine
 62
7
  6
CONTINUOUS
 10
402.2998727019
 20
862.6859970674
 11
402.2998727019
 21
877.6859970674
  0
LINE
  5
3AA
100
AcDbEntity
  8
0
100
AcDbLine
 62
7
  6
CONTINUOUS
 10
402.2998727019
 20
882.6859970674
 11
402.2998727019
 21
897.6859970674
  0
LINE
  5
3AB
100
AcDbEntity
  8
0
100
AcDbLine
 62
7
  6
CONTINUOUS
 10
402.3998727019
 20
232.1859970674
 11
402.3998727019
 21
259.6859970674
  0
LINE
  5
3AC
100
AcDbEntity
  8
0
100
AcDbLine
 62
7
  6
CONTINUOUS
 10
442.2998727019
 20
897.6859970674
 11
442.2998727019
 21
882.6859970674
  0
LINE
  5
3AD
100
AcDbEntity
  8
0
100
AcDbLine
 62
7
  6
CONTINUOUS
 10
442.2998727019
 20
877.6859970674
 11
442.2998727019
 21
862.6859970674
  0
LINE
  5
3AE
100
AcDbEntity
  8
0
100
AcDbLine
 62
7
  6
CONTINUOUS
 10
447.2998727019
 20
862.6859970674
 11
447.2998727019
 21
877.6859970674
  0
LINE
  5
3AF
100
AcDbEntity
  8
0
100
AcDbLine
 62
7
  6
CONTINUOUS
 10
447.2998727019
 20
882.6859970674
 11
447.2998727019
 21
897.6859970674
  0
LINE
  5
3B0
100
AcDbEntity
  8
0
100
AcDbLine
 62
7
  6
CONTINUOUS
 10
487.2998727019
 20
897.6859970674
 11
487.2998727019
 21
882.6859970674
  0
LINE
  5
3B1
100
AcDbEntity
  8
0
100
AcDbLine
 62
7
  6
CONTINUOUS
 10
487.2998727019
 20
877.6859970674
 11
487.2998727019
 21
862.6859970674
  0
LINE
  5
3B2
100
AcDbEntity
  8
0
100
AcDbLine
 62
7
  6
CONTINUOUS
 10
497.1998727019
 20
862.1859970674
 11
497.1998727019
 21
863.6859970674
  0
LINE
  5
3B3
100
AcDbEntity
  8
0
100
AcDbLine
 62
7
  6
CONTINUOUS
 10
500.1998727019
 20
863.6859970674
 11
500.1998727019
 21
903.6859970674
  0
LINE
  5
3B4
100
AcDbEntity
  8
0
100
AcDbLine
 62
7
  6
CONTINUOUS
 10
501.1998727019
 20
232.1859970674
 11
501.1998727019
 21
862.1859970674
  0
LINE
  5
3B5
100
AcDbEntity
  8
0
100
AcDbLine
 62
7
  6
CONTINUOUS
 10
210.2998727019
 20
628.3859970674
 11
211.2998727019
 21
628.3859970674
  0
LINE
  5
3B6
100
AcDbEntity
  8
0
100
AcDbLine
 62
7
  6
CONTINUOUS
 10
247.3522378967
 20
631.4091041225
 11
234.3499946992
 21
631.4091040928
  0
LINE
  5
3B7
100
AcDbEntity
  8
0
100
AcDbLine
 62
7
  6
CONTINUOUS
 10
234.3499946992
 20
631.4683970674
 11
247.3522378967
 21
631.4683970674
  0
LINE
  5
3B8
100
AcDbEntity
  8
0
100
AcDbLine
 62
7
  6
CONTINUOUS
 10
210.2998727019
 20
638.3859970674
 11
211.2998727019
 21
638.3859970674
  0
LINE
  5
3B9
100
AcDbEntity
  8
0
100
AcDbLine
 62
7
  6
CONTINUOUS
 10
210.2998727019
 20
674.6859970674
 11
211.2998727019
 21
674.6859970674
  0
LINE
  5
3BA
100
AcDbEntity
  8
0
100
AcDbLine
 62
7
  6
CONTINUOUS
 10
207.7864828316
 20
691.9553611038
 11
211.2998727019
 21
691.9553611038
  0
LINE
  5
3BB
100
AcDbEntity
  8
0
100
AcDbLine
 62
7
  6
CONTINUOUS
 10
211.2998727019
 20
698.7259970674
 11
207.3728634573
 21
698.7259970674
  0
LINE
  5
3BC
100
AcDbEntity
  8
0
100
AcDbLine
 62
7
  6
CONTINUOUS
 10
360.0856591395
 20
857.6859970674
 11
375.0856591395
 21
842.6859970674
  0
LINE
  5
3BD
100
AcDbEntity
  8
0
100
AcDbLine
 62
7
  6
CONTINUOUS
 10
209.3789354344
 20
808.4359970674
 11
209.4070700454
 21
808.4359970674
  0
LINE
  5
3BE
100
AcDbEntity
  8
0
100
AcDbLine
 62
7
  6
CONTINUOUS
 10
207.3728634573
 20
811.1259970674
 11
208.7998727019
 21
811.1259970799
  0
LINE
  5
3BF
100
AcDbEntity
  8
0
100
AcDbLine
 62
7
  6
CONTINUOUS
 10
208.7998727019
 20
811.6859970674
 11
208.8046752565
 21
811.6859970674
  0
LINE
  5
3C0
100
AcDbEntity
  8
0
100
AcDbLine
 62
7
  6
CONTINUOUS
 10
208.8046752565
 20
812.6859970674
 11
208.7998727019
 21
812.6859970674
  0
LINE
  5
3C1
100
AcDbEntity
  8
0
100
AcDbLine
 62
7
  6
CONTINUOUS
 10
209.3789047883
 20
815.9359970674
 11
209.4070700454
 21
815.9359970674
  0
LINE
  5
3C2
100
AcDbEntity
  8
0
100
AcDbLine
 62
7
  6
CONTINUOUS
 10
211.2998727019
 20
817.896633031
 11
207.7864828316
 21
817.896633031
  0
LINE
  5
3C3
100
AcDbEntity
  8
0
100
AcDbLine
 62
7
  6
CONTINUOUS
 10
384.1998727019
 20
834.1859970674
 11
418.6972953139
 21
834.1859970674
  0
LINE
  5
3C4
100
AcDbEntity
  8
0
100
AcDbLine
 62
7
  6
CONTINUOUS
 10
213.2998727019
 20
835.1859970674
 11
418.9652445063
 21
835.1859970674
  0
LINE
  5
3C5
100
AcDbEntity
  8
0
100
AcDbLine
 62
7
  6
CONTINUOUS
 10
222.7998727019
 20
836.6859970674
 11
419.3671682949
 21
836.6859970674
  0
LINE
  5
3C6
100
AcDbEntity
  8
0
100
AcDbLine
 62
7
  6
CONTINUOUS
 10
211.2998727019
 20
837.1859970674
 11
221.2998727019
 21
837.1859970674
  0
LINE
  5
3C7
100
AcDbEntity
  8
0
100
AcDbLine
 62
7
  6
CONTINUOUS
 10
214.2998727019
 20
838.6859970674
 11
222.7998727019
 21
838.6859970674
  0
LINE
  5
3C8
100
AcDbEntity
  8
0
100
AcDbLine
 62
7
  6
CONTINUOUS
 10
473.8995929135
 20
842.6859970674
 11
464.5042318127
 21
842.6859970674
  0
LINE
  5
3C9
100
AcDbEntity
  8
0
100
AcDbLine
 62
7
  6
CONTINUOUS
 10
420.9748634495
 20
842.6859970674
 11
402.2998727019
 21
842.6859970674
  0
LINE
  5
3CA
100
AcDbEntity
  8
0
100
AcDbLine
 62
7
  6
CONTINUOUS
 10
397.2998727019
 20
842.6859970674
 11
357.2998727019
 21
842.6859970674
  0
LINE
  5
3CB
100
AcDbEntity
  8
0
100
AcDbLine
 62
7
  6
CONTINUOUS
 10
352.2998727019
 20
842.6859970674
 11
312.2998727019
 21
842.6859970674
  0
LINE
  5
3CC
100
AcDbEntity
  8
0
100
AcDbLine
 62
7
  6
CONTINUOUS
 10
307.2998727019
 20
842.6859970674
 11
267.2998727019
 21
842.6859970674
  0
LINE
  5
3CD
100
AcDbEntity
  8
0
100
AcDbLine
 62
7
  6
CONTINUOUS
 10
262.2998727019
 20
842.6859970674
 11
222.2998727019
 21
842.6859970674
  0
LINE
  5
3CE
100
AcDbEntity
  8
0
100
AcDbLine
 62
7
  6
CONTINUOUS
 10
222.2998727019
 20
857.6859970674
 11
262.2998727019
 21
857.6859970674
  0
LINE
  5
3CF
100
AcDbEntity
  8
0
100
AcDbLine
 62
7
  6
CONTINUOUS
 10
267.2998727019
 20
857.6859970674
 11
307.2998727019
 21
857.6859970674
  0
LINE
  5
3D0
100
AcDbEntity
  8
0
100
AcDbLine
 62
7
  6
CONTINUOUS
 10
312.2998727019
 20
857.6859970674
 11
352.2998727019
 21
857.6859970674
  0
LINE
  5
3D1
100
AcDbEntity
  8
0
100
AcDbLine
 62
7
  6
CONTINUOUS
 10
357.2998727019
 20
857.6859970674
 11
397.2998727019
 21
857.6859970674
  0
LINE
  5
3D2
100
AcDbEntity
  8
0
100
AcDbLine
 62
7
  6
CONTINUOUS
 10
402.2998727019
 20
857.6859970674
 11
424.994101336
 21
857.6859970674
  0
LINE
  5
3D3
100
AcDbEntity
  8
0
100
AcDbLine
 62
7
  6
CONTINUOUS
 10
211.2998727019
 20
861.1859970674
 11
214.2998727019
 21
861.1859970674
  0
LINE
  5
3D4
100
AcDbEntity
  8
0
100
AcDbLine
 62
7
  6
CONTINUOUS
 10
501.1998727019
 20
862.1859970674
 11
426.1998727019
 21
862.1859970674
  0
LINE
  5
3D5
100
AcDbEntity
  8
0
100
AcDbLine
 62
7
  6
CONTINUOUS
 10
487.2998727019
 20
862.6859970674
 11
447.2998727019
 21
862.6859970674
  0
LINE
  5
3D6
100
AcDbEntity
  8
0
100
AcDbLine
 62
7
  6
CONTINUOUS
 10
442.2998727019
 20
862.6859970674
 11
402.2998727019
 21
862.6859970674
  0
LINE
  5
3D7
100
AcDbEntity
  8
0
100
AcDbLine
 62
7
  6
CONTINUOUS
 10
397.2998727019
 20
862.6859970674
 11
357.2998727019
 21
862.6859970674
  0
LINE
  5
3D8
100
AcDbEntity
  8
0
100
AcDbLine
 62
7
  6
CONTINUOUS
 10
352.2998727019
 20
862.6859970674
 11
312.2998727019
 21
862.6859970674
  0
LINE
  5
3D9
100
AcDbEntity
  8
0
100
AcDbLine
 62
7
  6
CONTINUOUS
 10
307.2998727019
 20
862.6859970674
 11
267.2998727019
 21
862.6859970674
  0
LINE
  5
3DA
100
AcDbEntity
  8
0
100
AcDbLine
 62
7
  6
CONTINUOUS
 10
262.2998727019
 20
862.6859970674
 11
222.2998727019
 21
862.6859970674
  0
LINE
  5
3DB
100
AcDbEntity
  8
0
100
AcDbLine
 62
7
  6
CONTINUOUS
 10
500.1998727019
 20
863.6859970674
 11
497.1998727019
 21
863.6859970674
  0
LINE
  5
3DC
100
AcDbEntity
  8
0
100
AcDbLine
 62
7
  6
CONTINUOUS
 10
222.2998727019
 20
877.6859970674
 11
262.2998727019
 21
877.6859970674
  0
LINE
  5
3DD
100
AcDbEntity
  8
0
100
AcDbLine
 62
7
  6
CONTINUOUS
 10
267.2998727019
 20
877.6859970674
 11
307.2998727019
 21
877.6859970674
  0
LINE
  5
3DE
100
AcDbEntity
  8
0
100
AcDbLine
 62
7
  6
CONTINUOUS
 10
312.2998727019
 20
877.6859970674
 11
352.2998727019
 21
877.6859970674
  0
LINE
  5
3DF
100
AcDbEntity
  8
0
100
AcDbLine
 62
7
  6
CONTINUOUS
 10
357.2998727019
 20
877.6859970674
 11
397.2998727019
 21
877.6859970674
  0
LINE
  5
3E0
100
AcDbEntity
  8
0
100
AcDbLine
 62
7
  6
CONTINUOUS
 10
402.2998727019
 20
877.6859970674
 11
442.2998727019
 21
877.6859970674
  0
LINE
  5
3E1
100
AcDbEntity
  8
0
100
AcDbLine
 62
7
  6
CONTINUOUS
 10
447.2998727019
 20
877.6859970674
 11
487.2998727019
 21
877.6859970674
  0
LINE
  5
3E2
100
AcDbEntity
  8
0
100
AcDbLine
 62
7
  6
CONTINUOUS
 10
487.2998727019
 20
882.6859970674
 11
447.2998727019
 21
882.6859970674
  0
LINE
  5
3E3
100
AcDbEntity
  8
0
100
AcDbLine
 62
7
  6
CONTINUOUS
 10
442.2998727019
 20
882.6859970674
 11
402.2998727019
 21
882.6859970674
  0
LINE
  5
3E4
100
AcDbEntity
  8
0
100
AcDbLine
 62
7
  6
CONTINUOUS
 10
397.2998727019
 20
882.6859970674
 11
357.2998727019
 21
882.6859970674
  0
LINE
  5
3E5
100
AcDbEntity
  8
0
100
AcDbLine
 62
7
  6
CONTINUOUS
 10
352.2998727019
 20
882.6859970674
 11
312.2998727019
 21
882.6859970674
  0
LINE
  5
3E6
100
AcDbEntity
  8
0
100
AcDbLine
 62
7
  6
CONTINUOUS
 10
307.2998727019
 20
882.6859970674
 11
267.2998727019
 21
882.6859970674
  0
LINE
  5
3E7
100
AcDbEntity
  8
0
100
AcDbLine
 62
7
  6
CONTINUOUS
 10
262.2998727019
 20
882.6859970674
 11
222.2998727019
 21
882.6859970674
  0
LINE
  5
3E8
100
AcDbEntity
  8
0
100
AcDbLine
 62
7
  6
CONTINUOUS
 10
222.2998727019
 20
897.6859970674
 11
262.2998727019
 21
897.6859970674
  0
LINE
  5
3E9
100
AcDbEntity
  8
0
100
AcDbLine
 62
7
  6
CONTINUOUS
 10
267.2998727019
 20
897.6859970674
 11
307.2998727019
 21
897.6859970674
  0
LINE
  5
3EA
100
AcDbEntity
  8
0
100
AcDbLine
 62
7
  6
CONTINUOUS
 10
312.2998727019
 20
897.6859970674
 11
352.2998727019
 21
897.6859970674
  0
LINE
  5
3EB
100
AcDbEntity
  8
0
100
AcDbLine
 62
7
  6
CONTINUOUS
 10
357.2998727019
 20
897.6859970674
 11
397.2998727019
 21
897.6859970674
  0
LINE
  5
3EC
100
AcDbEntity
  8
0
100
AcDbLine
 62
7
  6
CONTINUOUS
 10
402.2998727019
 20
897.6859970674
 11
442.2998727019
 21
897.6859970674
  0
LINE
  5
3ED
100
AcDbEntity
  8
0
100
AcDbLine
 62
7
  6
CONTINUOUS
 10
447.2998727019
 20
897.6859970674
 11
487.2998727019
 21
897.6859970674
  0
LINE
  5
3EE
100
AcDbEntity
  8
0
100
AcDbLine
 62
7
  6
CONTINUOUS
 10
500.1998727019
 20
903.6859970674
 11
211.2998727019
 21
903.6859970674
  0
ARC
  5
3EF
100
AcDbEntity
  8
0
100
AcDbCircle
 62
7
  6
CONTINUOUS
 10
211.4245350855
 20
104.4521222553
 40
2.6246623837
100
AcDbArc
 50
179.9994980756
 51
182.2852448064
  0
ARC
  5
3F0
100
AcDbEntity
  8
0
100
AcDbCircle
 62
7
  6
CONTINUOUS
 10
211.4220356293
 20
104.4519687778
 40
2.6221629343
100
AcDbArc
 50
179.9958384168
 51
182.2840675294
  0
ARC
  5
3F1
100
AcDbEntity
  8
0
100
AcDbCircle
 62
7
  6
CONTINUOUS
 10
211.4038621081
 20
108.840660539
 40
2.6039895334
100
AcDbArc
 50
168.1608676748
 51
180.0179155913
  0
ARC
  5
3F2
100
AcDbEntity
  8
0
100
AcDbCircle
 62
7
  6
CONTINUOUS
 10
211.3946109456
 20
104.4500954811
 40
2.5946813593
100
AcDbArc
 50
182.2668736134
 51
191.8541137596
  0
ARC
  5
3F3
100
AcDbEntity
  8
0
100
AcDbCircle
 62
7
  6
CONTINUOUS
 10
211.3941120256
 20
104.4500642351
 40
2.5941857322
100
AcDbArc
 50
182.2666157881
 51
191.8557019397
  0
ARC
  5
3F4
100
AcDbEntity
  8
0
100
AcDbCircle
 62
7
  6
CONTINUOUS
 10
211.3404863733
 20
104.4404346145
 40
2.5397270628
100
AcDbArc
 50
191.8916410622
 51
198.3164493541
  0
ARC
  5
3F5
100
AcDbEntity
  8
0
100
AcDbCircle
 62
7
  6
CONTINUOUS
 10
211.3401650126
 20
108.851653439
 40
2.5393931315
100
AcDbArc
 50
162.4826696745
 51
168.1087626841
  0
ARC
  5
3F6
100
AcDbEntity
  8
0
100
AcDbCircle
 62
7
  6
CONTINUOUS
 10
211.3341041463
 20
104.4395903034
 40
2.5334938206
100
AcDbArc
 50
203.8681297494
 51
216.1242960954
  0
ARC
  5
3F7
100
AcDbEntity
  8
0
100
AcDbCircle
 62
7
  6
CONTINUOUS
 10
211.3332594504
 20
104.4390997807
 40
2.5325223456
100
AcDbArc
 50
203.865713937
 51
216.1265984556
  0
ARC
  5
3F8
100
AcDbEntity
  8
0
100
AcDbCircle
 62
7
  6
CONTINUOUS
 10
211.3326303073
 20
108.853257333
 40
2.5318001758
100
AcDbArc
 50
143.8716422325
 51
156.1361436972
  0
ARC
  5
3F9
100
AcDbEntity
  8
0
100
AcDbCircle
 62
7
  6
CONTINUOUS
 10
211.3321266396
 20
108.8541734131
 40
2.5309690327
100
AcDbArc
 50
156.1504960601
 51
162.4822986075
  0
ARC
  5
3FA
100
AcDbEntity
  8
0
100
AcDbCircle
 62
7
  6
CONTINUOUS
 10
211.3304180353
 20
104.4371666955
 40
2.5291418424
100
AcDbArc
 50
198.3178488319
 51
203.8517095757
  0
ARC
  5
3FB
100
AcDbEntity
  8
0
100
AcDbCircle
 62
7
  6
CONTINUOUS
 10
211.3298526196
 20
104.4369445088
 40
2.5285354089
100
AcDbArc
 50
198.3170928495
 51
203.852285742
  0
ARC
  5
3FC
100
AcDbEntity
  8
0
100
AcDbCircle
 62
7
  6
CONTINUOUS
 10
211.2998727019
 20
104.3959970675
 40
2.5
100
AcDbArc
 50
215.4505426395
 51
269.9999999998
  0
ARC
  5
3FD
100
AcDbEntity
  8
0
100
AcDbCircle
 62
7
  6
CONTINUOUS
 10
211.4245350872
 20
230.9521222553
 40
2.6246623854
100
AcDbArc
 50
179.9994980747
 51
182.2852381541
  0
ARC
  5
3FE
100
AcDbEntity
  8
0
100
AcDbCircle
 62
7
  6
CONTINUOUS
 10
211.4220356304
 20
230.9519687778
 40
2.6221629354
100
AcDbArc
 50
179.9958384167
 51
182.2840608713
  0
ARC
  5
3FF
100
AcDbEntity
  8
0
100
AcDbCircle
 62
7
  6
CONTINUOUS
 10
211.4099841615
 20
280.0948196458
 40
2.6101114637
100
AcDbArc
 50
180.0031995706
 51
185.3296075597
  0
ARC
  5
400
100
AcDbEntity
  8
0
100
AcDbCircle
 62
7
  6
CONTINUOUS
 10
211.4090791779
 20
284.2772465607
 40
2.609206477
100
AcDbArc
 50
174.6540041596
 51
179.998414361
  0
ARC
  5
401
100
AcDbEntity
  8
0
100
AcDbCircle
 62
7
  6
CONTINUOUS
 10
211.4072140851
 20
284.2773985585
 40
2.6073413887
100
AcDbArc
 50
174.6535095202
 51
179.9962795416
  0
ARC
  5
402
100
AcDbEntity
  8
0
100
AcDbCircle
 62
7
  6
CONTINUOUS
 10
211.4038621073
 20
235.340660539
 40
2.6039895327
100
AcDbArc
 50
168.1608676739
 51
180.017915591
  0
ARC
  5
403
100
AcDbEntity
  8
0
100
AcDbCircle
 62
7
  6
CONTINUOUS
 10
211.3958134311
 20
280.0930955748
 40
2.595841886
100
AcDbArc
 50
185.3207705902
 51
192.898055267
  0
ARC
  5
404
100
AcDbEntity
  8
0
100
AcDbCircle
 62
7
  6
CONTINUOUS
 10
211.3954495166
 20
284.2788852808
 40
2.5954895007
100
AcDbArc
 50
167.0998668196
 51
174.6619874609
  0
ARC
  5
405
100
AcDbEntity
  8
0
100
AcDbCircle
 62
7
  6
CONTINUOUS
 10
211.3946109747
 20
230.9500954854
 40
2.5946813887
100
AcDbArc
 50
182.2668669532
 51
191.8541137178
  0
ARC
  5
406
100
AcDbEntity
  8
0
100
AcDbCircle
 62
7
  6
CONTINUOUS
 10
211.3941120532
 20
230.9500642391
 40
2.5941857601
100
AcDbArc
 50
182.2666091231
 51
191.8557018998
  0
ARC
  5
407
100
AcDbEntity
  8
0
100
AcDbCircle
 62
7
  6
CONTINUOUS
 10
211.3540919886
 20
284.2878314537
 40
2.5531792346
100
AcDbArc
 50
158.8294141689
 51
167.0883593489
  0
ARC
  5
408
100
AcDbEntity
  8
0
100
AcDbCircle
 62
7
  6
CONTINUOUS
 10
211.3539717583
 20
280.0841331793
 40
2.5530554421
100
AcDbArc
 50
192.9115992812
 51
201.1716042406
  0
ARC
  5
409
100
AcDbEntity
  8
0
100
AcDbCircle
 62
7
  6
CONTINUOUS
 10
211.3404863744
 20
230.9404346148
 40
2.5397270639
100
AcDbArc
 50
191.8916410642
 51
198.3164534873
  0
ARC
  5
40A
100
AcDbEntity
  8
0
100
AcDbCircle
 62
7
  6
CONTINUOUS
 10
211.3401650155
 20
235.351653438
 40
2.5393931346
100
AcDbArc
 50
162.482660145
 51
168.1087626774
  0
ARC
  5
40B
100
AcDbEntity
  8
0
100
AcDbCircle
 62
7
  6
CONTINUOUS
 10
211.3341041463
 20
230.9395903034
 40
2.5334938205
100
AcDbArc
 50
203.8681297455
 51
216.1242960942
  0
ARC
  5
40C
100
AcDbEntity
  8
0
100
AcDbCircle
 62
7
  6
CONTINUOUS
 10
211.3332594504
 20
230.9390997807
 40
2.5325223457
100
AcDbArc
 50
203.8657139348
 51
216.1265984558
  0
ARC
  5
40D
100
AcDbEntity
  8
0
100
AcDbCircle
 62
7
  6
CONTINUOUS
 10
211.3326303071
 20
235.3532573332
 40
2.5318001755
100
AcDbArc
 50
143.8716422337
 51
156.1361437022
  0
ARC
  5
40E
100
AcDbEntity
  8
0
100
AcDbCircle
 62
7
  6
CONTINUOUS
 10
211.3321266246
 20
235.3541734188
 40
2.5309690167
100
AcDbArc
 50
156.1504960442
 51
162.4822890694
  0
ARC
  5
40F
100
AcDbEntity
  8
0
100
AcDbCircle
 62
7
  6
CONTINUOUS
 10
211.3304180278
 20
230.9371666925
 40
2.5291418343
100
AcDbArc
 50
198.3178529721
 51
203.8517095804
  0
ARC
  5
410
100
AcDbEntity
  8
0
100
AcDbCircle
 62
7
  6
CONTINUOUS
 10
211.3298526127
 20
230.9369445061
 40
2.5285354014
100
AcDbArc
 50
198.3170969924
 51
203.8522857471
  0
ARC
  5
411
100
AcDbEntity
  8
0
100
AcDbCircle
 62
7
  6
CONTINUOUS
 10
211.3279959126
 20
284.2949963429
 40
2.5264282229
100
AcDbArc
 50
139.4935324115
 51
153.5633940776
  0
ARC
  5
412
100
AcDbEntity
  8
0
100
AcDbCircle
 62
7
  6
CONTINUOUS
 10
211.3273270789
 20
280.0765556123
 40
2.525632478
100
AcDbArc
 50
206.4343810615
 51
220.5086959263
  0
ARC
  5
413
100
AcDbEntity
  8
0
100
AcDbCircle
 62
7
  6
CONTINUOUS
 10
211.3272381746
 20
284.295494687
 40
2.5255284011
100
AcDbArc
 50
139.4909627114
 51
153.5658642218
  0
ARC
  5
414
100
AcDbEntity
  8
0
100
AcDbCircle
 62
7
  6
CONTINUOUS
 10
211.3196516831
 20
280.0712614513
 40
2.5164031177
100
AcDbArc
 50
201.1805341937
 51
206.404240634
  0
ARC
  5
415
100
AcDbEntity
  8
0
100
AcDbCircle
 62
7
  6
CONTINUOUS
 10
211.3192159499
 20
284.3009125115
 40
2.5159328642
100
AcDbArc
 50
153.5950168218
 51
158.8203702645
  0
ARC
  5
416
100
AcDbEntity
  8
0
100
AcDbCircle
 62
7
  6
CONTINUOUS
 10
211.2998727019
 20
230.8959970674
 40
2.5
100
AcDbArc
 50
215.4505426392
 51
270.0000000001
  0
ARC
  5
417
100
AcDbEntity
  8
0
100
AcDbCircle
 62
7
  6
CONTINUOUS
 10
211.2998727019
 20
284.3359970675
 40
2.5
100
AcDbArc
 50
89.9999999998
 51
140.2081805006
  0
ARC
  5
418
100
AcDbEntity
  8
0
100
AcDbCircle
 62
7
  6
CONTINUOUS
 10
245.9938447483
 20
282.1445843507
 40
37.1919968513
100
AcDbArc
 50
179.93270733
 51
180.706490211
  0
ARC
  5
419
100
AcDbEntity
  8
0
100
AcDbCircle
 62
7
  6
CONTINUOUS
 10
245.8788122733
 20
282.2284347851
 40
37.0769604847
100
AcDbArc
 50
179.2929017699
 51
180.0620743509
  0
ARC
  5
41A
100
AcDbEntity
  8
0
100
AcDbCircle
 62
7
  6
CONTINUOUS
 10
245.9938447483
 20
507.1445843507
 40
37.1919968513
100
AcDbArc
 50
179.93270733
 51
180.706490211
  0
ARC
  5
41B
100
AcDbEntity
  8
0
100
AcDbCircle
 62
7
  6
CONTINUOUS
 10
245.9938447483
 20
812.1445843507
 40
37.1919968513
100
AcDbArc
 50
179.93270733
 51
180.706490211
  0
ARC
  5
41C
100
AcDbEntity
  8
0
100
AcDbCircle
 62
7
  6
CONTINUOUS
 10
245.8788122704
 20
507.2284347851
 40
37.0769604817
100
AcDbArc
 50
179.2929017698
 51
180.0620743509
  0
ARC
  5
41D
100
AcDbEntity
  8
0
100
AcDbCircle
 62
7
  6
CONTINUOUS
 10
245.862988148
 20
812.2285238584
 40
37.0611364653
100
AcDbArc
 50
179.2927375603
 51
180.0622385604
  0
ARC
  5
41E
100
AcDbEntity
  8
0
100
AcDbCircle
 62
7
  6
CONTINUOUS
 10
211.409984163
 20
505.0948196459
 40
2.6101114652
100
AcDbArc
 50
180.0031995716
 51
185.329609103
  0
ARC
  5
41F
100
AcDbEntity
  8
0
100
AcDbCircle
 62
7
  6
CONTINUOUS
 10
211.409984163
 20
810.0948196459
 40
2.6101114652
100
AcDbArc
 50
180.0031995716
 51
185.3296090979
  0
ARC
  5
420
100
AcDbEntity
  8
0
100
AcDbCircle
 62
7
  6
CONTINUOUS
 10
211.4094654057
 20
814.2772178767
 40
2.6095927057
100
AcDbArc
 50
174.6541656901
 51
179.9977848157
  0
ARC
  5
421
100
AcDbEntity
  8
0
100
AcDbCircle
 62
7
  6
CONTINUOUS
 10
211.4090791803
 20
509.2772465606
 40
2.6092064793
100
AcDbArc
 50
174.6540019889
 51
179.9984143594
  0
ARC
  5
422
100
AcDbEntity
  8
0
100
AcDbCircle
 62
7
  6
CONTINUOUS
 10
211.4072140876
 20
509.2773985584
 40
2.6073413912
100
AcDbArc
 50
174.6535073482
 51
179.9962795394
  0
ARC
  5
423
100
AcDbEntity
  8
0
100
AcDbCircle
 62
7
  6
CONTINUOUS
 10
211.4065682329
 20
814.2774465812
 40
2.6066955338
100
AcDbArc
 50
174.6532344871
 51
179.9973341694
  0
ARC
  5
424
100
AcDbEntity
  8
0
100
AcDbCircle
 62
7
  6
CONTINUOUS
 10
211.3958134265
 20
505.093095574
 40
2.5958418814
100
AcDbArc
 50
185.3207721352
 51
192.8980552717
  0
ARC
  5
425
100
AcDbEntity
  8
0
100
AcDbCircle
 62
7
  6
CONTINUOUS
 10
211.3958134265
 20
810.093095574
 40
2.5958418814
100
AcDbArc
 50
185.3207721301
 51
192.8980552716
  0
ARC
  5
426
100
AcDbEntity
  8
0
100
AcDbCircle
 62
7
  6
CONTINUOUS
 10
211.3955181007
 20
814.278861507
 40
2.5955616612
100
AcDbArc
 50
167.0996932658
 51
174.6616025377
  0
ARC
  5
427
100
AcDbEntity
  8
0
100
AcDbCircle
 62
7
  6
CONTINUOUS
 10
211.3954495102
 20
509.2788852819
 40
2.5954894943
100
AcDbArc
 50
167.0998668126
 51
174.6619852873
  0
ARC
  5
428
100
AcDbEntity
  8
0
100
AcDbCircle
 62
7
  6
CONTINUOUS
 10
211.3545560216
 20
814.2876893673
 40
2.5536626553
100
AcDbArc
 50
158.8302027722
 51
167.0875783962
  0
ARC
  5
429
100
AcDbEntity
  8
0
100
AcDbCircle
 62
7
  6
CONTINUOUS
 10
211.3540919859
 20
509.2878314544
 40
2.5531792317
100
AcDbArc
 50
158.8294121244
 51
167.0883593501
  0
ARC
  5
42A
100
AcDbEntity
  8
0
100
AcDbCircle
 62
7
  6
CONTINUOUS
 10
211.3540729453
 20
814.2878279123
 40
2.553161464
100
AcDbArc
 50
158.8291832079
 51
167.0881863937
  0
ARC
  5
42B
100
AcDbEntity
  8
0
100
AcDbCircle
 62
7
  6
CONTINUOUS
 10
211.3539717588
 20
505.0841331794
 40
2.5530554426
100
AcDbArc
 50
192.9115992799
 51
201.1716040265
  0
ARC
  5
42C
100
AcDbEntity
  8
0
100
AcDbCircle
 62
7
  6
CONTINUOUS
 10
211.3539717588
 20
810.0841331794
 40
2.5530554425
100
AcDbArc
 50
192.9115992799
 51
201.1716040206
  0
ARC
  5
42D
100
AcDbEntity
  8
0
100
AcDbCircle
 62
7
  6
CONTINUOUS
 10
211.3283222183
 20
814.2947779334
 40
2.5268181886
100
AcDbArc
 50
139.494572806
 51
153.5622536141
  0
ARC
  5
42E
100
AcDbEntity
  8
0
100
AcDbCircle
 62
7
  6
CONTINUOUS
 10
211.3279959125
 20
509.294996343
 40
2.5264282228
100
AcDbArc
 50
139.4935324119
 51
153.5633940797
  0
ARC
  5
42F
100
AcDbEntity
  8
0
100
AcDbCircle
 62
7
  6
CONTINUOUS
 10
211.3273474193
 20
814.2954251008
 40
2.5256566613
100
AcDbArc
 50
139.4913723028
 51
153.565553914
  0
ARC
  5
430
100
AcDbEntity
  8
0
100
AcDbCircle
 62
7
  6
CONTINUOUS
 10
211.327327079
 20
505.0765556124
 40
2.5256324781
100
AcDbArc
 50
206.434381063
 51
220.5086959269
  0
ARC
  5
431
100
AcDbEntity
  8
0
100
AcDbCircle
 62
7
  6
CONTINUOUS
 10
211.327327079
 20
810.0765556124
 40
2.5256324781
100
AcDbArc
 50
206.434381063
 51
220.5086959269
  0
ARC
  5
432
100
AcDbEntity
  8
0
100
AcDbCircle
 62
7
  6
CONTINUOUS
 10
211.3272381745
 20
509.295494687
 40
2.5255284011
100
AcDbArc
 50
139.4909627111
 51
153.565864223
  0
ARC
  5
433
100
AcDbEntity
  8
0
100
AcDbCircle
 62
7
  6
CONTINUOUS
 10
211.3196516832
 20
505.0712614514
 40
2.5164031178
100
AcDbArc
 50
201.1805339786
 51
206.4042406339
  0
ARC
  5
434
100
AcDbEntity
  8
0
100
AcDbCircle
 62
7
  6
CONTINUOUS
 10
211.3196516832
 20
810.0712614514
 40
2.5164031178
100
AcDbArc
 50
201.1805339726
 51
206.4042406339
  0
ARC
  5
435
100
AcDbEntity
  8
0
100
AcDbCircle
 62
7
  6
CONTINUOUS
 10
211.3196295238
 20
814.3007456723
 40
2.5163774886
100
AcDbArc
 50
153.5958020966
 51
158.8202277187
  0
ARC
  5
436
100
AcDbEntity
  8
0
100
AcDbCircle
 62
7
  6
CONTINUOUS
 10
211.3192159432
 20
509.3009125146
 40
2.5159328568
100
AcDbArc
 50
153.5950168171
 51
158.8203682079
  0
ARC
  5
437
100
AcDbEntity
  8
0
100
AcDbCircle
 62
7
  6
CONTINUOUS
 10
211.3189314725
 20
814.3010517566
 40
2.5156166859
100
AcDbArc
 50
153.5949759883
 51
158.8209879693
  0
ARC
  5
438
100
AcDbEntity
  8
0
100
AcDbCircle
 62
7
  6
CONTINUOUS
 10
211.2998727019
 20
509.3359970675
 40
2.5
100
AcDbArc
 50
90.0000000004
 51
140.2081805008
  0
ARC
  5
439
100
AcDbEntity
  8
0
100
AcDbCircle
 62
7
  6
CONTINUOUS
 10
211.2998727019
 20
814.3359970675
 40
2.5
100
AcDbArc
 50
90.0000000004
 51
140.2081805007
  0
CIRCLE
  5
43A
100
AcDbEntity
  8
0
100
AcDbCircle
 62
7
  6
CONTINUOUS
 10
469.1998727019
 20
245.6859970674
 40
8.0
  0
CIRCLE
  5
43B
100
AcDbEntity
  8
0
100
AcDbCircle
 62
7
  6
CONTINUOUS
 10
469.1998727019
 20
848.6859970674
 40
8.0
  0
SPLINE
  5
43C
100
AcDbEntity
  8
0
100
AcDbSpline
 62
7
  6
CONTINUOUS
 70
0
 71
3
 72
9
 73
5
 74
0
 42
0.0000001
 43
0.0000001
 44
0.0000000001
 40
0.0
 40
0.0
 40
0.0
 40
0.0
 40
0.5000012281
 40
1.0
 40
1.0
 40
1.0
 40
1.0
 10
211.2998727019
 20
111.3959970665
 30
0.0
 10
210.9069071026
 20
111.3959970649
 30
0.0
 10
210.1093232666
 20
111.2051383708
 30
0.0
 10
209.4912493443
 20
110.6661106058
 30
0.0
 10
209.263330616
 20
110.3459957853
 30
0.0
  0
SPLINE
  5
43D
100
AcDbEntity
  8
0
100
AcDbSpline
 62
7
  6
CONTINUOUS
 70
0
 71
3
 72
9
 73
5
 74
0
 42
0.0000001
 43
0.0000001
 44
0.0000000001
 40
0.0
 40
0.0
 40
0.0
 40
0.0
 40
0.5000012281
 40
1.0
 40
1.0
 40
1.0
 40
1.0
 10
211.2998727019
 20
237.8959970665
 30
0.0
 10
210.9069071026
 20
237.8959970649
 30
0.0
 10
210.1093232666
 20
237.7051383708
 30
0.0
 10
209.4912493443
 20
237.1661106058
 30
0.0
 10
209.263330616
 20
236.8459957853
 30
0.0
  0
SPLINE
  5
43E
100
AcDbEntity
  8
0
100
AcDbSpline
 62
7
  6
CONTINUOUS
 70
0
 71
3
 72
18
 73
14
 74
0
 42
0.0000001
 43
0.0000001
 44
0.0000000001
 40
0.0
 40
0.0
 40
0.0
 40
0.0
 40
0.1940964809
 40
0.3807710374
 40
0.5527723278
 40
0.7035931624
 40
0.8274916508
 40
0.8778592056
 40
0.9198570091
 40
0.9531271966
 40
0.977434282
 40
0.9927490562
 40
1.0
 40
1.0
 40
1.0
 40
1.0
 10
207.3728634573
 20
698.7259970674
 30
0.0
 10
207.3728634573
 20
698.2853535826
 30
0.0
 10
207.3784620914
 20
697.4209030099
 30
0.0
 10
207.4032490595
 20
696.1661982155
 30
0.0
 10
207.4428723421
 20
695.010129672
 30
0.0
 10
207.4948648794
 20
693.9973244407
 30
0.0
 10
207.5487953018
 20
693.2610009361
 30
0.0
 10
207.5977028306
 20
692.7727015848
 30
0.0
 10
207.6334208392
 20
692.4891120971
 30
0.0
 10
207.667949017
 20
692.2672037725
 30
0.0
 10
207.7058927858
 20
692.1021390792
 30
0.0
 10
207.7343985506
 20
692.0070373855
 30
0.0
 10
207.7700215277
 20
691.9553611039
 30
0.0
 10
207.7864828316
 20
691.9553611039
 30
0.0
  0
SPLINE
  5
43F
100
AcDbEntity
  8
0
100
AcDbSpline
 62
7
  6
CONTINUOUS
 70
0
 71
3
 72
18
 73
14
 74
0
 42
0.0000001
 43
0.0000001
 44
0.0000000001
 40
0.0
 40
0.0
 40
0.0
 40
0.0
 40
0.0072509283
 40
0.0225656707
 40
0.0468727257
 40
0.0801428607
 40
0.122140642
 40
0.1725081559
 40
0.2964065958
 40
0.4472274243
 40
0.6192287564
 40
0.8059034552
 40
1.0
 40
1.0
 40
1.0
 40
1.0
 10
207.7864828316
 20
817.896633031
 30
0.0
 10
207.770021563
 20
817.896633031
 30
0.0
 10
207.73439855
 20
817.8449569868
 30
0.0
 10
207.7058928726
 20
817.7498553662
 30
0.0
 10
207.6679491638
 20
817.5847909693
 30
0.0
 10
207.6334209799
 20
817.3628828687
 30
0.0
 10
207.5977029923
 20
817.0792936476
 30
0.0
 10
207.5487953905
 20
816.5909945538
 30
0.0
 10
207.4948649537
 20
815.8546712643
 30
0.0
 10
207.442872395
 20
814.8418660586
 30
0.0
 10
207.4032491118
 20
813.6857971057
 30
0.0
 10
207.3784621306
 20
812.4310917436
 30
0.0
 10
207.3728634573
 20
811.5666406993
 30
0.0
 10
207.3728634573
 20
811.1259970674
 30
0.0
  0
SPLINE
  5
440
100
AcDbEntity
  8
0
100
AcDbSpline
 62
7
  6
CONTINUOUS
 70
0
 71
3
 72
9
 73
5
 74
0
 42
0.0000001
 43
0.0000001
 44
0.0000000001
 40
0.0
 40
0.0
 40
0.0
 40
0.0
 40
0.5000009737
 40
1.0
 40
1.0
 40
1.0
 40
1.0
 10
211.2998727019
 20
277.5359973042
 30
0.0
 10
210.9376600679
 20
277.5359972479
 30
0.0
 10
210.2041880517
 20
277.6973846411
 30
0.0
 10
209.6107585009
 20
278.1576759459
 30
0.0
 10
209.3789421621
 20
278.4359889988
 30
0.0
  0
SPLINE
  5
441
100
AcDbEntity
  8
0
100
AcDbSpline
 62
7
  6
CONTINUOUS
 70
0
 71
3
 72
9
 73
5
 74
0
 42
0.0000001
 43
0.0000001
 44
0.0000000001
 40
0.0
 40
0.0
 40
0.0
 40
0.0
 40
0.5000009737
 40
1.0
 40
1.0
 40
1.0
 40
1.0
 10
211.299872702
 20
502.5359973043
 30
0.0
 10
210.937660068
 20
502.5359972479
 30
0.0
 10
210.2041880518
 20
502.6973846411
 30
0.0
 10
209.6107585009
 20
503.1576759459
 30
0.0
 10
209.3789421622
 20
503.4359889988
 30
0.0
  0
SPLINE
  5
442
100
AcDbEntity
  8
0
100
AcDbSpline
 62
7
  6
CONTINUOUS
 70
0
 71
3
 72
9
 73
5
 74
0
 42
0.0000001
 43
0.0000001
 44
0.0000000001
 40
0.0
 40
0.0
 40
0.0
 40
0.0
 40
0.5000010075
 40
1.0
 40
1.0
 40
1.0
 40
1.0
 10
211.299872702
 20
807.5359973578
 30
0.0
 10
210.9376595726
 20
807.5359972954
 30
0.0
 10
210.2041865683
 20
807.6973850979
 30
0.0
 10
209.6107565995
 20
808.1576775719
 30
0.0
 10
209.3789402939
 20
808.4359912333
 30
0.0
  0
ENDSEC
  0
SECTION
  2
OBJECTS
  0
DICTIONARY
  5
C
100
AcDbDictionary
280
0
281
1
  3
ACAD_GROUP
350
D
  3
ACAD_MLINESTYLE
350
17
  3
ACAD_LAYOUT
350
1A
  3
ACAD_PLOTSETTINGS
350
19
  3
ACAD_PLOTSTYLENAME
350
E
  0
DICTIONARY
  5
D
102
{ACAD_REACTORS
330
C
102
}
100
AcDbDictionary
280
0
281
1
  0
ACDBDICTIONARYWDFLT
  5
E
102
{ACAD_REACTORS
330
C
102
}
100
AcDbDictionary
281
1
  3
Normal
350
F
100
AcDbDictionaryWithDefault
340
F
  0
DICTIONARY
  5
17
102
{ACAD_REACTORS
330
C
102
}
100
AcDbDictionary
280
0
281
1
  3
Standard
350
18
  0
DICTIONARY
  5
19
102
{ACAD_REACTORS
330
C
102
}
100
AcDbDictionary
281
1
  0
DICTIONARY
  5
1A
102
{ACAD_REACTORS
330
C
102
}
100
AcDbDictionary
281
1
  3
Model
350
443
  3
Layout1
350
444
  0
ACDBPLACEHOLDER
  5
F
102
{ACAD_REACTORS
330
E
102
}
  0
MLINESTYLE
  5
18
102
{ACAD_REACTORS
330
17
102
}
100
AcDbMlineStyle
  2
STANDARD
 70
0
  3

 62
256
 51
90.0
 52
90.0
 71
2
 49
0.5
 62
256
  6
BYLAYER
 49
-0.5
 62
256
  6
BYLAYER
  0
LAYOUT
  5
443
102
{ACAD_REACTORS
330
1A
102
}
100
AcDbPlotSettings
  1

  2
none_device
  4

  6

 40
0.0
 41
0.0
 42
0.0
 43
0.0
 44
210.0
 45
297.0
 46
0.0
 47
0.0
 48
0.0
 49
0.0
140
0.0
141
0.0
142
1.0
143
1.0
 70
1024
 72
1
 73
0
 74
0
  7

 75
0
147
1.0
148
0.0
149
0.0
100
AcDbLayout
  1
Model
 70
0
 71
0
 10
0.0
 20
0.0
 11
210.0
 21
297.0
 12
0.0
 22
0.0
 32
0.0
 14
0.0
 24
0.0
 34
0.0
 15
0.0
 25
0.0
 35
0.0
146
0.0
 13
0.0
 23
0.0
 33
0.0
 16
1.0
 26
0.0
 36
0.0
 17
0.0
 27
1.0
 37
0.0
 76
0
330
210
345
0
346
0
  0
LAYOUT
  5
444
102
{ACAD_REACTORS
330
1A
102
}
100
AcDbPlotSettings
  1

  2
none_device
  4

  6

 40
0.0
 41
0.0
 42
0.0
 43
0.0
 44
210.0
 45
297.0
 46
0.0
 47
0.0
 48
0.0
 49
0.0
140
0.0
141
0.0
142
1.0
143
1.0
 70
0
 72
1
 73
0
 74
0
  7

 75
0
147
1.0
148
0.0
149
0.0
100
AcDbLayout
  1
Layout1
 70
0
 71
1
 10
0.0
 20
0.0
 11
210.0
 21
297.0
 12
0.0
 22
0.0
 32
0.0
 14
0.0
 24
0.0
 34
0.0
 15
0.0
 25
0.0
 35
0.0
146
0.0
 13
0.0
 23
0.0
 33
0.0
 16
1.0
 26
0.0
 36
0.0
 17
0.0
 27
1.0
 37
0.0
 76
0
330
211
345
0
346
0
  0
ENDSEC
  0
EOF
