999
DXF file: C:\Users\sesa63760\Dev\_Creo\CAD\MCADID0005468_3D-CAD\drw0001_1.dxf
999
Pro/ENGINEER 2019471 by Parametric Technology Corporation
  0
SECTION
  2
HEADER
  9
$ACADVER
  1
AC1024
  9
$DWGCODEPAGE
  3
ANSI_1252
  9
$EXTMAX
 10
54.2889481392
 20
76.7800837969
 30
0.0
  9
$EXTMIN
 10
0.0
 20
0.0
 30
0.0
  9
$LIMMIN
 10
0.0
 20
0.0
  9
$LIMMAX
 10
54.2889481392
 20
76.7800837969
  9
$VIEWCTR
 10
27.1444740696
 20
38.3900418985
  9
$VIEWSIZE
 40
76.7800837969
  9
$CLAYER
  8
0
  9
$LTSCALE
 40
5.0049239808
  9
$CELTYPE
  6
BYLAYER
  9
$DIMSCALE
 40
1.0
  9
$DIMASZ
 40
0.6462970017
  9
$DIMEXO
 40
1.0
  9
$DIMDLI
 40
3.4579474777
  9
$DIMEXE
 40
1.0
  9
$DIMCEN
 40
0.8189875605
  9
$DIMLFAC
 40
1.0
  9
$DIMBLK
  1
_FILLED
  9
$DIMALT
 70
0
  9
$DIMALTF
 40
0.0393700787
  9
$DIMTXT
 40
0.9048158023
  9
$DIMTOL
 70
1
  9
$DIMLIM
 70
0
  9
$DIMTFAC
 40
1.0
  9
$DIMTP
 40
0.01
  9
$DIMTM
 40
0.01
  9
$DIMGAP
 40
0.625
  9
$DIMDSEP
 70
46
  9
$AUNITS
 70
0
  9
$PDMODE
 70
3
  9
$PDSIZE
 40
0.3125
  9
$HANDSEED
  5
2EA
  9
$TILEMODE
 70
1
  9
$MEASUREMENT
 70
1
  9
$INSUNITS
 70
4
  0
ENDSEC
  0
SECTION
  2
CLASSES
  0
CLASS
  1
ACDBDICTIONARYWDFLT
  2
AcDbDictionaryWithDefault
  3
AutoCAD 2000
 90
0
 91
1
280
0
281
0
  0
CLASS
  1
ACDBPLACEHOLDER
  2
AcDbPlaceHolder
  3
AutoCAD 2000
 90
0
 91
1
280
0
281
0
  0
CLASS
  1
LAYOUT
  2
AcDbLayout
  3
AutoCAD 2000
 90
0
 91
0
280
0
281
0
  0
ENDSEC
  0
SECTION
  2
TABLES
  0
TABLE
  2
VPORT
  5
8
100
AcDbSymbolTable
 70
2
  0
VPORT
  5
1F4
100
AcDbSymbolTableRecord
100
AcDbViewportTableRecord
  2
*ACTIVE
 70
0
 10
0.0
 20
0.0
 11
1.0
 21
1.0
 12
27.1444740696
 22
38.3900418985
 13
0.0
 23
0.0
 14
1.0
 24
1.0
 15
0.0
 25
0.0
 16
0.0
 26
0.0
 36
1.0
 17
0.0
 27
0.0
 37
0.0
 40
76.7800837969
 41
0.7070707071
 42
50.0
 43
0.0
 44
0.0
 50
0.0
 51
0.0
 71
0
 72
100
 73
1
 74
1
 75
0
 76
0
 77
0
 78
0
  0
ENDTAB
  0
TABLE
  2
LTYPE
  5
5
100
AcDbSymbolTable
 70
6
  0
LTYPE
  5
14
100
AcDbSymbolTableRecord
100
AcDbLinetypeTableRecord
  2
BYBLOCK
 70
0
  3

 72
65
 73
0
 40
0.0
  0
LTYPE
  5
15
100
AcDbSymbolTableRecord
100
AcDbLinetypeTableRecord
  2
BYLAYER
 70
0
  3

 72
65
 73
0
 40
0.0
  0
LTYPE
  5
16
100
AcDbSymbolTableRecord
100
AcDbLinetypeTableRecord
  2
CONTINUOUS
 70
64
  3
Solid line
 72
65
 73
0
 40
0.0
  0
LTYPE
  5
1F5
100
AcDbSymbolTableRecord
100
AcDbLinetypeTableRecord
  2
CENTER
 70
64
  3
____ _ ____ _ ____ _ ____ _ ____ _ ____ _ ____
 72
65
 73
4
 40
0.6
 49
0.375
 74
0
 49
-0.075
 74
0
 49
0.075
 74
0
 49
-0.075
 74
0
  0
LTYPE
  5
1F6
100
AcDbSymbolTableRecord
100
AcDbLinetypeTableRecord
  2
HIDDEN
 70
64
  3
- - - - - - - - - - - - - - - - - - - -
 72
65
 73
2
 40
0.2
 49
0.1
 74
0
 49
-0.1
 74
0
  0
LTYPE
  5
1F7
100
AcDbSymbolTableRecord
100
AcDbLinetypeTableRecord
  2
PHANTOM
 70
64
  3
_____ _ _ _____ _ _ _____ _ _ _____
 72
65
 73
6
 40
0.8
 49
0.45
 74
0
 49
-0.05
 74
0
 49
0.1
 74
0
 49
-0.05
 74
0
 49
0.1
 74
0
 49
-0.05
 74
0
  0
LTYPE
  5
1F8
100
AcDbSymbolTableRecord
100
AcDbLinetypeTableRecord
  2
DOT
 70
64
  3
. . . . . . . . . . . . . . . . . . . .
 72
65
 73
2
 40
0.2
 49
0.1
 74
0
 49
-0.1
 74
0
  0
LTYPE
  5
1F9
100
AcDbSymbolTableRecord
100
AcDbLinetypeTableRecord
  2
DASHED
 70
64
  3
- - - - - - - - - - - - - - - - - - - -
 72
65
 73
2
 40
0.2
 49
0.1
 74
0
 49
-0.1
 74
0
  0
ENDTAB
  0
TABLE
  2
LAYER
  5
2
100
AcDbSymbolTable
 70
36
  0
LAYER
  5
10
100
AcDbSymbolTableRecord
100
AcDbLayerTableRecord
  2
0
 70
0
 62
7
  6
CONTINUOUS
370
-3
390
F
  0
LAYER
  5
1FA
100
AcDbSymbolTableRecord
100
AcDbLayerTableRecord
  2
DEFAULT_1
 70
0
 62
7
  6
CENTER
370
-3
390
F
  0
LAYER
  5
1FB
100
AcDbSymbolTableRecord
100
AcDbLayerTableRecord
  2
DEFAULT_2
 70
0
 62
7
  6
HIDDEN
370
-3
390
F
  0
LAYER
  5
1FC
100
AcDbSymbolTableRecord
100
AcDbLayerTableRecord
  2
DEFAULT_3
 70
0
 62
7
  6
PHANTOM
370
-3
390
F
  0
LAYER
  5
1FD
100
AcDbSymbolTableRecord
100
AcDbLayerTableRecord
  2
00_COMPONENTS
 70
0
 62
7
  6
CONTINUOUS
370
-3
390
F
  0
LAYER
  5
1FE
100
AcDbSymbolTableRecord
100
AcDbLayerTableRecord
  2
01_1_DEFAULT_DATUMS
 70
0
 62
7
  6
CONTINUOUS
370
-3
390
F
  0
LAYER
  5
1FF
100
AcDbSymbolTableRecord
100
AcDbLayerTableRecord
  2
01_PLANES
 70
0
 62
7
  6
CONTINUOUS
370
-3
390
F
  0
LAYER
  5
200
100
AcDbSymbolTableRecord
100
AcDbLayerTableRecord
  2
02_COORD_SYS
 70
0
 62
7
  6
CONTINUOUS
370
-3
390
F
  0
LAYER
  5
201
100
AcDbSymbolTableRecord
100
AcDbLayerTableRecord
  2
03_AXES
 70
0
 62
7
  6
CONTINUOUS
370
-3
390
F
  0
LAYER
  5
202
100
AcDbSymbolTableRecord
100
AcDbLayerTableRecord
  2
04_POINTS
 70
0
 62
7
  6
CONTINUOUS
370
-3
390
F
  0
LAYER
  5
203
100
AcDbSymbolTableRecord
100
AcDbLayerTableRecord
  2
05_CURVES
 70
0
 62
7
  6
CONTINUOUS
370
-3
390
F
  0
LAYER
  5
204
100
AcDbSymbolTableRecord
100
AcDbLayerTableRecord
  2
06_SURFS
 70
0
 62
7
  6
CONTINUOUS
370
-3
390
F
  0
LAYER
  5
205
100
AcDbSymbolTableRecord
100
AcDbLayerTableRecord
  2
07_COSMETICS
 70
0
 62
7
  6
CONTINUOUS
370
-3
390
F
  0
LAYER
  5
206
100
AcDbSymbolTableRecord
100
AcDbLayerTableRecord
  2
10_NOTES
 70
0
 62
7
  6
CONTINUOUS
370
-3
390
F
  0
LAYER
  5
207
100
AcDbSymbolTableRecord
100
AcDbLayerTableRecord
  2
11_NOTES_PUB
 70
0
 62
7
  6
CONTINUOUS
370
-3
390
F
  0
LAYER
  5
208
100
AcDbSymbolTableRecord
100
AcDbLayerTableRecord
  2
13_REF_GTOL
 70
0
 62
7
  6
CONTINUOUS
370
-3
390
F
  0
LAYER
  5
209
100
AcDbSymbolTableRecord
100
AcDbLayerTableRecord
  2
16_MISC
 70
0
 62
7
  6
CONTINUOUS
370
-3
390
F
  0
LAYER
  5
20A
100
AcDbSymbolTableRecord
100
AcDbLayerTableRecord
  2
17_NO_PRINT
 70
0
 62
7
  6
CONTINUOUS
370
-3
390
F
  0
LAYER
  5
20B
100
AcDbSymbolTableRecord
100
AcDbLayerTableRecord
  2
18_DATUM_CAMS_JOINTS
 70
0
 62
7
  6
CONTINUOUS
370
-3
390
F
  0
LAYER
  5
20C
100
AcDbSymbolTableRecord
100
AcDbLayerTableRecord
  2
19_DATUM_FUNCTIONAL
 70
0
 62
7
  6
CONTINUOUS
370
-3
390
F
  0
LAYER
  5
20D
100
AcDbSymbolTableRecord
100
AcDbLayerTableRecord
  2
20_DATUM_KINEMATIC_SCHEME
 70
0
 62
7
  6
CONTINUOUS
370
-3
390
F
  0
ENDTAB
  0
TABLE
  2
STYLE
  5
3
100
AcDbSymbolTable
 70
1
  0
STYLE
  5
11
100
AcDbSymbolTableRecord
100
AcDbTextStyleTableRecord
  2
STANDARD
 70
0
 40
0.0
 41
1.0
 50
0.0
 71
0
 42
0.2
  3
ARIAL.TTF
  4

  0
STYLE
  5
20E
100
AcDbSymbolTableRecord
100
AcDbTextStyleTableRecord
  2
TEXTSTYLE_1
 70
0
 40
0.0
 41
0.8
 50
0.0
 71
0
 42
0.2
  3
gdt
  4

  0
ENDTAB
  0
TABLE
  2
VIEW
  5
6
100
AcDbSymbolTable
 70
0
  0
ENDTAB
  0
TABLE
  2
UCS
  5
7
100
AcDbSymbolTable
 70
0
  0
ENDTAB
  0
TABLE
  2
APPID
  5
9
100
AcDbSymbolTable
 70
1
  0
APPID
  5
20F
100
AcDbSymbolTableRecord
100
AcDbRegAppTableRecord
  2
ACAD
 70
0
  0
ENDTAB
  0
TABLE
  2
BLOCK_RECORD
  5
1
100
AcDbSymbolTable
 70
0
  0
BLOCK_RECORD
  5
210
100
AcDbSymbolTableRecord
100
AcDbBlockTableRecord
  2
*Model_Space
  0
BLOCK_RECORD
  5
211
100
AcDbSymbolTableRecord
100
AcDbBlockTableRecord
  2
*Paper_Space
  0
BLOCK_RECORD
  5
212
100
AcDbSymbolTableRecord
100
AcDbBlockTableRecord
  2
_FILLED
  0
ENDTAB
  0
TABLE
  2
DIMSTYLE
  5
A
100
AcDbSymbolTable
 70
1
100
AcDbDimStyleTable
 71
0
  0
DIMSTYLE
105
213
100
AcDbSymbolTableRecord
100
AcDbDimStyleTableRecord
  2
STANDARD
 70
0
  3

  4

 40
1.0
 41
0.6462970017
 42
1.0
 43
0.38
 44
1.0
 45
0.0
 46
0.0
 47
0.01
 48
0.01
140
0.9048158023
141
0.09
142
0.0
143
25.4
144
1.0
145
0.0
146
1.0
147
0.625
 71
1
 72
0
 73
0
 74
0
 75
0
 76
0
 77
1
 78
8
 79
2
170
0
171
1
172
0
173
0
174
0
175
0
176
0
177
0
178
0
270
2
179
2
271
2
272
2
273
2
274
2
275
0
280
0
281
0
282
0
283
1
284
8
285
0
286
0
287
3
288
0
340
11
278
46
341
212
342
212
343
212
344
212
  0
ENDTAB
  0
ENDSEC
  0
SECTION
  2
BLOCKS
  0
BLOCK
  5
20
100
AcDbEntity
  8
0
100
AcDbBlockBegin
  2
*Model_Space
 70
0
 10
0.0
 20
0.0
 30
0.0
  3
*Model_Space
  1

  0
ENDBLK
  5
21
100
AcDbEntity
  8
0
100
AcDbBlockEnd
  0
BLOCK
  5
1C
100
AcDbEntity
  8
0
100
AcDbBlockBegin
  2
*Paper_Space
 70
0
 10
0.0
 20
0.0
 30
0.0
  3
*Paper_Space
  1

  0
ENDBLK
  5
1D
100
AcDbEntity
  8
0
100
AcDbBlockEnd
  0
BLOCK
  5
214
100
AcDbEntity
  8
0
100
AcDbBlockBegin
  2
_FILLED
 70
64
 10
0.0
 20
0.0
  3
_FILLED
  1

  0
SOLID
  5
215
100
AcDbEntity
  8
0
  6
BYBLOCK
 62
0
100
AcDbTrace
 10
0.0
 20
0.0
 11
-1.0
 21
0.25
 12
-1.0
 22
-0.25
 13
-1.0
 23
-0.25
  0
ENDBLK
  5
216
100
AcDbEntity
  8
0
  6
BYBLOCK
 62
0
100
AcDbBlockEnd
  0
ENDSEC
  0
SECTION
  2
ENTITIES
  0
LINE
  5
217
100
AcDbEntity
  8
0
100
AcDbLine
 62
7
  6
BYLAYER
 10
33.8187263544
 20
16.2095174565
 11
35.4893080594
 21
16.60894826
  0
LINE
  5
218
100
AcDbEntity
  8
0
100
AcDbLine
 62
7
  6
BYLAYER
 10
37.3649508481
 20
18.514093902
 11
37.0042599388
 21
18.4851709894
  0
LWPOLYLINE
  5
219
100
AcDbEntity
  8
0
100
AcDbPolyline
 62
7
  6
BYLAYER
 90
8
 70
0
 10
7.1175935826
 20
30.4257487797
 10
7.5336447894
 20
27.1523197763
 10
8.8040927751
 20
23.5397102458
 10
10.7828619043
 20
20.1124006035
 10
13.2762564677
 20
17.2058797964
 10
16.0402056329
 20
15.1046583321
 10
18.8041547982
 20
14.0144184077
 10
21.2975493616
 20
14.0418803031
  0
LWPOLYLINE
  5
21A
100
AcDbEntity
  8
0
100
AcDbPolyline
 62
7
  6
BYLAYER
 90
3
 70
0
 10
7.3988480504
 20
32.1091302824
 10
7.4086459173
 20
32.2402840213
 10
8.3559696346
 20
34.8835381962
  0
LINE
  5
21B
100
AcDbEntity
  8
0
100
AcDbLine
 62
7
  6
BYLAYER
 10
22.4554679232
 20
56.3258758854
 11
24.0818067488
 21
57.2648374393
  0
LINE
  5
21C
100
AcDbEntity
  8
0
100
AcDbLine
 62
7
  6
BYLAYER
 10
34.6350581471
 20
19.4252550031
 11
35.3586376645
 21
19.3844246501
  0
LINE
  5
21D
100
AcDbEntity
  8
0
100
AcDbLine
 62
7
  6
BYLAYER
 10
24.6600178701
 20
56.5228115248
 11
26.2863566957
 21
57.4617730787
  0
LINE
  5
21E
100
AcDbEntity
  8
0
100
AcDbLine
 62
7
  6
BYLAYER
 10
38.9902248973
 20
63.8921317626
 11
34.8424908412
 21
61.4974506831
  0
LINE
  5
21F
100
AcDbEntity
  8
0
100
AcDbLine
 62
7
  6
BYLAYER
 10
27.7765198247
 20
56.6014464582
 11
35.5496005664
 21
61.0892099286
  0
LINE
  5
220
100
AcDbEntity
  8
0
100
AcDbLine
 62
7
  6
BYLAYER
 10
39.9197555766
 20
63.2179754598
 11
36.4504704784
 21
61.2343598172
  0
LINE
  5
221
100
AcDbEntity
  8
0
100
AcDbLine
 62
7
  6
BYLAYER
 10
37.1111464254
 20
20.86294311
 11
36.4818366027
 21
20.8983881532
  0
LINE
  5
222
100
AcDbEntity
  8
0
100
AcDbLine
 62
7
  6
BYLAYER
 10
32.3475047022
 20
17.0589081145
 11
33.8187263544
 21
16.2095174565
  0
LINE
  5
223
100
AcDbEntity
  8
0
100
AcDbLine
 62
7
  6
BYLAYER
 10
24.085377154
 20
53.8989099287
 11
25.5137269052
 21
54.7235631195
  0
LINE
  5
224
100
AcDbEntity
  8
0
100
AcDbLine
 62
7
  6
BYLAYER
 10
42.0424073098
 20
13.9905151342
 11
36.4981683783
 21
17.1914105599
  0
LWPOLYLINE
  5
225
100
AcDbEntity
  8
0
100
AcDbPolyline
 62
7
  6
BYLAYER
 90
3
 70
0
 10
15.414177536
 20
41.3147071016
 10
15.6752888242
 20
41.7565471626
 10
16.7258583264
 20
42.5716930787
  0
LINE
  5
226
100
AcDbEntity
  8
0
100
AcDbLine
 62
7
  6
BYLAYER
 10
23.7318222914
 20
53.3959184704
 11
24.085377154
 21
53.8989099287
  0
LINE
  5
227
100
AcDbEntity
  8
0
100
AcDbLine
 62
7
  6
BYLAYER
 10
34.8424908412
 20
61.4974506831
 11
32.6996252889
 21
59.4437857568
  0
LINE
  5
228
100
AcDbEntity
  8
0
100
AcDbLine
 62
7
  6
BYLAYER
 10
21.6776472256
 20
49.4264189612
 11
22.4554679232
 21
49.8754912698
  0
LINE
  5
229
100
AcDbEntity
  8
0
100
AcDbLine
 62
7
  6
BYLAYER
 10
29.5142654258
 20
53.7202737937
 11
31.1406042514
 21
54.6592353476
  0
LINE
  5
22A
100
AcDbEntity
  8
0
100
AcDbLine
 62
7
  6
BYLAYER
 10
27.249693174
 20
52.0720325522
 11
28.6780429252
 21
52.896685743
  0
LINE
  5
22B
100
AcDbEntity
  8
0
100
AcDbLine
 62
7
  6
BYLAYER
 10
29.0315977878
 20
51.9854535303
 11
27.6032480366
 21
51.1608003394
  0
LINE
  5
22C
100
AcDbEntity
  8
0
100
AcDbLine
 62
7
  6
BYLAYER
 10
40.8918432463
 20
58.6534780337
 11
44.414412295
 21
60.6675595719
  0
LINE
  5
22D
100
AcDbEntity
  8
0
100
AcDbLine
 62
7
  6
BYLAYER
 10
35.3586376645
 20
19.3844246501
 11
35.5759101876
 21
19.2589647602
  0
LINE
  5
22E
100
AcDbEntity
  8
0
100
AcDbLine
 62
7
  6
BYLAYER
 10
8.3559696346
 20
34.8835381962
 11
9.9056327644
 21
36.2887633414
  0
LINE
  5
22F
100
AcDbEntity
  8
0
100
AcDbLine
 62
7
  6
BYLAYER
 10
29.5556205262
 20
51.4918435201
 11
29.0315977878
 21
51.1893006569
  0
LINE
  5
230
100
AcDbEntity
  8
0
100
AcDbLine
 62
7
  6
BYLAYER
 10
41.0650564225
 20
57.9049320433
 11
34.2433296289
 21
53.9664297524
  0
LINE
  5
231
100
AcDbEntity
  8
0
100
AcDbLine
 62
7
  6
BYLAYER
 10
41.7721661476
 20
57.4966912888
 11
45.9199002038
 21
59.8913723683
  0
LINE
  5
232
100
AcDbEntity
  8
0
100
AcDbLine
 62
7
  6
BYLAYER
 10
16.7258548841
 20
42.5716990404
 11
20.7563467562
 21
44.8986907175
  0
LINE
  5
233
100
AcDbEntity
  8
0
100
AcDbLine
 62
7
  6
BYLAYER
 10
9.2494880744
 20
37.9665677123
 11
14.1992149349
 21
40.8242767894
  0
LINE
  5
234
100
AcDbEntity
  8
0
100
AcDbLine
 62
7
  6
BYLAYER
 10
42.7495170349
 20
18.3179883991
 11
42.0424073098
 21
18.7262291536
  0
LWPOLYLINE
  5
235
100
AcDbEntity
  8
0
100
AcDbPolyline
 62
7
  6
BYLAYER
 90
3
 70
0
 10
23.6471862129
 20
26.2711185196
 10
22.0738680813
 20
29.5123621612
 10
21.8154716304
 20
29.8559542979
  0
LINE
  5
236
100
AcDbEntity
  8
0
100
AcDbLine
 62
7
  6
BYLAYER
 10
32.1428717465
 20
50.6383076867
 11
31.0822159907
 21
50.0259414559
  0
LINE
  5
237
100
AcDbEntity
  8
0
100
AcDbLine
 62
7
  6
BYLAYER
 10
29.0315977878
 20
48.079326709
 11
30.1629639273
 21
48.7325173551
  0
LINE
  5
238
100
AcDbEntity
  8
0
100
AcDbLine
 62
7
  6
BYLAYER
 10
33.4863890562
 20
50.1206486123
 11
32.058039305
 21
49.2959954214
  0
LWPOLYLINE
  5
239
100
AcDbEntity
  8
0
100
AcDbPolyline
 62
7
  6
BYLAYER
 90
4
 70
0
 10
10.7828619043
 20
36.8235373024
 10
8.8040927751
 20
35.6810617489
 10
7.5336447894
 20
33.5354060046
 10
7.0958782478
 20
30.5966018034
  0
LINE
  5
23A
100
AcDbEntity
  8
0
100
AcDbLine
 62
7
  6
BYLAYER
 10
30.1629639273
 20
48.0123256221
 11
27.6032480366
 21
46.5344817851
  0
LINE
  5
23B
100
AcDbEntity
  8
0
100
AcDbLine
 62
7
  6
BYLAYER
 10
36.5392376603
 20
51.5424034078
 11
34.9128988347
 21
50.6034418539
  0
LWPOLYLINE
  5
23C
100
AcDbEntity
  8
0
100
AcDbPolyline
 62
7
  6
BYLAYER
 90
7
 70
0
 10
24.3055023266
 20
20.4917930164
 10
24.1907776681
 20
22.1567394338
 10
23.291671376
 20
25.7000049482
 10
21.5908909095
 20
29.2051449723
 10
19.2727422227
 20
32.2923231967
 10
16.5884326954
 20
34.6269959583
 10
15.1991669186
 20
35.4290707832
  0
LINE
  5
23D
100
AcDbEntity
  8
0
100
AcDbLine
 62
7
  6
BYLAYER
 10
21.6776472256
 20
45.2753778058
 11
21.6776472256
 21
49.4264189612
  0
LINE
  5
23E
100
AcDbEntity
  8
0
100
AcDbLine
 62
7
  6
BYLAYER
 10
22.4554679232
 20
48.9773541312
 11
22.4554679232
 21
56.3258758854
  0
LINE
  5
23F
100
AcDbEntity
  8
0
100
AcDbLine
 62
7
  6
BYLAYER
 10
41.0650564225
 20
57.9049320433
 11
35.6330291904
 21
52.6990226976
  0
LWPOLYLINE
  5
240
100
AcDbEntity
  8
0
100
AcDbPolyline
 62
7
  6
BYLAYER
 90
6
 70
0
 10
15.1991669186
 20
35.4290707832
 10
12.5148573913
 20
36.1939015578
 10
10.1967087044
 20
35.7834303149
 10
8.495928238
 20
34.2421379829
 10
7.5968219459
 20
31.7370475014
 10
7.4820972873
 20
30.2045707121
  0
LINE
  5
241
100
AcDbEntity
  8
0
100
AcDbLine
 62
7
  6
BYLAYER
 10
46.2708941443
 20
26.719763139
 11
48.5336264234
 21
26.021266542
  0
LINE
  5
242
100
AcDbEntity
  8
0
100
AcDbLine
 62
7
  6
BYLAYER
 10
47.932583157
 20
26.3682711834
 11
46.2708941443
 21
26.8812280768
  0
LINE
  5
243
100
AcDbEntity
  8
0
100
AcDbLine
 62
7
  6
BYLAYER
 10
23.9052095799
 20
45.4200832104
 11
23.8925179899
 21
47.8864865715
  0
LINE
  5
244
100
AcDbEntity
  8
0
100
AcDbLine
 62
7
  6
BYLAYER
 10
24.953201413
 20
47.2741145654
 11
24.9629427491
 21
45.381044879
  0
LINE
  5
245
100
AcDbEntity
  8
0
100
AcDbLine
 62
7
  6
BYLAYER
 10
23.7318222914
 20
53.3959184704
 11
23.7318222914
 21
47.9792621774
  0
LINE
  5
246
100
AcDbEntity
  8
0
100
AcDbLine
 62
7
  6
BYLAYER
 10
39.9197555766
 20
63.2179754598
 11
37.9838871197
 21
60.3432913834
  0
LINE
  5
247
100
AcDbEntity
  8
0
100
AcDbLine
 62
7
  6
BYLAYER
 10
31.7044844425
 20
48.7930039632
 11
32.058039305
 21
49.2959954214
  0
LINE
  5
248
100
AcDbEntity
  8
0
100
AcDbLine
 62
7
  6
BYLAYER
 10
36.1189624959
 20
52.0788123891
 11
41.7721661476
 21
57.4966912888
  0
LINE
  5
249
100
AcDbEntity
  8
0
100
AcDbLine
 62
7
  6
BYLAYER
 10
36.6507050762
 20
48.2937712358
 11
35.2223553251
 21
47.469118045
  0
LINE
  5
24A
100
AcDbEntity
  8
0
100
AcDbLine
 62
7
  6
BYLAYER
 10
37.0042599388
 20
47.382539023
 11
35.5759101876
 21
46.5578858322
  0
LINE
  5
24B
100
AcDbEntity
  8
0
100
AcDbLine
 62
7
  6
BYLAYER
 10
37.0042599388
 20
46.7280967791
 11
37.4055559176
 21
46.9597837376
  0
LINE
  5
24C
100
AcDbEntity
  8
0
100
AcDbLine
 62
7
  6
BYLAYER
 10
39.7671463904
 20
47.8009041228
 11
41.393485216
 21
48.7398656767
  0
LINE
  5
24D
100
AcDbEntity
  8
0
100
AcDbLine
 62
7
  6
BYLAYER
 10
26.028913356
 20
44.9605565501
 11
26.0188221808
 21
46.9216117546
  0
LINE
  5
24E
100
AcDbEntity
  8
0
100
AcDbLine
 62
7
  6
BYLAYER
 10
27.6032480366
 20
46.5344817851
 11
27.6032480366
 21
51.1608003394
  0
LINE
  5
24F
100
AcDbEntity
  8
0
100
AcDbLine
 62
7
  6
BYLAYER
 10
12.8273171013
 20
36.926353264
 11
10.7828619043
 21
36.8235373024
  0
LINE
  5
250
100
AcDbEntity
  8
0
100
AcDbLine
 62
7
  6
BYLAYER
 10
48.5336264234
 20
26.021266542
 11
47.932583157
 21
26.3682711834
  0
LINE
  5
251
100
AcDbEntity
  8
0
100
AcDbLine
 62
7
  6
BYLAYER
 10
29.0315977878
 20
51.9854535303
 11
29.0315977878
 21
48.079326709
  0
LINE
  5
252
100
AcDbEntity
  8
0
100
AcDbLine
 62
7
  6
BYLAYER
 10
37.0042599388
 20
43.4764122017
 11
37.2269232247
 21
43.6049661424
  0
LINE
  5
253
100
AcDbEntity
  8
0
100
AcDbLine
 62
7
  6
BYLAYER
 10
39.3500731309
 20
43.5783786858
 11
38.2894173751
 21
42.9660124549
  0
LINE
  5
254
100
AcDbEntity
  8
0
100
AcDbLine
 62
7
  6
BYLAYER
 10
41.9716963373
 20
45.0584310606
 11
43.5980351629
 21
45.9973926145
  0
LINE
  5
255
100
AcDbEntity
  8
0
100
AcDbLine
 62
7
  6
BYLAYER
 10
37.221034629
 20
42.0910369087
 11
35.5759101876
 21
41.1412295392
  0
LWPOLYLINE
  5
256
100
AcDbEntity
  8
0
100
AcDbPolyline
 62
7
  6
BYLAYER
 90
8
 70
0
 10
31.8070773526
 20
23.4518333191
 10
31.3381544873
 20
27.1445555671
 10
29.9793519429
 20
31.0132780286
 10
27.841917323
 20
34.7151796461
 10
25.1532999956
 20
37.8426833488
 10
22.1860943949
 20
40.0903671565
 10
19.2283072643
 20
41.2504700807
 10
18.4727765712
 20
41.2410121802
  0
LINE
  5
257
100
AcDbEntity
  8
0
100
AcDbLine
 62
7
  6
BYLAYER
 10
30.1629639273
 20
48.7325173551
 11
30.1629639273
 21
48.0123256221
  0
LINE
  5
258
100
AcDbEntity
  8
0
100
AcDbLine
 62
7
  6
BYLAYER
 10
31.7044844425
 20
48.7930039632
 11
31.7044844425
 21
44.1666854089
  0
LINE
  5
259
100
AcDbEntity
  8
0
100
AcDbLine
 62
7
  6
BYLAYER
 10
27.249693174
 20
52.0720325522
 11
27.6032480366
 21
51.1608003394
  0
LINE
  5
25A
100
AcDbEntity
  8
0
100
AcDbLine
 62
7
  6
BYLAYER
 10
23.7318222914
 20
47.9792621774
 11
25.4075266226
 21
47.0118157173
  0
LINE
  5
25B
100
AcDbEntity
  8
0
100
AcDbLine
 62
7
  6
BYLAYER
 10
33.9002058565
 20
42.1086759993
 11
35.5759101876
 21
41.1412295392
  0
LINE
  5
25C
100
AcDbEntity
  8
0
100
AcDbLine
 62
7
  6
BYLAYER
 10
21.6776472256
 20
49.4264189612
 11
22.4554679232
 21
48.9773541312
  0
LINE
  5
25D
100
AcDbEntity
  8
0
100
AcDbLine
 62
7
  6
BYLAYER
 10
41.9716963373
 20
37.7099093064
 11
42.7495170349
 21
37.2608444765
  0
LINE
  5
25E
100
AcDbEntity
  8
0
100
AcDbLine
 62
7
  6
BYLAYER
 10
29.0315977878
 20
51.9854535303
 11
28.6780429252
 21
52.896685743
  0
LINE
  5
25F
100
AcDbEntity
  8
0
100
AcDbLine
 62
7
  6
BYLAYER
 10
35.5759101876
 20
41.1412295392
 11
35.5759101876
 21
46.5578858322
  0
LINE
  5
260
100
AcDbEntity
  8
0
100
AcDbLine
 62
7
  6
BYLAYER
 10
35.4893080594
 20
16.60894826
 11
35.5759101876
 21
19.2589647602
  0
LINE
  5
261
100
AcDbEntity
  8
0
100
AcDbLine
 62
7
  6
BYLAYER
 10
41.9716963373
 20
37.7099093064
 11
45.4930734466
 21
39.7429651927
  0
LINE
  5
262
100
AcDbEntity
  8
0
100
AcDbLine
 62
7
  6
BYLAYER
 10
42.7495170349
 20
37.2608444765
 11
46.2708941443
 21
39.2939003627
  0
LINE
  5
263
100
AcDbEntity
  8
0
100
AcDbLine
 62
7
  6
BYLAYER
 10
43.5980351629
 20
45.8340921311
 11
45.1559960313
 21
45.6949235613
  0
LINE
  5
264
100
AcDbEntity
  8
0
100
AcDbLine
 62
7
  6
BYLAYER
 10
26.4868427831
 20
46.8525497233
 11
25.4075266226
 21
47.0118157173
  0
LINE
  5
265
100
AcDbEntity
  8
0
100
AcDbLine
 62
7
  6
BYLAYER
 10
27.6032480366
 20
46.5344817851
 11
26.4868427831
 21
46.8525497233
  0
LINE
  5
266
100
AcDbEntity
  8
0
100
AcDbLine
 62
7
  6
BYLAYER
 10
32.820889696
 20
43.1956687628
 11
31.7044844425
 21
44.1666854089
  0
LINE
  5
267
100
AcDbEntity
  8
0
100
AcDbLine
 62
7
  6
BYLAYER
 10
33.9002058565
 20
42.1086759993
 11
32.820889696
 21
43.1956687628
  0
LWPOLYLINE
  5
268
100
AcDbEntity
  8
0
100
AcDbPolyline
 62
7
  6
BYLAYER
 90
7
 70
0
 10
37.1988464177
 20
37.8047403362
 10
37.0735930277
 20
38.0628054826
 10
35.0853798368
 20
40.7075014961
 10
32.7937486988
 20
42.6957750066
 10
31.6116382215
 20
43.3761735627
 10
29.3298864689
 20
44.0243491808
 10
28.4645444479
 20
43.8714036694
  0
LINE
  5
269
100
AcDbEntity
  8
0
100
AcDbLine
 62
7
  6
BYLAYER
 10
37.0042599388
 20
47.382539023
 11
37.0042599388
 21
43.4764122017
  0
LINE
  5
26A
100
AcDbEntity
  8
0
100
AcDbLine
 62
7
  6
BYLAYER
 10
37.0042599388
 20
17.4836009144
 11
37.0042599388
 21
19.9549492225
  0
LINE
  5
26B
100
AcDbEntity
  8
0
100
AcDbLine
 62
7
  6
BYLAYER
 10
37.1080006167
 20
20.2552389266
 11
37.1168818887
 21
21.9709142079
  0
LINE
  5
26C
100
AcDbEntity
  8
0
100
AcDbLine
 62
7
  6
BYLAYER
 10
37.1828953345
 20
34.7233259619
 11
37.2287716224
 21
43.5856615848
  0
LINE
  5
26D
100
AcDbEntity
  8
0
100
AcDbLine
 62
7
  6
BYLAYER
 10
38.2894173751
 20
42.9660124549
 11
38.2071724592
 21
27.0780214624
  0
LINE
  5
26E
100
AcDbEntity
  8
0
100
AcDbLine
 62
7
  6
BYLAYER
 10
38.2017727719
 20
26.0349152401
 11
38.1686463694
 21
19.6355897967
  0
LINE
  5
26F
100
AcDbEntity
  8
0
100
AcDbLine
 62
7
  6
BYLAYER
 10
31.0822159907
 20
48.7733840802
 11
29.0315977878
 21
49.4498843377
  0
LINE
  5
270
100
AcDbEntity
  8
0
100
AcDbLine
 62
7
  6
BYLAYER
 10
46.2708941443
 20
39.2939003627
 11
45.4930734466
 21
39.7429651927
  0
LINE
  5
271
100
AcDbEntity
  8
0
100
AcDbLine
 62
7
  6
BYLAYER
 10
30.1629639273
 20
48.7325173551
 11
29.0315977878
 21
49.3856971235
  0
LINE
  5
272
100
AcDbEntity
  8
0
100
AcDbLine
 62
7
  6
BYLAYER
 10
45.2102319117
 20
41.2126723654
 11
45.4930734466
 21
41.0493690601
  0
LINE
  5
273
100
AcDbEntity
  8
0
100
AcDbLine
 62
7
  6
BYLAYER
 10
31.7044844425
 20
48.2601533795
 11
31.0822159907
 21
48.7733840802
  0
LINE
  5
274
100
AcDbEntity
  8
0
100
AcDbLine
 62
7
  6
BYLAYER
 10
31.0822159907
 20
50.0259414559
 11
32.0212798135
 21
49.2514262407
  0
LINE
  5
275
100
AcDbEntity
  8
0
100
AcDbLine
 62
7
  6
BYLAYER
 10
35.2223553251
 20
47.469118045
 11
35.5759101876
 21
46.5578858322
  0
LINE
  5
276
100
AcDbEntity
  8
0
100
AcDbLine
 62
7
  6
BYLAYER
 10
39.2293021253
 20
20.2479560276
 11
39.3500731309
 21
43.5783786858
  0
LWPOLYLINE
  5
277
100
AcDbEntity
  8
0
100
AcDbPolyline
 62
7
  6
BYLAYER
 90
3
 70
0
 10
30.9474364017
 20
19.6361226978
 10
31.3340932242
 20
20.2884961385
 10
31.8070773526
 20
23.4518333191
  0
LINE
  5
278
100
AcDbEntity
  8
0
100
AcDbLine
 62
7
  6
BYLAYER
 10
29.0315977878
 20
50.7024417134
 11
31.0822159907
 21
50.0259414559
  0
LINE
  5
279
100
AcDbEntity
  8
0
100
AcDbLine
 62
7
  6
BYLAYER
 10
32.1428717465
 20
50.6383076867
 11
29.5556205262
 21
51.4918435201
  0
LINE
  5
27A
100
AcDbEntity
  8
0
100
AcDbLine
 62
7
  6
BYLAYER
 10
35.2223553251
 20
47.469118045
 11
32.058039305
 21
49.2959954214
  0
LINE
  5
27B
100
AcDbEntity
  8
0
100
AcDbLine
 62
7
  6
BYLAYER
 10
27.249693174
 20
52.0720325522
 11
24.085377154
 21
53.8989099287
  0
LINE
  5
27C
100
AcDbEntity
  8
0
100
AcDbLine
 62
7
  6
BYLAYER
 10
37.4055559177
 20
46.9597837376
 11
37.0042599388
 21
47.1914668376
  0
LINE
  5
27D
100
AcDbEntity
  8
0
100
AcDbLine
 62
7
  6
BYLAYER
 10
29.5556205262
 20
51.4918435201
 11
29.0315977878
 21
51.7943813448
  0
LINE
  5
27E
100
AcDbEntity
  8
0
100
AcDbLine
 62
7
  6
BYLAYER
 10
25.5137269052
 20
54.7235631195
 11
28.6780429252
 21
52.896685743
  0
LINE
  5
27F
100
AcDbEntity
  8
0
100
AcDbLine
 62
7
  6
BYLAYER
 10
33.4863890562
 20
50.1206486123
 11
36.6507050762
 21
48.2937712358
  0
LINE
  5
280
100
AcDbEntity
  8
0
100
AcDbLine
 62
7
  6
BYLAYER
 10
33.0652849295
 20
49.8775254826
 11
32.1428717465
 21
50.6383076867
  0
LINE
  5
281
100
AcDbEntity
  8
0
100
AcDbLine
 62
7
  6
BYLAYER
 10
37.0042599388
 20
47.382539023
 11
36.6507050762
 21
48.2937712358
  0
LINE
  5
282
100
AcDbEntity
  8
0
100
AcDbLine
 62
7
  6
BYLAYER
 10
41.9716963373
 20
45.0584310606
 11
41.9716963373
 21
37.7099093064
  0
LINE
  5
283
100
AcDbEntity
  8
0
100
AcDbLine
 62
7
  6
BYLAYER
 10
42.0424073098
 20
18.7262291536
 11
42.0424073098
 21
13.9905151342
  0
LINE
  5
284
100
AcDbEntity
  8
0
100
AcDbLine
 62
7
  6
BYLAYER
 10
42.7495170349
 20
37.2608444765
 11
42.7495170349
 21
18.3179883991
  0
LINE
  5
285
100
AcDbEntity
  8
0
100
AcDbLine
 62
7
  6
BYLAYER
 10
24.6600178701
 20
56.5228115248
 11
29.5142654258
 21
53.7202737937
  0
LINE
  5
286
100
AcDbEntity
  8
0
100
AcDbLine
 62
7
  6
BYLAYER
 10
34.9128988347
 20
50.6034418539
 11
39.7671463904
 21
47.8009041228
  0
LINE
  5
287
100
AcDbEntity
  8
0
100
AcDbLine
 62
7
  6
BYLAYER
 10
45.1559960313
 20
45.6949235613
 11
42.7025382481
 21
47.111396028
  0
LINE
  5
288
100
AcDbEntity
  8
0
100
AcDbLine
 62
7
  6
BYLAYER
 10
26.2863566957
 20
57.4617730787
 11
31.1406042514
 21
54.6592353476
  0
LINE
  5
289
100
AcDbEntity
  8
0
100
AcDbLine
 62
7
  6
BYLAYER
 10
36.5392376603
 20
51.5424034078
 11
41.393485216
 21
48.7398656767
  0
LINE
  5
28A
100
AcDbEntity
  8
0
100
AcDbLine
 62
7
  6
BYLAYER
 10
39.7671463904
 20
47.8009041228
 11
41.9716963373
 21
45.0584310606
  0
LINE
  5
28B
100
AcDbEntity
  8
0
100
AcDbLine
 62
7
  6
BYLAYER
 10
45.1559960313
 20
45.6949235613
 11
45.2102319117
 21
41.2126723654
  0
LINE
  5
28C
100
AcDbEntity
  8
0
100
AcDbLine
 62
7
  6
BYLAYER
 10
43.5980351629
 20
45.9973926145
 11
43.5980351629
 21
45.8340921311
  0
LINE
  5
28D
100
AcDbEntity
  8
0
100
AcDbLine
 62
7
  6
BYLAYER
 10
45.4930734466
 20
39.7429651927
 11
45.4930734466
 21
41.0493690601
  0
LINE
  5
28E
100
AcDbEntity
  8
0
100
AcDbLine
 62
7
  6
BYLAYER
 10
48.8340279427
 20
36.6705110374
 11
46.2708941443
 21
34.113456474
  0
LWPOLYLINE
  5
28F
100
AcDbEntity
  8
0
100
AcDbPolyline
 62
7
  6
BYLAYER
 90
3
 70
0
 10
21.2975493616
 20
14.0418803031
 10
23.2763184907
 20
15.1843558565
 10
24.3875053609
 20
16.9034003331
  0
LINE
  5
290
100
AcDbEntity
  8
0
100
AcDbLine
 62
7
  6
BYLAYER
 10
43.5980351629
 20
45.9973926145
 11
41.393485216
 21
48.7398656767
  0
LINE
  5
291
100
AcDbEntity
  8
0
100
AcDbLine
 62
7
  6
BYLAYER
 10
46.2708941443
 20
26.719763139
 11
46.2708941443
 21
39.2939003627
  0
LINE
  5
292
100
AcDbEntity
  8
0
100
AcDbLine
 62
7
  6
BYLAYER
 10
47.8265166982
 20
18.2657664516
 11
47.8265166982
 21
21.2491780245
  0
LINE
  5
293
100
AcDbEntity
  8
0
100
AcDbLine
 62
7
  6
BYLAYER
 10
23.4994242789
 20
13.2848068722
 11
28.4491511394
 21
16.1425159493
  0
LINE
  5
294
100
AcDbEntity
  8
0
100
AcDbLine
 62
7
  6
BYLAYER
 10
31.2257899694
 20
17.4569248523
 11
35.2562818415
 21
19.7839165293
  0
LINE
  5
295
100
AcDbEntity
  8
0
100
AcDbLine
 62
7
  6
BYLAYER
 10
45.9199002038
 20
59.8913723683
 11
48.8340279427
 21
60.3490811342
  0
LINE
  5
296
100
AcDbEntity
  8
0
100
AcDbLine
 62
7
  6
BYLAYER
 10
22.4554679232
 20
56.3258758854
 11
24.6600178701
 21
56.5228115248
  0
LINE
  5
297
100
AcDbEntity
  8
0
100
AcDbLine
 62
7
  6
BYLAYER
 10
26.2863566957
 20
57.4617730787
 11
24.0818067488
 21
57.2648374393
  0
LINE
  5
298
100
AcDbEntity
  8
0
100
AcDbLine
 62
7
  6
BYLAYER
 10
48.5336264234
 20
21.6574255777
 11
48.5336264234
 21
26.021266542
  0
LINE
  5
299
100
AcDbEntity
  8
0
100
AcDbLine
 62
7
  6
BYLAYER
 10
48.8340279427
 20
60.3490811342
 11
48.8340279427
 21
36.6705110374
  0
LINE
  5
29A
100
AcDbEntity
  8
0
100
AcDbLine
 62
7
  6
BYLAYER
 10
37.1087227301
 20
20.3947360734
 11
35.3587019687
 21
19.3843671468
  0
LINE
  5
29B
100
AcDbEntity
  8
0
100
AcDbLine
 62
7
  6
BYLAYER
 10
35.5759101876
 20
19.2589647602
 11
37.0958635945
 21
20.1365050305
  0
LINE
  5
29C
100
AcDbEntity
  8
0
100
AcDbLine
 62
7
  6
BYLAYER
 10
38.1686463694
 20
19.6355897967
 11
39.2293021253
 21
20.2479560275
  0
LINE
  5
29D
100
AcDbEntity
  8
0
100
AcDbLine
 62
7
  6
BYLAYER
 10
37.7026727039
 20
18.6165034251
 11
38.7633284597
 21
19.2288696559
  0
LWPOLYLINE
  5
29E
100
AcDbEntity
  8
0
100
AcDbPolyline
 62
7
  6
BYLAYER
 90
3
 70
0
 10
31.2257865271
 20
17.456930814
 10
29.9918496149
 20
16.9539904257
 10
29.4843740786
 20
16.9497810438
  0
LINE
  5
29F
100
AcDbEntity
  8
0
100
AcDbLine
 62
7
  6
BYLAYER
 10
37.7026383792
 20
18.6165628288
 11
37.3649508481
 21
18.514093902
  0
LINE
  5
2A0
100
AcDbEntity
  8
0
100
AcDbLine
 62
7
  6
BYLAYER
 10
35.4893080594
 20
16.60894826
 11
37.0042599388
 21
17.4836009144
  0
LINE
  5
2A1
100
AcDbEntity
  8
0
100
AcDbLine
 62
7
  6
BYLAYER
 10
41.9043526363
 20
64.3498405285
 11
38.9902248973
 21
63.8921317626
  0
LINE
  5
2A2
100
AcDbEntity
  8
0
100
AcDbLine
 62
7
  6
BYLAYER
 10
41.7721661476
 20
57.4966912888
 11
41.0650564225
 21
57.9049320433
  0
LINE
  5
2A3
100
AcDbEntity
  8
0
100
AcDbLine
 62
7
  6
BYLAYER
 10
35.5496005664
 20
61.0892099286
 11
34.8424908412
 21
61.4974506831
  0
LINE
  5
2A4
100
AcDbEntity
  8
0
100
AcDbLine
 62
7
  6
BYLAYER
 10
36.4504704784
 20
61.2343598172
 11
40.8918432463
 21
58.6534780337
  0
LINE
  5
2A5
100
AcDbEntity
  8
0
100
AcDbLine
 62
7
  6
BYLAYER
 10
48.5336264234
 20
21.6574255777
 11
42.7495170349
 21
18.3179883991
  0
LINE
  5
2A6
100
AcDbEntity
  8
0
100
AcDbLine
 62
7
  6
BYLAYER
 10
47.8265166982
 20
18.2657664516
 11
43.2303417563
 21
14.6763653127
  0
LINE
  5
2A7
100
AcDbEntity
  8
0
100
AcDbLine
 62
7
  6
BYLAYER
 10
42.0424073098
 20
13.9905151342
 11
43.2303417563
 21
14.6763653127
  0
LINE
  5
2A8
100
AcDbEntity
  8
0
100
AcDbLine
 62
7
  6
BYLAYER
 10
44.414412295
 20
60.6675595719
 11
39.9197555766
 21
63.2179754598
  0
LINE
  5
2A9
100
AcDbEntity
  8
0
100
AcDbLine
 62
7
  6
BYLAYER
 10
38.9902248973
 20
63.8921317626
 11
45.9199002038
 21
59.8913723683
  0
LINE
  5
2AA
100
AcDbEntity
  8
0
100
AcDbLine
 62
7
  6
BYLAYER
 10
48.8340279427
 20
60.3490811342
 11
41.9043526363
 21
64.3498405285
  0
ARC
  5
2AB
100
AcDbEntity
  8
0
100
AcDbCircle
 62
7
  6
BYLAYER
 10
5.5547460272
 20
19.1246601112
 40
19.4916825281
100
AcDbArc
 50
18.52758297
 51
21.5216904941
  0
ARC
  5
2AC
100
AcDbEntity
  8
0
100
AcDbCircle
 62
7
  6
BYLAYER
 10
5.8195220477
 20
19.9319768356
 40
18.846253845
100
AcDbArc
 50
40.9443934908
 51
43.6258701732
  0
ARC
  5
2AD
100
AcDbEntity
  8
0
100
AcDbCircle
 62
7
  6
BYLAYER
 10
10.7432174447
 20
20.3191044101
 40
14.157057243
100
AcDbArc
 50
5.0422469596
 51
8.6902220195
  0
ARC
  5
2AE
100
AcDbEntity
  8
0
100
AcDbCircle
 62
7
  6
BYLAYER
 10
21.0653993751
 20
32.1599768788
 40
13.8806126797
100
AcDbArc
 50
59.0668060148
 51
59.9958477848
  0
ARC
  5
2AF
100
AcDbEntity
  8
0
100
AcDbCircle
 62
7
  6
BYLAYER
 10
24.4679966097
 20
26.4215226999
 40
13.7914087069
100
AcDbArc
 50
0.0012047211
 51
0.9362373481
  0
ARC
  5
2B0
100
AcDbEntity
  8
0
100
AcDbCircle
 62
7
  6
BYLAYER
 10
9.5422571572
 20
24.2278101075
 40
13.1486439999
100
AcDbArc
 50
55.41691295
 51
56.5772156341
  0
ARC
  5
2B1
100
AcDbEntity
  8
0
100
AcDbCircle
 62
7
  6
BYLAYER
 10
12.9605184829
 20
20.2685852506
 40
12.0240145373
100
AcDbArc
 50
0.0010986039
 51
0.8939384522
  0
ARC
  5
2B2
100
AcDbEntity
  8
0
100
AcDbCircle
 62
7
  6
BYLAYER
 10
19.0980115234
 20
30.596768827
 40
12.0021332768
100
AcDbArc
 50
180.0007973375
 51
180.7612630648
  0
ARC
  5
2B3
100
AcDbEntity
  8
0
100
AcDbCircle
 62
7
  6
BYLAYER
 10
23.0704450045
 20
9.9747145613
 40
11.6725656955
100
AcDbArc
 50
37.3664791438
 51
41.9245262269
  0
ARC
  5
2B4
100
AcDbEntity
  8
0
100
AcDbCircle
 62
7
  6
BYLAYER
 10
18.7174969846
 20
30.4431373801
 40
11.4647530259
100
AcDbArc
 50
179.0381457006
 51
180.001054756
  0
ARC
  5
2B5
100
AcDbEntity
  8
0
100
AcDbCircle
 62
7
  6
BYLAYER
 10
11.9605654602
 20
30.4066101763
 40
6.5770908197
100
AcDbArc
 50
81.1462438935
 51
82.4273013051
  0
ARC
  5
2B6
100
AcDbEntity
  8
0
100
AcDbCircle
 62
7
  6
BYLAYER
 10
18.3350047096
 20
19.4018971839
 40
6.5478978314
100
AcDbArc
 50
337.5690474533
 51
338.8559109176
  0
ARC
  5
2B7
100
AcDbEntity
  8
0
100
AcDbCircle
 62
7
  6
BYLAYER
 10
20.3444891018
 20
18.258871794
 40
4.1851118862
100
AcDbArc
 50
297.6789329814
 51
300.3581331779
  0
SPLINE
  5
2B8
100
AcDbEntity
  8
0
100
AcDbSpline
 62
7
  6
BYLAYER
 70
0
 71
3
 72
27
 73
23
 74
0
 42
0.0000001
 43
0.0000001
 44
0.0000000001
 40
0.0
 40
0.0
 40
0.0
 40
0.0
 40
0.0213298489
 40
0.0428882245
 40
0.0648911521
 40
0.0875338126
 40
0.1109805801
 40
0.1353652256
 40
0.1607853957
 40
0.1873082818
 40
0.2437395928
 40
0.3046806368
 40
0.3697612011
 40
0.4383510247
 40
0.5096297285
 40
0.5826459175
 40
0.6563692768
 40
0.7297379172
 40
0.8017072304
 40
0.8712902004
 40
0.9376256422
 40
1.0
 40
1.0
 40
1.0
 40
1.0
 10
22.1605142627
 20
14.7057357091
 30
0.0
 10
22.0087907394
 20
14.6181256455
 30
0.0
 10
21.6920468884
 20
14.4613674066
 30
0.0
 10
21.1870309008
 20
14.2868269675
 30
0.0
 10
20.653918753
 20
14.1730635029
 30
0.0
 10
20.0958721134
 20
14.1207855273
 30
0.0
 10
19.5160045348
 20
14.129858494
 30
0.0
 10
18.9175081766
 20
14.2002919214
 30
0.0
 10
18.3035394497
 20
14.3313379486
 30
0.0
 10
17.4512355333
 20
14.5913884263
 30
0.0
 10
16.3658920914
 20
15.0710242907
 30
0.0
 10
15.0844706401
 20
15.8550272978
 30
0.0
 10
13.8232824892
 20
16.8423637931
 30
0.0
 10
12.6088431323
 20
18.0119868136
 30
0.0
 10
11.4666150448
 20
19.3391358798
 30
0.0
 10
10.4208552587
 20
20.7955835226
 30
0.0
 10
9.4938404353
 20
22.3502938226
 30
0.0
 10
8.7053215034
 20
23.9701078215
 30
0.0
 10
8.0721681049
 20
25.6204597456
 30
0.0
 10
7.6077623897
 20
27.2663903492
 30
0.0
 10
7.3221724584
 20
28.8726744204
 30
0.0
 10
7.2527439606
 20
29.9305889702
 30
0.0
 10
7.2527439606
 20
30.4429263259
 30
0.0
  0
SPLINE
  5
2B9
100
AcDbEntity
  8
0
100
AcDbSpline
 62
7
  6
BYLAYER
 70
0
 71
3
 72
10
 73
6
 74
0
 42
0.0000001
 43
0.0000001
 44
0.0000000001
 40
0.0
 40
0.0
 40
0.0
 40
0.0
 40
0.4751096814
 40
0.73145022
 40
1.0
 40
1.0
 40
1.0
 40
1.0
 10
24.4420734469
 20
17.0399747786
 30
0.0
 10
24.630021075
 20
17.5258228648
 30
0.0
 10
24.8323546795
 20
18.3092998038
 30
0.0
 10
24.9631667051
 20
19.3983919076
 30
0.0
 10
24.9845330181
 20
19.9743641621
 30
0.0
 10
24.9845330181
 20
20.2688158021
 30
0.0
  0
SPLINE
  5
2BA
100
AcDbEntity
  8
0
100
AcDbSpline
 62
7
  6
BYLAYER
 70
0
 71
3
 72
15
 73
11
 74
0
 42
0.0000001
 43
0.0000001
 44
0.0000000001
 40
0.0
 40
0.0
 40
0.0
 40
0.0
 40
0.1080138242
 40
0.2180615171
 40
0.331997176
 40
0.4513580736
 40
0.5772717773
 40
0.7104887024
 40
0.8514265674
 40
1.0
 40
1.0
 40
1.0
 40
1.0
 10
28.4491480125
 20
16.1425213647
 30
0.0
 10
28.6827870864
 20
16.2774123492
 30
0.0
 10
29.1319654657
 20
16.5908871929
 30
0.0
 10
29.7255115638
 20
17.1749898613
 30
0.0
 10
30.235992705
 20
17.8682619752
 30
0.0
 10
30.6585924145
 20
18.6629270743
 30
0.0
 10
30.9902067604
 20
19.550793117
 30
0.0
 10
31.228155258
 20
20.5234119598
 30
0.0
 10
31.3705429258
 20
21.5712781511
 30
0.0
 10
31.4004966205
 20
22.2948782435
 30
0.0
 10
31.4004966205
 20
22.6659656174
 30
0.0
  0
SPLINE
  5
2BB
100
AcDbEntity
  8
0
100
AcDbSpline
 62
7
  6
BYLAYER
 70
0
 71
3
 72
27
 73
23
 74
0
 42
0.0000001
 43
0.0000001
 44
0.0000000001
 40
0.0
 40
0.0
 40
0.0
 40
0.0
 40
0.0213301565
 40
0.0428885783
 40
0.0648920493
 40
0.0875345689
 40
0.1109820229
 40
0.1353665249
 40
0.1872624729
 40
0.2149236423
 40
0.2437317922
 40
0.3046735798
 40
0.3697547681
 40
0.4383451321
 40
0.5096244279
 40
0.5826413362
 40
0.6563654915
 40
0.7297351324
 40
0.8017048916
 40
0.871289716
 40
0.9376236438
 40
1.0
 40
1.0
 40
1.0
 40
1.0
 10
23.499424279
 20
13.2848068721
 30
0.0
 10
23.3243516943
 20
13.1837288743
 30
0.0
 10
22.9588646708
 20
13.0028924141
 30
0.0
 10
22.3761795928
 20
12.8014115863
 30
0.0
 10
21.7610283292
 20
12.6702536492
 30
0.0
 10
21.1171444625
 20
12.6098198792
 30
0.0
 10
20.4480376154
 20
12.6203980487
 30
0.0
 10
19.5080318781
 20
12.7309085597
 30
0.0
 10
18.5502845476
 20
12.9852291508
 30
0.0
 10
17.5940389293
 20
13.3613805726
 30
0.0
 10
16.5898762899
 20
13.8430244617
 30
0.0
 10
15.3345965354
 20
14.611033538
 30
0.0
 10
13.8795835459
 20
15.7501500126
 30
0.0
 10
12.4782495556
 20
17.0997442698
 30
0.0
 10
11.1603081433
 20
18.6310531492
 30
0.0
 10
9.953654291
 20
20.3115675579
 30
0.0
 10
8.8840156523
 20
22.1054613503
 30
0.0
 10
7.9741901654
 20
23.9744786265
 30
0.0
 10
7.243612728
 20
25.87873584
 30
0.0
 10
6.7077879601
 20
27.7778802164
 30
0.0
 10
6.378240294
 20
29.631283193
 30
0.0
 10
6.2981425933
 20
30.8519468702
 30
0.0
 10
6.2981425933
 20
31.4431180441
 30
0.0
  0
SPLINE
  5
2BC
100
AcDbEntity
  8
0
100
AcDbSpline
 62
7
  6
BYLAYER
 70
0
 71
3
 72
15
 73
11
 74
0
 42
0.0000001
 43
0.0000001
 44
0.0000000001
 40
0.0
 40
0.0
 40
0.0
 40
0.0
 40
0.1486045141
 40
0.2894990889
 40
0.4227227968
 40
0.5486417764
 40
0.668000708
 40
0.7819384286
 40
0.8919870976
 40
1.0
 40
1.0
 40
1.0
 40
1.0
 10
28.0065768538
 20
44.1804370851
 30
0.0
 10
27.6794972271
 20
44.369282015
 30
0.0
 10
27.0266481538
 20
44.7110704171
 30
0.0
 10
26.0307770993
 20
45.1186513349
 30
0.0
 10
25.0527048251
 20
45.4038326326
 30
0.0
 10
24.1015504119
 20
45.5633748032
 30
0.0
 10
23.186242888
 20
45.5952638584
 30
0.0
 10
22.3155856832
 20
45.4981459349
 30
0.0
 10
21.4988618212
 20
45.2722908699
 30
0.0
 10
20.9940857744
 20
45.0359491239
 30
0.0
 10
20.7563467561
 20
44.8986907176
 30
0.0
  0
SPLINE
  5
2BD
100
AcDbEntity
  8
0
100
AcDbSpline
 62
7
  6
BYLAYER
 70
0
 71
3
 72
19
 73
15
 74
0
 42
0.0000001
 43
0.0000001
 44
0.0000000001
 40
0.0
 40
0.0
 40
0.0
 40
0.0
 40
0.1541818367
 40
0.3039359274
 40
0.4462539955
 40
0.5786914787
 40
0.6407190385
 40
0.699782749
 40
0.7558802432
 40
0.8091200791
 40
0.8597246517
 40
0.9080677082
 40
0.954640294
 40
1.0
 40
1.0
 40
1.0
 40
1.0
 10
36.5392376603
 20
51.5424034078
 30
0.0
 10
36.3566918793
 20
51.8349228553
 30
0.0
 10
35.9666013008
 20
52.3933656314
 30
0.0
 10
35.3089859148
 20
53.1467271605
 30
0.0
 10
34.6039740068
 20
53.7859275246
 30
0.0
 10
33.9819784393
 20
54.215803932
 30
0.0
 10
33.4799576754
 20
54.4805680763
 30
0.0
 10
33.1143638729
 20
54.6348343398
 30
0.0
 10
32.7544089593
 20
54.7476895304
 30
0.0
 10
32.4029997824
 20
54.818278875
 30
0.0
 10
32.062900392
 20
54.8457313652
 30
0.0
 10
31.7368404331
 20
54.8296919805
 30
0.0
 10
31.4277967996
 20
54.7699250171
 30
0.0
 10
31.2331869975
 20
54.7006911137
 30
0.0
 10
31.1406042514
 20
54.6592353476
 30
0.0
  0
SPLINE
  5
2BE
100
AcDbEntity
  8
0
100
AcDbSpline
 62
7
  6
BYLAYER
 70
0
 71
3
 72
15
 73
11
 74
0
 42
0.0000001
 43
0.0000001
 44
0.0000000001
 40
0.0
 40
0.0
 40
0.0
 40
0.0
 40
0.1080132627
 40
0.2180617257
 40
0.3319995369
 40
0.4513614563
 40
0.5772752811
 40
0.7104914696
 40
0.8514274723
 40
1.0
 40
1.0
 40
1.0
 40
1.0
 10
35.2562818415
 20
19.7839165292
 30
0.0
 10
35.4940185636
 20
19.9211736098
 30
0.0
 10
35.9510794061
 20
20.2401465488
 30
0.0
 10
36.5550384522
 20
20.8345060827
 30
0.0
 10
37.0744816217
 20
21.5399488716
 30
0.0
 10
37.5044977667
 20
22.3485644059
 30
0.0
 10
37.8419251763
 20
23.2520103569
 30
0.0
 10
38.0840431089
 20
24.2416876675
 30
0.0
 10
38.2289284681
 20
25.3079289521
 30
0.0
 10
38.2594053135
 20
26.0442171527
 30
0.0
 10
38.2594053135
 20
26.4218126829
 30
0.0
  0
SPLINE
  5
2BF
100
AcDbEntity
  8
0
100
AcDbSpline
 62
7
  6
BYLAYER
 70
0
 71
3
 72
12
 73
8
 74
0
 42
0.0000001
 43
0.0000001
 44
0.0000000001
 40
0.0
 40
0.0
 40
0.0
 40
0.0
 40
0.1083318767
 40
0.2186740434
 40
0.4518158958
 40
0.710766864
 40
1.0
 40
1.0
 40
1.0
 40
1.0
 10
38.7633288912
 20
19.2288688616
 30
0.0
 10
38.7999351554
 20
19.2500054009
 30
0.0
 10
38.870336039
 20
19.2990679984
 30
0.0
 10
38.9967341841
 20
19.422954197
 30
0.0
 10
39.1223363249
 20
19.6260539983
 30
0.0
 10
39.2105136446
 20
19.9205358329
 30
0.0
 10
39.2287179266
 20
20.1351011031
 30
0.0
 10
39.2293021253
 20
20.2479560276
 30
0.0
  0
SPLINE
  5
2C0
100
AcDbEntity
  8
0
100
AcDbSpline
 62
7
  6
BYLAYER
 70
0
 71
3
 72
16
 73
12
 74
0
 42
0.0000001
 43
0.0000001
 44
0.0000000001
 40
0.0
 40
0.0
 40
0.0
 40
0.0
 40
0.1479734925
 40
0.2884171087
 40
0.4213175576
 40
0.4850957767
 40
0.5471832407
 40
0.6666583048
 40
0.7809099994
 40
0.8914296238
 40
1.0
 40
1.0
 40
1.0
 40
1.0
 10
7.2543594247
 20
30.6355931619
 30
0.0
 10
7.2595948192
 20
30.9463881824
 30
0.0
 10
7.2947226374
 20
31.5521682966
 30
0.0
 10
7.4281164431
 20
32.4284272777
 30
0.0
 10
7.6072527859
 20
33.1152216993
 30
0.0
 10
7.7904434292
 20
33.6273269242
 30
0.0
 10
7.9936299472
 20
34.1012397009
 30
0.0
 10
8.2929621709
 20
34.6481268026
 30
0.0
 10
8.7289212188
 20
35.2284524499
 30
0.0
 10
9.2330248955
 20
35.7185717823
 30
0.0
 10
9.613078784
 20
35.9825244895
 30
0.0
 10
9.8105838697
 20
36.0965703061
 30
0.0
  0
SPLINE
  5
2C1
100
AcDbEntity
  8
0
100
AcDbSpline
 62
7
  6
BYLAYER
 70
0
 71
3
 72
15
 73
11
 74
0
 42
0.0000001
 43
0.0000001
 44
0.0000000001
 40
0.0
 40
0.0
 40
0.0
 40
0.0
 40
0.1485725277
 40
0.2895085304
 40
0.4227247189
 40
0.5486385437
 40
0.6680004631
 40
0.7819382743
 40
0.8919867373
 40
1.0
 40
1.0
 40
1.0
 40
1.0
 10
6.2981425933
 20
31.4431180441
 30
0.0
 10
6.2981425933
 20
31.8142033066
 30
0.0
 10
6.3280939759
 20
32.537796883
 30
0.0
 10
6.4704813116
 20
33.5856546972
 30
0.0
 10
6.7084247971
 20
34.5582686059
 30
0.0
 10
7.0400344928
 20
35.4461379026
 30
0.0
 10
7.4626365663
 20
36.2408117897
 30
0.0
 10
7.9731238191
 20
36.9340917719
 30
0.0
 10
8.5666697782
 20
37.5182037276
 30
0.0
 10
9.0158502613
 20
37.8316771332
 30
0.0
 10
9.2494880744
 20
37.9665677124
 30
0.0
  0
SPLINE
  5
2C2
100
AcDbEntity
  8
0
100
AcDbSpline
 62
7
  6
BYLAYER
 70
0
 71
3
 72
23
 73
19
 74
0
 42
0.0000001
 43
0.0000001
 44
0.0000000001
 40
0.0
 40
0.0
 40
0.0
 40
0.0
 40
0.0587364355
 40
0.1205096806
 40
0.1848989675
 40
0.251416638
 40
0.3194879782
 40
0.3884976487
 40
0.4578021493
 40
0.5267496784
 40
0.5946986386
 40
0.6610359953
 40
0.7251981137
 40
0.7866916404
 40
0.8451166836
 40
0.9001944898
 40
0.951800565
 40
1.0
 40
1.0
 40
1.0
 40
1.0
 10
24.9830695609
 20
20.4561783499
 30
0.0
 10
24.9764675587
 20
20.8808338533
 30
0.0
 10
24.9178156626
 20
21.7518192457
 30
0.0
 10
24.7079014568
 20
23.0737408192
 30
0.0
 10
24.3766414227
 20
24.4285334896
 30
0.0
 10
23.9288223478
 20
25.7972018244
 30
0.0
 10
23.3705767662
 20
27.1607547833
 30
0.0
 10
22.7097525566
 20
28.5001027922
 30
0.0
 10
21.955606773
 20
29.7965317764
 30
0.0
 10
21.1186890888
 20
31.0319016502
 30
0.0
 10
20.2106940717
 20
32.1889249606
 30
0.0
 10
19.2442920024
 20
33.2514230078
 30
0.0
 10
18.2329634316
 20
34.2045886419
 30
0.0
 10
17.1907176049
 20
35.0351511946
 30
0.0
 10
16.1319215818
 20
35.731525646
 30
0.0
 10
15.0708824528
 20
36.2839561177
 30
0.0
 10
14.0222525765
 20
36.6844977761
 30
0.0
 10
13.3172302311
 20
36.851699042
 30
0.0
 10
12.972864881
 20
36.9053310914
 30
0.0
  0
SPLINE
  5
2C3
100
AcDbEntity
  8
0
100
AcDbSpline
 62
7
  6
BYLAYER
 70
0
 71
3
 72
27
 73
23
 74
0
 42
0.0000001
 43
0.0000001
 44
0.0000000001
 40
0.0
 40
0.0
 40
0.0
 40
0.0
 40
0.0623760948
 40
0.1287099452
 40
0.1982948444
 40
0.2702638326
 40
0.3436340757
 40
0.4173593844
 40
0.4903770392
 40
0.5616568037
 40
0.6302473043
 40
0.6953283569
 40
0.7562698227
 40
0.7850777405
 40
0.8127387206
 40
0.8646342325
 40
0.8890185178
 40
0.9124658006
 40
0.9351081677
 40
0.957111521
 40
0.9786698548
 40
1.0
 40
1.0
 40
1.0
 40
1.0
 10
31.4004966205
 20
22.6659656174
 30
0.0
 10
31.4004966205
 20
23.2571340629
 30
0.0
 10
31.3203997062
 20
24.4777940149
 30
0.0
 10
30.9908528759
 20
26.3311938635
 30
0.0
 10
30.4550294207
 20
28.2303300147
 30
0.0
 10
29.7244566247
 20
30.1345871331
 30
0.0
 10
28.8146247603
 20
32.0036108195
 30
0.0
 10
27.7449750649
 20
33.7975246186
 30
0.0
 10
26.5383050436
 20
35.4780541454
 30
0.0
 10
25.2203527298
 20
37.0093694046
 30
0.0
 10
23.8190123246
 20
38.3589624034
 30
0.0
 10
22.3639984765
 20
39.4980713281
 30
0.0
 10
21.1087230699
 20
40.2660742163
 30
0.0
 10
20.1045639795
 20
40.7477079862
 30
0.0
 10
19.1483264608
 20
41.1238563718
 30
0.0
 10
18.1905861105
 20
41.3781713787
 30
0.0
 10
17.2505882421
 20
41.4886773205
 30
0.0
 10
16.5814868191
 20
41.4992556543
 30
0.0
 10
15.9376075185
 20
41.438820886
 30
0.0
 10
15.3224598266
 20
41.3076642234
 30
0.0
 10
14.7397765182
 20
41.1061852516
 30
0.0
 10
14.3742905838
 20
40.9253490937
 30
0.0
 10
14.1992180619
 20
40.8242713739
 30
0.0
  0
SPLINE
  5
2C4
100
AcDbEntity
  8
0
100
AcDbSpline
 62
7
  6
BYLAYER
 70
0
 71
3
 72
23
 73
19
 74
0
 42
0.0000001
 43
0.0000001
 44
0.0000000001
 40
0.0
 40
0.0
 40
0.0
 40
0.0
 40
0.0558271897
 40
0.1141823422
 40
0.17478313
 40
0.2373515917
 40
0.301547169
 40
0.3669899967
 40
0.4332797263
 40
0.4999980422
 40
0.5667161258
 40
0.6330065891
 40
0.6984509295
 40
0.7626462497
 40
0.8252168681
 40
0.8858205416
 40
0.944161211
 40
1.0
 40
1.0
 40
1.0
 40
1.0
 10
38.2594035471
 20
26.6667581554
 30
0.0
 10
38.2594035471
 20
27.0551263654
 30
0.0
 10
38.2248614169
 20
27.849736222
 30
0.0
 10
38.0785991862
 20
29.0578456383
 30
0.0
 10
37.8378625596
 20
30.2985130542
 30
0.0
 10
37.5050882522
 20
31.559664429
 30
0.0
 10
37.0835368095
 20
32.8294622888
 30
0.0
 10
36.5771087598
 20
34.0957312914
 30
0.0
 10
35.9906985733
 20
35.3463789825
 30
0.0
 10
35.3299544596
 20
36.5694752186
 30
0.0
 10
34.6011079447
 20
37.7532591783
 30
0.0
 10
33.8112207323
 20
38.8864466628
 30
0.0
 10
32.9678151534
 20
39.9581791396
 30
0.0
 10
32.0789211242
 20
40.9581905726
 30
0.0
 10
31.1530960843
 20
41.8769832152
 30
0.0
 10
30.1990539227
 20
42.7057426816
 30
0.0
 10
29.225985893
 20
43.4365370397
 30
0.0
 10
28.5551059516
 20
43.8637233243
 30
0.0
 10
28.2187025712
 20
44.0579533805
 30
0.0
  0
SPLINE
  5
2C5
100
AcDbEntity
  8
0
100
AcDbSpline
 62
7
  6
BYLAYER
 70
0
 71
3
 72
15
 73
11
 74
0
 42
0.0000001
 43
0.0000001
 44
0.0000000001
 40
0.0
 40
0.0
 40
0.0
 40
0.0
 40
0.1139167099
 40
0.2369705988
 40
0.3665689156
 40
0.4996267097
 40
0.6327364679
 40
0.7624865171
 40
0.8857794299
 40
1.0
 40
1.0
 40
1.0
 40
1.0
 10
39.3500731309
 20
43.5783786858
 30
0.0
 10
39.3508697815
 20
43.7322748481
 30
0.0
 10
39.3240188024
 20
44.0528572891
 30
0.0
 10
39.2131078171
 20
44.5368456536
 30
0.0
 10
39.033941064
 20
45.0275157471
 30
0.0
 10
38.7933997018
 20
45.5062963045
 30
0.0
 10
38.500452759
 20
45.9551744086
 30
0.0
 10
38.1661640274
 20
46.3573302297
 30
0.0
 10
37.8031382522
 20
46.6974542374
 30
0.0
 10
37.5391919542
 20
46.8826306813
 30
0.0
 10
37.4055559177
 20
46.9597837376
 30
0.0
  0
SPLINE
  5
2C6
100
AcDbEntity
  8
0
100
AcDbSpline
 62
7
  6
BYLAYER
 70
0
 71
3
 72
11
 73
7
 74
0
 42
0.0000001
 43
0.0000001
 44
0.0000000001
 40
0.0
 40
0.0
 40
0.0
 40
0.0
 40
0.2198579801
 40
0.4571212225
 40
0.7166140254
 40
1.0
 40
1.0
 40
1.0
 40
1.0
 10
37.0042599388
 20
19.9549492225
 30
0.0
 10
37.0212407267
 20
19.9716916626
 30
0.0
 10
37.0518974595
 20
20.0114294641
 30
0.0
 10
37.0841870169
 20
20.0827330053
 30
0.0
 10
37.1036771503
 20
20.1655217187
 30
0.0
 10
37.1078415075
 20
20.2245023646
 30
0.0
 10
37.1080006167
 20
20.2552389266
 30
0.0
  0
SPLINE
  5
2C7
100
AcDbEntity
  8
0
100
AcDbSpline
 62
7
  6
BYLAYER
 70
0
 71
3
 72
11
 73
7
 74
0
 42
0.0000001
 43
0.0000001
 44
0.0000000001
 40
0.0
 40
0.0
 40
0.0
 40
0.0
 40
0.2284688157
 40
0.4743969959
 40
0.7334043748
 40
1.0
 40
1.0
 40
1.0
 40
1.0
 10
37.2287716224
 20
43.5856615848
 30
0.0
 10
37.229108107
 20
43.6506633365
 30
0.0
 10
37.218600426
 20
43.7858055085
 30
0.0
 10
37.1748087673
 20
43.9903346936
 30
0.0
 10
37.1036204453
 20
44.1984704247
 30
0.0
 10
37.040017096
 20
44.3341788561
 30
0.0
 10
37.0042599388
 20
44.4010719411
 30
0.0
  0
SPLINE
  5
2C8
100
AcDbEntity
  8
0
100
AcDbSpline
 62
7
  6
BYLAYER
 70
0
 71
3
 72
27
 73
23
 74
0
 42
0.0000001
 43
0.0000001
 44
0.0000000001
 40
0.0
 40
0.0
 40
0.0
 40
0.0
 40
0.0213304944
 40
0.0428891963
 40
0.0648929285
 40
0.0875357134
 40
0.1109833789
 40
0.1353681062
 40
0.1872643374
 40
0.2149255522
 40
0.2437337624
 40
0.3046754614
 40
0.3697563853
 40
0.4383463434
 40
0.5096252105
 40
0.5826417697
 40
0.6563659983
 40
0.729735383
 40
0.8017038594
 40
0.8712886054
 40
0.9376231199
 40
1.0
 40
1.0
 40
1.0
 40
1.0
 10
16.7258582332
 20
42.57169324
 30
0.0
 10
16.9040048829
 20
42.6745463289
 30
0.0
 10
17.2759101274
 20
42.8585562049
 30
0.0
 10
17.8688263449
 20
43.0635717909
 30
0.0
 10
18.4947777794
 20
43.1970295727
 30
0.0
 10
19.1499651225
 20
43.2585183362
 30
0.0
 10
19.8308171394
 20
43.2477534632
 30
0.0
 10
20.7873196572
 20
43.135293222
 30
0.0
 10
21.761872235
 20
42.8765041976
 30
0.0
 10
22.73489678
 20
42.4937511697
 30
0.0
 10
23.7566718419
 20
42.0036488491
 30
0.0
 10
25.0339691562
 20
41.2221653395
 30
0.0
 10
26.5144987291
 20
40.0630647752
 30
0.0
 10
27.940407027
 20
38.6897993167
 30
0.0
 10
29.2814599773
 20
37.1316329695
 30
0.0
 10
30.5092786807
 20
35.4216421593
 30
0.0
 10
31.5976771634
 20
33.5962803584
 30
0.0
 10
32.5234610553
 20
31.6944883967
 30
0.0
 10
33.26684688
 20
29.7568376776
 30
0.0
 10
33.8120757979
 20
27.8243848543
 30
0.0
 10
34.1474077964
 20
25.9384572254
 30
0.0
 10
34.2289134414
 20
24.6963683753
 30
0.0
 10
34.2289134414
 20
24.0948210058
 30
0.0
  0
SPLINE
  5
2C9
100
AcDbEntity
  8
0
100
AcDbSpline
 62
7
  6
BYLAYER
 70
0
 71
3
 72
11
 73
7
 74
0
 42
0.0000001
 43
0.0000001
 44
0.0000000001
 40
0.0
 40
0.0
 40
0.0
 40
0.0
 40
0.2389852079
 40
0.482558849
 40
0.7350493626
 40
1.0
 40
1.0
 40
1.0
 40
1.0
 10
9.8649912632
 20
36.358819055
 30
0.0
 10
10.0756178056
 20
36.4821871877
 30
0.0
 10
10.523870347
 20
36.6941530061
 30
0.0
 10
11.2509511789
 20
36.8945030558
 30
0.0
 10
12.0269766588
 20
36.9769594528
 30
0.0
 10
12.5570377826
 20
36.9540317687
 30
0.0
 10
12.8260645843
 20
36.9247324483
 30
0.0
  0
SPLINE
  5
2CA
100
AcDbEntity
  8
0
100
AcDbSpline
 62
7
  6
BYLAYER
 70
0
 71
3
 72
27
 73
23
 74
0
 42
0.0000001
 43
0.0000001
 44
0.0000000001
 40
0.0
 40
0.0
 40
0.0
 40
0.0
 40
0.0213301565
 40
0.0428885783
 40
0.0648920493
 40
0.0875345689
 40
0.1109820229
 40
0.1353665249
 40
0.1872624729
 40
0.2149236423
 40
0.2437317922
 40
0.3046735798
 40
0.3697547681
 40
0.4383451321
 40
0.5096244279
 40
0.5826413362
 40
0.6563654915
 40
0.7297351324
 40
0.8017048916
 40
0.871289716
 40
0.9376236438
 40
1.0
 40
1.0
 40
1.0
 40
1.0
 10
9.2494880744
 20
37.9665677124
 30
0.0
 10
9.4245606591
 20
38.0676457101
 30
0.0
 10
9.7900476826
 20
38.2484821703
 30
0.0
 10
10.3727327606
 20
38.4499629982
 30
0.0
 10
10.9878840242
 20
38.5811209353
 30
0.0
 10
11.6317678909
 20
38.6415547052
 30
0.0
 10
12.3008747379
 20
38.6309765357
 30
0.0
 10
13.2408804753
 20
38.5204660248
 30
0.0
 10
14.1986278058
 20
38.2661454337
 30
0.0
 10
15.1548734241
 20
37.8899940119
 30
0.0
 10
16.1590360635
 20
37.4083501227
 30
0.0
 10
17.414315818
 20
36.6403410464
 30
0.0
 10
18.8693288075
 20
35.5012245718
 30
0.0
 10
20.2706627978
 20
34.1516303147
 30
0.0
 10
21.5886042101
 20
32.6203214352
 30
0.0
 10
22.7952580624
 20
30.9398070265
 30
0.0
 10
23.8648967011
 20
29.1459132342
 30
0.0
 10
24.774722188
 20
27.2768959579
 30
0.0
 10
25.5052996254
 20
25.3726387444
 30
0.0
 10
26.0411243933
 20
23.4734943681
 30
0.0
 10
26.3706720594
 20
21.6200913914
 30
0.0
 10
26.45076976
 20
20.3994277142
 30
0.0
 10
26.45076976
 20
19.8082565403
 30
0.0
  0
SPLINE
  5
2CB
100
AcDbEntity
  8
0
100
AcDbSpline
 62
7
  6
BYLAYER
 70
0
 71
3
 72
15
 73
11
 74
0
 42
0.0000001
 43
0.0000001
 44
0.0000000001
 40
0.0
 40
0.0
 40
0.0
 40
0.0
 40
0.1485725277
 40
0.2895085304
 40
0.4227247189
 40
0.5486385437
 40
0.6680004631
 40
0.7819382743
 40
0.8919867373
 40
1.0
 40
1.0
 40
1.0
 40
1.0
 10
26.45076976
 20
19.8082565403
 30
0.0
 10
26.45076976
 20
19.4371712779
 30
0.0
 10
26.4208183775
 20
18.7135777014
 30
0.0
 10
26.2784310418
 20
17.6657198873
 30
0.0
 10
26.0404875563
 20
16.6931059786
 30
0.0
 10
25.7088778606
 20
15.8052366819
 30
0.0
 10
25.2862757871
 20
15.0105627948
 30
0.0
 10
24.7757885343
 20
14.3172828126
 30
0.0
 10
24.1822425752
 20
13.7331708569
 30
0.0
 10
23.7330620921
 20
13.4196974512
 30
0.0
 10
23.499424279
 20
13.2848068721
 30
0.0
  0
SPLINE
  5
2CC
100
AcDbEntity
  8
0
100
AcDbSpline
 62
7
  6
BYLAYER
 70
0
 71
3
 72
27
 73
23
 74
0
 42
0.0000001
 43
0.0000001
 44
0.0000000001
 40
0.0
 40
0.0
 40
0.0
 40
0.0
 40
0.0213298489
 40
0.0428882245
 40
0.0648911521
 40
0.0875338126
 40
0.1109805801
 40
0.1353652256
 40
0.1607853957
 40
0.1873082818
 40
0.2437395928
 40
0.3046806368
 40
0.3697612011
 40
0.4383510247
 40
0.5096297285
 40
0.5826459175
 40
0.6563692768
 40
0.7297379172
 40
0.8017072304
 40
0.8712902004
 40
0.9376256422
 40
1.0
 40
1.0
 40
1.0
 40
1.0
 10
9.8105838697
 20
36.0965703061
 30
0.0
 10
9.962307393
 20
36.1841803697
 30
0.0
 10
10.2790512441
 20
36.3409386086
 30
0.0
 10
10.7840672316
 20
36.5154790477
 30
0.0
 10
11.3171793795
 20
36.6292425123
 30
0.0
 10
11.875226019
 20
36.6815204878
 30
0.0
 10
12.4550935977
 20
36.6724475212
 30
0.0
 10
13.0535899559
 20
36.6020140937
 30
0.0
 10
13.6675586827
 20
36.4709680666
 30
0.0
 10
14.5198625992
 20
36.2109175889
 30
0.0
 10
15.605206041
 20
35.7312817245
 30
0.0
 10
16.8866274923
 20
34.9472787174
 30
0.0
 10
18.1478156433
 20
33.9599422221
 30
0.0
 10
19.3622550001
 20
32.7903192016
 30
0.0
 10
20.5044830876
 20
31.4631701353
 30
0.0
 10
21.5502428737
 20
30.0067224926
 30
0.0
 10
22.4772576972
 20
28.4520121925
 30
0.0
 10
23.265776629
 20
26.8321981937
 30
0.0
 10
23.8989300275
 20
25.1818462696
 30
0.0
 10
24.3633357428
 20
23.535915666
 30
0.0
 10
24.6489256741
 20
21.9296315948
 30
0.0
 10
24.7183541718
 20
20.871717045
 30
0.0
 10
24.7183541718
 20
20.3593796893
 30
0.0
  0
SPLINE
  5
2CD
100
AcDbEntity
  8
0
100
AcDbSpline
 62
7
  6
BYLAYER
 70
0
 71
3
 72
19
 73
15
 74
0
 42
0.0000001
 43
0.0000001
 44
0.0000000001
 40
0.0
 40
0.0
 40
0.0
 40
0.0
 40
0.0453597079
 40
0.0919322988
 40
0.1402753606
 40
0.1908799365
 40
0.2441197751
 40
0.300217272
 40
0.3592809848
 40
0.4213085461
 40
0.5537460293
 40
0.6960640948
 40
0.8458181745
 40
1.0
 40
1.0
 40
1.0
 40
1.0
 10
29.5142654258
 20
53.7202737937
 30
0.0
 10
29.6068481758
 20
53.7617295615
 30
0.0
 10
29.8014579956
 20
53.8309634624
 30
0.0
 10
30.1105016559
 20
53.8907304314
 30
0.0
 10
30.4365616463
 20
53.90676981
 30
0.0
 10
30.776661061
 20
53.8793173078
 30
0.0
 10
31.1280702531
 20
53.8087279411
 30
0.0
 10
31.4880251795
 20
53.6958727358
 30
0.0
 10
31.8536189909
 20
53.5416064551
 30
0.0
 10
32.355639754
 20
53.276842291
 30
0.0
 10
32.9776353097
 20
52.846965871
 30
0.0
 10
33.6826471787
 20
52.2077655102
 30
0.0
 10
34.3402625223
 20
51.4544040189
 30
0.0
 10
34.730353067
 20
50.8959612801
 30
0.0
 10
34.9128988347
 20
50.6034418539
 30
0.0
  0
SPLINE
  5
2CE
100
AcDbEntity
  8
0
100
AcDbSpline
 62
7
  6
BYLAYER
 70
0
 71
3
 72
19
 73
15
 74
0
 42
0.0000001
 43
0.0000001
 44
0.0000000001
 40
0.0
 40
0.0
 40
0.0
 40
0.0
 40
0.0561474562
 40
0.114706872
 40
0.175413555
 40
0.2379990067
 40
0.3673996387
 40
0.5000048099
 40
0.6326100349
 40
0.7620094885
 40
0.8245960768
 40
0.8853063154
 40
0.943853183
 40
1.0
 40
1.0
 40
1.0
 40
1.0
 10
38.2575641392
 20
26.6468701413
 30
0.0
 10
38.2512102514
 20
27.0371645094
 30
0.0
 10
38.2051184354
 20
27.8342539538
 30
0.0
 10
38.0445452409
 20
29.0441046823
 30
0.0
 10
37.7923951634
 20
30.2839605364
 30
0.0
 10
37.3321542691
 20
31.9803832583
 30
0.0
 10
36.5422348401
 20
34.1002533887
 30
0.0
 10
35.3001584643
 20
36.5524389147
 30
0.0
 10
33.7975455601
 20
38.8541934446
 30
0.0
 10
32.3566562938
 20
40.5982285552
 30
0.0
 10
31.1176116294
 20
41.8450367618
 30
0.0
 10
30.1699576555
 20
42.6832687918
 30
0.0
 10
29.202575525
 20
43.4272641069
 30
0.0
 10
28.5353918924
 20
43.8656678382
 30
0.0
 10
28.2005656547
 20
44.0663117694
 30
0.0
  0
SPLINE
  5
2CF
100
AcDbEntity
  8
0
100
AcDbSpline
 62
7
  6
BYLAYER
 70
0
 71
3
 72
25
 73
21
 74
0
 42
0.0000001
 43
0.0000001
 44
0.0000000001
 40
0.0
 40
0.0
 40
0.0
 40
0.0
 40
0.0613418307
 40
0.1264306859
 40
0.1946401618
 40
0.265211774
 40
0.3372757168
 40
0.4099043724
 40
0.4821444903
 40
0.5530597757
 40
0.6217678587
 40
0.6874813228
 40
0.749553209
 40
0.8075295967
 40
0.8612121757
 40
0.9107315112
 40
0.9341079064
 40
0.9566815976
 40
0.9785911483
 40
1.0
 40
1.0
 40
1.0
 40
1.0
 10
32.9207604498
 20
24.8500664017
 30
0.0
 10
32.9207604498
 20
25.3498043465
 30
0.0
 10
32.8563189667
 20
26.3804499252
 30
0.0
 10
32.5900770909
 20
27.9461129154
 30
0.0
 10
32.1563632616
 20
29.5518169165
 30
0.0
 10
31.5637481858
 20
31.1662656287
 30
0.0
 10
30.8236322004
 20
32.7583176226
 30
0.0
 10
29.9504409482
 20
34.2970421789
 30
0.0
 10
28.9611159497
 20
35.7525358496
 30
0.0
 10
27.874883058
 20
37.0965217075
 30
0.0
 10
26.7127793206
 20
38.3029396397
 30
0.0
 10
25.4971776451
 20
39.348456983
 30
0.0
 10
24.2513073515
 20
40.2128946991
 30
0.0
 10
22.9984469959
 20
40.8794883478
 30
0.0
 10
21.7620927951
 20
41.334929937
 30
0.0
 10
20.7442217137
 20
41.5336137139
 30
0.0
 10
19.9662495963
 20
41.571673872
 30
0.0
 10
19.4131325325
 20
41.5423951679
 30
0.0
 10
18.8822566535
 20
41.4560077675
 30
0.0
 10
18.5417954266
 20
41.3595397984
 30
0.0
 10
18.3771442686
 20
41.3020080084
 30
0.0
  0
SPLINE
  5
2D0
100
AcDbEntity
  8
0
100
AcDbSpline
 62
7
  6
BYLAYER
 70
0
 71
3
 72
15
 73
11
 74
0
 42
0.0000001
 43
0.0000001
 44
0.0000000001
 40
0.0
 40
0.0
 40
0.0
 40
0.0
 40
0.1080134656
 40
0.2180606585
 40
0.3319963605
 40
0.4513579658
 40
0.5772684632
 40
0.7104882545
 40
0.8514348767
 40
1.0
 40
1.0
 40
1.0
 40
1.0
 10
22.3372862308
 20
14.8078033874
 30
0.0
 10
22.5397651443
 20
14.9247215098
 30
0.0
 10
22.9290909712
 20
15.1963411843
 30
0.0
 10
23.4434541587
 20
15.7026108012
 30
0.0
 10
23.885896856
 20
16.3034230616
 30
0.0
 10
24.2521366309
 20
16.9921364661
 30
0.0
 10
24.5395423834
 20
17.7616164428
 30
0.0
 10
24.7457770331
 20
18.6045695806
 30
0.0
 10
24.869154701
 20
19.5127302122
 30
0.0
 10
24.8951301311
 20
20.1398497892
 30
0.0
 10
24.8951301311
 20
20.4614407277
 30
0.0
  0
SPLINE
  5
2D1
100
AcDbEntity
  8
0
100
AcDbSpline
 62
7
  6
BYLAYER
 70
0
 71
3
 72
15
 73
11
 74
0
 42
0.0000001
 43
0.0000001
 44
0.0000000001
 40
0.0
 40
0.0
 40
0.0
 40
0.0
 40
0.1485721046
 40
0.2895074708
 40
0.4227237785
 40
0.548637877
 40
0.6679992914
 40
0.7819358627
 40
0.8919847534
 40
1.0
 40
1.0
 40
1.0
 40
1.0
 10
34.2289134414
 20
24.0948210058
 30
0.0
 10
34.2289134414
 20
23.7172266977
 30
0.0
 10
34.1984376112
 20
22.9809414082
 30
0.0
 10
34.0535515569
 20
21.914703084
 30
0.0
 10
33.8114351684
 20
20.9250264337
 30
0.0
 10
33.4740066029
 20
20.0215815243
 30
0.0
 10
33.043993547
 20
19.2129693815
 30
0.0
 10
32.5245562959
 20
18.5075263996
 30
0.0
 10
31.9205912534
 20
17.9131691861
 30
0.0
 10
31.4635274533
 20
17.5941904838
 30
0.0
 10
31.2257866202
 20
17.4569306527
 30
0.0
  0
SPLINE
  5
2D2
100
AcDbEntity
  8
0
100
AcDbSpline
 62
7
  6
BYLAYER
 70
0
 71
3
 72
11
 73
7
 74
0
 42
0.0000001
 43
0.0000001
 44
0.0000000001
 40
0.0
 40
0.0
 40
0.0
 40
0.0
 40
0.2648312704
 40
0.5173805723
 40
0.7610562235
 40
1.0
 40
1.0
 40
1.0
 40
1.0
 10
24.3843465921
 20
16.9006311476
 30
0.0
 10
24.2770583572
 20
16.6575549918
 30
0.0
 10
24.0367129043
 20
16.19528616
 30
0.0
 10
23.5876797064
 20
15.5741139519
 30
0.0
 10
23.0639734593
 20
15.0501870782
 30
0.0
 10
22.6665156671
 20
14.7687692035
 30
0.0
 10
22.4596587879
 20
14.6476090371
 30
0.0
  0
SPLINE
  5
2D3
100
AcDbEntity
  8
0
100
AcDbSpline
 62
7
  6
BYLAYER
 70
0
 71
3
 72
15
 73
11
 74
0
 42
0.0000001
 43
0.0000001
 44
0.0000000001
 40
0.0
 40
0.0
 40
0.0
 40
0.0
 40
0.110106698
 40
0.2222150343
 40
0.3377543452
 40
0.4579310051
 40
0.5836985012
 40
0.715727208
 40
0.8544381712
 40
1.0
 40
1.0
 40
1.0
 40
1.0
 10
22.2885424806
 20
14.5526853496
 30
0.0
 10
22.1045900433
 20
14.4561950367
 30
0.0
 10
21.7181684778
 20
14.2890460292
 30
0.0
 10
21.1008571596
 20
14.1230448404
 30
0.0
 10
20.4477286853
 20
14.0416320361
 30
0.0
 10
19.76405037
 20
14.0448563613
 30
0.0
 10
19.0548730993
 20
14.132526472
 30
0.0
 10
18.3252863267
 20
14.3034499394
 30
0.0
 10
17.5806071535
 20
14.5563617858
 30
0.0
 10
17.0892203042
 20
14.7730263018
 30
0.0
 10
16.8424840991
 20
14.8935777586
 30
0.0
  0
SPLINE
  5
2D4
100
AcDbEntity
  8
0
100
AcDbSpline
 62
7
  6
BYLAYER
 70
0
 71
3
 72
33
 73
29
 74
0
 42
0.0000001
 43
0.0000001
 44
0.0000000001
 40
0.0
 40
0.0
 40
0.0
 40
0.0
 40
0.0309843005
 40
0.0603877002
 40
0.0881779987
 40
0.1144406246
 40
0.1393374603
 40
0.1631044504
 40
0.1860593589
 40
0.2085896463
 40
0.2311206121
 40
0.2540762626
 40
0.2778429004
 40
0.3027404424
 40
0.3290061982
 40
0.3567959673
 40
0.386185032
 40
0.417183493
 40
0.4837047881
 40
0.5554803163
 40
0.631030676
 40
0.7085478109
 40
0.7860629171
 40
0.8616135627
 40
0.8980906452
 40
0.9334273802
 40
0.9674562515
 40
1.0
 40
1.0
 40
1.0
 40
1.0
 10
21.0854865004
 20
22.1563355085
 30
0.0
 10
21.0854865004
 20
21.9589806262
 30
0.0
 10
21.0695208136
 20
21.5740792213
 30
0.0
 10
20.9938367016
 20
21.0166593279
 30
0.0
 10
20.8672315767
 20
20.4992496895
 30
0.0
 10
20.6908698639
 20
20.0269405227
 30
0.0
 10
20.4660179534
 20
19.6042546131
 30
0.0
 10
20.1945440019
 20
19.2354521716
 30
0.0
 10
19.8787258365
 20
18.9246763503
 30
0.0
 10
19.5217396626
 20
18.6755329152
 30
0.0
 10
19.1274875598
 20
18.4909141183
 30
0.0
 10
18.7004317629
 20
18.3728077031
 30
0.0
 10
18.2453038104
 20
18.3220146522
 30
0.0
 10
17.7668001506
 20
18.33868738
 30
0.0
 10
17.2695543474
 20
18.4220555501
 30
0.0
 10
16.7582669662
 20
18.5711601032
 30
0.0
 10
16.2375801087
 20
18.7841853982
 30
0.0
 10
15.5206200114
 20
19.1596667926
 30
0.0
 10
14.6337153931
 20
19.7814792611
 30
0.0
 10
13.6363396345
 20
20.7145275653
 30
0.0
 10
12.7173453744
 20
21.8173902221
 30
0.0
 10
11.9111511242
 20
23.0487975511
 30
0.0
 10
11.2478746222
 20
24.3625709182
 30
0.0
 10
10.8299195654
 20
25.4986237889
 30
0.0
 10
10.5902860533
 20
26.4067372354
 30
0.0
 10
10.4617419938
 20
27.0691032334
 30
0.0
 10
10.3837091746
 20
27.7140590669
 30
0.0
 10
10.3652374839
 20
28.13824634
 30
0.0
 10
10.3652374839
 20
28.3455341456
 30
0.0
  0
SPLINE
  5
2D5
100
AcDbEntity
  8
0
100
AcDbSpline
 62
7
  6
BYLAYER
 70
0
 71
3
 72
33
 73
29
 74
0
 42
0.0000001
 43
0.0000001
 44
0.0000000001
 40
0.0
 40
0.0
 40
0.0
 40
0.0
 40
0.0309843005
 40
0.0603877002
 40
0.0881779987
 40
0.1144406246
 40
0.1393374603
 40
0.1631044504
 40
0.1860593589
 40
0.2085896463
 40
0.2311206121
 40
0.2540762626
 40
0.2778429004
 40
0.3027404424
 40
0.3290061982
 40
0.3567959673
 40
0.386185032
 40
0.417183493
 40
0.4837047881
 40
0.5554803163
 40
0.631030676
 40
0.7085478109
 40
0.7860629171
 40
0.8616135627
 40
0.8980906452
 40
0.9334273802
 40
0.9674562515
 40
1.0
 40
1.0
 40
1.0
 40
1.0
 10
10.3652374839
 20
28.3455341456
 30
0.0
 10
10.3652374839
 20
28.5428890278
 30
0.0
 10
10.3812031708
 20
28.9277904328
 30
0.0
 10
10.4568872827
 20
29.4852103261
 30
0.0
 10
10.5834924076
 20
30.0026199646
 30
0.0
 10
10.7598541205
 20
30.4749291314
 30
0.0
 10
10.9847060309
 20
30.897615041
 30
0.0
 10
11.2561799825
 20
31.2664174824
 30
0.0
 10
11.5719981479
 20
31.5771933037
 30
0.0
 10
11.9289843218
 20
31.8263367388
 30
0.0
 10
12.3232364245
 20
32.0109555358
 30
0.0
 10
12.7502922215
 20
32.129061951
 30
0.0
 10
13.205420174
 20
32.1798550019
 30
0.0
 10
13.6839238338
 20
32.1631822741
 30
0.0
 10
14.1811696369
 20
32.0798141039
 30
0.0
 10
14.6924570181
 20
31.9307095509
 30
0.0
 10
15.2131438756
 20
31.7176842558
 30
0.0
 10
15.9301039729
 20
31.3422028615
 30
0.0
 10
16.8170085912
 20
30.720390393
 30
0.0
 10
17.8143843498
 20
29.7873420887
 30
0.0
 10
18.7333786099
 20
28.684479432
 30
0.0
 10
19.5395728601
 20
27.453072103
 30
0.0
 10
20.2028493621
 20
26.1392987358
 30
0.0
 10
20.620804419
 20
25.0032458652
 30
0.0
 10
20.8604379311
 20
24.0951324187
 30
0.0
 10
20.9889819906
 20
23.4327664206
 30
0.0
 10
21.0670148098
 20
22.7878105872
 30
0.0
 10
21.0854865004
 20
22.363623314
 30
0.0
 10
21.0854865004
 20
22.1563355085
 30
0.0
  0
SPLINE
  5
2D6
100
AcDbEntity
  8
0
100
AcDbSpline
 62
7
  6
BYLAYER
 70
0
 71
3
 72
38
 73
34
 74
0
 42
0.0000001
 43
0.0000001
 44
0.0000000001
 40
0.0
 40
0.0
 40
0.0
 40
0.0
 40
0.0325432471
 40
0.0665634028
 40
0.1018917054
 40
0.1383653816
 40
0.2139055846
 40
0.2914107909
 40
0.3689161741
 40
0.4070665604
 40
0.4444893468
 40
0.4809646651
 40
0.5162934777
 40
0.5503034916
 40
0.5828541465
 40
0.6138473416
 40
0.6432319056
 40
0.6710166821
 40
0.68433623
 40
0.6972913188
 40
0.7221843535
 40
0.7459473901
 40
0.7688991893
 40
0.7914263832
 40
0.8139536768
 40
0.8369055646
 40
0.8606685738
 40
0.8855629326
 40
0.8985172764
 40
0.9118356899
 40
0.9396198885
 40
0.9690153487
 40
1.0
 40
1.0
 40
1.0
 40
1.0
 10
23.3871930597
 20
20.8292943946
 30
0.0
 10
23.3871930597
 20
21.1255731948
 30
0.0
 10
23.3608273216
 20
21.7317965097
 30
0.0
 10
23.249258991
 20
22.6534876917
 30
0.0
 10
23.0655834862
 20
23.6000493907
 30
0.0
 10
22.7230979582
 20
24.897841133
 30
0.0
 10
22.1257733821
 20
26.521468482
 30
0.0
 10
21.177933527
 20
28.3989041086
 30
0.0
 10
20.2124221443
 20
29.8737417356
 30
0.0
 10
19.3501203388
 20
30.9694467575
 30
0.0
 10
18.6719825064
 20
31.7323998059
 30
0.0
 10
17.9656303773
 20
32.4333195954
 30
0.0
 10
17.2377916839
 20
33.0655740471
 30
0.0
 10
16.495388388
 20
33.6231436844
 30
0.0
 10
15.7453847711
 20
34.1006378103
 30
0.0
 10
14.9948673298
 20
34.4935929021
 30
0.0
 10
14.2508478174
 20
34.7980540868
 30
0.0
 10
13.6333480628
 20
34.9780819795
 30
0.0
 10
13.1501540739
 20
35.073131844
 30
0.0
 10
12.6881370449
 20
35.1345387618
 30
0.0
 10
12.12564366
 20
35.1540509085
 30
0.0
 10
11.4752495338
 20
35.0815623466
 30
0.0
 10
10.8649469808
 20
34.9127174407
 30
0.0
 10
10.3015051516
 20
34.6489190967
 30
0.0
 10
9.7913161919
 20
34.2928672989
 30
0.0
 10
9.3400026489
 20
33.848694661
 30
0.0
 10
8.951948662
 20
33.3217208253
 30
0.0
 10
8.6877085301
 20
32.8247675085
 30
0.0
 10
8.5098146483
 20
32.3939793012
 30
0.0
 10
8.3505702559
 20
31.9280074205
 30
0.0
 10
8.1976714532
 20
31.303138695
 30
0.0
 10
8.0894702748
 20
30.5065822335
 30
0.0
 10
8.0666828256
 20
29.9564840995
 30
0.0
 10
8.0666828256
 20
29.6743949994
 30
0.0
  0
SPLINE
  5
2D7
100
AcDbEntity
  8
0
100
AcDbSpline
 62
7
  6
BYLAYER
 70
0
 71
3
 72
14
 73
10
 74
0
 42
0.0000001
 43
0.0000001
 44
0.0000000001
 40
0.0
 40
0.0
 40
0.0
 40
0.0
 40
0.1078491449
 40
0.2189402979
 40
0.334414695
 40
0.4551634455
 40
0.7145173365
 40
0.854063059
 40
1.0
 40
1.0
 40
1.0
 40
1.0
 10
30.9529499471
 20
19.5227693462
 30
0.0
 10
31.112263766
 20
19.660081968
 30
0.0
 10
31.4158214727
 20
19.9627065179
 30
0.0
 10
31.8116355992
 20
20.483263342
 30
0.0
 10
32.1506284597
 20
21.0716689934
 30
0.0
 10
32.5328003337
 20
21.9612822753
 30
0.0
 10
32.7785209803
 20
22.9523367599
 30
0.0
 10
32.9007884454
 20
24.0083449929
 30
0.0
 10
32.9207604498
 20
24.5654665073
 30
0.0
 10
32.9207604498
 20
24.8500664017
 30
0.0
  0
SPLINE
  5
2D8
100
AcDbEntity
  8
0
100
AcDbSpline
 62
7
  6
BYLAYER
 70
0
 71
3
 72
35
 73
31
 74
0
 42
0.0000001
 43
0.0000001
 44
0.0000000001
 40
0.0
 40
0.0
 40
0.0
 40
0.0
 40
0.0325431454
 40
0.0665669294
 40
0.1018986209
 40
0.1383736359
 40
0.2139182065
 40
0.2914276807
 40
0.3689386893
 40
0.444482939
 40
0.4809604364
 40
0.5162916708
 40
0.5503030099
 40
0.5828560644
 40
0.6138502075
 40
0.6432366827
 40
0.6710227494
 40
0.6972858366
 40
0.722180564
 40
0.7459445469
 40
0.7688979193
 40
0.7914264837
 40
0.8139548474
 40
0.8369077819
 40
0.8606722182
 40
0.885567725
 40
0.9118287772
 40
0.9396158599
 40
0.9690154898
 40
1.0
 40
1.0
 40
1.0
 40
1.0
 10
21.7678170676
 20
21.6666990425
 30
0.0
 10
21.7678170676
 20
21.9035960796
 30
0.0
 10
21.7467232374
 20
22.3883432874
 30
0.0
 10
21.65752868
 20
23.1253588854
 30
0.0
 10
21.5106464865
 20
23.8822659398
 30
0.0
 10
21.2367890402
 20
24.9200194212
 30
0.0
 10
20.7591697888
 20
26.21827242
 30
0.0
 10
20.0011750834
 20
27.7196447761
 30
0.0
 10
19.0799317729
 20
29.1267604328
 30
0.0
 10
18.1944177359
 20
30.1895481136
 30
0.0
 10
17.4325846862
 20
30.9455761529
 30
0.0
 10
16.8505850047
 20
31.4511650182
 30
0.0
 10
16.2569161758
 20
31.896967797
 30
0.0
 10
15.6572308513
 20
32.2788361134
 30
0.0
 10
15.0570799552
 20
32.5929858465
 30
0.0
 10
14.4621318292
 20
32.8365000022
 30
0.0
 10
13.8778360934
 20
33.0068117957
 30
0.0
 10
13.3096317524
 20
33.1021391602
 30
0.0
 10
12.762823288
 20
33.1211619801
 30
0.0
 10
12.2427334013
 20
33.0631314137
 30
0.0
 10
11.7547075497
 20
32.9281957842
 30
0.0
 10
11.3041902508
 20
32.7171958039
 30
0.0
 10
10.8962091985
 20
32.4325307423
 30
0.0
 10
10.5353362083
 20
32.0773595431
 30
0.0
 10
10.2250492321
 20
31.655945231
 30
0.0
 10
9.9681336511
 20
31.1728841343
 30
0.0
 10
9.7665615631
 20
30.633155636
 30
0.0
 10
9.6218918593
 20
30.0418851821
 30
0.0
 10
9.5353769569
 20
29.4048838217
 30
0.0
 10
9.5171444418
 20
28.9650191627
 30
0.0
 10
9.5171444418
 20
28.7394681733
 30
0.0
  0
SPLINE
  5
2D9
100
AcDbEntity
  8
0
100
AcDbSpline
 62
7
  6
BYLAYER
 70
0
 71
3
 72
35
 73
31
 74
0
 42
0.0000001
 43
0.0000001
 44
0.0000000001
 40
0.0
 40
0.0
 40
0.0
 40
0.0
 40
0.0325431454
 40
0.0665669294
 40
0.1018986209
 40
0.1383736359
 40
0.2139182065
 40
0.2914276807
 40
0.3689386893
 40
0.444482939
 40
0.4809604364
 40
0.5162916708
 40
0.5503030099
 40
0.5828560644
 40
0.6138502075
 40
0.6432366827
 40
0.6710227494
 40
0.6972858366
 40
0.722180564
 40
0.7459445469
 40
0.7688979193
 40
0.7914264837
 40
0.8139548474
 40
0.8369077819
 40
0.8606722182
 40
0.885567725
 40
0.9118287772
 40
0.9396158599
 40
0.9690154898
 40
1.0
 40
1.0
 40
1.0
 40
1.0
 10
9.5171444418
 20
28.7394681733
 30
0.0
 10
9.5171444418
 20
28.5025711362
 30
0.0
 10
9.538238272
 20
28.0178239284
 30
0.0
 10
9.6274328294
 20
27.2808083304
 30
0.0
 10
9.774315023
 20
26.523901276
 30
0.0
 10
10.0481724692
 20
25.4861477946
 30
0.0
 10
10.5257917206
 20
24.1878947958
 30
0.0
 10
11.283786426
 20
22.6865224397
 30
0.0
 10
12.2050297365
 20
21.279406783
 30
0.0
 10
13.0905437736
 20
20.2166191022
 30
0.0
 10
13.8523768232
 20
19.4605910629
 30
0.0
 10
14.4343765047
 20
18.9550021976
 30
0.0
 10
15.0280453336
 20
18.5091994188
 30
0.0
 10
15.6277306581
 20
18.1273311024
 30
0.0
 10
16.2278815542
 20
17.8131813693
 30
0.0
 10
16.8228296802
 20
17.5696672136
 30
0.0
 10
17.407125416
 20
17.3993554201
 30
0.0
 10
17.975329757
 20
17.3040280556
 30
0.0
 10
18.5221382214
 20
17.2850052357
 30
0.0
 10
19.0422281081
 20
17.3430358021
 30
0.0
 10
19.5302539597
 20
17.4779714316
 30
0.0
 10
19.9807712587
 20
17.6889714119
 30
0.0
 10
20.3887523109
 20
17.9736364735
 30
0.0
 10
20.7496253012
 20
18.3288076727
 30
0.0
 10
21.0599122773
 20
18.7502219848
 30
0.0
 10
21.3168278583
 20
19.2332830815
 30
0.0
 10
21.5183999463
 20
19.7730115798
 30
0.0
 10
21.6630696501
 20
20.3642820337
 30
0.0
 10
21.7495845525
 20
21.0012833941
 30
0.0
 10
21.7678170676
 20
21.4411480531
 30
0.0
 10
21.7678170676
 20
21.6666990425
 30
0.0
  0
SPLINE
  5
2DA
100
AcDbEntity
  8
0
100
AcDbSpline
 62
7
  6
BYLAYER
 70
0
 71
3
 72
35
 73
31
 74
0
 42
0.0000001
 43
0.0000001
 44
0.0000000001
 40
0.0
 40
0.0
 40
0.0
 40
0.0
 40
0.0309843144
 40
0.0603834393
 40
0.0881702828
 40
0.1144313284
 40
0.13932688
 40
0.1630913741
 40
0.1860445012
 40
0.208573191
 40
0.2311021257
 40
0.2540558468
 40
0.2778201715
 40
0.302715289
 40
0.3289787
 40
0.356765089
 40
0.386151746
 40
0.417146007
 40
0.4496990329
 40
0.4837101919
 40
0.5190410986
 40
0.5555181017
 40
0.6310610677
 40
0.70857105
 40
0.7860800329
 40
0.8616245604
 40
0.8980997203
 40
0.9334319924
 40
0.9674565347
 40
1.0
 40
1.0
 40
1.0
 40
1.0
 10
22.5375674074
 20
21.2222935304
 30
0.0
 10
22.5375674074
 20
20.9683999133
 30
0.0
 10
22.5170460154
 20
20.473264553
 30
0.0
 10
22.419658664
 20
19.7562212782
 30
0.0
 10
22.2568137211
 20
19.0906530143
 30
0.0
 10
22.0299124755
 20
18.4830999332
 30
0.0
 10
21.7407166638
 20
17.9393302499
 30
0.0
 10
21.3914355641
 20
17.4649562829
 30
0.0
 10
20.9852133367
 20
17.0651446297
 30
0.0
 10
20.5259560188
 20
16.744703281
 30
0.0
 10
20.0188171675
 20
16.5071812867
 30
0.0
 10
19.4694534308
 20
16.3552893074
 30
0.0
 10
18.8839967133
 20
16.2899651686
 30
0.0
 10
18.2684641952
 20
16.3113852697
 30
0.0
 10
17.6288472164
 20
16.4186937324
 30
0.0
 10
16.9711205324
 20
16.6104173777
 30
0.0
 10
16.3014034076
 20
16.8845367514
 30
0.0
 10
15.6258339436
 20
17.2381703811
 30
0.0
 10
14.950791178
 20
17.6680299024
 30
0.0
 10
14.2825226691
 20
18.1698541686
 30
0.0
 10
13.6273943058
 20
18.738976778
 30
0.0
 10
12.7698371724
 20
19.5900007062
 30
0.0
 10
11.7730598668
 20
20.7863289027
 30
0.0
 10
10.7360584853
 20
22.3702518476
 30
0.0
 10
9.8828109742
 20
24.060283042
 30
0.0
 10
9.345167182
 20
25.5216784186
 30
0.0
 10
9.0368913919
 20
26.6898476607
 30
0.0
 10
8.8715450792
 20
27.5418839888
 30
0.0
 10
8.771141444
 20
28.3715315054
 30
0.0
 10
8.747394102
 20
28.9172039762
 30
0.0
 10
8.747394102
 20
29.1838736854
 30
0.0
  0
SPLINE
  5
2DB
100
AcDbEntity
  8
0
100
AcDbSpline
 62
7
  6
BYLAYER
 70
0
 71
3
 72
35
 73
31
 74
0
 42
0.0000001
 43
0.0000001
 44
0.0000000001
 40
0.0
 40
0.0
 40
0.0
 40
0.0
 40
0.0309843144
 40
0.0603834393
 40
0.0881702828
 40
0.1144313284
 40
0.13932688
 40
0.1630913741
 40
0.1860445012
 40
0.208573191
 40
0.2311021257
 40
0.2540558468
 40
0.2778201715
 40
0.302715289
 40
0.3289787
 40
0.356765089
 40
0.386151746
 40
0.417146007
 40
0.4496990329
 40
0.4837101919
 40
0.5190410986
 40
0.5555181017
 40
0.6310610677
 40
0.70857105
 40
0.7860800329
 40
0.8616245604
 40
0.8980997203
 40
0.9334319924
 40
0.9674565347
 40
1.0
 40
1.0
 40
1.0
 40
1.0
 10
8.747394102
 20
29.1838736854
 30
0.0
 10
8.747394102
 20
29.4377673025
 30
0.0
 10
8.767915494
 20
29.9329026628
 30
0.0
 10
8.8653028454
 20
30.6499459376
 30
0.0
 10
9.0281477883
 20
31.3155142015
 30
0.0
 10
9.2550490339
 20
31.9230672826
 30
0.0
 10
9.5442448456
 20
32.4668369659
 30
0.0
 10
9.8935259453
 20
32.9412109329
 30
0.0
 10
10.2997481727
 20
33.3410225861
 30
0.0
 10
10.7590054906
 20
33.6614639348
 30
0.0
 10
11.2661443419
 20
33.8989859291
 30
0.0
 10
11.8155080786
 20
34.0508779084
 30
0.0
 10
12.4009647962
 20
34.1162020472
 30
0.0
 10
13.0164973142
 20
34.0947819461
 30
0.0
 10
13.656114293
 20
33.9874734834
 30
0.0
 10
14.313840977
 20
33.7957498381
 30
0.0
 10
14.9835581018
 20
33.5216304644
 30
0.0
 10
15.6591275658
 20
33.1679968347
 30
0.0
 10
16.3341703314
 20
32.7381373134
 30
0.0
 10
17.0024388403
 20
32.2363130472
 30
0.0
 10
17.6575672036
 20
31.6671904378
 30
0.0
 10
18.515124337
 20
30.8161665096
 30
0.0
 10
19.5119016426
 20
29.6198383131
 30
0.0
 10
20.5489030241
 20
28.0359153682
 30
0.0
 10
21.4021505352
 20
26.3458841738
 30
0.0
 10
21.9397943274
 20
24.8844887972
 30
0.0
 10
22.2480701175
 20
23.7163195551
 30
0.0
 10
22.4134164302
 20
22.864283227
 30
0.0
 10
22.5138200654
 20
22.0346357104
 30
0.0
 10
22.5375674074
 20
21.4889632396
 30
0.0
 10
22.5375674074
 20
21.2222935304
 30
0.0
  0
SPLINE
  5
2DC
100
AcDbEntity
  8
0
100
AcDbSpline
 62
7
  6
BYLAYER
 70
0
 71
3
 72
38
 73
34
 74
0
 42
0.0000001
 43
0.0000001
 44
0.0000000001
 40
0.0
 40
0.0
 40
0.0
 40
0.0
 40
0.0325432471
 40
0.0665634028
 40
0.1018917054
 40
0.1383653816
 40
0.2139055846
 40
0.2914107909
 40
0.3689161741
 40
0.4070665604
 40
0.4444893468
 40
0.4809646651
 40
0.5162934777
 40
0.5503034916
 40
0.5828541465
 40
0.6138473416
 40
0.6432319056
 40
0.6710166821
 40
0.68433623
 40
0.6972913188
 40
0.7221843535
 40
0.7459473901
 40
0.7688991893
 40
0.7914263832
 40
0.8139536768
 40
0.8369055646
 40
0.8606685738
 40
0.8855629326
 40
0.8985172764
 40
0.9118356899
 40
0.9396198885
 40
0.9690153487
 40
1.0
 40
1.0
 40
1.0
 40
1.0
 10
8.0666828256
 20
29.6743949994
 30
0.0
 10
8.0666828256
 20
29.3781161993
 30
0.0
 10
8.0930485637
 20
28.7718928844
 30
0.0
 10
8.2046168944
 20
27.8502017024
 30
0.0
 10
8.3882923991
 20
26.9036400034
 30
0.0
 10
8.7307779271
 20
25.6058482611
 30
0.0
 10
9.3281025033
 20
23.9822209121
 30
0.0
 10
10.2759423583
 20
22.1047852855
 30
0.0
 10
11.241453741
 20
20.6299476585
 30
0.0
 10
12.1037555465
 20
19.5342426366
 30
0.0
 10
12.7818933789
 20
18.7712895882
 30
0.0
 10
13.488245508
 20
18.0703697987
 30
0.0
 10
14.2160842014
 20
17.438115347
 30
0.0
 10
14.9584874973
 20
16.8805457097
 30
0.0
 10
15.7084911143
 20
16.4030515838
 30
0.0
 10
16.4590085555
 20
16.010096492
 30
0.0
 10
17.2030280679
 20
15.7056353073
 30
0.0
 10
17.8205278225
 20
15.5256074145
 30
0.0
 10
18.3037218114
 20
15.4305575501
 30
0.0
 10
18.7657388404
 20
15.3691506322
 30
0.0
 10
19.3282322253
 20
15.3496384856
 30
0.0
 10
19.9786263515
 20
15.4221270475
 30
0.0
 10
20.5889289045
 20
15.5909719534
 30
0.0
 10
21.1523707338
 20
15.8547702974
 30
0.0
 10
21.6625596934
 20
16.2108220952
 30
0.0
 10
22.1138732364
 20
16.6549947331
 30
0.0
 10
22.5019272234
 20
17.1819685688
 30
0.0
 10
22.7661673552
 20
17.6789218856
 30
0.0
 10
22.944061237
 20
18.1097100929
 30
0.0
 10
23.1033056295
 20
18.5756819736
 30
0.0
 10
23.2562044321
 20
19.200550699
 30
0.0
 10
23.3644056106
 20
19.9971071606
 30
0.0
 10
23.3871930597
 20
20.5472052945
 30
0.0
 10
23.3871930597
 20
20.8292943946
 30
0.0
  0
SPLINE
  5
2DD
100
AcDbEntity
  8
0
100
AcDbSpline
 62
7
  6
BYLAYER
 70
0
 71
3
 72
15
 73
11
 74
0
 42
0.0000001
 43
0.0000001
 44
0.0000000001
 40
0.0
 40
0.0
 40
0.0
 40
0.0
 40
0.148564251
 40
0.2895086087
 40
0.4227272572
 40
0.5486377312
 40
0.6680001701
 40
0.7819380615
 40
0.891986882
 40
1.0
 40
1.0
 40
1.0
 40
1.0
 10
24.7183541718
 20
20.3593796893
 30
0.0
 10
24.7183541718
 20
20.037790478
 30
0.0
 10
24.6923812692
 20
19.4106772418
 30
0.0
 10
24.5690036476
 20
18.5025255584
 30
0.0
 10
24.3627749744
 20
17.6595782549
 30
0.0
 10
24.075373005
 20
16.8900973681
 30
0.0
 10
23.7091358025
 20
16.2013744266
 30
0.0
 10
23.266684534
 20
15.6005555539
 30
0.0
 10
22.7523210371
 20
15.0942752897
 30
0.0
 10
22.3629927371
 20
14.822653321
 30
0.0
 10
22.1605142627
 20
14.7057357091
 30
0.0
  0
SPLINE
  5
2DE
100
AcDbEntity
  8
0
100
AcDbSpline
 62
7
  6
BYLAYER
 70
0
 71
3
 72
38
 73
34
 74
0
 42
0.0000001
 43
0.0000001
 44
0.0000000001
 40
0.0
 40
0.0
 40
0.0
 40
0.0
 40
0.0325432471
 40
0.0665634028
 40
0.1018917054
 40
0.1383653816
 40
0.2139055846
 40
0.2914107909
 40
0.3689161741
 40
0.4070665604
 40
0.4444893468
 40
0.4809646651
 40
0.5162934777
 40
0.5503034916
 40
0.5828541465
 40
0.6138473416
 40
0.6432319056
 40
0.6710166821
 40
0.68433623
 40
0.6972913188
 40
0.7221843535
 40
0.7459473901
 40
0.7688991893
 40
0.7914263832
 40
0.8139536768
 40
0.8369055646
 40
0.8606685738
 40
0.8855629326
 40
0.8985172764
 40
0.9118356899
 40
0.9396198885
 40
0.9690153487
 40
1.0
 40
1.0
 40
1.0
 40
1.0
 10
7.4820972873
 20
30.2045707121
 30
0.0
 10
7.4820972873
 20
29.8792278754
 30
0.0
 10
7.511049423
 20
29.2135359229
 30
0.0
 10
7.6335622628
 20
28.2014296784
 30
0.0
 10
7.8352557681
 20
27.162013196
 30
0.0
 10
8.2113380701
 20
25.7369120862
 30
0.0
 10
8.8672583451
 20
23.9540119015
 30
0.0
 10
9.9080783667
 20
21.89240563
 30
0.0
 10
10.9683034385
 20
20.2728909802
 30
0.0
 10
11.9151943917
 20
19.0697006749
 30
0.0
 10
12.6598554541
 20
18.2319042854
 30
0.0
 10
13.4354985486
 20
17.4622264262
 30
0.0
 10
14.2347359732
 20
16.7679497627
 30
0.0
 10
15.0499667429
 20
16.1556842635
 30
0.0
 10
15.8735434016
 20
15.6313494365
 30
0.0
 10
16.6976842893
 20
15.199846662
 30
0.0
 10
17.5146898213
 20
14.865518774
 30
0.0
 10
18.1927643974
 20
14.6678307002
 30
0.0
 10
18.7233582264
 20
14.5634567372
 30
0.0
 10
19.2306977011
 20
14.4960259901
 30
0.0
 10
19.8483699523
 20
14.474599762
 30
0.0
 10
20.5625657364
 20
14.5541992283
 30
0.0
 10
21.2327370877
 20
14.7396072988
 30
0.0
 10
21.8514508228
 20
15.0292834467
 30
0.0
 10
22.411687746
 20
15.4202628278
 30
0.0
 10
22.9072737556
 20
15.9080074317
 30
0.0
 10
23.3333946419
 20
16.4866757754
 30
0.0
 10
23.6235559158
 20
17.03237868
 30
0.0
 10
23.8189006388
 20
17.5054258819
 30
0.0
 10
23.993766415
 20
18.0171081671
 30
0.0
 10
24.1616641187
 20
18.7032745874
 30
0.0
 10
24.280479499
 20
19.5779707812
 30
0.0
 10
24.3055023266
 20
20.1820318456
 30
0.0
 10
24.3055023266
 20
20.4917930164
 30
0.0
  0
SPLINE
  5
2DF
100
AcDbEntity
  8
0
100
AcDbSpline
 62
7
  6
BYLAYER
 70
0
 71
3
 72
9
 73
5
 74
0
 42
0.0000001
 43
0.0000001
 44
0.0000000001
 40
0.0
 40
0.0
 40
0.0
 40
0.0
 40
0.241603366
 40
1.0
 40
1.0
 40
1.0
 40
1.0
 10
38.0527175775
 20
28.7204848708
 30
0.0
 10
38.0696458144
 20
28.8253461063
 30
0.0
 10
38.1300681805
 20
29.2609047384
 30
0.0
 10
38.1533132422
 20
29.7013355676
 30
0.0
 10
38.1533132422
 20
30.0347581476
 30
0.0
  0
SPLINE
  5
2E0
100
AcDbEntity
  8
0
100
AcDbSpline
 62
7
  6
BYLAYER
 70
0
 71
3
 72
11
 73
7
 74
0
 42
0.0000001
 43
0.0000001
 44
0.0000000001
 40
0.0
 40
0.0
 40
0.0
 40
0.0
 40
0.2319315447
 40
0.477342502
 40
0.7342054341
 40
1.0
 40
1.0
 40
1.0
 40
1.0
 10
38.1533132422
 20
30.0347581476
 30
0.0
 10
38.1533132422
 20
30.4068911309
 30
0.0
 10
38.1081631442
 20
31.1732240089
 30
0.0
 10
37.9206184122
 20
32.3379215274
 30
0.0
 10
37.6145831565
 20
33.5332658462
 30
0.0
 10
37.3387143046
 20
34.3263452039
 30
0.0
 10
37.1828953345
 20
34.7233259619
 30
0.0
  0
SPLINE
  5
2E1
100
AcDbEntity
  8
0
100
AcDbSpline
 62
7
  6
BYLAYER
 70
0
 71
3
 72
9
 73
5
 74
0
 42
0.0000001
 43
0.0000001
 44
0.0000000001
 40
0.0
 40
0.0
 40
0.0
 40
0.0
 40
0.2451299621
 40
1.0
 40
1.0
 40
1.0
 40
1.0
 10
24.8951301311
 20
20.4614407277
 30
0.0
 10
24.8951301311
 20
20.5515872687
 30
0.0
 10
24.8908388348
 20
20.9193297258
 30
0.0
 10
24.8698133642
 20
21.2868361481
 30
0.0
 10
24.8454891857
 20
21.563371876
 30
0.0
  0
SPLINE
  5
2E2
100
AcDbEntity
  8
0
100
AcDbSpline
 62
7
  6
BYLAYER
 70
0
 71
3
 72
9
 73
5
 74
0
 42
0.0000001
 43
0.0000001
 44
0.0000000001
 40
0.0
 40
0.0
 40
0.0
 40
0.0
 40
0.4900476587
 40
1.0
 40
1.0
 40
1.0
 40
1.0
 10
24.7377472292
 20
22.4581242543
 30
0.0
 10
24.6653665201
 20
22.9341633202
 30
0.0
 10
24.4711091665
 20
23.8988874376
 30
0.0
 10
24.1953595586
 20
24.8432445163
 30
0.0
 10
24.0361900586
 20
25.3183596752
 30
0.0
  0
SPLINE
  5
2E3
100
AcDbEntity
  8
0
100
AcDbSpline
 62
7
  6
BYLAYER
 70
0
 71
3
 72
9
 73
5
 74
0
 42
0.0000001
 43
0.0000001
 44
0.0000000001
 40
0.0
 40
0.0
 40
0.0
 40
0.0
 40
0.2528577705
 40
1.0
 40
1.0
 40
1.0
 40
1.0
 10
21.8451842116
 20
29.8788350482
 30
0.0
 10
21.7092195667
 20
30.0918778304
 30
0.0
 10
21.15655573
 20
30.9247491429
 30
0.0
 10
20.5444030283
 20
31.7184037742
 30
0.0
 10
20.054963391
 20
32.2824219187
 30
0.0
  0
SPLINE
  5
2E4
100
AcDbEntity
  8
0
100
AcDbSpline
 62
7
  6
BYLAYER
 70
0
 71
3
 72
9
 73
5
 74
0
 42
0.0000001
 43
0.0000001
 44
0.0000000001
 40
0.0
 40
0.0
 40
0.0
 40
0.0
 40
0.5130364473
 40
1.0
 40
1.0
 40
1.0
 40
1.0
 10
19.4615790984
 20
32.934882796
 30
0.0
 10
19.078258946
 20
33.3367783056
 30
0.0
 10
18.2950590992
 20
34.0867584319
 30
0.0
 10
17.4394604797
 20
34.753936625
 30
0.0
 10
17.0054372404
 20
35.0531406836
 30
0.0
  0
SPLINE
  5
2E5
100
AcDbEntity
  8
0
100
AcDbSpline
 62
7
  6
BYLAYER
 70
0
 71
3
 72
15
 73
11
 74
0
 42
0.0000001
 43
0.0000001
 44
0.0000000001
 40
0.0
 40
0.0
 40
0.0
 40
0.0
 40
0.1507214634
 40
0.2933305657
 40
0.4276765035
 40
0.5539875445
 40
0.6729490968
 40
0.7857432269
 40
0.8940543638
 40
1.0
 40
1.0
 40
1.0
 40
1.0
 10
16.7846970496
 20
35.2020482788
 30
0.0
 10
16.481737961
 20
35.4019469399
 30
0.0
 10
15.8753406618
 20
35.7664716396
 30
0.0
 10
14.9444159788
 20
36.2110093952
 30
0.0
 10
14.0262521008
 20
36.5338262212
 30
0.0
 10
13.1309053201
 20
36.7307092675
 30
0.0
 10
12.2682508424
 20
36.7988369566
 30
0.0
 10
11.4479943122
 20
36.7363221294
 30
0.0
 10
10.6804962523
 20
36.5427382524
 30
0.0
 10
10.2083106826
 20
36.3262068407
 30
0.0
 10
9.9873638202
 20
36.1986247047
 30
0.0
  0
SPLINE
  5
2E6
100
AcDbEntity
  8
0
100
AcDbSpline
 62
7
  6
BYLAYER
 70
0
 71
3
 72
15
 73
11
 74
0
 42
0.0000001
 43
0.0000001
 44
0.0000000001
 40
0.0
 40
0.0
 40
0.0
 40
0.0
 40
0.1257608915
 40
0.2553174766
 40
0.3865832304
 40
0.5175714347
 40
0.6462166269
 40
0.7705718618
 40
0.8889898408
 40
1.0
 40
1.0
 40
1.0
 40
1.0
 10
37.0042599388
 20
45.8337221594
 30
0.0
 10
37.0999086766
 20
45.7386921363
 30
0.0
 10
37.2842856031
 20
45.5356818276
 30
0.0
 10
37.5335679393
 20
45.2038949073
 30
0.0
 10
37.7552061873
 20
44.8463993811
 30
0.0
 10
37.9440580843
 20
44.4716535093
 30
0.0
 10
38.0956899948
 20
44.0882917551
 30
0.0
 10
38.2066673154
 20
43.7051761389
 30
0.0
 10
38.2742917398
 20
43.3312595145
 30
0.0
 10
38.2900334606
 20
43.0850272378
 30
0.0
 10
38.2894173751
 20
42.9660124549
 30
0.0
  0
SPLINE
  5
2E7
100
AcDbEntity
  8
0
100
AcDbSpline
 62
7
  6
BYLAYER
 70
0
 71
3
 72
12
 73
8
 74
0
 42
0.0000001
 43
0.0000001
 44
0.0000000001
 40
0.0
 40
0.0
 40
0.0
 40
0.0
 40
0.289233136
 40
0.5481841042
 40
0.7813259566
 40
0.8916681233
 40
1.0
 40
1.0
 40
1.0
 40
1.0
 10
38.1686463694
 20
19.6355897967
 30
0.0
 10
38.1680621707
 20
19.5227348723
 30
0.0
 10
38.1498578888
 20
19.3081696021
 30
0.0
 10
38.0616805691
 20
19.0136877675
 30
0.0
 10
37.9360784283
 20
18.8105879662
 30
0.0
 10
37.8096802832
 20
18.6867017676
 30
0.0
 10
37.7392793996
 20
18.6376391701
 30
0.0
 10
37.7026731354
 20
18.6165026308
 30
0.0
  0
ENDSEC
  0
SECTION
  2
OBJECTS
  0
DICTIONARY
  5
C
100
AcDbDictionary
280
0
281
1
  3
ACAD_GROUP
350
D
  3
ACAD_MLINESTYLE
350
17
  3
ACAD_LAYOUT
350
1A
  3
ACAD_PLOTSETTINGS
350
19
  3
ACAD_PLOTSTYLENAME
350
E
  0
DICTIONARY
  5
D
102
{ACAD_REACTORS
330
C
102
}
100
AcDbDictionary
280
0
281
1
  0
ACDBDICTIONARYWDFLT
  5
E
102
{ACAD_REACTORS
330
C
102
}
100
AcDbDictionary
281
1
  3
Normal
350
F
100
AcDbDictionaryWithDefault
340
F
  0
DICTIONARY
  5
17
102
{ACAD_REACTORS
330
C
102
}
100
AcDbDictionary
280
0
281
1
  3
Standard
350
18
  0
DICTIONARY
  5
19
102
{ACAD_REACTORS
330
C
102
}
100
AcDbDictionary
281
1
  0
DICTIONARY
  5
1A
102
{ACAD_REACTORS
330
C
102
}
100
AcDbDictionary
281
1
  3
Model
350
2E8
  3
Layout1
350
2E9
  0
ACDBPLACEHOLDER
  5
F
102
{ACAD_REACTORS
330
E
102
}
  0
MLINESTYLE
  5
18
102
{ACAD_REACTORS
330
17
102
}
100
AcDbMlineStyle
  2
STANDARD
 70
0
  3

 62
256
 51
90.0
 52
90.0
 71
2
 49
0.5
 62
256
  6
BYLAYER
 49
-0.5
 62
256
  6
BYLAYER
  0
LAYOUT
  5
2E8
102
{ACAD_REACTORS
330
1A
102
}
100
AcDbPlotSettings
  1

  2
none_device
  4

  6

 40
0.0
 41
0.0
 42
0.0
 43
0.0
 44
210.0
 45
297.0
 46
0.0
 47
0.0
 48
0.0
 49
0.0
140
0.0
141
0.0
142
1.0
143
1.0
 70
1024
 72
1
 73
0
 74
0
  7

 75
0
147
1.0
148
0.0
149
0.0
100
AcDbLayout
  1
Model
 70
0
 71
0
 10
0.0
 20
0.0
 11
210.0
 21
297.0
 12
0.0
 22
0.0
 32
0.0
 14
0.0
 24
0.0
 34
0.0
 15
0.0
 25
0.0
 35
0.0
146
0.0
 13
0.0
 23
0.0
 33
0.0
 16
1.0
 26
0.0
 36
0.0
 17
0.0
 27
1.0
 37
0.0
 76
0
330
210
345
0
346
0
  0
LAYOUT
  5
2E9
102
{ACAD_REACTORS
330
1A
102
}
100
AcDbPlotSettings
  1

  2
none_device
  4

  6

 40
0.0
 41
0.0
 42
0.0
 43
0.0
 44
210.0
 45
297.0
 46
0.0
 47
0.0
 48
0.0
 49
0.0
140
0.0
141
0.0
142
1.0
143
1.0
 70
0
 72
1
 73
0
 74
0
  7

 75
0
147
1.0
148
0.0
149
0.0
100
AcDbLayout
  1
Layout1
 70
0
 71
1
 10
0.0
 20
0.0
 11
210.0
 21
297.0
 12
0.0
 22
0.0
 32
0.0
 14
0.0
 24
0.0
 34
0.0
 15
0.0
 25
0.0
 35
0.0
146
0.0
 13
0.0
 23
0.0
 33
0.0
 16
1.0
 26
0.0
 36
0.0
 17
0.0
 27
1.0
 37
0.0
 76
0
330
211
345
0
346
0
  0
ENDSEC
  0
EOF
