999
DXF file: C:\Users\sesa63760\Dev\_Creo\CAD\MCADID0001564_3D-CAD\drw0001_1.dxf
999
Pro/ENGINEER 2019471 by Parametric Technology Corporation
  0
SECTION
  2
HEADER
  9
$ACADVER
  1
AC1024
  9
$DWGCODEPAGE
  3
ANSI_1252
  9
$EXTMAX
 10
402.6058417121
 20
569.3996904214
 30
0.0
  9
$EXTMIN
 10
0.0
 20
0.0
 30
0.0
  9
$LIMMIN
 10
0.0
 20
0.0
  9
$LIMMAX
 10
402.6058417121
 20
569.3996904214
  9
$VIEWCTR
 10
201.3029208561
 20
284.6998452107
  9
$VIEWSIZE
 40
569.3996904214
  9
$CLAYER
  8
0
  9
$LTSCALE
 40
37.1164242645
  9
$CELTYPE
  6
BYLAYER
  9
$DIMSCALE
 40
1.0
  9
$DIMASZ
 40
4.792926687
  9
$DIMEXO
 40
1.0
  9
$DIMDLI
 40
25.6440749464
  9
$DIMEXE
 40
1.0
  9
$DIMCEN
 40
6.0735966978
  9
$DIMLFAC
 40
1.0
  9
$DIMBLK
  1
_FILLED
  9
$DIMALT
 70
0
  9
$DIMALTF
 40
0.0393700787
  9
$DIMTXT
 40
6.7100973619
  9
$DIMTOL
 70
1
  9
$DIMLIM
 70
0
  9
$DIMTFAC
 40
1.0
  9
$DIMTP
 40
0.01
  9
$DIMTM
 40
0.01
  9
$DIMGAP
 40
0.625
  9
$DIMDSEP
 70
46
  9
$AUNITS
 70
0
  9
$PDMODE
 70
3
  9
$PDSIZE
 40
0.3125
  9
$HANDSEED
  5
3F9
  9
$TILEMODE
 70
1
  9
$MEASUREMENT
 70
1
  9
$INSUNITS
 70
4
  0
ENDSEC
  0
SECTION
  2
CLASSES
  0
CLASS
  1
ACDBDICTIONARYWDFLT
  2
AcDbDictionaryWithDefault
  3
AutoCAD 2000
 90
0
 91
1
280
0
281
0
  0
CLASS
  1
ACDBPLACEHOLDER
  2
AcDbPlaceHolder
  3
AutoCAD 2000
 90
0
 91
1
280
0
281
0
  0
CLASS
  1
LAYOUT
  2
AcDbLayout
  3
AutoCAD 2000
 90
0
 91
0
280
0
281
0
  0
ENDSEC
  0
SECTION
  2
TABLES
  0
TABLE
  2
VPORT
  5
8
100
AcDbSymbolTable
 70
2
  0
VPORT
  5
1F4
100
AcDbSymbolTableRecord
100
AcDbViewportTableRecord
  2
*ACTIVE
 70
0
 10
0.0
 20
0.0
 11
1.0
 21
1.0
 12
201.3029208561
 22
284.6998452107
 13
0.0
 23
0.0
 14
1.0
 24
1.0
 15
0.0
 25
0.0
 16
0.0
 26
0.0
 36
1.0
 17
0.0
 27
0.0
 37
0.0
 40
569.3996904214
 41
0.7070707071
 42
50.0
 43
0.0
 44
0.0
 50
0.0
 51
0.0
 71
0
 72
100
 73
1
 74
1
 75
0
 76
0
 77
0
 78
0
  0
ENDTAB
  0
TABLE
  2
LTYPE
  5
5
100
AcDbSymbolTable
 70
6
  0
LTYPE
  5
14
100
AcDbSymbolTableRecord
100
AcDbLinetypeTableRecord
  2
BYBLOCK
 70
0
  3

 72
65
 73
0
 40
0.0
  0
LTYPE
  5
15
100
AcDbSymbolTableRecord
100
AcDbLinetypeTableRecord
  2
BYLAYER
 70
0
  3

 72
65
 73
0
 40
0.0
  0
LTYPE
  5
16
100
AcDbSymbolTableRecord
100
AcDbLinetypeTableRecord
  2
CONTINUOUS
 70
64
  3
Solid line
 72
65
 73
0
 40
0.0
  0
LTYPE
  5
1F5
100
AcDbSymbolTableRecord
100
AcDbLinetypeTableRecord
  2
CENTER
 70
64
  3
____ _ ____ _ ____ _ ____ _ ____ _ ____ _ ____
 72
65
 73
4
 40
0.6
 49
0.375
 74
0
 49
-0.075
 74
0
 49
0.075
 74
0
 49
-0.075
 74
0
  0
LTYPE
  5
1F6
100
AcDbSymbolTableRecord
100
AcDbLinetypeTableRecord
  2
HIDDEN
 70
64
  3
- - - - - - - - - - - - - - - - - - - -
 72
65
 73
2
 40
0.2
 49
0.1
 74
0
 49
-0.1
 74
0
  0
LTYPE
  5
1F7
100
AcDbSymbolTableRecord
100
AcDbLinetypeTableRecord
  2
PHANTOM
 70
64
  3
_____ _ _ _____ _ _ _____ _ _ _____
 72
65
 73
6
 40
0.8
 49
0.45
 74
0
 49
-0.05
 74
0
 49
0.1
 74
0
 49
-0.05
 74
0
 49
0.1
 74
0
 49
-0.05
 74
0
  0
LTYPE
  5
1F8
100
AcDbSymbolTableRecord
100
AcDbLinetypeTableRecord
  2
DOT
 70
64
  3
. . . . . . . . . . . . . . . . . . . .
 72
65
 73
2
 40
0.2
 49
0.1
 74
0
 49
-0.1
 74
0
  0
LTYPE
  5
1F9
100
AcDbSymbolTableRecord
100
AcDbLinetypeTableRecord
  2
DASHED
 70
64
  3
- - - - - - - - - - - - - - - - - - - -
 72
65
 73
2
 40
0.2
 49
0.1
 74
0
 49
-0.1
 74
0
  0
ENDTAB
  0
TABLE
  2
LAYER
  5
2
100
AcDbSymbolTable
 70
36
  0
LAYER
  5
10
100
AcDbSymbolTableRecord
100
AcDbLayerTableRecord
  2
0
 70
0
 62
7
  6
CONTINUOUS
370
-3
390
F
  0
LAYER
  5
1FA
100
AcDbSymbolTableRecord
100
AcDbLayerTableRecord
  2
DEFAULT_1
 70
0
 62
7
  6
CENTER
370
-3
390
F
  0
LAYER
  5
1FB
100
AcDbSymbolTableRecord
100
AcDbLayerTableRecord
  2
DEFAULT_2
 70
0
 62
8
  6
HIDDEN
370
-3
390
F
  0
LAYER
  5
1FC
100
AcDbSymbolTableRecord
100
AcDbLayerTableRecord
  2
DEFAULT_3
 70
0
 62
7
  6
PHANTOM
370
-3
390
F
  0
LAYER
  5
1FD
100
AcDbSymbolTableRecord
100
AcDbLayerTableRecord
  2
00_COMPONENTS
 70
0
 62
7
  6
CONTINUOUS
370
-3
390
F
  0
LAYER
  5
1FE
100
AcDbSymbolTableRecord
100
AcDbLayerTableRecord
  2
01_1_DEFAULT_DATUMS
 70
0
 62
7
  6
CONTINUOUS
370
-3
390
F
  0
LAYER
  5
1FF
100
AcDbSymbolTableRecord
100
AcDbLayerTableRecord
  2
01_PLANES
 70
0
 62
7
  6
CONTINUOUS
370
-3
390
F
  0
LAYER
  5
200
100
AcDbSymbolTableRecord
100
AcDbLayerTableRecord
  2
02_COORD_SYS
 70
0
 62
7
  6
CONTINUOUS
370
-3
390
F
  0
LAYER
  5
201
100
AcDbSymbolTableRecord
100
AcDbLayerTableRecord
  2
03_AXES
 70
0
 62
7
  6
CONTINUOUS
370
-3
390
F
  0
LAYER
  5
202
100
AcDbSymbolTableRecord
100
AcDbLayerTableRecord
  2
04_POINTS
 70
0
 62
7
  6
CONTINUOUS
370
-3
390
F
  0
LAYER
  5
203
100
AcDbSymbolTableRecord
100
AcDbLayerTableRecord
  2
05_CURVES
 70
0
 62
7
  6
CONTINUOUS
370
-3
390
F
  0
LAYER
  5
204
100
AcDbSymbolTableRecord
100
AcDbLayerTableRecord
  2
06_SURFS
 70
0
 62
7
  6
CONTINUOUS
370
-3
390
F
  0
LAYER
  5
205
100
AcDbSymbolTableRecord
100
AcDbLayerTableRecord
  2
07_COSMETICS
 70
0
 62
7
  6
CONTINUOUS
370
-3
390
F
  0
LAYER
  5
206
100
AcDbSymbolTableRecord
100
AcDbLayerTableRecord
  2
10_NOTES
 70
0
 62
7
  6
CONTINUOUS
370
-3
390
F
  0
LAYER
  5
207
100
AcDbSymbolTableRecord
100
AcDbLayerTableRecord
  2
11_NOTES_PUB
 70
0
 62
7
  6
CONTINUOUS
370
-3
390
F
  0
LAYER
  5
208
100
AcDbSymbolTableRecord
100
AcDbLayerTableRecord
  2
13_REF_GTOL
 70
0
 62
7
  6
CONTINUOUS
370
-3
390
F
  0
LAYER
  5
209
100
AcDbSymbolTableRecord
100
AcDbLayerTableRecord
  2
16_MISC
 70
0
 62
7
  6
CONTINUOUS
370
-3
390
F
  0
LAYER
  5
20A
100
AcDbSymbolTableRecord
100
AcDbLayerTableRecord
  2
17_NO_PRINT
 70
0
 62
7
  6
CONTINUOUS
370
-3
390
F
  0
LAYER
  5
20B
100
AcDbSymbolTableRecord
100
AcDbLayerTableRecord
  2
18_DATUM_CAMS_JOINTS
 70
0
 62
7
  6
CONTINUOUS
370
-3
390
F
  0
LAYER
  5
20C
100
AcDbSymbolTableRecord
100
AcDbLayerTableRecord
  2
19_DATUM_FUNCTIONAL
 70
0
 62
7
  6
CONTINUOUS
370
-3
390
F
  0
LAYER
  5
20D
100
AcDbSymbolTableRecord
100
AcDbLayerTableRecord
  2
20_DATUM_KINEMATIC_SCHEME
 70
0
 62
7
  6
CONTINUOUS
370
-3
390
F
  0
LAYER
  5
20E
100
AcDbSymbolTableRecord
100
AcDbLayerTableRecord
  2
_1
 70
0
 62
7
  6
CONTINUOUS
370
-3
390
F
  0
ENDTAB
  0
TABLE
  2
STYLE
  5
3
100
AcDbSymbolTable
 70
1
  0
STYLE
  5
11
100
AcDbSymbolTableRecord
100
AcDbTextStyleTableRecord
  2
STANDARD
 70
0
 40
0.0
 41
0.8
 50
0.0
 71
0
 42
0.2
  3
txt
  4

  0
STYLE
  5
20F
100
AcDbSymbolTableRecord
100
AcDbTextStyleTableRecord
  2
TEXTSTYLE_1
 70
0
 40
0.0
 41
0.8
 50
0.0
 71
0
 42
0.2
  3
gdt
  4

  0
ENDTAB
  0
TABLE
  2
VIEW
  5
6
100
AcDbSymbolTable
 70
0
  0
ENDTAB
  0
TABLE
  2
UCS
  5
7
100
AcDbSymbolTable
 70
0
  0
ENDTAB
  0
TABLE
  2
APPID
  5
9
100
AcDbSymbolTable
 70
1
  0
APPID
  5
210
100
AcDbSymbolTableRecord
100
AcDbRegAppTableRecord
  2
ACAD
 70
0
  0
ENDTAB
  0
TABLE
  2
BLOCK_RECORD
  5
1
100
AcDbSymbolTable
 70
0
  0
BLOCK_RECORD
  5
211
100
AcDbSymbolTableRecord
100
AcDbBlockTableRecord
  2
*Model_Space
  0
BLOCK_RECORD
  5
212
100
AcDbSymbolTableRecord
100
AcDbBlockTableRecord
  2
*Paper_Space
  0
BLOCK_RECORD
  5
213
100
AcDbSymbolTableRecord
100
AcDbBlockTableRecord
  2
_FILLED
  0
ENDTAB
  0
TABLE
  2
DIMSTYLE
  5
A
100
AcDbSymbolTable
 70
1
100
AcDbDimStyleTable
 71
0
  0
DIMSTYLE
105
214
100
AcDbSymbolTableRecord
100
AcDbDimStyleTableRecord
  2
STANDARD
 70
0
  3

  4

 40
1.0
 41
4.792926687
 42
1.0
 43
0.38
 44
1.0
 45
0.0
 46
0.0
 47
0.01
 48
0.01
140
6.7100973619
141
0.09
142
0.0
143
25.4
144
1.0
145
0.0
146
1.0
147
0.625
 71
1
 72
0
 73
0
 74
0
 75
0
 76
0
 77
1
 78
8
 79
2
170
0
171
1
172
0
173
0
174
0
175
0
176
0
177
0
178
0
270
2
179
2
271
2
272
2
273
2
274
2
275
0
280
0
281
0
282
0
283
1
284
8
285
0
286
0
287
3
288
0
340
11
278
46
341
213
342
213
343
213
344
213
  0
ENDTAB
  0
ENDSEC
  0
SECTION
  2
BLOCKS
  0
BLOCK
  5
20
100
AcDbEntity
  8
0
100
AcDbBlockBegin
  2
*Model_Space
 70
0
 10
0.0
 20
0.0
 30
0.0
  3
*Model_Space
  1

  0
ENDBLK
  5
21
100
AcDbEntity
  8
0
100
AcDbBlockEnd
  0
BLOCK
  5
1C
100
AcDbEntity
  8
0
100
AcDbBlockBegin
  2
*Paper_Space
 70
0
 10
0.0
 20
0.0
 30
0.0
  3
*Paper_Space
  1

  0
ENDBLK
  5
1D
100
AcDbEntity
  8
0
100
AcDbBlockEnd
  0
BLOCK
  5
215
100
AcDbEntity
  8
0
100
AcDbBlockBegin
  2
_FILLED
 70
64
 10
0.0
 20
0.0
  3
_FILLED
  1

  0
SOLID
  5
216
100
AcDbEntity
  8
0
  6
BYBLOCK
 62
0
100
AcDbTrace
 10
0.0
 20
0.0
 11
-1.0
 21
0.25
 12
-1.0
 22
-0.25
 13
-1.0
 23
-0.25
  0
ENDBLK
  5
217
100
AcDbEntity
  8
0
  6
BYBLOCK
 62
0
100
AcDbBlockEnd
  0
ENDSEC
  0
SECTION
  2
ENTITIES
  0
LINE
  5
218
100
AcDbEntity
  8
_1
100
AcDbLine
 62
7
  6
CONTINUOUS
 10
46.7069097288
 20
250.8257003814
 11
47.0715824127
 21
202.363141051
  0
LINE
  5
219
100
AcDbEntity
  8
_1
100
AcDbLine
 62
7
  6
CONTINUOUS
 10
47.0715824127
 20
298.8671814935
 11
46.7069097288
 21
250.8257003814
  0
LINE
  5
21A
100
AcDbEntity
  8
_1
100
AcDbLine
 62
7
  6
CONTINUOUS
 10
137.5596877592
 20
141.2178419682
 11
54.849493219
 21
188.9695147635
  0
LINE
  5
21B
100
AcDbEntity
  8
_1
100
AcDbLine
 62
7
  6
CONTINUOUS
 10
98.3362846171
 20
289.1611395197
 11
98.3362846171
 21
290.4675433872
  0
LINE
  5
21C
100
AcDbEntity
  8
_1
100
AcDbLine
 62
7
  6
CONTINUOUS
 10
98.4362846171
 20
290.4675433872
 11
98.4362846171
 21
291.7739472546
  0
LINE
  5
21D
100
AcDbEntity
  8
_1
100
AcDbLine
 62
7
  6
CONTINUOUS
 10
98.7595030375
 20
285.941331846
 11
98.7595030375
 21
287.9981116643
  0
LINE
  5
21E
100
AcDbEntity
  8
_1
100
AcDbLine
 62
7
  6
CONTINUOUS
 10
98.7595030375
 20
292.6366516665
 11
98.7595030375
 21
296.7191637521
  0
LINE
  5
21F
100
AcDbEntity
  8
_1
100
AcDbLine
 62
7
  6
CONTINUOUS
 10
98.8362846171
 20
285.0786274341
 11
98.8362846171
 21
284.5070757421
  0
LINE
  5
220
100
AcDbEntity
  8
_1
100
AcDbLine
 62
7
  6
CONTINUOUS
 10
100.2538187095
 20
282.7216287128
 11
100.2538187095
 21
286.6445718334
  0
LINE
  5
221
100
AcDbEntity
  8
_1
100
AcDbLine
 62
7
  6
CONTINUOUS
 10
100.2538187095
 20
289.4169485332
 11
100.2538187095
 21
293.4994606189
  0
LINE
  5
222
100
AcDbEntity
  8
_1
100
AcDbLine
 62
7
  6
CONTINUOUS
 10
101.3362846171
 20
295.8564593402
 11
101.3362846171
 21
300.3472226344
  0
LINE
  5
223
100
AcDbEntity
  8
_1
100
AcDbLine
 62
7
  6
CONTINUOUS
 10
105.830600289
 20
281.8589243008
 11
105.830600289
 21
285.8439592646
  0
LINE
  5
224
100
AcDbEntity
  8
_1
100
AcDbLine
 62
7
  6
CONTINUOUS
 10
105.830600289
 20
288.5542441213
 11
105.830600289
 21
292.6367562069
  0
LINE
  5
225
100
AcDbEntity
  8
_1
100
AcDbLine
 62
7
  6
CONTINUOUS
 10
98.9136227263
 20
285.6092603473
 11
98.8363034584
 21
285.0786274364
  0
LINE
  5
226
100
AcDbEntity
  8
_1
100
AcDbLine
 62
7
  6
CONTINUOUS
 10
263.4931748663
 20
424.3350916992
 11
239.1974254284
 21
412.7624802359
  0
LINE
  5
227
100
AcDbEntity
  8
_1
100
AcDbLine
 62
7
  6
CONTINUOUS
 10
107.3362846171
 20
295.8564593402
 11
107.3362846171
 21
300.3472226344
  0
LINE
  5
228
100
AcDbEntity
  8
_1
100
AcDbLine
 62
7
  6
CONTINUOUS
 10
108.9325007745
 20
281.037017175
 11
108.9325007745
 21
281.4452683835
  0
LINE
  5
229
100
AcDbEntity
  8
_1
100
AcDbLine
 62
7
  6
CONTINUOUS
 10
109.9130661966
 20
284.2159230222
 11
109.9130661966
 21
288.0001135354
  0
LINE
  5
22A
100
AcDbEntity
  8
_1
100
AcDbLine
 62
7
  6
CONTINUOUS
 10
109.9130661966
 20
290.9112428426
 11
109.9130661966
 21
294.9937549283
  0
LINE
  5
22B
100
AcDbEntity
  8
_1
100
AcDbLine
 62
7
  6
CONTINUOUS
 10
110.2362846171
 20
290.4675433872
 11
110.2362846171
 21
291.7739472546
  0
LINE
  5
22C
100
AcDbEntity
  8
_1
100
AcDbLine
 62
7
  6
CONTINUOUS
 10
110.3362846171
 20
289.1611395197
 11
110.3362846171
 21
290.4675433872
  0
LINE
  5
22D
100
AcDbEntity
  8
_1
100
AcDbLine
 62
7
  6
CONTINUOUS
 10
49.3495178419
 20
303.8246202308
 11
57.8347638884
 21
308.7235500773
  0
LINE
  5
22E
100
AcDbEntity
  8
_1
100
AcDbLine
 62
7
  6
CONTINUOUS
 10
54.849493219
 20
303.2798531617
 11
63.3347392656
 21
308.1787830081
  0
LINE
  5
22F
100
AcDbEntity
  8
_1
100
AcDbLine
 62
7
  6
CONTINUOUS
 10
275.6803751264
 20
430.10580856
 11
266.272715224
 21
424.6743260045
  0
LINE
  5
230
100
AcDbEntity
  8
_1
100
AcDbLine
 62
7
  6
CONTINUOUS
 10
100.2538187095
 20
282.7216287128
 11
98.7595030375
 21
285.941331846
  0
LINE
  5
231
100
AcDbEntity
  8
_1
100
AcDbLine
 62
7
  6
CONTINUOUS
 10
100.2538187095
 20
289.4169485332
 11
98.7595030375
 21
292.6366516665
  0
LINE
  5
232
100
AcDbEntity
  8
_1
100
AcDbLine
 62
7
  6
CONTINUOUS
 10
98.7595030375
 20
296.7191637521
 11
100.2538187095
 21
293.4994606189
  0
LINE
  5
233
100
AcDbEntity
  8
_1
100
AcDbLine
 62
7
  6
CONTINUOUS
 10
122.7210256002
 20
289.406029384
 11
122.7210256002
 21
288.9977781755
  0
LINE
  5
234
100
AcDbEntity
  8
_1
100
AcDbLine
 62
7
  6
CONTINUOUS
 10
123.013915875
 20
289.40601893
 11
123.013915875
 21
289.8142701385
  0
LINE
  5
235
100
AcDbEntity
  8
_1
100
AcDbLine
 62
7
  6
CONTINUOUS
 10
72.9789390555
 20
302.6108276273
 11
239.1815510876
 21
398.5673776407
  0
LINE
  5
236
100
AcDbEntity
  8
_1
100
AcDbLine
 62
7
  6
CONTINUOUS
 10
73.5647207742
 20
302.2726340453
 11
239.1815510876
 21
397.8909848444
  0
LINE
  5
237
100
AcDbEntity
  8
_1
100
AcDbLine
 62
7
  6
CONTINUOUS
 10
227.0185913521
 20
384.3226506867
 11
239.1815510876
 21
391.344896847
  0
LINE
  5
238
100
AcDbEntity
  8
_1
100
AcDbLine
 62
7
  6
CONTINUOUS
 10
289.4765271088
 20
416.6880574795
 11
289.7672662005
 21
416.8559147705
  0
LINE
  5
239
100
AcDbEntity
  8
_1
100
AcDbLine
 62
7
  6
CONTINUOUS
 10
313.6977710499
 20
422.4368695157
 11
290.8162292864
 21
411.5378769496
  0
LINE
  5
23A
100
AcDbEntity
  8
_1
100
AcDbLine
 62
7
  6
CONTINUOUS
 10
109.9130661966
 20
294.9937549283
 11
108.4187505247
 21
298.2134580615
  0
LINE
  5
23B
100
AcDbEntity
  8
_1
100
AcDbLine
 62
7
  6
CONTINUOUS
 10
145.7022712494
 20
193.6719947485
 11
145.3375985655
 21
242.1345540789
  0
LINE
  5
23C
100
AcDbEntity
  8
_1
100
AcDbLine
 62
7
  6
CONTINUOUS
 10
145.3375985655
 20
145.6305136364
 11
145.7022712494
 21
193.6719947485
  0
LINE
  5
23D
100
AcDbEntity
  8
_1
100
AcDbLine
 62
7
  6
CONTINUOUS
 10
122.7210256002
 20
289.406029384
 11
123.0138941821
 21
289.8142701386
  0
LINE
  5
23E
100
AcDbEntity
  8
_1
100
AcDbLine
 62
7
  6
CONTINUOUS
 10
123.0138941821
 20
289.40601893
 11
122.7210256002
 21
288.9977781755
  0
LINE
  5
23F
100
AcDbEntity
  8
_1
100
AcDbLine
 62
7
  6
CONTINUOUS
 10
287.1803236423
 20
410.1871945487
 11
279.4589517556
 21
405.7292850216
  0
LINE
  5
240
100
AcDbEntity
  8
_1
100
AcDbLine
 62
7
  6
CONTINUOUS
 10
61.2298725575
 20
277.1117282758
 11
63.7047359877
 21
278.5405828143
  0
LINE
  5
241
100
AcDbEntity
  8
_1
100
AcDbLine
 62
7
  6
CONTINUOUS
 10
325.1778674728
 20
427.6564728122
 11
316.7201738509
 21
422.7734502705
  0
LINE
  5
242
100
AcDbEntity
  8
_1
100
AcDbLine
 62
7
  6
CONTINUOUS
 10
98.7595030375
 20
296.7191637521
 11
101.3362846171
 21
298.2068604104
  0
LINE
  5
243
100
AcDbEntity
  8
_1
100
AcDbLine
 62
7
  6
CONTINUOUS
 10
109.9130661966
 20
294.9937549283
 11
105.830600289
 21
292.6367562069
  0
LINE
  5
244
100
AcDbEntity
  8
_1
100
AcDbLine
 62
7
  6
CONTINUOUS
 10
54.849493219
 20
303.2798531617
 11
137.5596877592
 21
255.5281803664
  0
LINE
  5
245
100
AcDbEntity
  8
_1
100
AcDbLine
 62
7
  6
CONTINUOUS
 10
123.0138941821
 20
289.8142701386
 11
122.7210197122
 21
290.2225142924
  0
LINE
  5
246
100
AcDbEntity
  8
_1
100
AcDbLine
 62
7
  6
CONTINUOUS
 10
152.0782984798
 20
272.4711816275
 11
152.1285269071
 21
265.7961597532
  0
LINE
  5
247
100
AcDbEntity
  8
_1
100
AcDbLine
 62
7
  6
CONTINUOUS
 10
153.8228446121
 20
247.0334839254
 11
154.0527367097
 21
216.4823625696
  0
LINE
  5
248
100
AcDbEntity
  8
_1
100
AcDbLine
 62
7
  6
CONTINUOUS
 10
154.0527367097
 20
180.8151143151
 11
153.8228446121
 21
150.5294434829
  0
LINE
  5
249
100
AcDbEntity
  8
_1
100
AcDbLine
 62
7
  6
CONTINUOUS
 10
276.0468966481
 20
392.1054399373
 11
263.0810872397
 21
384.0779354693
  0
LINE
  5
24A
100
AcDbEntity
  8
_1
100
AcDbLine
 62
7
  6
CONTINUOUS
 10
269.4450158867
 20
385.6292090609
 11
255.3029391424
 21
377.4643259834
  0
LINE
  5
24B
100
AcDbEntity
  8
_1
100
AcDbLine
 62
7
  6
CONTINUOUS
 10
109.9130661966
 20
293.4422310234
 11
112.8214894481
 21
295.1213999473
  0
LINE
  5
24C
100
AcDbEntity
  8
_1
100
AcDbLine
 62
7
  6
CONTINUOUS
 10
109.9130661966
 20
290.9112428426
 11
105.830600289
 21
288.5542441213
  0
LINE
  5
24D
100
AcDbEntity
  8
_1
100
AcDbLine
 62
7
  6
CONTINUOUS
 10
269.4450158867
 20
381.8732979421
 11
255.3029391424
 21
373.7084148647
  0
LINE
  5
24E
100
AcDbEntity
  8
_1
100
AcDbLine
 62
7
  6
CONTINUOUS
 10
76.9044259139
 20
267.1088514051
 11
72.6618028907
 21
264.6593864818
  0
LINE
  5
24F
100
AcDbEntity
  8
_1
100
AcDbLine
 62
7
  6
CONTINUOUS
 10
109.9130661966
 20
284.2159230222
 11
105.830600289
 21
281.8589243008
  0
LINE
  5
250
100
AcDbEntity
  8
_1
100
AcDbLine
 62
7
  6
CONTINUOUS
 10
279.3445108232
 20
381.8733217375
 11
255.3029803579
 21
367.9930205059
  0
LINE
  5
251
100
AcDbEntity
  8
_1
100
AcDbLine
 62
7
  6
CONTINUOUS
 10
279.3445108232
 20
381.465070529
 11
255.3029803579
 21
367.5847692973
  0
LINE
  5
252
100
AcDbEntity
  8
_1
100
AcDbLine
 62
7
  6
CONTINUOUS
 10
122.7210256002
 20
289.406029384
 11
108.9325007745
 21
281.4452683835
  0
LINE
  5
253
100
AcDbEntity
  8
_1
100
AcDbLine
 62
7
  6
CONTINUOUS
 10
122.7210256002
 20
288.9977781755
 11
108.9325007745
 21
281.037017175
  0
LINE
  5
254
100
AcDbEntity
  8
_1
100
AcDbLine
 62
7
  6
CONTINUOUS
 10
287.1226795283
 20
382.6898253424
 11
287.6582193221
 21
382.9990175409
  0
LINE
  5
255
100
AcDbEntity
  8
_1
100
AcDbLine
 62
7
  6
CONTINUOUS
 10
165.3098770427
 20
246.85479535
 11
162.0276861152
 21
248.7497262965
  0
LINE
  5
256
100
AcDbEntity
  8
_1
100
AcDbLine
 62
7
  6
CONTINUOUS
 10
63.3347392656
 20
308.1787830081
 11
73.5647207742
 21
302.2726340453
  0
LINE
  5
257
100
AcDbEntity
  8
_1
100
AcDbLine
 62
7
  6
CONTINUOUS
 10
135.8149522971
 20
266.3332591757
 11
146.0449338058
 21
260.4271102128
  0
LINE
  5
258
100
AcDbEntity
  8
_1
100
AcDbLine
 62
7
  6
CONTINUOUS
 10
168.9019172912
 20
225.0554898009
 11
169.0366978775
 21
207.1440518263
  0
LINE
  5
259
100
AcDbEntity
  8
_1
100
AcDbLine
 62
7
  6
CONTINUOUS
 10
169.0366978775
 20
207.1440518263
 11
168.9019172912
 21
189.3882415464
  0
LINE
  5
25A
100
AcDbEntity
  8
_1
100
AcDbLine
 62
7
  6
CONTINUOUS
 10
239.1974874535
 20
412.760286352
 11
239.1815511439
 21
412.7352780186
  0
LINE
  5
25B
100
AcDbEntity
  8
_1
100
AcDbLine
 62
7
  6
CONTINUOUS
 10
336.6778159887
 20
407.7378588008
 11
329.7129335707
 21
403.716706065
  0
LINE
  5
25C
100
AcDbEntity
  8
_1
100
AcDbLine
 62
7
  6
CONTINUOUS
 10
321.0638197447
 20
384.4046057746
 11
306.9217430005
 21
376.2397226972
  0
LINE
  5
25D
100
AcDbEntity
  8
_1
100
AcDbLine
 62
7
  6
CONTINUOUS
 10
114.2357030105
 20
295.1214033467
 11
122.7210197122
 21
290.2225142924
  0
LINE
  5
25E
100
AcDbEntity
  8
_1
100
AcDbLine
 62
7
  6
CONTINUOUS
 10
150.6641328786
 20
274.906386407
 11
107.3362846171
 21
299.9211653543
  0
LINE
  5
25F
100
AcDbEntity
  8
_1
100
AcDbLine
 62
7
  6
CONTINUOUS
 10
103.708439942
 20
302.0156550703
 11
88.4139013557
 21
310.8457612766
  0
LINE
  5
260
100
AcDbEntity
  8
_1
100
AcDbLine
 62
7
  6
CONTINUOUS
 10
326.3008784632
 20
390.0358361807
 11
314.6998910978
 21
382.853332183
  0
LINE
  5
261
100
AcDbEntity
  8
_1
100
AcDbLine
 62
7
  6
CONTINUOUS
 10
334.280053187
 20
391.157026608
 11
333.4205504953
 21
390.6607954597
  0
LINE
  5
262
100
AcDbEntity
  8
_1
100
AcDbLine
 62
7
  6
CONTINUOUS
 10
321.0638197447
 20
380.6486946558
 11
306.9217430005
 21
372.4838115784
  0
LINE
  5
263
100
AcDbEntity
  8
_1
100
AcDbLine
 62
7
  6
CONTINUOUS
 10
322.4780303631
 20
381.0569405094
 11
306.2146421072
 21
371.6673249703
  0
LINE
  5
264
100
AcDbEntity
  8
_1
100
AcDbLine
 62
7
  6
CONTINUOUS
 10
322.4780303631
 20
380.6486893008
 11
306.2146421072
 21
371.2590737618
  0
LINE
  5
265
100
AcDbEntity
  8
_1
100
AcDbLine
 62
7
  6
CONTINUOUS
 10
342.2892727636
 20
385.5405521062
 11
135.8149522971
 21
266.3332591757
  0
LINE
  5
266
100
AcDbEntity
  8
_1
100
AcDbLine
 62
7
  6
CONTINUOUS
 10
138.6310203375
 20
264.7074383155
 11
343.7034383647
 21
383.1053473266
  0
LINE
  5
267
100
AcDbEntity
  8
_1
100
AcDbLine
 62
7
  6
CONTINUOUS
 10
105.830600289
 20
281.8589243008
 11
100.2538187095
 21
282.7216287128
  0
LINE
  5
268
100
AcDbEntity
  8
_1
100
AcDbLine
 62
7
  6
CONTINUOUS
 10
90.9117211876
 20
233.0494120726
 11
54.8494254897
 21
212.2289602251
  0
LINE
  5
269
100
AcDbEntity
  8
_1
100
AcDbLine
 62
7
  6
CONTINUOUS
 10
343.7536667921
 20
376.4303254523
 11
144.436955916
 21
261.3554556784
  0
LINE
  5
26A
100
AcDbEntity
  8
_1
100
AcDbLine
 62
7
  6
CONTINUOUS
 10
146.0449338058
 20
260.4271102128
 11
137.5596877592
 21
255.5281803664
  0
LINE
  5
26B
100
AcDbEntity
  8
_1
100
AcDbLine
 62
7
  6
CONTINUOUS
 10
105.830600289
 20
288.5542441213
 11
100.2538187095
 21
289.4169485332
  0
LINE
  5
26C
100
AcDbEntity
  8
_1
100
AcDbLine
 62
7
  6
CONTINUOUS
 10
100.2538187095
 20
293.4994606189
 11
105.830600289
 21
292.6367562069
  0
LINE
  5
26D
100
AcDbEntity
  8
_1
100
AcDbLine
 62
7
  6
CONTINUOUS
 10
108.4187505247
 20
298.2134580615
 11
107.3362846171
 21
298.3809109375
  0
LINE
  5
26E
100
AcDbEntity
  8
_1
100
AcDbLine
 62
7
  6
CONTINUOUS
 10
290.8162917853
 20
411.5356662756
 11
290.8003550017
 21
411.5106792328
  0
LINE
  5
26F
100
AcDbEntity
  8
_1
100
AcDbLine
 62
7
  6
CONTINUOUS
 10
145.3375985655
 20
242.1345540789
 11
153.8228446121
 21
247.0334839254
  0
LINE
  5
270
100
AcDbEntity
  8
_1
100
AcDbLine
 62
7
  6
CONTINUOUS
 10
153.8454772785
 20
244.0257540203
 11
353.6528260001
 21
359.3838919956
  0
LINE
  5
271
100
AcDbEntity
  8
_1
100
AcDbLine
 62
7
  6
CONTINUOUS
 10
102.9116674651
 20
212.2647713651
 11
66.8493717671
 21
191.4443195176
  0
LINE
  5
272
100
AcDbEntity
  8
_1
100
AcDbLine
 62
7
  6
CONTINUOUS
 10
357.5297852461
 20
357.8323486481
 11
153.8738722351
 21
240.2522543077
  0
LINE
  5
273
100
AcDbEntity
  8
_1
100
AcDbLine
 62
7
  6
CONTINUOUS
 10
226.1399205275
 20
382.6896772146
 11
226.1399205275
 21
383.0979284232
  0
LINE
  5
274
100
AcDbEntity
  8
_1
100
AcDbLine
 62
7
  6
CONTINUOUS
 10
227.0186090159
 20
381.464944753
 11
227.0186090159
 21
381.8731959615
  0
LINE
  5
275
100
AcDbEntity
  8
_1
100
AcDbLine
 62
7
  6
CONTINUOUS
 10
153.8953902128
 20
237.3926590596
 11
358.8368569125
 21
355.7149637379
  0
LINE
  5
276
100
AcDbEntity
  8
_1
100
AcDbLine
 62
7
  6
CONTINUOUS
 10
236.039415464
 20
383.0979522186
 11
236.039415464
 21
386.8538633374
  0
LINE
  5
277
100
AcDbEntity
  8
_1
100
AcDbLine
 62
7
  6
CONTINUOUS
 10
236.289415464
 20
386.8538633374
 11
236.289415464
 21
388.4868681717
  0
LINE
  5
278
100
AcDbEntity
  8
_1
100
AcDbLine
 62
7
  6
CONTINUOUS
 10
236.9181039524
 20
381.873219757
 11
236.9181039524
 21
385.6291308758
  0
LINE
  5
279
100
AcDbEntity
  8
_1
100
AcDbLine
 62
7
  6
CONTINUOUS
 10
239.1815510876
 20
389.7933060326
 11
239.1815510876
 21
412.737335756
  0
LINE
  5
27A
100
AcDbEntity
  8
_1
100
AcDbLine
 62
7
  6
CONTINUOUS
 10
166.6902892232
 20
172.217688343
 11
166.3097113973
 21
171.6378031391
  0
LINE
  5
27B
100
AcDbEntity
  8
_1
100
AcDbLine
 62
7
  6
CONTINUOUS
 10
154.0527367097
 20
216.4823625696
 11
361.7307628545
 21
336.3846111492
  0
LINE
  5
27C
100
AcDbEntity
  8
_1
100
AcDbLine
 62
7
  6
CONTINUOUS
 10
250.431609967
 20
378.689048247
 11
250.431609967
 21
380.3220530813
  0
LINE
  5
27D
100
AcDbEntity
  8
_1
100
AcDbLine
 62
7
  6
CONTINUOUS
 10
251.0602984553
 20
377.4643157854
 11
251.0602984553
 21
373.7084046666
  0
LINE
  5
27E
100
AcDbEntity
  8
_1
100
AcDbLine
 62
7
  6
CONTINUOUS
 10
251.0603396708
 20
367.9930103079
 11
251.0603396708
 21
367.5847590993
  0
LINE
  5
27F
100
AcDbEntity
  8
_1
100
AcDbLine
 62
7
  6
CONTINUOUS
 10
251.2531943215
 20
381.8115162562
 11
251.2531943215
 21
381.5938888687
  0
LINE
  5
280
100
AcDbEntity
  8
_1
100
AcDbLine
 62
7
  6
CONTINUOUS
 10
255.1100064766
 20
381.5566371153
 11
255.1100064766
 21
381.8112657238
  0
LINE
  5
281
100
AcDbEntity
  8
_1
100
AcDbLine
 62
7
  6
CONTINUOUS
 10
255.3029391424
 20
373.7084148647
 11
255.3029391424
 21
377.4643259834
  0
LINE
  5
282
100
AcDbEntity
  8
_1
100
AcDbLine
 62
7
  6
CONTINUOUS
 10
255.3029803579
 20
367.5847692973
 11
255.3029803579
 21
367.9930205059
  0
LINE
  5
283
100
AcDbEntity
  8
_1
100
AcDbLine
 62
7
  6
CONTINUOUS
 10
255.931609967
 20
378.689048247
 11
255.931609967
 21
380.3220530813
  0
LINE
  5
284
100
AcDbEntity
  8
_1
100
AcDbLine
 62
7
  6
CONTINUOUS
 10
263.0810872397
 20
384.0779354693
 11
263.0810872397
 21
398.2009972713
  0
LINE
  5
285
100
AcDbEntity
  8
_1
100
AcDbLine
 62
7
  6
CONTINUOUS
 10
125.4042087853
 20
183.1042618791
 11
121.161585762
 21
180.6547969558
  0
LINE
  5
286
100
AcDbEntity
  8
_1
100
AcDbLine
 62
7
  6
CONTINUOUS
 10
145.7022712494
 20
193.6719947485
 11
362.1522537817
 21
318.638704479
  0
LINE
  5
287
100
AcDbEntity
  8
_1
100
AcDbLine
 62
7
  6
CONTINUOUS
 10
269.4450158867
 20
385.6292090609
 11
269.4450158867
 21
381.8732979421
  0
LINE
  5
288
100
AcDbEntity
  8
_1
100
AcDbLine
 62
7
  6
CONTINUOUS
 10
270.0736867112
 20
386.8539313244
 11
270.0736867112
 21
388.407254352
  0
LINE
  5
289
100
AcDbEntity
  8
_1
100
AcDbLine
 62
7
  6
CONTINUOUS
 10
270.3236867112
 20
383.0980202056
 11
270.3236867112
 21
386.8539313244
  0
LINE
  5
28A
100
AcDbEntity
  8
_1
100
AcDbLine
 62
7
  6
CONTINUOUS
 10
361.7307628545
 20
300.7173628946
 11
154.0527367097
 21
180.8151143151
  0
LINE
  5
28B
100
AcDbEntity
  8
_1
100
AcDbLine
 62
7
  6
CONTINUOUS
 10
126.2295815603
 20
164.528257777
 11
128.7044449905
 21
165.9571123156
  0
LINE
  5
28C
100
AcDbEntity
  8
_1
100
AcDbLine
 62
7
  6
CONTINUOUS
 10
360.8253668465
 20
292.8222480369
 11
359.8805533599
 21
292.2767629722
  0
LINE
  5
28D
100
AcDbEntity
  8
_1
100
AcDbLine
 62
7
  6
CONTINUOUS
 10
359.8105152682
 20
291.754087735
 11
360.4245462244
 21
292.1085965568
  0
LINE
  5
28E
100
AcDbEntity
  8
_1
100
AcDbLine
 62
7
  6
CONTINUOUS
 10
307.5779457894
 20
378.9522881307
 11
307.550413825
 21
378.9470663039
  0
LINE
  5
28F
100
AcDbEntity
  8
_1
100
AcDbLine
 62
7
  6
CONTINUOUS
 10
281.8318526085
 20
347.3839838629
 11
281.8820810359
 21
340.7089619886
  0
LINE
  5
290
100
AcDbEntity
  8
_1
100
AcDbLine
 62
7
  6
CONTINUOUS
 10
279.3445108232
 20
381.8733217375
 11
279.3445108232
 21
381.465070529
  0
LINE
  5
291
100
AcDbEntity
  8
_1
100
AcDbLine
 62
7
  6
CONTINUOUS
 10
279.4589517556
 20
410.5371471302
 11
279.4589517556
 21
398.3004531987
  0
LINE
  5
292
100
AcDbEntity
  8
_1
100
AcDbLine
 62
7
  6
CONTINUOUS
 10
280.2231816478
 20
382.6897927925
 11
280.2231816478
 21
383.0980440011
  0
LINE
  5
293
100
AcDbEntity
  8
_1
100
AcDbLine
 62
7
  6
CONTINUOUS
 10
286.5368989785
 20
381.4650926248
 11
286.5368989785
 21
381.8733438333
  0
LINE
  5
294
100
AcDbEntity
  8
_1
100
AcDbLine
 62
7
  6
CONTINUOUS
 10
287.1226913041
 20
380.648604317
 11
287.1226913041
 21
381.0568555256
  0
LINE
  5
295
100
AcDbEntity
  8
_1
100
AcDbLine
 62
7
  6
CONTINUOUS
 10
287.6582193221
 20
381.8733489324
 11
287.6582193221
 21
385.6292600511
  0
LINE
  5
296
100
AcDbEntity
  8
_1
100
AcDbLine
 62
7
  6
CONTINUOUS
 10
287.9082193221
 20
385.6292600511
 11
287.9082193221
 21
387.2622648854
  0
LINE
  5
297
100
AcDbEntity
  8
_1
100
AcDbLine
 62
7
  6
CONTINUOUS
 10
288.5369078104
 20
380.6486164707
 11
288.5369078104
 21
384.4045275895
  0
LINE
  5
298
100
AcDbEntity
  8
_1
100
AcDbLine
 62
7
  6
CONTINUOUS
 10
290.8003549457
 20
388.5687027463
 11
290.8003549457
 21
411.5127324697
  0
LINE
  5
299
100
AcDbEntity
  8
_1
100
AcDbLine
 62
7
  6
CONTINUOUS
 10
358.3154291082
 20
282.8518540422
 11
153.9315601252
 21
164.8514766341
  0
LINE
  5
29A
100
AcDbEntity
  8
_1
100
AcDbLine
 62
7
  6
CONTINUOUS
 10
153.92881136
 20
164.4893580648
 11
357.9350124508
 21
282.2716901152
  0
LINE
  5
29B
100
AcDbEntity
  8
_1
100
AcDbLine
 62
7
  6
CONTINUOUS
 10
153.9273819836
 20
164.3010539703
 11
343.8009789579
 21
273.9239719348
  0
LINE
  5
29C
100
AcDbEntity
  8
_1
100
AcDbLine
 62
7
  6
CONTINUOUS
 10
255.9591419314
 20
380.1768914169
 11
255.931609967
 21
380.1716695902
  0
LINE
  5
29D
100
AcDbEntity
  8
_1
100
AcDbLine
 62
7
  6
CONTINUOUS
 10
307.602703919
 20
378.8927771689
 11
307.5743673664
 21
378.8888686564
  0
LINE
  5
29E
100
AcDbEntity
  8
_1
100
AcDbLine
 62
7
  6
CONTINUOUS
 10
255.9839000609
 20
380.1173804552
 11
255.9555635083
 21
380.1134719427
  0
LINE
  5
29F
100
AcDbEntity
  8
_1
100
AcDbLine
 62
7
  6
CONTINUOUS
 10
291.7812402439
 20
323.6625285319
 11
295.0634311715
 21
321.7675975854
  0
LINE
  5
2A0
100
AcDbEntity
  8
_1
100
AcDbLine
 62
7
  6
CONTINUOUS
 10
298.6554714199
 20
299.9682920363
 11
298.7902520062
 21
282.0568540617
  0
LINE
  5
2A1
100
AcDbEntity
  8
_1
100
AcDbLine
 62
7
  6
CONTINUOUS
 10
302.050413825
 20
377.4644449607
 11
302.050413825
 21
379.097449795
  0
LINE
  5
2A2
100
AcDbEntity
  8
_1
100
AcDbLine
 62
7
  6
CONTINUOUS
 10
302.6791023134
 20
376.2397124991
 11
302.6791023134
 21
372.4838013803
  0
LINE
  5
2A3
100
AcDbEntity
  8
_1
100
AcDbLine
 62
7
  6
CONTINUOUS
 10
302.8719981796
 20
380.5870199687
 11
302.8719981796
 21
380.3692855824
  0
LINE
  5
2A4
100
AcDbEntity
  8
_1
100
AcDbLine
 62
7
  6
CONTINUOUS
 10
303.3862149825
 20
371.6673181716
 11
303.3862149825
 21
371.259066963
  0
LINE
  5
2A5
100
AcDbEntity
  8
_1
100
AcDbLine
 62
7
  6
CONTINUOUS
 10
306.2146421072
 20
371.2590737618
 11
306.2146421072
 21
371.6673249703
  0
LINE
  5
2A6
100
AcDbEntity
  8
_1
100
AcDbLine
 62
7
  6
CONTINUOUS
 10
298.7902520062
 20
282.0568540617
 11
298.6554714199
 21
264.3010437818
  0
LINE
  5
2A7
100
AcDbEntity
  8
_1
100
AcDbLine
 62
7
  6
CONTINUOUS
 10
296.4438433519
 20
247.1304905784
 11
296.063265526
 21
246.5506053746
  0
LINE
  5
2A8
100
AcDbEntity
  8
_1
100
AcDbLine
 62
7
  6
CONTINUOUS
 10
153.8228446121
 20
150.5294434829
 11
145.3375985655
 21
145.6305136364
  0
LINE
  5
2A9
100
AcDbEntity
  8
_1
100
AcDbLine
 62
7
  6
CONTINUOUS
 10
143.0596631364
 20
140.6730748991
 11
151.5449091829
 21
145.5720047455
  0
LINE
  5
2AA
100
AcDbEntity
  8
_1
100
AcDbLine
 62
7
  6
CONTINUOUS
 10
250.4076357721
 20
380.113459559
 11
250.3792968688
 21
380.1173682769
  0
LINE
  5
2AB
100
AcDbEntity
  8
_1
100
AcDbLine
 62
7
  6
CONTINUOUS
 10
250.431609967
 20
380.1717091705
 11
250.4040766229
 21
380.1769330177
  0
LINE
  5
2AC
100
AcDbEntity
  8
_1
100
AcDbLine
 62
7
  6
CONTINUOUS
 10
218.1674554845
 20
385.758563512
 11
280.4176870074
 21
349.8191886424
  0
LINE
  5
2AD
100
AcDbEntity
  8
_1
100
AcDbLine
 62
7
  6
CONTINUOUS
 10
251.0603396708
 20
367.5847590993
 11
227.0186090159
 21
381.464944753
  0
LINE
  5
2AE
100
AcDbEntity
  8
_1
100
AcDbLine
 62
7
  6
CONTINUOUS
 10
251.0603396708
 20
367.9930103079
 11
227.0186090159
 21
381.8731959615
  0
LINE
  5
2AF
100
AcDbEntity
  8
_1
100
AcDbLine
 62
7
  6
CONTINUOUS
 10
251.0602984553
 20
373.7084046666
 11
236.9181039524
 21
381.873219757
  0
LINE
  5
2B0
100
AcDbEntity
  8
_1
100
AcDbLine
 62
7
  6
CONTINUOUS
 10
306.7288103347
 20
380.332033829
 11
306.7288103347
 21
380.5866427358
  0
LINE
  5
2B1
100
AcDbEntity
  8
_1
100
AcDbLine
 62
7
  6
CONTINUOUS
 10
306.9217430005
 20
372.4838115784
 11
306.9217430005
 21
376.2397226972
  0
LINE
  5
2B2
100
AcDbEntity
  8
_1
100
AcDbLine
 62
7
  6
CONTINUOUS
 10
307.550413825
 20
377.4644449607
 11
307.550413825
 21
379.097449795
  0
LINE
  5
2B3
100
AcDbEntity
  8
_1
100
AcDbLine
 62
7
  6
CONTINUOUS
 10
314.6998910978
 20
382.853332183
 11
314.6998910978
 21
396.976393985
  0
LINE
  5
2B4
100
AcDbEntity
  8
_1
100
AcDbLine
 62
7
  6
CONTINUOUS
 10
302.0264396302
 20
378.8888562728
 11
301.9981007269
 21
378.8927649906
  0
LINE
  5
2B5
100
AcDbEntity
  8
_1
100
AcDbLine
 62
7
  6
CONTINUOUS
 10
302.050413825
 20
378.9471058843
 11
302.022880481
 21
378.9523297314
  0
LINE
  5
2B6
100
AcDbEntity
  8
_1
100
AcDbLine
 62
7
  6
CONTINUOUS
 10
251.0602984553
 20
377.4643157854
 11
236.9181039524
 21
385.6291308758
  0
LINE
  5
2B7
100
AcDbEntity
  8
_1
100
AcDbLine
 62
7
  6
CONTINUOUS
 10
321.0638197447
 20
384.4046057746
 11
321.0638197447
 21
380.6486946558
  0
LINE
  5
2B8
100
AcDbEntity
  8
_1
100
AcDbLine
 62
7
  6
CONTINUOUS
 10
321.6924905693
 20
385.6293280382
 11
321.6924905693
 21
387.1826510657
  0
LINE
  5
2B9
100
AcDbEntity
  8
_1
100
AcDbLine
 62
7
  6
CONTINUOUS
 10
321.9424905693
 20
381.8734169194
 11
321.9424905693
 21
385.6293280382
  0
LINE
  5
2BA
100
AcDbEntity
  8
_1
100
AcDbLine
 62
7
  6
CONTINUOUS
 10
322.4780303631
 20
381.0569405094
 11
322.4780303631
 21
380.6486893008
  0
LINE
  5
2BB
100
AcDbEntity
  8
_1
100
AcDbLine
 62
7
  6
CONTINUOUS
 10
323.0638109128
 20
381.4651708098
 11
323.0638109128
 21
381.8734220184
  0
LINE
  5
2BC
100
AcDbEntity
  8
_1
100
AcDbLine
 62
7
  6
CONTINUOUS
 10
329.7129335707
 20
408.4487387169
 11
329.7129335707
 21
396.2308494421
  0
LINE
  5
2BD
100
AcDbEntity
  8
_1
100
AcDbLine
 62
7
  6
CONTINUOUS
 10
354.4263580035
 20
280.6065111959
 11
354.0457801776
 21
280.026625992
  0
LINE
  5
2BE
100
AcDbEntity
  8
_1
100
AcDbLine
 62
7
  6
CONTINUOUS
 10
271.1333939996
 20
389.0633495269
 11
279.3444931594
 21
384.3227764627
  0
LINE
  5
2BF
100
AcDbEntity
  8
_1
100
AcDbLine
 62
7
  6
CONTINUOUS
 10
303.3862149825
 20
371.259066963
 11
287.1226913041
 21
380.648604317
  0
LINE
  5
2C0
100
AcDbEntity
  8
_1
100
AcDbLine
 62
7
  6
CONTINUOUS
 10
303.3862149825
 20
371.6673181716
 11
287.1226913041
 21
381.0568555256
  0
LINE
  5
2C1
100
AcDbEntity
  8
_1
100
AcDbLine
 62
7
  6
CONTINUOUS
 10
302.6791023134
 20
372.4838013803
 11
288.5369078104
 21
380.6486164707
  0
LINE
  5
2C2
100
AcDbEntity
  8
_1
100
AcDbLine
 62
7
  6
CONTINUOUS
 10
302.6791023134
 20
376.2397124991
 11
288.5369078104
 21
384.4045275895
  0
LINE
  5
2C3
100
AcDbEntity
  8
_1
100
AcDbLine
 62
7
  6
CONTINUOUS
 10
339.81436726
 20
380.8600044804
 11
339.8645956874
 21
374.184982606
  0
LINE
  5
2C4
100
AcDbEntity
  8
_1
100
AcDbLine
 62
7
  6
CONTINUOUS
 10
340.839667824
 20
381.4519585035
 11
340.8898962514
 21
374.7769366292
  0
LINE
  5
2C5
100
AcDbEntity
  8
_1
100
AcDbLine
 62
7
  6
CONTINUOUS
 10
343.7034383647
 20
383.1053473266
 11
343.7536667921
 21
376.4303254523
  0
LINE
  5
2C6
100
AcDbEntity
  8
_1
100
AcDbLine
 62
7
  6
CONTINUOUS
 10
349.7637548955
 20
357.1385491493
 11
353.045945823
 21
355.2436182029
  0
LINE
  5
2C7
100
AcDbEntity
  8
_1
100
AcDbLine
 62
7
  6
CONTINUOUS
 10
350.7890554594
 20
357.7305031724
 11
354.071246387
 21
355.835572226
  0
LINE
  5
2C8
100
AcDbEntity
  8
_1
100
AcDbLine
 62
7
  6
CONTINUOUS
 10
321.9424905693
 20
382.9990905769
 11
322.4780185873
 21
382.6899103261
  0
LINE
  5
2C9
100
AcDbEntity
  8
_1
100
AcDbLine
 62
7
  6
CONTINUOUS
 10
356.6379860715
 20
333.4443126538
 11
356.7727666577
 21
315.5328746792
  0
LINE
  5
2CA
100
AcDbEntity
  8
_1
100
AcDbLine
 62
7
  6
CONTINUOUS
 10
357.6632866354
 20
334.0362666769
 11
357.7980672217
 21
316.1248287023
  0
LINE
  5
2CB
100
AcDbEntity
  8
_1
100
AcDbLine
 62
7
  6
CONTINUOUS
 10
356.7727666577
 20
315.5328746792
 11
356.6379860715
 21
297.7770643993
  0
LINE
  5
2CC
100
AcDbEntity
  8
_1
100
AcDbLine
 62
7
  6
CONTINUOUS
 10
357.7980672217
 20
316.1248287023
 11
357.6632866354
 21
298.3690184224
  0
LINE
  5
2CD
100
AcDbEntity
  8
_1
100
AcDbLine
 62
7
  6
CONTINUOUS
 10
288.7331104316
 20
411.9698690424
 11
290.8003549457
 21
410.7763718662
  0
LINE
  5
2CE
100
AcDbEntity
  8
_1
100
AcDbLine
 62
7
  6
CONTINUOUS
 10
326.4715001518
 20
390.1820924839
 11
338.4002016589
 21
383.2952092599
  0
LINE
  5
2CF
100
AcDbEntity
  8
_1
100
AcDbLine
 62
7
  6
CONTINUOUS
 10
289.0849832438
 20
412.9506179635
 11
291.2084130858
 21
411.724682907
  0
LINE
  5
2D0
100
AcDbEntity
  8
_1
100
AcDbLine
 62
7
  6
CONTINUOUS
 10
327.2967845179
 20
390.8895233003
 11
339.4255022229
 21
383.887163283
  0
LINE
  5
2D1
100
AcDbEntity
  8
_1
100
AcDbLine
 62
7
  6
CONTINUOUS
 10
333.4205504953
 20
390.6607954597
 11
342.2892727636
 21
385.5405521062
  0
ARC
  5
2D2
100
AcDbEntity
  8
_1
100
AcDbCircle
 62
7
  6
CONTINUOUS
 10
31.2447997997
 20
-84.8133633657
 40
564.3632963434
100
AcDbArc
 50
62.0699404451
 51
62.7368398328
  0
ARC
  5
2D3
100
AcDbEntity
  8
_1
100
AcDbCircle
 62
7
  6
CONTINUOUS
 10
70.3818519162
 20
-16.8775129334
 40
485.9366688085
100
AcDbArc
 50
57.1070467164
 51
57.7933975999
  0
ARC
  5
2D4
100
AcDbEntity
  8
_1
100
AcDbCircle
 62
7
  6
CONTINUOUS
 10
92.9618118767
 20
-4.6925781876
 40
448.7989918773
100
AcDbArc
 50
53.8783123563
 51
55.2840519765
  0
ARC
  5
2D5
100
AcDbEntity
  8
_1
100
AcDbCircle
 62
7
  6
CONTINUOUS
 10
253.3991783209
 20
304.8914838145
 40
107.2259969043
100
AcDbArc
 50
352.833940458
 51
353.2437280276
  0
ARC
  5
2D6
100
AcDbEntity
  8
_1
100
AcDbCircle
 62
7
  6
CONTINUOUS
 10
256.7293975109
 20
304.4633020502
 40
103.8683774917
100
AcDbArc
 50
350.6805264556
 51
352.8391296753
  0
ARC
  5
2D7
100
AcDbEntity
  8
_1
100
AcDbCircle
 62
7
  6
CONTINUOUS
 10
263.6925988933
 20
303.3332218384
 40
96.8140817479
100
AcDbArc
 50
347.7865871117
 51
350.6731575438
  0
ARC
  5
2D8
100
AcDbEntity
  8
_1
100
AcDbCircle
 62
7
  6
CONTINUOUS
 10
176.0559240386
 20
268.2800389792
 40
24.2813982965
100
AcDbArc
 50
209.101740667
 51
211.1875857401
  0
ARC
  5
2D9
100
AcDbEntity
  8
_1
100
AcDbCircle
 62
7
  6
CONTINUOUS
 10
305.7403576166
 20
343.1527019702
 40
24.201500325
100
AcDbArc
 50
209.0979032283
 51
211.1906797076
  0
ARC
  5
2DA
100
AcDbEntity
  8
_1
100
AcDbCircle
 62
7
  6
CONTINUOUS
 10
363.5597729325
 20
376.537503024
 40
24.0146509334
100
AcDbArc
 50
202.730377194
 51
210.15173765
  0
ARC
  5
2DB
100
AcDbEntity
  8
_1
100
AcDbCircle
 62
7
  6
CONTINUOUS
 10
364.5850734806
 20
377.1294570383
 40
24.0146509154
100
AcDbArc
 50
202.7303769397
 51
210.1517376509
  0
ARC
  5
2DC
100
AcDbEntity
  8
_1
100
AcDbCircle
 62
7
  6
CONTINUOUS
 10
305.5185702228
 20
343.0333425989
 40
23.9496601099
100
AcDbArc
 50
202.7582027981
 51
209.106422208
  0
ARC
  5
2DD
100
AcDbEntity
  8
_1
100
AcDbCircle
 62
7
  6
CONTINUOUS
 10
175.7237475639
 20
268.1000544804
 40
23.9036194063
100
AcDbArc
 50
202.7507380368
 51
209.1120360312
  0
ARC
  5
2DE
100
AcDbEntity
  8
_1
100
AcDbCircle
 62
7
  6
CONTINUOUS
 10
364.3724479378
 20
376.9819675979
 40
23.7567203071
100
AcDbArc
 50
210.1017324648
 51
217.5988934673
  0
ARC
  5
2DF
100
AcDbEntity
  8
_1
100
AcDbCircle
 62
7
  6
CONTINUOUS
 10
363.3471473528
 20
376.3900135609
 40
23.7567202819
100
AcDbArc
 50
210.1017324613
 51
217.5988936513
  0
ARC
  5
2E0
100
AcDbEntity
  8
_1
100
AcDbCircle
 62
7
  6
CONTINUOUS
 10
305.3051054018
 20
342.8704520841
 40
23.6829961047
100
AcDbArc
 50
211.1518783183
 51
217.5678107939
  0
ARC
  5
2E1
100
AcDbEntity
  8
_1
100
AcDbCircle
 62
7
  6
CONTINUOUS
 10
175.5473105022
 20
267.9551994116
 40
23.6780803622
100
AcDbArc
 50
211.1524714926
 51
217.568757627
  0
ARC
  5
2E2
100
AcDbEntity
  8
_1
100
AcDbCircle
 62
7
  6
CONTINUOUS
 10
352.0767395287
 20
353.0505621993
 40
3.4579986114
100
AcDbArc
 50
29.1688153902
 51
33.6323137412
  0
ARC
  5
2E3
100
AcDbEntity
  8
_1
100
AcDbCircle
 62
7
  6
CONTINUOUS
 10
336.4166703139
 20
380.51608025
 40
3.4455032242
100
AcDbArc
 50
24.9931210674
 51
30.1587656649
  0
ARC
  5
2E4
100
AcDbEntity
  8
_1
100
AcDbCircle
 62
7
  6
CONTINUOUS
 10
337.4419708785
 20
381.1080342735
 40
3.4455032234
100
AcDbArc
 50
24.9931210671
 51
30.1587655938
  0
ARC
  5
2E5
100
AcDbEntity
  8
_1
100
AcDbCircle
 62
7
  6
CONTINUOUS
 10
278.434155663
 20
347.0400596329
 40
3.4455032234
100
AcDbArc
 50
24.9931210671
 51
30.1587655867
  0
ARC
  5
2E6
100
AcDbEntity
  8
_1
100
AcDbCircle
 62
7
  6
CONTINUOUS
 10
148.680601534
 20
272.1272573974
 40
3.4455032237
100
AcDbArc
 50
24.9931210672
 51
30.1587656166
  0
ARC
  5
2E7
100
AcDbEntity
  8
_1
100
AcDbCircle
 62
7
  6
CONTINUOUS
 10
278.4372909575
 20
347.0439473786
 40
3.4408396018
100
AcDbArc
 50
30.1290203107
 51
35.2993312603
  0
ARC
  5
2E8
100
AcDbEntity
  8
_1
100
AcDbCircle
 62
7
  6
CONTINUOUS
 10
336.4198056096
 20
380.5199679965
 40
3.4408396011
100
AcDbArc
 50
30.1290203889
 51
35.2993312606
  0
ARC
  5
2E9
100
AcDbEntity
  8
_1
100
AcDbCircle
 62
7
  6
CONTINUOUS
 10
337.445106173
 20
381.1119220193
 40
3.4408396017
100
AcDbArc
 50
30.1290203176
 51
35.2993312603
  0
ARC
  5
2EA
100
AcDbEntity
  8
_1
100
AcDbCircle
 62
7
  6
CONTINUOUS
 10
148.6837368289
 20
272.1311451434
 40
3.4408396016
100
AcDbArc
 50
30.1290203406
 51
35.2993312603
  0
ARC
  5
2EB
100
AcDbEntity
  8
_1
100
AcDbCircle
 62
7
  6
CONTINUOUS
 10
351.0687780323
 20
352.469986522
 40
3.4372599728
100
AcDbArc
 50
32.7689213337
 51
34.4984852361
  0
ARC
  5
2EC
100
AcDbEntity
  8
_1
100
AcDbCircle
 62
7
  6
CONTINUOUS
 10
352.1598082057
 20
353.1072038896
 40
3.3574634452
100
AcDbArc
 50
33.6126569654
 51
38.1649320577
  0
ARC
  5
2ED
100
AcDbEntity
  8
_1
100
AcDbCircle
 62
7
  6
CONTINUOUS
 10
100.8753074172
 20
291.615123033
 40
2.4680085562
100
AcDbArc
 50
151.2713643989
 51
154.8154537186
  0
ARC
  5
2EE
100
AcDbEntity
  8
_1
100
AcDbCircle
 62
7
  6
CONTINUOUS
 10
239.7588381772
 20
387.8556199892
 40
2.4523654028
100
AcDbArc
 50
299.9715783402
 51
303.5294942621
  0
ARC
  5
2EF
100
AcDbEntity
  8
_1
100
AcDbCircle
 62
7
  6
CONTINUOUS
 10
291.3879093446
 20
386.614426798
 40
2.4328648431
100
AcDbArc
 50
299.9572954797
 51
303.5458790014
  0
ARC
  5
2F0
100
AcDbEntity
  8
_1
100
AcDbCircle
 62
7
  6
CONTINUOUS
 10
340.1069418053
 20
272.5703788001
 40
0.6747252076
100
AcDbArc
 50
300.0211313299
 51
310.3729715359
  0
ARC
  5
2F1
100
AcDbEntity
  8
_1
100
AcDbCircle
 62
7
  6
CONTINUOUS
 10
339.082419742
 20
271.977290666
 40
0.6733537574
100
AcDbArc
 50
300.0120573078
 51
309.2938660742
  0
ARC
  5
2F2
100
AcDbEntity
  8
_1
100
AcDbCircle
 62
7
  6
CONTINUOUS
 10
354.7391429633
 20
281.1941072572
 40
0.6646913826
100
AcDbArc
 50
299.9744123106
 51
302.4927401398
  0
SPLINE
  5
2F3
100
AcDbEntity
  8
_1
100
AcDbSpline
 62
7
  6
CONTINUOUS
 70
0
 71
3
 72
17
 73
13
 74
0
 42
0.0000001
 43
0.0000001
 44
0.0000000001
 40
0.0
 40
0.0
 40
0.0
 40
0.0
 40
0.1286846125
 40
0.2702739987
 40
0.4174290358
 40
0.5617773219
 40
0.695449554
 40
0.8127136541
 40
0.8646778225
 40
0.9125114386
 40
0.957140578
 40
1.0
 40
1.0
 40
1.0
 40
1.0
 10
106.4575961287
 20
301.571955096
 30
0.0
 10
106.2355309314
 20
301.7001615971
 30
0.0
 10
105.7327307319
 20
301.9076068906
 30
0.0
 10
104.9132736131
 20
302.0715823919
 30
0.0
 10
104.0465202346
 20
302.095565259
 30
0.0
 10
103.2032390744
 20
301.9770739277
 30
0.0
 10
102.4517812091
 20
301.726087462
 30
0.0
 10
101.929173249
 20
301.4079406492
 30
0.0
 10
101.6224496146
 20
301.1001421103
 30
0.0
 10
101.4595334077
 20
300.8604804954
 30
0.0
 10
101.3591138432
 20
300.6076992215
 30
0.0
 10
101.3363008822
 20
300.4326244243
 30
0.0
 10
101.3362929545
 20
300.3472226092
 30
0.0
  0
SPLINE
  5
2F4
100
AcDbEntity
  8
_1
100
AcDbSpline
 62
7
  6
CONTINUOUS
 70
0
 71
3
 72
9
 73
5
 74
0
 42
0.0000001
 43
0.0000001
 44
0.0000000001
 40
0.0
 40
0.0
 40
0.0
 40
0.0
 40
0.5082778116
 40
1.0
 40
1.0
 40
1.0
 40
1.0
 10
98.6419031639
 20
292.6653476159
 30
0.0
 10
98.5756077608
 20
292.5241982031
 30
0.0
 10
98.4722042772
 20
292.232588147
 30
0.0
 10
98.4362853318
 20
291.9248110022
 30
0.0
 10
98.4362951563
 20
291.7739473218
 30
0.0
  0
SPLINE
  5
2F5
100
AcDbEntity
  8
_1
100
AcDbSpline
 62
7
  6
CONTINUOUS
 70
0
 71
3
 72
9
 73
5
 74
0
 42
0.0000001
 43
0.0000001
 44
0.0000000001
 40
0.0
 40
0.0
 40
0.0
 40
0.0
 40
0.2534296746
 40
1.0
 40
1.0
 40
1.0
 40
1.0
 10
98.4235798454
 20
291.0562819266
 30
0.0
 10
98.4091586463
 20
291.0080124708
 30
0.0
 10
98.3588586589
 20
290.815647006
 30
0.0
 10
98.3362872644
 20
290.6159493946
 30
0.0
 10
98.3362872521
 20
290.4675433871
 30
0.0
  0
SPLINE
  5
2F6
100
AcDbEntity
  8
_1
100
AcDbSpline
 62
7
  6
CONTINUOUS
 70
0
 71
3
 72
12
 73
8
 74
0
 42
0.0000001
 43
0.0000001
 44
0.0000000001
 40
0.0
 40
0.0
 40
0.0
 40
0.0
 40
0.289590259
 40
0.5486315512
 40
0.7816353698
 40
0.8918360408
 40
1.0
 40
1.0
 40
1.0
 40
1.0
 10
100.0936615938
 20
286.7116745965
 30
0.0
 10
99.8302858466
 20
286.8637312151
 30
0.0
 10
99.3525604642
 20
287.1927328002
 30
0.0
 10
98.7818686814
 20
287.7922124908
 30
0.0
 10
98.4753986657
 20
288.3570592404
 30
0.0
 10
98.356059076
 20
288.8177564377
 30
0.0
 10
98.3362873285
 20
289.0475492005
 30
0.0
 10
98.3362872983
 20
289.1611395195
 30
0.0
  0
SPLINE
  5
2F7
100
AcDbEntity
  8
_1
100
AcDbSpline
 62
7
  6
CONTINUOUS
 70
0
 71
3
 72
18
 73
14
 74
0
 42
0.0000001
 43
0.0000001
 44
0.0000000001
 40
0.0
 40
0.0
 40
0.0
 40
0.0
 40
0.0434167239
 40
0.0895820918
 40
0.139418781
 40
0.1934109464
 40
0.2516539896
 40
0.3139286406
 40
0.4483884745
 40
0.5913386389
 40
0.7356534066
 40
0.8739887491
 40
1.0
 40
1.0
 40
1.0
 40
1.0
 10
109.7930317771
 20
284.109693761
 30
0.0
 10
109.7603964773
 20
283.9603191341
 30
0.0
 10
109.6555133886
 20
283.6594098096
 30
0.0
 10
109.3975322127
 20
283.2381026053
 30
0.0
 10
109.0422464295
 20
282.8437347473
 30
0.0
 10
108.5973027671
 20
282.4831551146
 30
0.0
 10
108.0713050177
 20
282.1622587184
 30
0.0
 10
107.2544449095
 20
281.7855222921
 30
0.0
 10
106.0962712153
 20
281.4565074257
 30
0.0
 10
104.613807851
 20
281.2956633227
 30
0.0
 10
103.1102308023
 20
281.3706373017
 30
0.0
 10
101.6973282567
 20
281.6754543665
 30
0.0
 10
100.83152872
 20
282.0398534268
 30
0.0
 10
100.4472135124
 20
282.2617328958
 30
0.0
  0
SPLINE
  5
2F8
100
AcDbEntity
  8
_1
100
AcDbSpline
 62
7
  6
CONTINUOUS
 70
0
 71
3
 72
9
 73
5
 74
0
 42
0.0000001
 43
0.0000001
 44
0.0000000001
 40
0.0
 40
0.0
 40
0.0
 40
0.0
 40
0.2480919409
 40
1.0
 40
1.0
 40
1.0
 40
1.0
 10
110.3362819821
 20
290.4675433872
 30
0.0
 10
110.3362819862
 20
290.5169874552
 30
0.0
 10
110.3289145265
 20
290.7162397368
 30
0.0
 10
110.2915489792
 20
290.9141969619
 30
0.0
 10
110.2485525255
 20
291.0577494368
 30
0.0
  0
SPLINE
  5
2F9
100
AcDbEntity
  8
_1
100
AcDbSpline
 62
7
  6
CONTINUOUS
 70
0
 71
3
 72
9
 73
5
 74
0
 42
0.0000001
 43
0.0000001
 44
0.0000000001
 40
0.0
 40
0.0
 40
0.0
 40
0.0
 40
0.4863860487
 40
1.0
 40
1.0
 40
1.0
 40
1.0
 10
110.3362819359
 20
289.16113952
 30
0.0
 10
110.3362819893
 20
288.9600933662
 30
0.0
 10
110.2721229073
 20
288.5446478937
 30
0.0
 10
110.0929951964
 20
288.1661277199
 30
0.0
 10
109.9805215329
 20
287.9860686416
 30
0.0
  0
SPLINE
  5
2FA
100
AcDbEntity
  8
_1
100
AcDbSpline
 62
7
  6
CONTINUOUS
 70
0
 71
3
 72
16
 73
12
 74
0
 42
0.0000001
 43
0.0000001
 44
0.0000000001
 40
0.0
 40
0.0
 40
0.0
 40
0.0
 40
0.0962745488
 40
0.1499844641
 40
0.2073787468
 40
0.3320312695
 40
0.4668497634
 40
0.6067191094
 40
0.7458488196
 40
0.878544876
 40
1.0
 40
1.0
 40
1.0
 40
1.0
 10
109.9805215329
 20
287.9860686416
 30
0.0
 10
109.7982902188
 20
287.6943345464
 30
0.0
 10
109.427608204
 20
287.2922163546
 30
0.0
 10
108.8306339326
 20
286.8525747496
 30
0.0
 10
108.0979184466
 20
286.4332040092
 30
0.0
 10
107.0337138928
 20
286.0271002117
 30
0.0
 10
105.6302537914
 20
285.74214434
 30
0.0
 10
104.1487203733
 20
285.6631173226
 30
0.0
 10
102.6783898781
 20
285.7949529787
 30
0.0
 10
101.3081862653
 20
286.1293151228
 30
0.0
 10
100.469465314
 20
286.4947091259
 30
0.0
 10
100.0936615938
 20
286.7116745965
 30
0.0
  0
SPLINE
  5
2FB
100
AcDbEntity
  8
_1
100
AcDbSpline
 62
7
  6
CONTINUOUS
 70
0
 71
3
 72
9
 73
5
 74
0
 42
0.0000001
 43
0.0000001
 44
0.0000000001
 40
0.0
 40
0.0
 40
0.0
 40
0.0
 40
0.4882893328
 40
1.0
 40
1.0
 40
1.0
 40
1.0
 10
110.2362740779
 20
291.7739471874
 30
0.0
 10
110.2362622302
 20
291.9558793883
 30
0.0
 10
110.1833026609
 20
292.3301176888
 30
0.0
 10
110.0336484819
 20
292.6760176444
 30
0.0
 10
109.9390148384
 20
292.8415327302
 30
0.0
  0
SPLINE
  5
2FC
100
AcDbEntity
  8
_1
100
AcDbSpline
 62
7
  6
CONTINUOUS
 70
0
 71
3
 72
11
 73
7
 74
0
 42
0.0000001
 43
0.0000001
 44
0.0000000001
 40
0.0
 40
0.0
 40
0.0
 40
0.0
 40
0.2177654791
 40
0.4509464802
 40
0.7101902456
 40
1.0
 40
1.0
 40
1.0
 40
1.0
 10
107.3362762796
 20
300.3472226596
 30
0.0
 10
107.336286886
 20
300.4614812321
 30
0.0
 10
107.2941051878
 20
300.6996871522
 30
0.0
 10
107.1134853528
 20
301.0314352894
 30
0.0
 10
106.8281536672
 20
301.3315071228
 30
0.0
 10
106.5892840212
 20
301.4959267759
 30
0.0
 10
106.4575961287
 20
301.571955096
 30
0.0
  0
SPLINE
  5
2FD
100
AcDbEntity
  8
_1
100
AcDbSpline
 62
7
  6
CONTINUOUS
 70
0
 71
3
 72
12
 73
8
 74
0
 42
0.0000001
 43
0.0000001
 44
0.0000000001
 40
0.0
 40
0.0
 40
0.0
 40
0.0
 40
0.2895906063
 40
0.5486312377
 40
0.7816356752
 40
0.8918361253
 40
1.0
 40
1.0
 40
1.0
 40
1.0
 10
100.4472135124
 20
282.2617328958
 30
0.0
 10
100.2057855599
 20
282.4011182359
 30
0.0
 10
99.7678717794
 20
282.702701739
 30
0.0
 10
99.2447328276
 20
283.2522258377
 30
0.0
 10
98.9638230991
 20
283.7700061551
 30
0.0
 10
98.8543952193
 20
284.1923062087
 30
0.0
 10
98.8363013898
 20
284.4029514643
 30
0.0
 10
98.8362945771
 20
284.5070757964
 30
0.0
  0
SPLINE
  5
2FE
100
AcDbEntity
  8
_1
100
AcDbSpline
 62
7
  6
CONTINUOUS
 70
0
 71
3
 72
11
 73
7
 74
0
 42
0.0000001
 43
0.0000001
 44
0.0000000001
 40
0.0
 40
0.0
 40
0.0
 40
0.0
 40
0.289808241
 40
0.5490507111
 40
0.7822324379
 40
1.0
 40
1.0
 40
1.0
 40
1.0
 10
102.2149731054
 20
294.6317268786
 30
0.0
 10
102.0832859016
 20
294.7077548012
 30
0.0
 10
101.8444172229
 20
294.8721732782
 30
0.0
 10
101.5590862341
 20
295.1722440939
 30
0.0
 10
101.3784645106
 20
295.5039921434
 30
0.0
 10
101.336282526
 20
295.7421996447
 30
0.0
 10
101.3362930427
 20
295.8564593093
 30
0.0
  0
SPLINE
  5
2FF
100
AcDbEntity
  8
_1
100
AcDbSpline
 62
7
  6
CONTINUOUS
 70
0
 71
3
 72
19
 73
15
 74
0
 42
0.0000001
 43
0.0000001
 44
0.0000000001
 40
0.0
 40
0.0
 40
0.0
 40
0.0
 40
0.1286236318
 40
0.2701531766
 40
0.4172455389
 40
0.5615297991
 40
0.6301813492
 40
0.6953202195
 40
0.7563156864
 40
0.8127972098
 40
0.8647383412
 40
0.9125504121
 40
0.9571595127
 40
1.0
 40
1.0
 40
1.0
 40
1.0
 10
100.0936615938
 20
288.0180784639
 30
0.0
 10
100.5377787107
 20
287.7616731276
 30
0.0
 10
101.5433589484
 20
287.3467820416
 30
0.0
 10
103.1823509149
 20
287.0188085321
 30
0.0
 10
104.9156094879
 20
286.9709100568
 30
0.0
 10
106.3452090544
 20
287.171465868
 30
0.0
 10
107.4120633666
 20
287.4788038708
 30
0.0
 10
108.133841591
 20
287.7696058447
 30
0.0
 10
108.7750523195
 20
288.1183524135
 30
0.0
 10
109.3223101921
 20
288.5182426354
 30
0.0
 10
109.7639545477
 20
288.9617423247
 30
0.0
 10
110.0898023224
 20
289.4410201163
 30
0.0
 10
110.2906150637
 20
289.9465950451
 30
0.0
 10
110.3362819678
 20
290.296739379
 30
0.0
 10
110.3362819821
 20
290.4675433872
 30
0.0
  0
SPLINE
  5
300
100
AcDbEntity
  8
_1
100
AcDbSpline
 62
7
  6
CONTINUOUS
 70
0
 71
3
 72
19
 73
15
 74
0
 42
0.0000001
 43
0.0000001
 44
0.0000000001
 40
0.0
 40
0.0
 40
0.0
 40
0.0
 40
0.0428412233
 40
0.0874509656
 40
0.135263641
 40
0.1872052189
 40
0.2436870005
 40
0.3046825314
 40
0.3698212415
 40
0.4384722993
 40
0.5827545665
 40
0.7298449855
 40
0.8713734959
 40
1.0
 40
1.0
 40
1.0
 40
1.0
 10
110.2362738223
 20
290.467543313
 30
0.0
 10
110.236284886
 20
290.2995832523
 30
0.0
 10
110.1913583647
 20
289.9552696046
 30
0.0
 10
109.9938928297
 20
289.4581157996
 30
0.0
 10
109.673468937
 20
288.9868217066
 30
0.0
 10
109.2391816304
 20
288.5507112321
 30
0.0
 10
108.7010419939
 20
288.1574848958
 30
0.0
 10
108.0705173156
 20
287.8145517986
 30
0.0
 10
107.3607701836
 20
287.5286001009
 30
0.0
 10
106.311705629
 20
287.2263934246
 30
0.0
 10
104.905950098
 20
287.029189432
 30
0.0
 10
103.2016004386
 20
287.0762911479
 30
0.0
 10
101.5899248633
 20
287.398788714
 30
0.0
 10
100.6010966362
 20
287.8067654842
 30
0.0
 10
100.1643719775
 20
288.0589028793
 30
0.0
  0
SPLINE
  5
301
100
AcDbEntity
  8
_1
100
AcDbSpline
 62
7
  6
CONTINUOUS
 70
0
 71
3
 72
12
 73
8
 74
0
 42
0.0000001
 43
0.0000001
 44
0.0000000001
 40
0.0
 40
0.0
 40
0.0
 40
0.0
 40
0.289590773
 40
0.548631305
 40
0.7816354388
 40
0.8918359095
 40
1.0
 40
1.0
 40
1.0
 40
1.0
 10
100.1643719775
 20
288.0589028793
 30
0.0
 10
99.905385477
 20
288.2084254224
 30
0.0
 10
99.435623352
 20
288.5319423322
 30
0.0
 10
98.8744382292
 20
289.1214317314
 30
0.0
 10
98.573098646
 20
289.6768683133
 30
0.0
 10
98.4557124742
 20
290.129881074
 30
0.0
 10
98.4363027694
 20
290.3558462266
 30
0.0
 10
98.4362954118
 20
290.4675434613
 30
0.0
  0
SPLINE
  5
302
100
AcDbEntity
  8
_1
100
AcDbSpline
 62
7
  6
CONTINUOUS
 70
0
 71
3
 72
12
 73
8
 74
0
 42
0.0000001
 43
0.0000001
 44
0.0000000001
 40
0.0
 40
0.0
 40
0.0
 40
0.0
 40
0.1081626038
 40
0.2183618467
 40
0.4513645038
 40
0.7104054719
 40
1.0
 40
1.0
 40
1.0
 40
1.0
 10
98.4362951563
 20
291.7739473218
 30
0.0
 10
98.43630243
 20
291.6622516231
 30
0.0
 10
98.4557119043
 20
291.4362892982
 30
0.0
 10
98.5730957038
 20
290.9832804861
 30
0.0
 10
98.8744315927
 20
290.4278446867
 30
0.0
 10
99.4356165698
 20
289.838351068
 30
0.0
 10
99.9053821205
 20
289.5148312277
 30
0.0
 10
100.1643719775
 20
289.3653067467
 30
0.0
  0
SPLINE
  5
303
100
AcDbEntity
  8
_1
100
AcDbSpline
 62
7
  6
CONTINUOUS
 70
0
 71
3
 72
11
 73
7
 74
0
 42
0.0000001
 43
0.0000001
 44
0.0000000001
 40
0.0
 40
0.0
 40
0.0
 40
0.0
 40
0.2177654791
 40
0.4509464802
 40
0.7101902456
 40
1.0
 40
1.0
 40
1.0
 40
1.0
 10
101.3362929545
 20
300.3472226092
 30
0.0
 10
101.3362823481
 20
300.2329640368
 30
0.0
 10
101.3784640464
 20
299.9947581167
 30
0.0
 10
101.5590838813
 20
299.6630099794
 30
0.0
 10
101.844415567
 20
299.362938146
 30
0.0
 10
102.083285213
 20
299.198518493
 30
0.0
 10
102.2149731054
 20
299.1224901728
 30
0.0
  0
SPLINE
  5
304
100
AcDbEntity
  8
_1
100
AcDbSpline
 62
7
  6
CONTINUOUS
 70
0
 71
3
 72
17
 73
13
 74
0
 42
0.0000001
 43
0.0000001
 44
0.0000000001
 40
0.0
 40
0.0
 40
0.0
 40
0.0
 40
0.0428596906
 40
0.0874893401
 40
0.1353235906
 40
0.1872882848
 40
0.304552593
 40
0.4382233774
 40
0.5825693514
 40
0.7297234769
 40
0.8713136326
 40
1.0
 40
1.0
 40
1.0
 40
1.0
 10
107.3362761914
 20
295.8564593711
 30
0.0
 10
107.3362683307
 20
295.7710570207
 30
0.0
 10
107.313455172
 20
295.5959806448
 30
0.0
 10
107.213033971
 20
295.3431968692
 30
0.0
 10
107.0501142967
 20
295.1035335177
 30
0.0
 10
106.7433871914
 20
294.7957346176
 30
0.0
 10
106.2207790955
 20
294.4775909537
 30
0.0
 10
105.4693277306
 20
294.2266078927
 30
0.0
 10
104.6260559307
 20
294.1081182195
 30
0.0
 10
103.759307456
 20
294.1320981738
 30
0.0
 10
102.9398467747
 20
294.2960724327
 30
0.0
 10
102.4370413315
 20
294.503518629
 30
0.0
 10
102.2149731054
 20
294.6317268786
 30
0.0
  0
SPLINE
  5
305
100
AcDbEntity
  8
_1
100
AcDbSpline
 62
7
  6
CONTINUOUS
 70
0
 71
3
 72
19
 73
15
 74
0
 42
0.0000001
 43
0.0000001
 44
0.0000000001
 40
0.0
 40
0.0
 40
0.0
 40
0.0
 40
0.1286249242
 40
0.2701539151
 40
0.417246318
 40
0.5615307741
 40
0.6301824555
 40
0.6953213133
 40
0.7563166028
 40
0.8127978531
 40
0.8647386972
 40
0.9125505467
 40
0.9571594867
 40
1.0
 40
1.0
 40
1.0
 40
1.0
 10
100.1643719775
 20
289.3653067467
 30
0.0
 10
100.6010912804
 20
289.1131724437
 30
0.0
 10
101.5899145645
 20
288.7051956985
 30
0.0
 10
103.2015932881
 20
288.3826948667
 30
0.0
 10
104.9059614442
 20
288.3355929325
 30
0.0
 10
106.3117356436
 20
288.532802236
 30
0.0
 10
107.3608099495
 20
288.8350174104
 30
0.0
 10
108.0705570584
 20
289.1209748695
 30
0.0
 10
108.7010769801
 20
289.463911634
 30
0.0
 10
109.2392086311
 20
289.8571388833
 30
0.0
 10
109.6734866053
 20
290.2932470432
 30
0.0
 10
109.9939016304
 20
290.7645358233
 30
0.0
 10
110.1913608323
 20
291.2616821884
 30
0.0
 10
110.2362850155
 20
291.6059899072
 30
0.0
 10
110.2362740779
 20
291.7739471874
 30
0.0
  0
SPLINE
  5
306
100
AcDbEntity
  8
_1
100
AcDbSpline
 62
7
  6
CONTINUOUS
 70
0
 71
3
 72
17
 73
13
 74
0
 42
0.0000001
 43
0.0000001
 44
0.0000000001
 40
0.0
 40
0.0
 40
0.0
 40
0.0
 40
0.1286846125
 40
0.2702739987
 40
0.4174290358
 40
0.5617773219
 40
0.695449554
 40
0.8127136541
 40
0.8646778225
 40
0.9125114386
 40
0.957140578
 40
1.0
 40
1.0
 40
1.0
 40
1.0
 10
102.2149731054
 20
299.1224901728
 30
0.0
 10
102.4370383027
 20
298.9942836718
 30
0.0
 10
102.9398385023
 20
298.7868383783
 30
0.0
 10
103.759295621
 20
298.622862877
 30
0.0
 10
104.6260489995
 20
298.5988800098
 30
0.0
 10
105.4693301597
 20
298.7173713412
 30
0.0
 10
106.2207880251
 20
298.9683578069
 30
0.0
 10
106.7433959851
 20
299.2865046197
 30
0.0
 10
107.0501196196
 20
299.5943031585
 30
0.0
 10
107.2130358265
 20
299.8339647734
 30
0.0
 10
107.3134553909
 20
300.0867460474
 30
0.0
 10
107.336268352
 20
300.2618208445
 30
0.0
 10
107.3362762796
 20
300.3472226596
 30
0.0
  0
SPLINE
  5
307
100
AcDbEntity
  8
_1
100
AcDbSpline
 62
7
  6
CONTINUOUS
 70
0
 71
3
 72
11
 73
7
 74
0
 42
0.0000001
 43
0.0000001
 44
0.0000000001
 40
0.0
 40
0.0
 40
0.0
 40
0.0
 40
0.2230323624
 40
0.4585397742
 40
0.7158527423
 40
1.0
 40
1.0
 40
1.0
 40
1.0
 10
98.8362839317
 20
285.0786274363
 30
0.0
 10
98.8362850953
 20
284.8945208205
 30
0.0
 10
98.8950782721
 20
284.5139033048
 30
0.0
 10
99.15046754
 20
283.9736006205
 30
0.0
 10
99.5594506815
 20
283.4729306707
 30
0.0
 10
99.9073079339
 20
283.1878709599
 30
0.0
 10
100.0996990207
 20
283.0537002115
 30
0.0
  0
SPLINE
  5
308
100
AcDbEntity
  8
_1
100
AcDbSpline
 62
7
  6
CONTINUOUS
 70
0
 71
3
 72
11
 73
7
 74
0
 42
0.0000001
 43
0.0000001
 44
0.0000000001
 40
0.0
 40
0.0
 40
0.0
 40
0.0
 40
0.2869683971
 40
0.5516758507
 40
0.7895207465
 40
1.0
 40
1.0
 40
1.0
 40
1.0
 10
106.2516548137
 20
282.1020187929
 30
0.0
 10
106.6095689827
 20
282.1787860824
 30
0.0
 10
107.2892672086
 20
282.371225103
 30
0.0
 10
108.2098937991
 20
282.7906912198
 30
0.0
 10
108.960371897
 20
283.3144551894
 30
0.0
 10
109.3467302134
 20
283.7470460279
 30
0.0
 10
109.4920116719
 20
283.9728285301
 30
0.0
  0
SPLINE
  5
309
100
AcDbEntity
  8
_1
100
AcDbSpline
 62
7
  6
CONTINUOUS
 70
0
 71
3
 72
11
 73
7
 74
0
 42
0.0000001
 43
0.0000001
 44
0.0000000001
 40
0.0
 40
0.0
 40
0.0
 40
0.0
 40
0.2325716902
 40
0.481460478
 40
0.7398523319
 40
1.0
 40
1.0
 40
1.0
 40
1.0
 10
100.8289929229
 20
282.6326517061
 30
0.0
 10
101.1457173312
 20
282.4812720184
 30
0.0
 10
101.8295730511
 20
282.2252237063
 30
0.0
 10
102.9233116364
 20
281.9849975568
 30
0.0
 10
104.0800609615
 20
281.8826228465
 30
0.0
 10
104.8646283951
 20
281.9096579878
 30
0.0
 10
105.2554260756
 20
281.9479013075
 30
0.0
  0
SPLINE
  5
30A
100
AcDbEntity
  8
_1
100
AcDbSpline
 62
7
  6
CONTINUOUS
 70
0
 71
3
 72
12
 73
8
 74
0
 42
0.0000001
 43
0.0000001
 44
0.0000000001
 40
0.0
 40
0.0
 40
0.0
 40
0.0
 40
0.1081626199
 40
0.2183621762
 40
0.4513646619
 40
0.7104061986
 40
1.0
 40
1.0
 40
1.0
 40
1.0
 10
98.3362872521
 20
290.4675433871
 30
0.0
 10
98.3362872426
 20
290.3539544778
 30
0.0
 10
98.3560582405
 20
290.124164266
 30
0.0
 10
98.4753963822
 20
289.6634708473
 30
0.0
 10
98.781862627
 20
289.0986249735
 30
0.0
 10
99.3525540513
 20
288.4991411268
 30
0.0
 10
99.8302826324
 20
288.1701369382
 30
0.0
 10
100.0936615938
 20
288.0180784639
 30
0.0
  0
SPLINE
  5
30B
100
AcDbEntity
  8
_1
100
AcDbSpline
 62
7
  6
CONTINUOUS
 70
0
 71
3
 72
15
 73
11
 74
0
 42
0.0000001
 43
0.0000001
 44
0.0000000001
 40
0.0
 40
0.0
 40
0.0
 40
0.0
 40
0.1178063471
 40
0.2458658714
 40
0.3805046476
 40
0.5172926292
 40
0.6515693495
 40
0.7789445567
 40
0.8958174322
 40
1.0
 40
1.0
 40
1.0
 40
1.0
 10
314.6998910978
 20
382.853332183
 30
0.0
 10
313.9116455069
 20
382.3982410955
 30
0.0
 10
312.1677868143
 20
381.6155067114
 30
0.0
 10
309.3203430306
 20
380.8469215337
 30
0.0
 10
306.248596964
 20
380.4607878167
 30
0.0
 10
303.1054146829
 20
380.4767993287
 30
0.0
 10
300.0461793792
 20
380.8937974385
 30
0.0
 10
297.2211124462
 20
381.692147371
 30
0.0
 10
294.769062213
 20
382.8323537458
 30
0.0
 10
293.3765563731
 20
383.8512007022
 30
0.0
 10
292.7964505965
 20
384.409219688
 30
0.0
  0
SPLINE
  5
30C
100
AcDbEntity
  8
_1
100
AcDbSpline
 62
7
  6
CONTINUOUS
 70
0
 71
3
 72
11
 73
7
 74
0
 42
0.0000001
 43
0.0000001
 44
0.0000000001
 40
0.0
 40
0.0
 40
0.0
 40
0.0
 40
0.274201297
 40
0.5287762501
 40
0.7684440553
 40
1.0
 40
1.0
 40
1.0
 40
1.0
 10
292.7964505965
 20
384.409219688
 30
0.0
 10
292.4845435815
 20
384.7092512394
 30
0.0
 10
291.9239691039
 20
385.3334410321
 30
0.0
 10
291.2826934396
 20
386.3715578823
 30
0.0
 10
290.8893757811
 20
387.4567566728
 30
0.0
 10
290.8003607884
 20
388.2032249303
 30
0.0
 10
290.8003610862
 20
388.5687027459
 30
0.0
  0
SPLINE
  5
30D
100
AcDbEntity
  8
_1
100
AcDbSpline
 62
7
  6
CONTINUOUS
 70
0
 71
3
 72
9
 73
5
 74
0
 42
0.0000001
 43
0.0000001
 44
0.0000000001
 40
0.0
 40
0.0
 40
0.0
 40
0.0
 40
0.5137302264
 40
1.0
 40
1.0
 40
1.0
 40
1.0
 10
287.837913195
 20
386.219689285
 30
0.0
 10
287.7811399148
 20
386.1292853848
 30
0.0
 10
287.6906847652
 20
385.9391657688
 30
0.0
 10
287.6582413732
 20
385.7303061892
 30
0.0
 10
287.6582413744
 20
385.6292600512
 30
0.0
  0
SPLINE
  5
30E
100
AcDbEntity
  8
_1
100
AcDbSpline
 62
7
  6
CONTINUOUS
 70
0
 71
3
 72
11
 73
7
 74
0
 42
0.0000001
 43
0.0000001
 44
0.0000000001
 40
0.0
 40
0.0
 40
0.0
 40
0.0
 40
0.2897781767
 40
0.5490726313
 40
0.7822276909
 40
1.0
 40
1.0
 40
1.0
 40
1.0
 10
288.5369078104
 20
380.6486164707
 30
0.0
 10
288.4052354495
 20
380.724635824
 30
0.0
 10
288.1663799328
 20
380.8890809239
 30
0.0
 10
287.8810085746
 20
381.1891125026
 30
0.0
 10
287.7004390607
 20
381.5209036955
 30
0.0
 10
287.6582413759
 20
381.7590878022
 30
0.0
 10
287.6582413744
 20
381.8733489324
 30
0.0
  0
SPLINE
  5
30F
100
AcDbEntity
  8
_1
100
AcDbSpline
 62
7
  6
CONTINUOUS
 70
0
 71
3
 72
11
 73
7
 74
0
 42
0.0000001
 43
0.0000001
 44
0.0000000001
 40
0.0
 40
0.0
 40
0.0
 40
0.0
 40
0.2372279391
 40
0.4999994739
 40
0.762771295
 40
1.0
 40
1.0
 40
1.0
 40
1.0
 10
306.9217430005
 20
372.4838115784
 30
0.0
 10
306.6205907152
 20
372.3099422633
 30
0.0
 10
305.9202355104
 20
372.0561976508
 30
0.0
 10
304.8004259921
 20
371.9346480873
 30
0.0
 10
303.6806147842
 20
372.0561925406
 30
0.0
 10
302.9802568248
 20
372.3099336755
 30
0.0
 10
302.6791023134
 20
372.4838013803
 30
0.0
  0
SPLINE
  5
310
100
AcDbEntity
  8
_1
100
AcDbSpline
 62
7
  6
CONTINUOUS
 70
0
 71
3
 72
19
 73
15
 74
0
 42
0.0000001
 43
0.0000001
 44
0.0000000001
 40
0.0
 40
0.0
 40
0.0
 40
0.0
 40
0.0428420503
 40
0.0874525389
 40
0.1352657678
 40
0.1872076769
 40
0.2436895661
 40
0.3046850129
 40
0.3698234939
 40
0.4384742347
 40
0.5827557673
 40
0.7298453638
 40
0.8713735349
 40
1.0
 40
1.0
 40
1.0
 40
1.0
 10
325.1778780332
 20
427.6564547697
 30
0.0
 10
325.461393463
 20
427.8201662975
 30
0.0
 10
326.0863974898
 20
428.079895587
 30
0.0
 10
327.1180646769
 20
428.2310957579
 30
0.0
 10
328.225911397
 20
428.1495378957
 30
0.0
 10
329.3853341537
 20
427.8414877039
 30
0.0
 10
330.5735773694
 20
427.316338853
 30
0.0
 10
331.7669585737
 20
426.5862275701
 30
0.0
 10
332.9413602878
 20
425.6668539375
 30
0.0
 10
334.4738909119
 20
424.1905503708
 30
0.0
 10
336.1767942262
 20
422.0098105683
 30
0.0
 10
337.7582995788
 20
419.086936424
 30
0.0
 10
338.7846043765
 20
416.0520955077
 30
0.0
 10
339.0596035699
 20
413.9853256902
 30
0.0
 10
339.0596035699
 20
413.0023971295
 30
0.0
  0
SPLINE
  5
311
100
AcDbEntity
  8
_1
100
AcDbSpline
 62
7
  6
CONTINUOUS
 70
0
 71
3
 72
11
 73
7
 74
0
 42
0.0000001
 43
0.0000001
 44
0.0000000001
 40
0.0
 40
0.0
 40
0.0
 40
0.0
 40
0.2355178527
 40
0.4761203092
 40
0.7289002047
 40
1.0
 40
1.0
 40
1.0
 40
1.0
 10
307.550413825
 20
379.097449795
 30
0.0
 10
307.550413825
 20
379.2586530503
 30
0.0
 10
307.4846045803
 20
379.5875076744
 30
0.0
 10
307.214210669
 20
380.0170624807
 30
0.0
 10
306.8149848414
 20
380.364081228
 30
0.0
 10
306.4958200896
 20
380.5335545123
 30
0.0
 10
306.3249210315
 20
380.6058400646
 30
0.0
  0
SPLINE
  5
312
100
AcDbEntity
  8
_1
100
AcDbSpline
 62
7
  6
CONTINUOUS
 70
0
 71
3
 72
9
 73
5
 74
0
 42
0.0000001
 43
0.0000001
 44
0.0000000001
 40
0.0
 40
0.0
 40
0.0
 40
0.0
 40
0.2552683965
 40
1.0
 40
1.0
 40
1.0
 40
1.0
 10
303.321340482
 20
380.6246105883
 30
0.0
 10
303.2895986269
 20
380.6117599338
 30
0.0
 10
303.1660749521
 20
380.5594257315
 30
0.0
 10
303.0459396822
 20
380.4989578229
 30
0.0
 10
302.9594180627
 20
380.4490048407
 30
0.0
  0
SPLINE
  5
313
100
AcDbEntity
  8
_1
100
AcDbSpline
 62
7
  6
CONTINUOUS
 70
0
 71
3
 72
11
 73
7
 74
0
 42
0.0000001
 43
0.0000001
 44
0.0000000001
 40
0.0
 40
0.0
 40
0.0
 40
0.0
 40
0.2652883108
 40
0.5168487599
 40
0.7600871689
 40
1.0
 40
1.0
 40
1.0
 40
1.0
 10
302.9594180627
 20
380.4490048407
 30
0.0
 10
302.829034112
 20
380.3737280811
 30
0.0
 10
302.5867032997
 20
380.2047373304
 30
0.0
 10
302.291336857
 20
379.8847621816
 30
0.0
 10
302.0965906684
 20
379.5096944201
 30
0.0
 10
302.050413825
 20
379.2336031093
 30
0.0
 10
302.050413825
 20
379.097449795
 30
0.0
  0
SPLINE
  5
314
100
AcDbEntity
  8
_1
100
AcDbSpline
 62
7
  6
CONTINUOUS
 70
0
 71
3
 72
12
 73
8
 74
0
 42
0.0000001
 43
0.0000001
 44
0.0000000001
 40
0.0
 40
0.0
 40
0.0
 40
0.0
 40
0.2895886909
 40
0.5486287819
 40
0.7816339383
 40
0.8918351647
 40
1.0
 40
1.0
 40
1.0
 40
1.0
 10
339.0596035699
 20
413.0023971295
 30
0.0
 10
339.0596035699
 20
412.4194935181
 30
0.0
 10
338.9713070194
 20
411.3112162256
 30
0.0
 10
338.5231289009
 20
409.7893979473
 30
0.0
 10
337.8791932462
 20
408.7393981624
 30
0.0
 10
337.2288791765
 20
408.0997396224
 30
0.0
 10
336.8663508861
 20
407.8467494538
 30
0.0
 10
336.6778054283
 20
407.7378768433
 30
0.0
  0
SPLINE
  5
315
100
AcDbEntity
  8
_1
100
AcDbSpline
 62
7
  6
CONTINUOUS
 70
0
 71
3
 72
9
 73
5
 74
0
 42
0.0000001
 43
0.0000001
 44
0.0000000001
 40
0.0
 40
0.0
 40
0.0
 40
0.0
 40
0.5186694468
 40
1.0
 40
1.0
 40
1.0
 40
1.0
 10
290.8034807764
 20
389.0588778513
 30
0.0
 10
290.4485162184
 20
389.0706297411
 30
0.0
 10
289.7593186371
 20
389.0121458818
 30
0.0
 10
289.1026583582
 20
388.7786148052
 30
0.0
 10
288.8172235597
 20
388.6138199311
 30
0.0
  0
SPLINE
  5
316
100
AcDbEntity
  8
_1
100
AcDbSpline
 62
7
  6
CONTINUOUS
 70
0
 71
3
 72
11
 73
7
 74
0
 42
0.0000001
 43
0.0000001
 44
0.0000000001
 40
0.0
 40
0.0
 40
0.0
 40
0.0
 40
0.2652883108
 40
0.5168487599
 40
0.7600871689
 40
1.0
 40
1.0
 40
1.0
 40
1.0
 10
288.8172235597
 20
388.6138199311
 30
0.0
 10
288.6868396091
 20
388.5385431715
 30
0.0
 10
288.4445087967
 20
388.3695524208
 30
0.0
 10
288.1491423541
 20
388.049577272
 30
0.0
 10
287.9543961655
 20
387.6745095105
 30
0.0
 10
287.9082193221
 20
387.3984181997
 30
0.0
 10
287.9082193221
 20
387.2622648854
 30
0.0
  0
SPLINE
  5
317
100
AcDbEntity
  8
_1
100
AcDbSpline
 62
7
  6
CONTINUOUS
 70
0
 71
3
 72
9
 73
5
 74
0
 42
0.0000001
 43
0.0000001
 44
0.0000000001
 40
0.0
 40
0.0
 40
0.0
 40
0.0
 40
0.48626979
 40
1.0
 40
1.0
 40
1.0
 40
1.0
 10
321.9424685169
 20
385.6293280382
 30
0.0
 10
321.9424685157
 20
385.7303740913
 30
0.0
 10
321.9100251918
 20
385.9392334889
 30
0.0
 10
321.8195701782
 20
386.1293529624
 30
0.0
 10
321.7627969886
 20
386.2197568052
 30
0.0
  0
SPLINE
  5
318
100
AcDbEntity
  8
_1
100
AcDbSpline
 62
7
  6
CONTINUOUS
 70
0
 71
3
 72
11
 73
7
 74
0
 42
0.0000001
 43
0.0000001
 44
0.0000000001
 40
0.0
 40
0.0
 40
0.0
 40
0.0
 40
0.2177727701
 40
0.4509280213
 40
0.7102223029
 40
1.0
 40
1.0
 40
1.0
 40
1.0
 10
321.9424685169
 20
381.8734169194
 30
0.0
 10
321.9424685184
 20
381.7591570192
 30
0.0
 10
321.9002717972
 20
381.5209756608
 30
0.0
 10
321.7197061895
 20
381.1891876803
 30
0.0
 10
321.4343406272
 20
380.8891583255
 30
0.0
 10
321.1954896434
 20
380.7247138535
 30
0.0
 10
321.0638197447
 20
380.6486946558
 30
0.0
  0
SPLINE
  5
319
100
AcDbEntity
  8
_1
100
AcDbSpline
 62
7
  6
CONTINUOUS
 70
0
 71
3
 72
9
 73
5
 74
0
 42
0.0000001
 43
0.0000001
 44
0.0000000001
 40
0.0
 40
0.0
 40
0.0
 40
0.0
 40
0.2547179658
 40
1.0
 40
1.0
 40
1.0
 40
1.0
 10
289.0672224405
 20
388.5890577916
 30
0.0
 10
289.0539540638
 20
388.5813973365
 30
0.0
 10
289.0021950043
 20
388.5507544429
 30
0.0
 10
288.9517892741
 20
388.5178119341
 30
0.0
 10
288.9151944518
 20
388.4919207748
 30
0.0
  0
SPLINE
  5
31A
100
AcDbEntity
  8
_1
100
AcDbSpline
 62
7
  6
CONTINUOUS
 70
0
 71
3
 72
18
 73
14
 74
0
 42
0.0000001
 43
0.0000001
 44
0.0000000001
 40
0.0
 40
0.0
 40
0.0
 40
0.0
 40
0.1117688881
 40
0.1608750929
 40
0.2072815848
 40
0.2532328704
 40
0.3011001609
 40
0.352803776
 40
0.4095261043
 40
0.5388229152
 40
0.686439048
 40
0.8437901229
 40
1.0
 40
1.0
 40
1.0
 40
1.0
 10
288.9151944518
 20
388.4919207748
 30
0.0
 10
288.7744272801
 20
388.3923267602
 30
0.0
 10
288.5872522107
 20
388.2167958699
 30
0.0
 10
288.4425004703
 20
387.9282808807
 30
0.0
 10
288.3989102982
 20
387.7114399569
 30
0.0
 10
288.4188718372
 20
387.4930250009
 30
0.0
 10
288.5009406252
 20
387.2812869871
 30
0.0
 10
288.6407300257
 20
387.0823763998
 30
0.0
 10
288.909163502
 20
386.8295541759
 30
0.0
 10
289.367848773
 20
386.5791884949
 30
0.0
 10
290.0184377746
 20
386.4020007415
 30
0.0
 10
290.7320431086
 20
386.3498675405
 30
0.0
 10
291.2163461522
 20
386.4037341208
 30
0.0
 10
291.4518333218
 20
386.4549859692
 30
0.0
  0
SPLINE
  5
31B
100
AcDbEntity
  8
_1
100
AcDbSpline
 62
7
  6
CONTINUOUS
 70
0
 71
3
 72
9
 73
5
 74
0
 42
0.0000001
 43
0.0000001
 44
0.0000000001
 40
0.0
 40
0.0
 40
0.0
 40
0.0
 40
0.525391409
 40
1.0
 40
1.0
 40
1.0
 40
1.0
 10
290.8035757229
 20
388.9668084347
 30
0.0
 10
290.4897279859
 20
388.9785411731
 30
0.0
 10
289.8880781653
 20
388.9302371026
 30
0.0
 10
289.3129230123
 20
388.7309122361
 30
0.0
 10
289.0672224405
 20
388.5890577916
 30
0.0
  0
SPLINE
  5
31C
100
AcDbEntity
  8
_1
100
AcDbSpline
 62
7
  6
CONTINUOUS
 70
0
 71
3
 72
11
 73
7
 74
0
 42
0.0000001
 43
0.0000001
 44
0.0000000001
 40
0.0
 40
0.0
 40
0.0
 40
0.0
 40
0.2177718384
 40
0.4509299156
 40
0.7102268825
 40
1.0
 40
1.0
 40
1.0
 40
1.0
 10
307.5503936158
 20
377.4644449606
 30
0.0
 10
307.5503962469
 20
377.3597070941
 30
0.0
 10
307.5117138344
 20
377.1413728888
 30
0.0
 10
307.346195528
 20
376.8372313691
 30
0.0
 10
307.0846073989
 20
376.5622058151
 30
0.0
 10
306.8656611527
 20
376.4114660975
 30
0.0
 10
306.7449655692
 20
376.3417828858
 30
0.0
  0
SPLINE
  5
31D
100
AcDbEntity
  8
_1
100
AcDbSpline
 62
7
  6
CONTINUOUS
 70
0
 71
3
 72
17
 73
13
 74
0
 42
0.0000001
 43
0.0000001
 44
0.0000000001
 40
0.0
 40
0.0
 40
0.0
 40
0.0
 40
0.1286914424
 40
0.270275894
 40
0.4174292768
 40
0.5617752962
 40
0.6954478949
 40
0.8127150858
 40
0.8646785489
 40
0.9125125227
 40
0.9571418263
 40
1.0
 40
1.0
 40
1.0
 40
1.0
 10
306.7449655692
 20
376.3417828858
 30
0.0
 10
306.5413956903
 20
376.224252463
 30
0.0
 10
306.0804934456
 20
376.0340838606
 30
0.0
 10
305.3293173264
 20
375.8838076337
 30
0.0
 10
304.5348124224
 20
375.8617900112
 30
0.0
 10
303.7618060788
 20
375.9704107887
 30
0.0
 10
303.0729813217
 20
376.2005037978
 30
0.0
 10
302.5938905186
 20
376.4921037423
 30
0.0
 10
302.3127469645
 20
376.7742795123
 30
0.0
 10
302.1633978756
 20
376.9939619037
 30
0.0
 10
302.0713496276
 20
377.2256784108
 30
0.0
 10
302.0504360007
 20
377.3861621826
 30
0.0
 10
302.0504340342
 20
377.4644449608
 30
0.0
  0
SPLINE
  5
31E
100
AcDbEntity
  8
_1
100
AcDbSpline
 62
7
  6
CONTINUOUS
 70
0
 71
3
 72
11
 73
7
 74
0
 42
0.0000001
 43
0.0000001
 44
0.0000000001
 40
0.0
 40
0.0
 40
0.0
 40
0.0
 40
0.2344594735
 40
0.4940332579
 40
0.756825234
 40
1.0
 40
1.0
 40
1.0
 40
1.0
 10
320.8870423135
 20
384.5066659632
 30
0.0
 10
320.6296912663
 20
384.3580851538
 30
0.0
 10
320.0348124493
 20
384.1350808716
 30
0.0
 10
319.0773731462
 20
384.0096095334
 30
0.0
 10
318.1033324321
 20
384.0815300713
 30
0.0
 10
317.481464398
 20
384.2683110537
 30
0.0
 10
317.2027018959
 20
384.399780759
 30
0.0
  0
SPLINE
  5
31F
100
AcDbEntity
  8
_1
100
AcDbSpline
 62
7
  6
CONTINUOUS
 70
0
 71
3
 72
11
 73
7
 74
0
 42
0.0000001
 43
0.0000001
 44
0.0000000001
 40
0.0
 40
0.0
 40
0.0
 40
0.0
 40
0.2897730581
 40
0.5490651526
 40
0.7822233799
 40
1.0
 40
1.0
 40
1.0
 40
1.0
 10
306.7449655692
 20
377.9747877201
 30
0.0
 10
306.8656614226
 20
378.0444710876
 30
0.0
 10
307.0846079642
 20
378.1952080368
 30
0.0
 10
307.3461928094
 20
378.4702333075
 30
0.0
 10
307.5117216699
 20
378.7743711172
 30
0.0
 10
307.5503989671
 20
378.992709373
 30
0.0
 10
307.5503982073
 20
379.097449795
 30
0.0
  0
SPLINE
  5
320
100
AcDbEntity
  8
_1
100
AcDbSpline
 62
7
  6
CONTINUOUS
 70
0
 71
3
 72
9
 73
5
 74
0
 42
0.0000001
 43
0.0000001
 44
0.0000000001
 40
0.0
 40
0.0
 40
0.0
 40
0.0
 40
0.2547179658
 40
1.0
 40
1.0
 40
1.0
 40
1.0
 10
303.2094169434
 20
380.4242427012
 30
0.0
 10
303.1961485668
 20
380.4165822461
 30
0.0
 10
303.1443895072
 20
380.3859393524
 30
0.0
 10
303.093983777
 20
380.3529968437
 30
0.0
 10
303.0573889548
 20
380.3271056844
 30
0.0
  0
SPLINE
  5
321
100
AcDbEntity
  8
_1
100
AcDbSpline
 62
7
  6
CONTINUOUS
 70
0
 71
3
 72
19
 73
15
 74
0
 42
0.0000001
 43
0.0000001
 44
0.0000000001
 40
0.0
 40
0.0
 40
0.0
 40
0.0
 40
0.0572555741
 40
0.1085821267
 40
0.1554623587
 40
0.2004568864
 40
0.2467134333
 40
0.2969836742
 40
0.3529421453
 40
0.4151202124
 40
0.5556505822
 40
0.709360443
 40
0.8620921779
 40
1.0
 40
1.0
 40
1.0
 40
1.0
 10
303.0573889548
 20
380.3271056844
 30
0.0
 10
302.9720063157
 20
380.2666967148
 30
0.0
 10
302.8191863756
 20
380.1378364117
 30
0.0
 10
302.6467494821
 20
379.9085320301
 30
0.0
 10
302.5521111839
 20
379.6602042491
 30
0.0
 10
302.5431723031
 20
379.403209736
 30
0.0
 10
302.6209176381
 20
379.1520878137
 30
0.0
 10
302.7782727518
 20
378.9183663624
 30
0.0
 10
303.0065353626
 20
378.7087562561
 30
0.0
 10
303.4101983169
 20
378.4590104628
 30
0.0
 10
304.036798603
 20
378.2523026526
 30
0.0
 10
304.8557809135
 20
378.1774762027
 30
0.0
 10
305.6673598381
 20
378.2747556993
 30
0.0
 10
306.1732382485
 20
378.4611981303
 30
0.0
 10
306.3914107066
 20
378.5871593059
 30
0.0
  0
SPLINE
  5
322
100
AcDbEntity
  8
_1
100
AcDbSpline
 62
7
  6
CONTINUOUS
 70
0
 71
3
 72
16
 73
12
 74
0
 42
0.0000001
 43
0.0000001
 44
0.0000000001
 40
0.0
 40
0.0
 40
0.0
 40
0.0
 40
0.138664611
 40
0.2606529084
 40
0.369626694
 40
0.473657907
 40
0.5828701485
 40
0.7052235704
 40
0.772726479
 40
0.8445133344
 40
1.0
 40
1.0
 40
1.0
 40
1.0
 10
306.3914107066
 20
378.5871593059
 30
0.0
 10
306.5037225098
 20
378.6520021686
 30
0.0
 10
306.7048321733
 20
378.7935770629
 30
0.0
 10
306.9337160237
 20
379.0584772427
 30
0.0
 10
307.0555831321
 20
379.3546347187
 30
0.0
 10
307.0540396838
 20
379.6642218844
 30
0.0
 10
306.9293756356
 20
379.9596927578
 30
0.0
 10
306.7425977607
 20
380.1729316035
 30
0.0
 10
306.551230245
 20
380.3259589526
 30
0.0
 10
306.3180774014
 20
380.4739488752
 30
0.0
 10
306.1225290062
 20
380.5608853516
 30
0.0
 10
305.9856089895
 20
380.6098714843
 30
0.0
  0
SPLINE
  5
323
100
AcDbEntity
  8
_1
100
AcDbSpline
 62
7
  6
CONTINUOUS
 70
0
 71
3
 72
9
 73
5
 74
0
 42
0.0000001
 43
0.0000001
 44
0.0000000001
 40
0.0
 40
0.0
 40
0.0
 40
0.0
 40
0.2600606229
 40
1.0
 40
1.0
 40
1.0
 40
1.0
 10
303.6434507431
 20
380.6198267451
 30
0.0
 10
303.6044217107
 20
380.6063129491
 30
0.0
 10
303.4554993528
 20
380.5511434538
 30
0.0
 10
303.3111888909
 20
380.4830004118
 30
0.0
 10
303.2094169434
 20
380.4242427012
 30
0.0
  0
SPLINE
  5
324
100
AcDbEntity
  8
_1
100
AcDbSpline
 62
7
  6
CONTINUOUS
 70
0
 71
3
 72
11
 73
7
 74
0
 42
0.0000001
 43
0.0000001
 44
0.0000000001
 40
0.0
 40
0.0
 40
0.0
 40
0.0
 40
0.2106603285
 40
0.4485611556
 40
0.7131906147
 40
1.0
 40
1.0
 40
1.0
 40
1.0
 10
291.6871949851
 20
411.2125389898
 30
0.0
 10
292.0572176368
 20
410.6412496508
 30
0.0
 10
293.0381802139
 20
409.5469208825
 30
0.0
 10
294.9399351094
 20
408.220755336
 30
0.0
 10
297.2707286559
 20
407.1574312561
 30
0.0
 10
298.9910652514
 20
406.6683327031
 30
0.0
 10
299.8968903532
 20
406.4727763868
 30
0.0
  0
SPLINE
  5
325
100
AcDbEntity
  8
_1
100
AcDbSpline
 62
7
  6
CONTINUOUS
 70
0
 71
3
 72
17
 73
13
 74
0
 42
0.0000001
 43
0.0000001
 44
0.0000000001
 40
0.0
 40
0.0
 40
0.0
 40
0.0
 40
0.1286914424
 40
0.270275894
 40
0.4174292768
 40
0.5617752962
 40
0.6954478949
 40
0.8127150858
 40
0.8646785489
 40
0.9125125227
 40
0.9571418263
 40
1.0
 40
1.0
 40
1.0
 40
1.0
 10
292.6027710662
 20
384.5065979762
 30
0.0
 10
292.3992011874
 20
384.3890675534
 30
0.0
 10
291.9382989427
 20
384.198898951
 30
0.0
 10
291.1871228234
 20
384.0486227241
 30
0.0
 10
290.3926179194
 20
384.0266051016
 30
0.0
 10
289.6196115758
 20
384.1352258791
 30
0.0
 10
288.9307868187
 20
384.3653188882
 30
0.0
 10
288.4516960156
 20
384.6569188327
 30
0.0
 10
288.1705524616
 20
384.9390946027
 30
0.0
 10
288.0212033727
 20
385.1587769941
 30
0.0
 10
287.9291551246
 20
385.3904935012
 30
0.0
 10
287.9082414978
 20
385.550977273
 30
0.0
 10
287.9082395313
 20
385.6292600513
 30
0.0
  0
SPLINE
  5
326
100
AcDbEntity
  8
_1
100
AcDbSpline
 62
7
  6
CONTINUOUS
 70
0
 71
3
 72
9
 73
5
 74
0
 42
0.0000001
 43
0.0000001
 44
0.0000000001
 40
0.0
 40
0.0
 40
0.0
 40
0.0
 40
0.4768196011
 40
1.0
 40
1.0
 40
1.0
 40
1.0
 10
313.2856716475
 20
380.7304049904
 30
0.0
 10
312.4598474854
 20
380.2536180342
 30
0.0
 10
310.6022451817
 20
379.4676125305
 30
0.0
 10
308.6390805637
 20
379.0364930653
 30
0.0
 10
307.602703919
 20
378.8927771689
 30
0.0
  0
SPLINE
  5
327
100
AcDbEntity
  8
_1
100
AcDbSpline
 62
7
  6
CONTINUOUS
 70
0
 71
3
 72
10
 73
6
 74
0
 42
0.0000001
 43
0.0000001
 44
0.0000000001
 40
0.0
 40
0.0
 40
0.0
 40
0.0
 40
0.4628426792
 40
0.7218681998
 40
1.0
 40
1.0
 40
1.0
 40
1.0
 10
316.3685149552
 20
383.7875060161
 30
0.0
 10
316.0763158038
 20
383.1756582299
 30
0.0
 10
315.417523594
 20
382.3140295233
 30
0.0
 10
314.3001100833
 20
381.3653307992
 30
0.0
 10
313.6385327249
 20
380.9341282124
 30
0.0
 10
313.2856716475
 20
380.7304049904
 30
0.0
  0
SPLINE
  5
328
100
AcDbEntity
  8
_1
100
AcDbSpline
 62
7
  6
CONTINUOUS
 70
0
 71
3
 72
11
 73
7
 74
0
 42
0.0000001
 43
0.0000001
 44
0.0000000001
 40
0.0
 40
0.0
 40
0.0
 40
0.0
 40
0.2976699746
 40
0.5686197247
 40
0.8038536187
 40
1.0
 40
1.0
 40
1.0
 40
1.0
 10
299.8968903532
 20
406.4727763868
 30
0.0
 10
301.3865514062
 20
405.5635606605
 30
0.0
 10
304.219825926
 20
403.8064968525
 30
0.0
 10
308.196955188
 20
401.2776879612
 30
0.0
 10
311.6476312375
 20
399.0307270907
 30
0.0
 10
313.7501745678
 20
397.6248622785
 30
0.0
 10
314.6998910978
 20
396.976393985
 30
0.0
  0
SPLINE
  5
329
100
AcDbEntity
  8
_1
100
AcDbSpline
 62
7
  6
CONTINUOUS
 70
0
 71
3
 72
13
 73
9
 74
0
 42
0.0000001
 43
0.0000001
 44
0.0000000001
 40
0.0
 40
0.0
 40
0.0
 40
0.0
 40
0.4174324388
 40
0.7161244361
 40
0.8238467821
 40
0.9056202523
 40
0.9632768198
 40
1.0
 40
1.0
 40
1.0
 40
1.0
 10
291.6871949851
 20
411.2125389898
 30
0.0
 10
291.5699708811
 20
411.2698676712
 30
0.0
 10
291.367620789
 20
411.3655911103
 30
0.0
 10
291.1302960773
 20
411.4663307517
 30
0.0
 10
290.9861952998
 20
411.516457209
 30
0.0
 10
290.9113606874
 20
411.5368125144
 30
0.0
 10
290.8571890022
 20
411.5451047858
 30
0.0
 10
290.8265357439
 20
411.5427035641
 30
0.0
 10
290.8162010305
 20
411.5377054646
 30
0.0
  0
SPLINE
  5
32A
100
AcDbEntity
  8
_1
100
AcDbSpline
 62
7
  6
CONTINUOUS
 70
0
 71
3
 72
15
 73
11
 74
0
 42
0.0000001
 43
0.0000001
 44
0.0000000001
 40
0.0
 40
0.0
 40
0.0
 40
0.0
 40
0.0870977208
 40
0.183727028
 40
0.2951243547
 40
0.4218038508
 40
0.5609377725
 40
0.7076598053
 40
0.8560606732
 40
1.0
 40
1.0
 40
1.0
 40
1.0
 10
287.9082349398
 20
387.2622648854
 30
0.0
 10
287.9082359136
 20
387.1280180481
 30
0.0
 10
287.9744253967
 20
386.8423288103
 30
0.0
 10
288.2454548024
 20
386.4664755506
 30
0.0
 10
288.6585822054
 20
386.1486553578
 30
0.0
 10
289.1886588803
 20
385.9011243296
 30
0.0
 10
289.8054808457
 20
385.7357732893
 30
0.0
 10
290.4731613828
 20
385.6619190635
 30
0.0
 10
291.151685323
 20
385.6838608098
 30
0.0
 10
291.5972816868
 20
385.7637961237
 30
0.0
 10
291.8116449883
 20
385.8209775916
 30
0.0
  0
SPLINE
  5
32B
100
AcDbEntity
  8
_1
100
AcDbSpline
 62
7
  6
CONTINUOUS
 70
0
 71
3
 72
11
 73
7
 74
0
 42
0.0000001
 43
0.0000001
 44
0.0000000001
 40
0.0
 40
0.0
 40
0.0
 40
0.0
 40
0.237228705
 40
0.5000005261
 40
0.7627720609
 40
1.0
 40
1.0
 40
1.0
 40
1.0
 10
302.6791023134
 20
376.2397124991
 30
0.0
 10
302.9802568248
 20
376.0658447943
 30
0.0
 10
303.6806147842
 20
375.8121036593
 30
0.0
 10
304.8004259921
 20
375.6905592061
 30
0.0
 10
305.9202355104
 20
375.8121087696
 30
0.0
 10
306.6205907152
 20
376.0658533821
 30
0.0
 10
306.9217430005
 20
376.2397226972
 30
0.0
  0
SPLINE
  5
32C
100
AcDbEntity
  8
_1
100
AcDbSpline
 62
7
  6
CONTINUOUS
 70
0
 71
3
 72
9
 73
5
 74
0
 42
0.0000001
 43
0.0000001
 44
0.0000000001
 40
0.0
 40
0.0
 40
0.0
 40
0.0
 40
0.5245221438
 40
1.0
 40
1.0
 40
1.0
 40
1.0
 10
319.357970747
 20
385.6928729088
 30
0.0
 10
319.6369948988
 20
385.7175138581
 30
0.0
 10
320.1660054438
 20
385.8117417133
 30
0.0
 10
320.6671416818
 20
386.0127118665
 30
0.0
 10
320.8870423135
 20
386.1396707975
 30
0.0
  0
SPLINE
  5
32D
100
AcDbEntity
  8
_1
100
AcDbSpline
 62
7
  6
CONTINUOUS
 70
0
 71
3
 72
11
 73
7
 74
0
 42
0.0000001
 43
0.0000001
 44
0.0000000001
 40
0.0
 40
0.0
 40
0.0
 40
0.0
 40
0.2177718384
 40
0.4509299156
 40
0.7102268825
 40
1.0
 40
1.0
 40
1.0
 40
1.0
 10
321.6924703601
 20
385.6293280381
 30
0.0
 10
321.6924729912
 20
385.5245901716
 30
0.0
 10
321.6537905786
 20
385.3062559662
 30
0.0
 10
321.4882722723
 20
385.0021144466
 30
0.0
 10
321.2266841432
 20
384.7270888925
 30
0.0
 10
321.007737897
 20
384.5763491749
 30
0.0
 10
320.8870423135
 20
384.5066659632
 30
0.0
  0
SPLINE
  5
32E
100
AcDbEntity
  8
_1
100
AcDbSpline
 62
7
  6
CONTINUOUS
 70
0
 71
3
 72
14
 73
10
 74
0
 42
0.0000001
 43
0.0000001
 44
0.0000000001
 40
0.0
 40
0.0
 40
0.0
 40
0.0
 40
0.2970904155
 40
0.4361007306
 40
0.5667845442
 40
0.6883070779
 40
0.8004582187
 40
0.9038293495
 40
1.0
 40
1.0
 40
1.0
 40
1.0
 10
301.9981007269
 20
378.8927649906
 30
0.0
 10
300.9235826417
 20
379.0417655136
 30
0.0
 10
299.3576552379
 20
379.3901842481
 30
0.0
 10
297.4237224918
 20
380.1351876057
 30
0.0
 10
296.151812687
 20
380.7928376099
 30
0.0
 10
295.0522571884
 20
381.5488391089
 30
0.0
 10
294.146710117
 20
382.3900145157
 30
0.0
 10
293.4543148929
 20
383.3011078937
 30
0.0
 10
293.1371462658
 20
383.9647151554
 30
0.0
 10
293.0242641242
 20
384.297235926
 30
0.0
  0
SPLINE
  5
32F
100
AcDbEntity
  8
_1
100
AcDbSpline
 62
7
  6
CONTINUOUS
 70
0
 71
3
 72
11
 73
7
 74
0
 42
0.0000001
 43
0.0000001
 44
0.0000000001
 40
0.0
 40
0.0
 40
0.0
 40
0.0
 40
0.2177723091
 40
0.4509273687
 40
0.7102218233
 40
1.0
 40
1.0
 40
1.0
 40
1.0
 10
287.6582413744
 20
385.6292600512
 30
0.0
 10
287.6582413759
 20
385.514998921
 30
0.0
 10
287.7004390607
 20
385.2768148143
 30
0.0
 10
287.8810085746
 20
384.9450236214
 30
0.0
 10
288.1663799328
 20
384.6449920427
 30
0.0
 10
288.4052354495
 20
384.4805469428
 30
0.0
 10
288.5369078104
 20
384.4045275895
 30
0.0
  0
SPLINE
  5
330
100
AcDbEntity
  8
_1
100
AcDbSpline
 62
7
  6
CONTINUOUS
 70
0
 71
3
 72
17
 73
13
 74
0
 42
0.0000001
 43
0.0000001
 44
0.0000000001
 40
0.0
 40
0.0
 40
0.0
 40
0.0
 40
0.0428588705
 40
0.0874882997
 40
0.1353223328
 40
0.1872856408
 40
0.3045518466
 40
0.4382226938
 40
0.5825694618
 40
0.7297273024
 40
0.8713109533
 40
1.0
 40
1.0
 40
1.0
 40
1.0
 10
302.0504294428
 20
379.097449795
 30
0.0
 10
302.0504300106
 20
379.0191656035
 30
0.0
 10
302.071344692
 20
378.8586800226
 30
0.0
 10
302.1633910607
 20
378.6269605992
 30
0.0
 10
302.3127430162
 20
378.4072792208
 30
0.0
 10
302.5938853985
 20
378.1251044602
 30
0.0
 10
303.0729727158
 20
377.8335069995
 30
0.0
 10
303.7617945352
 20
377.6034128277
 30
0.0
 10
304.5348087251
 20
377.4947920545
 30
0.0
 10
305.3293234173
 20
377.5168093164
 30
0.0
 10
306.0805021314
 20
377.6670917968
 30
0.0
 10
306.5413991147
 20
377.8572592743
 30
0.0
 10
306.7449655692
 20
377.9747877201
 30
0.0
  0
SPLINE
  5
331
100
AcDbEntity
  8
_1
100
AcDbSpline
 62
7
  6
CONTINUOUS
 70
0
 71
3
 72
11
 73
7
 74
0
 42
0.0000001
 43
0.0000001
 44
0.0000000001
 40
0.0
 40
0.0
 40
0.0
 40
0.0
 40
0.2875022507
 40
0.5471892705
 40
0.7819963901
 40
1.0
 40
1.0
 40
1.0
 40
1.0
 10
320.8870423135
 20
386.1396707975
 30
0.0
 10
320.9987060654
 20
386.2041395099
 30
0.0
 10
321.2027443453
 20
386.3429122905
 30
0.0
 10
321.452548271
 20
386.5926506125
 30
0.0
 10
321.622053788
 20
386.8674926565
 30
0.0
 10
321.6767831749
 20
387.0668500154
 30
0.0
 10
321.6872112856
 20
387.1640617878
 30
0.0
  0
SPLINE
  5
332
100
AcDbEntity
  8
_1
100
AcDbSpline
 62
7
  6
CONTINUOUS
 70
0
 71
3
 72
11
 73
7
 74
0
 42
0.0000001
 43
0.0000001
 44
0.0000000001
 40
0.0
 40
0.0
 40
0.0
 40
0.0
 40
0.2897776971
 40
0.5490719787
 40
0.7822272299
 40
1.0
 40
1.0
 40
1.0
 40
1.0
 10
321.0638197447
 20
384.4046057746
 30
0.0
 10
321.1954896434
 20
384.4806249723
 30
0.0
 10
321.4343406272
 20
384.6450694443
 30
0.0
 10
321.7197061895
 20
384.9450987991
 30
0.0
 10
321.9002717972
 20
385.2768867795
 30
0.0
 10
321.9424685184
 20
385.515068138
 30
0.0
 10
321.9424685169
 20
385.6293280382
 30
0.0
  0
SPLINE
  5
333
100
AcDbEntity
  8
_1
100
AcDbSpline
 62
7
  6
CONTINUOUS
 70
0
 71
3
 72
15
 73
11
 74
0
 42
0.0000001
 43
0.0000001
 44
0.0000000001
 40
0.0
 40
0.0
 40
0.0
 40
0.0
 40
0.1178062384
 40
0.2458656735
 40
0.3805043342
 40
0.517292189
 40
0.6515689257
 40
0.7789442112
 40
0.8958172264
 40
1.0
 40
1.0
 40
1.0
 40
1.0
 10
263.0810872397
 20
384.0779354693
 30
0.0
 10
262.2928439754
 20
383.622845725
 30
0.0
 10
260.5489905106
 20
382.8401130692
 30
0.0
 10
257.7015553563
 20
382.0715283387
 30
0.0
 10
254.6298184672
 20
381.6853928959
 30
0.0
 10
251.486644341
 20
381.7014006138
 30
0.0
 10
248.4274148883
 20
382.118392976
 30
0.0
 10
245.6023503151
 20
382.9167356777
 30
0.0
 10
243.1502988692
 20
384.0569339454
 30
0.0
 10
241.7577896069
 20
385.07577439
 30
0.0
 10
241.1776808275
 20
385.6337901914
 30
0.0
  0
SPLINE
  5
334
100
AcDbEntity
  8
_1
100
AcDbSpline
 62
7
  6
CONTINUOUS
 70
0
 71
3
 72
11
 73
7
 74
0
 42
0.0000001
 43
0.0000001
 44
0.0000000001
 40
0.0
 40
0.0
 40
0.0
 40
0.0
 40
0.2742015802
 40
0.5287766079
 40
0.7684443046
 40
1.0
 40
1.0
 40
1.0
 40
1.0
 10
241.1776808275
 20
385.6337901914
 30
0.0
 10
240.8657687576
 20
385.9338233401
 30
0.0
 10
240.305185159
 20
386.5580169626
 30
0.0
 10
239.663898299
 20
387.5961417085
 30
0.0
 10
239.2705735985
 20
388.6813498303
 30
0.0
 10
239.1815570018
 20
389.4278249761
 30
0.0
 10
239.1815572333
 20
389.7933060323
 30
0.0
  0
SPLINE
  5
335
100
AcDbEntity
  8
_1
100
AcDbSpline
 62
7
  6
CONTINUOUS
 70
0
 71
3
 72
9
 73
5
 74
0
 42
0.0000001
 43
0.0000001
 44
0.0000000001
 40
0.0
 40
0.0
 40
0.0
 40
0.0
 40
0.5137302264
 40
1.0
 40
1.0
 40
1.0
 40
1.0
 10
236.2191093369
 20
387.4442925713
 30
0.0
 10
236.1623360568
 20
387.3538886711
 30
0.0
 10
236.0718809071
 20
387.1637690551
 30
0.0
 10
236.0394375151
 20
386.9549094755
 30
0.0
 10
236.0394375164
 20
386.8538633374
 30
0.0
  0
SPLINE
  5
336
100
AcDbEntity
  8
_1
100
AcDbSpline
 62
7
  6
CONTINUOUS
 70
0
 71
3
 72
19
 73
15
 74
0
 42
0.0000001
 43
0.0000001
 44
0.0000000001
 40
0.0
 40
0.0
 40
0.0
 40
0.0
 40
0.0428420401
 40
0.0874525354
 40
0.1352657609
 40
0.1872076562
 40
0.243689519
 40
0.3046849337
 40
0.3698233863
 40
0.4384741158
 40
0.5827556868
 40
0.7298452613
 40
0.8713735531
 40
1.0
 40
1.0
 40
1.0
 40
1.0
 10
275.6803856262
 20
430.1057905963
 30
0.0
 10
275.9639010198
 20
430.2695020307
 30
0.0
 10
276.5889050355
 20
430.5292312191
 30
0.0
 10
277.6205721444
 20
430.6804315676
 30
0.0
 10
278.7284187875
 20
430.5988736495
 30
0.0
 10
279.8878412382
 20
430.290823648
 30
0.0
 10
281.0760839806
 20
429.7656750937
 30
0.0
 10
282.2694647064
 20
429.0355643165
 30
0.0
 10
283.4438661461
 20
428.116191228
 30
0.0
 10
284.9763970177
 20
426.6398879316
 30
0.0
 10
286.6793005823
 20
424.4591482486
 30
0.0
 10
288.2608066672
 20
421.5362733337
 30
0.0
 10
289.2871119932
 20
418.5014319053
 30
0.0
 10
289.5621112235
 20
416.4346612982
 30
0.0
 10
289.5621112235
 20
415.4517328774
 30
0.0
  0
SPLINE
  5
337
100
AcDbEntity
  8
_1
100
AcDbSpline
 62
7
  6
CONTINUOUS
 70
0
 71
3
 72
11
 73
7
 74
0
 42
0.0000001
 43
0.0000001
 44
0.0000000001
 40
0.0
 40
0.0
 40
0.0
 40
0.0
 40
0.2355175927
 40
0.4761198995
 40
0.7288998817
 40
1.0
 40
1.0
 40
1.0
 40
1.0
 10
255.931609967
 20
380.3220530813
 30
0.0
 10
255.931609967
 20
380.4832577578
 30
0.0
 10
255.8657994937
 20
380.8121154009
 30
0.0
 10
255.5954009742
 20
381.2416731148
 30
0.0
 10
255.196168961
 20
381.588693071
 30
0.0
 10
254.8769996938
 20
381.7581661195
 30
0.0
 10
254.7060982609
 20
381.8304513503
 30
0.0
  0
SPLINE
  5
338
100
AcDbEntity
  8
_1
100
AcDbSpline
 62
7
  6
CONTINUOUS
 70
0
 71
3
 72
9
 73
5
 74
0
 42
0.0000001
 43
0.0000001
 44
0.0000000001
 40
0.0
 40
0.0
 40
0.0
 40
0.0
 40
0.2552653577
 40
1.0
 40
1.0
 40
1.0
 40
1.0
 10
251.7022790277
 20
381.849109574
 30
0.0
 10
251.6705605635
 20
381.83626518
 30
0.0
 10
251.5471261507
 20
381.7839575154
 30
0.0
 10
251.4270764908
 20
381.7235268532
 30
0.0
 10
251.3406142046
 20
381.673608127
 30
0.0
  0
SPLINE
  5
339
100
AcDbEntity
  8
_1
100
AcDbSpline
 62
7
  6
CONTINUOUS
 70
0
 71
3
 72
11
 73
7
 74
0
 42
0.0000001
 43
0.0000001
 44
0.0000000001
 40
0.0
 40
0.0
 40
0.0
 40
0.0
 40
0.2897781767
 40
0.5490726313
 40
0.7822276909
 40
1.0
 40
1.0
 40
1.0
 40
1.0
 10
236.9181039524
 20
381.873219757
 30
0.0
 10
236.7864315914
 20
381.9492391103
 30
0.0
 10
236.5475760747
 20
382.1136842101
 30
0.0
 10
236.2622047166
 20
382.4137157889
 30
0.0
 10
236.0816352027
 20
382.7455069818
 30
0.0
 10
236.0394375178
 20
382.9836910885
 30
0.0
 10
236.0394375164
 20
383.0979522186
 30
0.0
  0
SPLINE
  5
33A
100
AcDbEntity
  8
_1
100
AcDbSpline
 62
7
  6
CONTINUOUS
 70
0
 71
3
 72
11
 73
7
 74
0
 42
0.0000001
 43
0.0000001
 44
0.0000000001
 40
0.0
 40
0.0
 40
0.0
 40
0.0
 40
0.2372279391
 40
0.4999994739
 40
0.762771295
 40
1.0
 40
1.0
 40
1.0
 40
1.0
 10
255.3029391424
 20
373.7084148647
 30
0.0
 10
255.0017868572
 20
373.5345455496
 30
0.0
 10
254.3014316524
 20
373.280800937
 30
0.0
 10
253.181622134
 20
373.1592513736
 30
0.0
 10
252.0618109261
 20
373.2807958268
 30
0.0
 10
251.3614529667
 20
373.5345369618
 30
0.0
 10
251.0602984553
 20
373.7084046666
 30
0.0
  0
SPLINE
  5
33B
100
AcDbEntity
  8
_1
100
AcDbSpline
 62
7
  6
CONTINUOUS
 70
0
 71
3
 72
11
 73
7
 74
0
 42
0.0000001
 43
0.0000001
 44
0.0000000001
 40
0.0
 40
0.0
 40
0.0
 40
0.0
 40
0.2652883108
 40
0.5168487599
 40
0.7600871689
 40
1.0
 40
1.0
 40
1.0
 40
1.0
 10
251.3406142046
 20
381.673608127
 30
0.0
 10
251.2102302539
 20
381.5983313673
 30
0.0
 10
250.9678994416
 20
381.4293406166
 30
0.0
 10
250.672532999
 20
381.1093654679
 30
0.0
 10
250.4777868103
 20
380.7342977063
 30
0.0
 10
250.431609967
 20
380.4582063956
 30
0.0
 10
250.431609967
 20
380.3220530813
 30
0.0
  0
SPLINE
  5
33C
100
AcDbEntity
  8
_1
100
AcDbSpline
 62
7
  6
CONTINUOUS
 70
0
 71
3
 72
9
 73
5
 74
0
 42
0.0000001
 43
0.0000001
 44
0.0000000001
 40
0.0
 40
0.0
 40
0.0
 40
0.0
 40
0.5186694468
 40
1.0
 40
1.0
 40
1.0
 40
1.0
 10
239.1846769184
 20
390.2834811376
 30
0.0
 10
238.8297123604
 20
390.2952330273
 30
0.0
 10
238.140514779
 20
390.2367491681
 30
0.0
 10
237.4838545002
 20
390.0032180915
 30
0.0
 10
237.1984197017
 20
389.8384232174
 30
0.0
  0
SPLINE
  5
33D
100
AcDbEntity
  8
_1
100
AcDbSpline
 62
7
  6
CONTINUOUS
 70
0
 71
3
 72
12
 73
8
 74
0
 42
0.0000001
 43
0.0000001
 44
0.0000000001
 40
0.0
 40
0.0
 40
0.0
 40
0.0
 40
0.2895886491
 40
0.5486287814
 40
0.7816340557
 40
0.8918352646
 40
1.0
 40
1.0
 40
1.0
 40
1.0
 10
289.5621112235
 20
415.4517328774
 30
0.0
 10
289.5621112235
 20
414.8688293523
 30
0.0
 10
289.4738146791
 20
413.7605520754
 30
0.0
 10
289.0256365626
 20
412.2387335276
 30
0.0
 10
288.3817005367
 20
411.1887336307
 30
0.0
 10
287.7313865139
 20
410.5490750687
 30
0.0
 10
287.3688584463
 20
410.2960849858
 30
0.0
 10
287.1803131424
 20
410.1872125124
 30
0.0
  0
SPLINE
  5
33E
100
AcDbEntity
  8
_1
100
AcDbSpline
 62
7
  6
CONTINUOUS
 70
0
 71
3
 72
11
 73
7
 74
0
 42
0.0000001
 43
0.0000001
 44
0.0000000001
 40
0.0
 40
0.0
 40
0.0
 40
0.0
 40
0.2652883108
 40
0.5168487599
 40
0.7600871689
 40
1.0
 40
1.0
 40
1.0
 40
1.0
 10
237.1984197017
 20
389.8384232174
 30
0.0
 10
237.068035751
 20
389.7631464577
 30
0.0
 10
236.8257049386
 20
389.5941557071
 30
0.0
 10
236.530338496
 20
389.2741805583
 30
0.0
 10
236.3355923074
 20
388.8991127967
 30
0.0
 10
236.289415464
 20
388.623021486
 30
0.0
 10
236.289415464
 20
388.4868681717
 30
0.0
  0
SPLINE
  5
33F
100
AcDbEntity
  8
_1
100
AcDbSpline
 62
7
  6
CONTINUOUS
 70
0
 71
3
 72
9
 73
5
 74
0
 42
0.0000001
 43
0.0000001
 44
0.0000000001
 40
0.0
 40
0.0
 40
0.0
 40
0.0
 40
0.48626979
 40
1.0
 40
1.0
 40
1.0
 40
1.0
 10
270.3236646589
 20
386.8539313244
 30
0.0
 10
270.3236646576
 20
386.9549773775
 30
0.0
 10
270.2912213338
 20
387.1638367752
 30
0.0
 10
270.2007663201
 20
387.3539562486
 30
0.0
 10
270.1439931305
 20
387.4443600915
 30
0.0
  0
SPLINE
  5
340
100
AcDbEntity
  8
_1
100
AcDbSpline
 62
7
  6
CONTINUOUS
 70
0
 71
3
 72
11
 73
7
 74
0
 42
0.0000001
 43
0.0000001
 44
0.0000000001
 40
0.0
 40
0.0
 40
0.0
 40
0.0
 40
0.2177727701
 40
0.4509280213
 40
0.7102223029
 40
1.0
 40
1.0
 40
1.0
 40
1.0
 10
270.3236646589
 20
383.0980202056
 30
0.0
 10
270.3236646603
 20
382.9837603055
 30
0.0
 10
270.2814679391
 20
382.745578947
 30
0.0
 10
270.1009023314
 20
382.4137909666
 30
0.0
 10
269.8155367691
 20
382.1137616118
 30
0.0
 10
269.5766857853
 20
381.9493171397
 30
0.0
 10
269.4450158867
 20
381.8732979421
 30
0.0
  0
SPLINE
  5
341
100
AcDbEntity
  8
_1
100
AcDbSpline
 62
7
  6
CONTINUOUS
 70
0
 71
3
 72
9
 73
5
 74
0
 42
0.0000001
 43
0.0000001
 44
0.0000000001
 40
0.0
 40
0.0
 40
0.0
 40
0.0
 40
0.2547173421
 40
1.0
 40
1.0
 40
1.0
 40
1.0
 10
237.4484185824
 20
389.8136610779
 30
0.0
 10
237.4351512432
 20
389.8060012218
 30
0.0
 10
237.3833960844
 20
389.7753606818
 30
0.0
 10
237.3329940667
 20
389.7424208481
 30
0.0
 10
237.2964018108
 20
389.7165318753
 30
0.0
  0
SPLINE
  5
342
100
AcDbEntity
  8
_1
100
AcDbSpline
 62
7
  6
CONTINUOUS
 70
0
 71
3
 72
18
 73
14
 74
0
 42
0.0000001
 43
0.0000001
 44
0.0000000001
 40
0.0
 40
0.0
 40
0.0
 40
0.0
 40
0.1117695761
 40
0.160875867
 40
0.2072823733
 40
0.2532335057
 40
0.301100589
 40
0.3528040341
 40
0.4095262662
 40
0.538823076
 40
0.6864391897
 40
0.8437900885
 40
1.0
 40
1.0
 40
1.0
 40
1.0
 10
237.2964018108
 20
389.7165318753
 30
0.0
 10
237.1556323522
 20
389.6169376692
 30
0.0
 10
236.9684536997
 20
389.4414067357
 30
0.0
 10
236.8236987473
 20
389.1528900651
 30
0.0
 10
236.7801065769
 20
388.936048421
 30
0.0
 10
236.8000668926
 20
388.7176326953
 30
0.0
 10
236.8821346553
 20
388.5058938533
 30
0.0
 10
237.0219238022
 20
388.30698237
 30
0.0
 10
237.2903577481
 20
388.0541583673
 30
0.0
 10
237.7490454233
 20
387.8037913936
 30
0.0
 10
238.3996376907
 20
387.6266031746
 30
0.0
 10
239.1132466876
 20
387.5744707408
 30
0.0
 10
239.5975519949
 20
387.6283387695
 30
0.0
 10
239.8330403115
 20
387.6795916182
 30
0.0
  0
SPLINE
  5
343
100
AcDbEntity
  8
_1
100
AcDbSpline
 62
7
  6
CONTINUOUS
 70
0
 71
3
 72
9
 73
5
 74
0
 42
0.0000001
 43
0.0000001
 44
0.0000000001
 40
0.0
 40
0.0
 40
0.0
 40
0.0
 40
0.5253909243
 40
1.0
 40
1.0
 40
1.0
 40
1.0
 10
239.1847749915
 20
390.1914116173
 30
0.0
 10
238.8709270139
 20
390.2031447052
 30
0.0
 10
238.2692761224
 20
390.1548408185
 30
0.0
 10
237.69411983
 20
389.9555159126
 30
0.0
 10
237.4484185824
 20
389.8136610779
 30
0.0
  0
SPLINE
  5
344
100
AcDbEntity
  8
_1
100
AcDbSpline
 62
7
  6
CONTINUOUS
 70
0
 71
3
 72
14
 73
10
 74
0
 42
0.0000001
 43
0.0000001
 44
0.0000000001
 40
0.0
 40
0.0
 40
0.0
 40
0.0
 40
0.2970894303
 40
0.436099496
 40
0.5667832732
 40
0.6883059824
 40
0.8004574683
 40
0.9038290132
 40
1.0
 40
1.0
 40
1.0
 40
1.0
 10
250.3792968688
 20
380.1173682769
 30
0.0
 10
249.3047947662
 20
380.2663665836
 30
0.0
 10
247.7388898854
 20
380.6147784103
 30
0.0
 10
245.804981028
 20
381.3597638812
 30
0.0
 10
244.5330823299
 20
382.0173981279
 30
0.0
 10
243.4335312476
 20
382.773381595
 30
0.0
 10
242.5279811449
 20
383.6145373288
 30
0.0
 10
241.8355746825
 20
384.525610094
 30
0.0
 10
241.5183919399
 20
385.1892037889
 30
0.0
 10
241.4055011959
 20
385.5217186499
 30
0.0
  0
SPLINE
  5
345
100
AcDbEntity
  8
_1
100
AcDbSpline
 62
7
  6
CONTINUOUS
 70
0
 71
3
 72
11
 73
7
 74
0
 42
0.0000001
 43
0.0000001
 44
0.0000000001
 40
0.0
 40
0.0
 40
0.0
 40
0.0
 40
0.2897776971
 40
0.5490719787
 40
0.7822272299
 40
1.0
 40
1.0
 40
1.0
 40
1.0
 10
269.4450158867
 20
385.6292090609
 30
0.0
 10
269.5766857853
 20
385.7052282585
 30
0.0
 10
269.8155367691
 20
385.8696727306
 30
0.0
 10
270.1009023314
 20
386.1697020854
 30
0.0
 10
270.2814679391
 20
386.5014900658
 30
0.0
 10
270.3236646603
 20
386.7396714243
 30
0.0
 10
270.3236646589
 20
386.8539313244
 30
0.0
  0
SPLINE
  5
346
100
AcDbEntity
  8
_1
100
AcDbSpline
 62
7
  6
CONTINUOUS
 70
0
 71
3
 72
11
 73
7
 74
0
 42
0.0000001
 43
0.0000001
 44
0.0000000001
 40
0.0
 40
0.0
 40
0.0
 40
0.0
 40
0.2976702691
 40
0.568619985
 40
0.8038537449
 40
1.0
 40
1.0
 40
1.0
 40
1.0
 10
248.2780864952
 20
407.697379673
 30
0.0
 10
249.7677490209
 20
406.7881630479
 30
0.0
 10
252.6010247056
 20
405.0310982215
 30
0.0
 10
256.5781541868
 20
402.5022883092
 30
0.0
 10
260.0288291623
 20
400.2553289646
 30
0.0
 10
262.1313713219
 20
398.8494651468
 30
0.0
 10
263.0810872397
 20
398.2009972713
 30
0.0
  0
SPLINE
  5
347
100
AcDbEntity
  8
_1
100
AcDbSpline
 62
7
  6
CONTINUOUS
 70
0
 71
3
 72
17
 73
13
 74
0
 42
0.0000001
 43
0.0000001
 44
0.0000000001
 40
0.0
 40
0.0
 40
0.0
 40
0.0
 40
0.1286919658
 40
0.2702764102
 40
0.4174294026
 40
0.5617750105
 40
0.6954477686
 40
0.8127152973
 40
0.8646787954
 40
0.9125127165
 40
0.9571419224
 40
1.0
 40
1.0
 40
1.0
 40
1.0
 10
255.1261617111
 20
377.5663861721
 30
0.0
 10
254.9225910048
 20
377.4488552715
 30
0.0
 10
254.4616877865
 20
377.2586864146
 30
0.0
 10
253.710511305
 20
377.1084109043
 30
0.0
 10
252.9160079153
 20
377.0863934019
 30
0.0
 10
252.1430027562
 20
377.1950140233
 30
0.0
 10
251.4541777787
 20
377.4251068526
 30
0.0
 10
250.9750861084
 20
377.7167073519
 30
0.0
 10
250.6939423115
 20
377.998883721
 30
0.0
 10
250.5445935584
 20
378.2185660826
 30
0.0
 10
250.4525456512
 20
378.4502822344
 30
0.0
 10
250.4316321502
 20
378.6107656436
 30
0.0
 10
250.4316301406
 20
378.6890482461
 30
0.0
  0
SPLINE
  5
348
100
AcDbEntity
  8
_1
100
AcDbSpline
 62
7
  6
CONTINUOUS
 70
0
 71
3
 72
11
 73
7
 74
0
 42
0.0000001
 43
0.0000001
 44
0.0000000001
 40
0.0
 40
0.0
 40
0.0
 40
0.0
 40
0.2897730581
 40
0.5490651526
 40
0.7822233799
 40
1.0
 40
1.0
 40
1.0
 40
1.0
 10
255.1261617111
 20
379.1993910063
 30
0.0
 10
255.2468575646
 20
379.2690743739
 30
0.0
 10
255.4658041062
 20
379.419811323
 30
0.0
 10
255.7273889513
 20
379.6948365937
 30
0.0
 10
255.8929178118
 20
379.9989744034
 30
0.0
 10
255.931595109
 20
380.2173126592
 30
0.0
 10
255.9315943492
 20
380.3220530812
 30
0.0
  0
SPLINE
  5
349
100
AcDbEntity
  8
_1
100
AcDbSpline
 62
7
  6
CONTINUOUS
 70
0
 71
3
 72
9
 73
5
 74
0
 42
0.0000001
 43
0.0000001
 44
0.0000000001
 40
0.0
 40
0.0
 40
0.0
 40
0.0
 40
0.2547173421
 40
1.0
 40
1.0
 40
1.0
 40
1.0
 10
251.5906130854
 20
381.6488459875
 30
0.0
 10
251.5773457461
 20
381.6411861314
 30
0.0
 10
251.5255905873
 20
381.6105455914
 30
0.0
 10
251.4751885697
 20
381.5776057577
 30
0.0
 10
251.4385963137
 20
381.5517167849
 30
0.0
  0
SPLINE
  5
34A
100
AcDbEntity
  8
_1
100
AcDbSpline
 62
7
  6
CONTINUOUS
 70
0
 71
3
 72
19
 73
15
 74
0
 42
0.0000001
 43
0.0000001
 44
0.0000000001
 40
0.0
 40
0.0
 40
0.0
 40
0.0
 40
0.0572560345
 40
0.1085827813
 40
0.1554631043
 40
0.2004575537
 40
0.2467138748
 40
0.296983868
 40
0.3529421451
 40
0.415120081
 40
0.5556502443
 40
0.7093598588
 40
0.8620917778
 40
1.0
 40
1.0
 40
1.0
 40
1.0
 10
251.4385963137
 20
381.5517167849
 30
0.0
 10
251.3532123693
 20
381.4913077569
 30
0.0
 10
251.2003899571
 20
381.3624477846
 30
0.0
 10
251.0279499035
 20
381.1331431273
 30
0.0
 10
250.933309142
 20
380.8848152501
 30
0.0
 10
250.9243672589
 20
380.6278206125
 30
0.0
 10
251.0021102506
 20
380.3766982794
 30
0.0
 10
251.1594632992
 20
380.1429760602
 30
0.0
 10
251.3877244417
 20
379.9333647195
 30
0.0
 10
251.7913865411
 20
379.6836170903
 30
0.0
 10
252.4179869047
 20
379.4769074639
 30
0.0
 10
253.2369706036
 20
379.4020792613
 30
0.0
 10
254.0485523277
 20
379.4993578467
 30
0.0
 10
254.5544332185
 20
379.68580074
 30
0.0
 10
254.7726068485
 20
379.8117625922
 30
0.0
  0
SPLINE
  5
34B
100
AcDbEntity
  8
_1
100
AcDbSpline
 62
7
  6
CONTINUOUS
 70
0
 71
3
 72
15
 73
11
 74
0
 42
0.0000001
 43
0.0000001
 44
0.0000000001
 40
0.0
 40
0.0
 40
0.0
 40
0.0
 40
0.1386934043
 40
0.2607066993
 40
0.3697026129
 40
0.4737549877
 40
0.5829897543
 40
0.7053689323
 40
0.8444803317
 40
1.0
 40
1.0
 40
1.0
 40
1.0
 10
254.7726068485
 20
379.8117625922
 30
0.0
 10
254.8849198506
 20
379.8766061471
 30
0.0
 10
255.0860310106
 20
380.0181829699
 30
0.0
 10
255.3149166435
 20
380.2830853841
 30
0.0
 10
255.4367796564
 20
380.5792490872
 30
0.0
 10
255.4352392723
 20
380.88882876
 30
0.0
 10
255.3105414308
 20
381.1843403403
 30
0.0
 10
255.0791783127
 20
381.4484414074
 30
0.0
 10
254.7568720074
 20
381.6729296799
 30
0.0
 10
254.5036984688
 20
381.7854998161
 30
0.0
 10
254.3667758389
 20
381.8344852418
 30
0.0
  0
SPLINE
  5
34C
100
AcDbEntity
  8
_1
100
AcDbSpline
 62
7
  6
CONTINUOUS
 70
0
 71
3
 72
9
 73
5
 74
0
 42
0.0000001
 43
0.0000001
 44
0.0000000001
 40
0.0
 40
0.0
 40
0.0
 40
0.0
 40
0.2600582178
 40
1.0
 40
1.0
 40
1.0
 40
1.0
 10
252.0244855919
 20
381.8443741296
 30
0.0
 10
251.9854716885
 20
381.8308629536
 30
0.0
 10
251.83660552
 20
381.7757052686
 30
0.0
 10
251.6923489653
 20
381.7075828746
 30
0.0
 10
251.5906130854
 20
381.6488459875
 30
0.0
  0
SPLINE
  5
34D
100
AcDbEntity
  8
_1
100
AcDbSpline
 62
7
  6
CONTINUOUS
 70
0
 71
3
 72
11
 73
7
 74
0
 42
0.0000001
 43
0.0000001
 44
0.0000000001
 40
0.0
 40
0.0
 40
0.0
 40
0.0
 40
0.2106603285
 40
0.4485611556
 40
0.7131906147
 40
1.0
 40
1.0
 40
1.0
 40
1.0
 10
240.068391127
 20
412.437142276
 30
0.0
 10
240.4384137787
 20
411.8658529371
 30
0.0
 10
241.4193763558
 20
410.7715241687
 30
0.0
 10
243.3211312513
 20
409.4453586223
 30
0.0
 10
245.6519247978
 20
408.3820345423
 30
0.0
 10
247.3722613933
 20
407.8929359894
 30
0.0
 10
248.2780864952
 20
407.697379673
 30
0.0
  0
SPLINE
  5
34E
100
AcDbEntity
  8
_1
100
AcDbSpline
 62
7
  6
CONTINUOUS
 70
0
 71
3
 72
11
 73
7
 74
0
 42
0.0000001
 43
0.0000001
 44
0.0000000001
 40
0.0
 40
0.0
 40
0.0
 40
0.0
 40
0.2344602688
 40
0.494033777
 40
0.7568249118
 40
1.0
 40
1.0
 40
1.0
 40
1.0
 10
269.2682384554
 20
385.7312692495
 30
0.0
 10
269.0108869653
 20
385.5826881843
 30
0.0
 10
268.4160084373
 20
385.3596841588
 30
0.0
 10
267.4585712015
 20
385.2342131098
 30
0.0
 10
266.4845331024
 20
385.30613263
 30
0.0
 10
265.862666589
 20
385.4929123553
 30
0.0
 10
265.5839038561
 20
385.6243813214
 30
0.0
  0
SPLINE
  5
34F
100
AcDbEntity
  8
_1
100
AcDbSpline
 62
7
  6
CONTINUOUS
 70
0
 71
3
 72
15
 73
11
 74
0
 42
0.0000001
 43
0.0000001
 44
0.0000000001
 40
0.0
 40
0.0
 40
0.0
 40
0.0
 40
0.0870976203
 40
0.1837270316
 40
0.2951246962
 40
0.4218046468
 40
0.5609389539
 40
0.7076610979
 40
0.8560616175
 40
1.0
 40
1.0
 40
1.0
 40
1.0
 10
236.2894310817
 20
388.4868681717
 30
0.0
 10
236.2894320556
 20
388.3526195475
 30
0.0
 10
236.3556234721
 20
388.0669261493
 30
0.0
 10
236.626659945
 20
387.6910689058
 30
0.0
 10
237.0397971665
 20
387.3732467856
 30
0.0
 10
237.5698854213
 20
387.1257161918
 30
0.0
 10
238.1867193302
 20
386.9603682606
 30
0.0
 10
238.8544105641
 20
386.8865198955
 30
0.0
 10
239.5329422855
 20
386.90847002
 30
0.0
 10
239.9785420582
 20
386.9884126398
 30
0.0
 10
240.1929060819
 20
387.0455982043
 30
0.0
  0
SPLINE
  5
350
100
AcDbEntity
  8
_1
100
AcDbSpline
 62
7
  6
CONTINUOUS
 70
0
 71
3
 72
17
 73
13
 74
0
 42
0.0000001
 43
0.0000001
 44
0.0000000001
 40
0.0
 40
0.0
 40
0.0
 40
0.0
 40
0.1286919658
 40
0.2702764102
 40
0.4174294026
 40
0.5617750105
 40
0.6954477686
 40
0.8127152973
 40
0.8646787954
 40
0.9125127165
 40
0.9571419224
 40
1.0
 40
1.0
 40
1.0
 40
1.0
 10
240.9839672082
 20
385.7312012625
 30
0.0
 10
240.7803965018
 20
385.613670362
 30
0.0
 10
240.3194932836
 20
385.423501505
 30
0.0
 10
239.5683168021
 20
385.2732259947
 30
0.0
 10
238.7738134124
 20
385.2512084923
 30
0.0
 10
238.0008082533
 20
385.3598291137
 30
0.0
 10
237.3119832758
 20
385.589921943
 30
0.0
 10
236.8328916055
 20
385.8815224423
 30
0.0
 10
236.5517478086
 20
386.1636988114
 30
0.0
 10
236.4023990554
 20
386.3833811731
 30
0.0
 10
236.3103511482
 20
386.6150973248
 30
0.0
 10
236.2894376472
 20
386.775580734
 30
0.0
 10
236.2894356377
 20
386.8538633365
 30
0.0
  0
SPLINE
  5
351
100
AcDbEntity
  8
_1
100
AcDbSpline
 62
7
  6
CONTINUOUS
 70
0
 71
3
 72
9
 73
5
 74
0
 42
0.0000001
 43
0.0000001
 44
0.0000000001
 40
0.0
 40
0.0
 40
0.0
 40
0.0
 40
0.4768196011
 40
1.0
 40
1.0
 40
1.0
 40
1.0
 10
261.6668677894
 20
381.9550082767
 30
0.0
 10
260.8410436274
 20
381.4782213205
 30
0.0
 10
258.9834413237
 20
380.6922158167
 30
0.0
 10
257.0202767056
 20
380.2610963516
 30
0.0
 10
255.9839000609
 20
380.1173804552
 30
0.0
  0
SPLINE
  5
352
100
AcDbEntity
  8
_1
100
AcDbSpline
 62
7
  6
CONTINUOUS
 70
0
 71
3
 72
10
 73
6
 74
0
 42
0.0000001
 43
0.0000001
 44
0.0000000001
 40
0.0
 40
0.0
 40
0.0
 40
0.0
 40
0.4628426792
 40
0.7218681998
 40
1.0
 40
1.0
 40
1.0
 40
1.0
 10
264.7497110971
 20
385.0121093024
 30
0.0
 10
264.4575119457
 20
384.4002615162
 30
0.0
 10
263.7987197359
 20
383.5386328096
 30
0.0
 10
262.6813062252
 20
382.5899340855
 30
0.0
 10
262.0197288668
 20
382.1587314987
 30
0.0
 10
261.6668677894
 20
381.9550082767
 30
0.0
  0
SPLINE
  5
353
100
AcDbEntity
  8
_1
100
AcDbSpline
 62
7
  6
CONTINUOUS
 70
0
 71
3
 72
9
 73
5
 74
0
 42
0.0000001
 43
0.0000001
 44
0.0000000001
 40
0.0
 40
0.0
 40
0.0
 40
0.0
 40
0.5245221438
 40
1.0
 40
1.0
 40
1.0
 40
1.0
 10
267.7391668889
 20
386.9174761951
 30
0.0
 10
268.0181910407
 20
386.9421171444
 30
0.0
 10
268.5472015857
 20
387.0363449996
 30
0.0
 10
269.0483378238
 20
387.2373151528
 30
0.0
 10
269.2682384554
 20
387.3642740838
 30
0.0
  0
SPLINE
  5
354
100
AcDbEntity
  8
_1
100
AcDbSpline
 62
7
  6
CONTINUOUS
 70
0
 71
3
 72
17
 73
13
 74
0
 42
0.0000001
 43
0.0000001
 44
0.0000000001
 40
0.0
 40
0.0
 40
0.0
 40
0.0
 40
0.0428588705
 40
0.0874882997
 40
0.1353223328
 40
0.1872856408
 40
0.3045518466
 40
0.4382226938
 40
0.5825694618
 40
0.7297273024
 40
0.8713109533
 40
1.0
 40
1.0
 40
1.0
 40
1.0
 10
250.4316255847
 20
380.3220530813
 30
0.0
 10
250.4316261525
 20
380.2437688898
 30
0.0
 10
250.4525408339
 20
380.0832833089
 30
0.0
 10
250.5445872027
 20
379.8515638855
 30
0.0
 10
250.6939391581
 20
379.6318825071
 30
0.0
 10
250.9750815405
 20
379.3497077464
 30
0.0
 10
251.4541688578
 20
379.0581102858
 30
0.0
 10
252.1429906771
 20
378.8280161139
 30
0.0
 10
252.9160048671
 20
378.7193953408
 30
0.0
 10
253.7105195592
 20
378.7414126027
 30
0.0
 10
254.4616982733
 20
378.891695083
 30
0.0
 10
254.9225952567
 20
379.0818625606
 30
0.0
 10
255.1261617111
 20
379.1993910063
 30
0.0
  0
SPLINE
  5
355
100
AcDbEntity
  8
_1
100
AcDbSpline
 62
7
  6
CONTINUOUS
 70
0
 71
3
 72
11
 73
7
 74
0
 42
0.0000001
 43
0.0000001
 44
0.0000000001
 40
0.0
 40
0.0
 40
0.0
 40
0.0
 40
0.2177713965
 40
0.4509290994
 40
0.7102263779
 40
1.0
 40
1.0
 40
1.0
 40
1.0
 10
270.0736665376
 20
386.8539313254
 30
0.0
 10
270.0736692262
 20
386.7491936768
 30
0.0
 10
270.0349865471
 20
386.5308599658
 30
0.0
 10
269.8694690691
 20
386.2267183464
 30
0.0
 10
269.6078805764
 20
385.9516927893
 30
0.0
 10
269.388934243
 20
385.800952579
 30
0.0
 10
269.2682384554
 20
385.7312692495
 30
0.0
  0
SPLINE
  5
356
100
AcDbEntity
  8
_1
100
AcDbSpline
 62
7
  6
CONTINUOUS
 70
0
 71
3
 72
11
 73
7
 74
0
 42
0.0000001
 43
0.0000001
 44
0.0000000001
 40
0.0
 40
0.0
 40
0.0
 40
0.0
 40
0.2177713965
 40
0.4509290994
 40
0.7102263779
 40
1.0
 40
1.0
 40
1.0
 40
1.0
 10
255.9315897933
 20
378.6890482479
 30
0.0
 10
255.9315924819
 20
378.5843105993
 30
0.0
 10
255.8929098028
 20
378.3659768884
 30
0.0
 10
255.7273923248
 20
378.061835269
 30
0.0
 10
255.4658038321
 20
377.7868097118
 30
0.0
 10
255.2468574987
 20
377.6360695016
 30
0.0
 10
255.1261617111
 20
377.5663861721
 30
0.0
  0
SPLINE
  5
357
100
AcDbEntity
  8
_1
100
AcDbSpline
 62
7
  6
CONTINUOUS
 70
0
 71
3
 72
13
 73
9
 74
0
 42
0.0000001
 43
0.0000001
 44
0.0000000001
 40
0.0
 40
0.0
 40
0.0
 40
0.0
 40
0.4174323911
 40
0.7161246706
 40
0.823847006
 40
0.9056203653
 40
0.9632767735
 40
1.0
 40
1.0
 40
1.0
 40
1.0
 10
240.068391127
 20
412.437142276
 30
0.0
 10
239.9511670455
 20
412.4944709465
 30
0.0
 10
239.7488171198
 20
412.5901948972
 30
0.0
 10
239.511492027
 20
412.6909337752
 30
0.0
 10
239.3673911445
 20
412.7410600494
 30
0.0
 10
239.2925566806
 20
412.7614154587
 30
0.0
 10
239.2383851777
 20
412.7697083496
 30
0.0
 10
239.2077319097
 20
412.7673073135
 30
0.0
 10
239.1973971719
 20
412.7623092332
 30
0.0
  0
SPLINE
  5
358
100
AcDbEntity
  8
_1
100
AcDbSpline
 62
7
  6
CONTINUOUS
 70
0
 71
3
 72
11
 73
7
 74
0
 42
0.0000001
 43
0.0000001
 44
0.0000000001
 40
0.0
 40
0.0
 40
0.0
 40
0.0
 40
0.237228705
 40
0.5000005261
 40
0.7627720609
 40
1.0
 40
1.0
 40
1.0
 40
1.0
 10
251.0602984553
 20
377.4643157854
 30
0.0
 10
251.3614529667
 20
377.2904480806
 30
0.0
 10
252.0618109261
 20
377.0367069456
 30
0.0
 10
253.181622134
 20
376.9151624924
 30
0.0
 10
254.3014316524
 20
377.0367120558
 30
0.0
 10
255.0017868572
 20
377.2904566684
 30
0.0
 10
255.3029391424
 20
377.4643259834
 30
0.0
  0
SPLINE
  5
359
100
AcDbEntity
  8
_1
100
AcDbSpline
 62
7
  6
CONTINUOUS
 70
0
 71
3
 72
11
 73
7
 74
0
 42
0.0000001
 43
0.0000001
 44
0.0000000001
 40
0.0
 40
0.0
 40
0.0
 40
0.0
 40
0.2177723091
 40
0.4509273687
 40
0.7102218233
 40
1.0
 40
1.0
 40
1.0
 40
1.0
 10
236.0394375164
 20
386.8538633374
 30
0.0
 10
236.0394375178
 20
386.7396022073
 30
0.0
 10
236.0816352027
 20
386.5014181006
 30
0.0
 10
236.2622047166
 20
386.1696269077
 30
0.0
 10
236.5475760747
 20
385.8695953289
 30
0.0
 10
236.7864315914
 20
385.705150229
 30
0.0
 10
236.9181039524
 20
385.6291308758
 30
0.0
  0
SPLINE
  5
35A
100
AcDbEntity
  8
_1
100
AcDbSpline
 62
7
  6
CONTINUOUS
 70
0
 71
3
 72
11
 73
7
 74
0
 42
0.0000001
 43
0.0000001
 44
0.0000000001
 40
0.0
 40
0.0
 40
0.0
 40
0.0
 40
0.2875022507
 40
0.5471892705
 40
0.7819963901
 40
1.0
 40
1.0
 40
1.0
 40
1.0
 10
269.2682384554
 20
387.3642740838
 30
0.0
 10
269.3799022074
 20
387.4287427962
 30
0.0
 10
269.5839404873
 20
387.5675155767
 30
0.0
 10
269.8337444129
 20
387.8172538987
 30
0.0
 10
270.00324993
 20
388.0920959428
 30
0.0
 10
270.0579793168
 20
388.2914533016
 30
0.0
 10
270.0684074276
 20
388.388665074
 30
0.0
  0
SPLINE
  5
35B
100
AcDbEntity
  8
_1
100
AcDbSpline
 62
7
  6
CONTINUOUS
 70
0
 71
3
 72
9
 73
5
 74
0
 42
0.0000001
 43
0.0000001
 44
0.0000000001
 40
0.0
 40
0.0
 40
0.0
 40
0.0
 40
0.258914902
 40
1.0
 40
1.0
 40
1.0
 40
1.0
 10
340.6826712026
 20
272.2142978599
 30
0.0
 10
340.6669071111
 20
272.190428193
 30
0.0
 10
340.6014224183
 20
272.1014058211
 30
0.0
 10
340.5154342478
 20
272.0270996122
 30
0.0
 10
340.44451989
 20
271.9861740985
 30
0.0
  0
SPLINE
  5
35C
100
AcDbEntity
  8
_1
100
AcDbSpline
 62
7
  6
CONTINUOUS
 70
0
 71
3
 72
9
 73
5
 74
0
 42
0.0000001
 43
0.0000001
 44
0.0000000001
 40
0.0
 40
0.0
 40
0.0
 40
0.0
 40
0.5316494249
 40
1.0
 40
1.0
 40
1.0
 40
1.0
 10
355.4516585674
 20
281.198465219
 30
0.0
 10
355.4249966825
 20
281.0755960765
 30
0.0
 10
355.3420229605
 20
280.8478426953
 30
0.0
 10
355.1671763972
 20
280.6736562912
 30
0.0
 10
355.071231554
 20
280.6183192567
 30
0.0
  0
SPLINE
  5
35D
100
AcDbEntity
  8
_1
100
AcDbSpline
 62
7
  6
CONTINUOUS
 70
0
 71
3
 72
9
 73
5
 74
0
 42
0.0000001
 43
0.0000001
 44
0.0000000001
 40
0.0
 40
0.0
 40
0.0
 40
0.0
 40
0.258600532
 40
1.0
 40
1.0
 40
1.0
 40
1.0
 10
357.6632866354
 20
298.3690184224
 30
0.0
 10
357.5887561676
 20
296.8776333842
 30
0.0
 10
357.1939752603
 20
291.1168279628
 30
0.0
 10
356.3595021265
 20
285.382188902
 30
0.0
 10
355.4516585674
 20
281.198465219
 30
0.0
  0
SPLINE
  5
35E
100
AcDbEntity
  8
_1
100
AcDbSpline
 62
7
  6
CONTINUOUS
 70
0
 71
3
 72
10
 73
6
 74
0
 42
0.0000001
 43
0.0000001
 44
0.0000000001
 40
0.0
 40
0.0
 40
0.0
 40
0.0
 40
0.2324097199
 40
0.4892618267
 40
1.0
 40
1.0
 40
1.0
 40
1.0
 10
354.071246387
 20
355.835572226
 30
0.0
 10
354.2424442968
 20
355.7367333027
 30
0.0
 10
354.5716764028
 20
355.4729593466
 30
0.0
 10
355.1079958566
 20
354.8101846363
 30
0.0
 10
355.3773887683
 20
354.1885540334
 30
0.0
 10
355.4516585674
 20
353.7605302285
 30
0.0
  0
SPLINE
  5
35F
100
AcDbEntity
  8
_1
100
AcDbSpline
 62
7
  6
CONTINUOUS
 70
0
 71
3
 72
13
 73
9
 74
0
 42
0.0000001
 43
0.0000001
 44
0.0000000001
 40
0.0
 40
0.0
 40
0.0
 40
0.0
 40
0.11459287
 40
0.2380706217
 40
0.5005460296
 40
0.7627228902
 40
0.885851754
 40
1.0
 40
1.0
 40
1.0
 40
1.0
 10
340.8898962514
 20
374.7769366292
 30
0.0
 10
340.8957733264
 20
373.995912692
 30
0.0
 10
341.0487522398
 20
372.3727344154
 30
0.0
 10
341.8398147281
 20
369.0458355756
 30
0.0
 10
343.6506129224
 20
364.9713770892
 30
0.0
 10
346.2901940222
 20
361.380561894
 30
0.0
 10
348.784060408
 20
359.0515393328
 30
0.0
 10
350.1152704044
 20
358.119504355
 30
0.0
 10
350.7890554594
 20
357.7305031724
 30
0.0
  0
SPLINE
  5
360
100
AcDbEntity
  8
_1
100
AcDbSpline
 62
7
  6
CONTINUOUS
 70
0
 71
3
 72
11
 73
7
 74
0
 42
0.0000001
 43
0.0000001
 44
0.0000000001
 40
0.0
 40
0.0
 40
0.0
 40
0.0
 40
0.2369927091
 40
0.4994505644
 40
0.7622069344
 40
1.0
 40
1.0
 40
1.0
 40
1.0
 10
339.4255022229
 20
383.887163283
 30
0.0
 10
339.6251054461
 20
383.7719249154
 30
0.0
 10
340.0030826727
 20
383.4544726861
 30
0.0
 10
340.4450738246
 20
382.8526423087
 30
0.0
 10
340.7489447694
 20
382.1697172067
 30
0.0
 10
340.8379276878
 20
381.6832109667
 30
0.0
 10
340.839667824
 20
381.4519585035
 30
0.0
  0
SPLINE
  5
361
100
AcDbEntity
  8
_1
100
AcDbSpline
 62
7
  6
CONTINUOUS
 70
0
 71
3
 72
9
 73
5
 74
0
 42
0.0000001
 43
0.0000001
 44
0.0000000001
 40
0.0
 40
0.0
 40
0.0
 40
0.0
 40
0.7431890093
 40
1.0
 40
1.0
 40
1.0
 40
1.0
 10
339.5088533459
 20
271.4561767974
 30
0.0
 10
339.5516803822
 20
271.4912139102
 30
0.0
 10
339.6037066057
 20
271.5457204685
 30
0.0
 10
339.6468487476
 20
271.6064107294
 30
0.0
 10
339.6573853228
 20
271.6223661213
 30
0.0
  0
SPLINE
  5
362
100
AcDbEntity
  8
_1
100
AcDbSpline
 62
7
  6
CONTINUOUS
 70
0
 71
3
 72
9
 73
5
 74
0
 42
0.0000001
 43
0.0000001
 44
0.0000000001
 40
0.0
 40
0.0
 40
0.0
 40
0.0
 40
0.4683506128
 40
1.0
 40
1.0
 40
1.0
 40
1.0
 10
354.0459309829
 20
280.0263652464
 30
0.0
 10
354.1418758426
 20
280.0817022703
 30
0.0
 10
354.3167224212
 20
280.2558886735
 30
0.0
 10
354.3996961204
 20
280.4836420619
 30
0.0
 10
354.4263580035
 20
280.6065111959
 30
0.0
  0
SPLINE
  5
363
100
AcDbEntity
  8
_1
100
AcDbSpline
 62
7
  6
CONTINUOUS
 70
0
 71
3
 72
9
 73
5
 74
0
 42
0.0000001
 43
0.0000001
 44
0.0000000001
 40
0.0
 40
0.0
 40
0.0
 40
0.0
 40
0.2354758828
 40
1.0
 40
1.0
 40
1.0
 40
1.0
 10
349.7637548955
 20
357.1385491493
 30
0.0
 10
349.4337604216
 20
357.3290672376
 30
0.0
 10
348.0676819024
 20
358.199006675
 30
0.0
 10
346.8432834307
 20
359.2816696151
 30
0.0
 10
345.9914939385
 20
360.1788688248
 30
0.0
  0
SPLINE
  5
364
100
AcDbEntity
  8
_1
100
AcDbSpline
 62
7
  6
CONTINUOUS
 70
0
 71
3
 72
9
 73
5
 74
0
 42
0.0000001
 43
0.0000001
 44
0.0000000001
 40
0.0
 40
0.0
 40
0.0
 40
0.0
 40
0.2466551114
 40
1.0
 40
1.0
 40
1.0
 40
1.0
 10
345.9914939385
 20
360.1788688248
 30
0.0
 10
345.8636490234
 20
360.3135292754
 30
0.0
 10
345.3526991504
 20
360.8664328842
 30
0.0
 10
344.8708680821
 20
361.4461460979
 30
0.0
 10
344.5246640258
 20
361.8953290194
 30
0.0
  0
SPLINE
  5
365
100
AcDbEntity
  8
_1
100
AcDbSpline
 62
7
  6
CONTINUOUS
 70
0
 71
3
 72
9
 73
5
 74
0
 42
0.0000001
 43
0.0000001
 44
0.0000000001
 40
0.0
 40
0.0
 40
0.0
 40
0.0
 40
0.2530591126
 40
1.0
 40
1.0
 40
1.0
 40
1.0
 10
341.4102592635
 20
367.2583595462
 30
0.0
 10
341.3366864499
 20
367.4344499058
 30
0.0
 10
341.054598372
 20
368.1338663207
 30
0.0
 10
340.8072678575
 20
368.847388788
 30
0.0
 10
340.6443900519
 20
369.3866256311
 30
0.0
  0
SPLINE
  5
366
100
AcDbEntity
  8
_1
100
AcDbSpline
 62
7
  6
CONTINUOUS
 70
0
 71
3
 72
9
 73
5
 74
0
 42
0.0000001
 43
0.0000001
 44
0.0000000001
 40
0.0
 40
0.0
 40
0.0
 40
0.0
 40
0.2636902181
 40
1.0
 40
1.0
 40
1.0
 40
1.0
 10
340.6443900519
 20
369.3866256311
 30
0.0
 10
340.5206141046
 20
369.7964086019
 30
0.0
 10
340.0994304987
 20
371.3637989109
 30
0.0
 10
339.8735899244
 20
372.9897086948
 30
0.0
 10
339.8645956874
 20
374.184982606
 30
0.0
  0
SPLINE
  5
367
100
AcDbEntity
  8
_1
100
AcDbSpline
 62
7
  6
CONTINUOUS
 70
0
 71
3
 72
9
 73
5
 74
0
 42
0.0000001
 43
0.0000001
 44
0.0000000001
 40
0.0
 40
0.0
 40
0.0
 40
0.0
 40
0.2308360766
 40
1.0
 40
1.0
 40
1.0
 40
1.0
 10
339.81436726
 20
380.8600044804
 30
0.0
 10
339.8137012751
 20
380.9485094267
 30
0.0
 10
339.7839494081
 20
381.3316071624
 30
0.0
 10
339.6640564783
 20
381.7045035357
 30
0.0
 10
339.539531517
 20
381.9718379132
 30
0.0
  0
SPLINE
  5
368
100
AcDbEntity
  8
_1
100
AcDbSpline
 62
7
  6
CONTINUOUS
 70
0
 71
3
 72
9
 73
5
 74
0
 42
0.0000001
 43
0.0000001
 44
0.0000000001
 40
0.0
 40
0.0
 40
0.0
 40
0.0
 40
0.267187639
 40
1.0
 40
1.0
 40
1.0
 40
1.0
 10
339.2280273564
 20
382.5082506177
 30
0.0
 10
339.1689842268
 20
382.5915864599
 30
0.0
 10
338.934194248
 20
382.8927682896
 30
0.0
 10
338.642790892
 20
383.1551534693
 30
0.0
 10
338.4002016589
 20
383.2952092599
 30
0.0
  0
SPLINE
  5
369
100
AcDbEntity
  8
_1
100
AcDbSpline
 62
7
  6
CONTINUOUS
 70
0
 71
3
 72
9
 73
5
 74
0
 42
0.0000001
 43
0.0000001
 44
0.0000000001
 40
0.0
 40
0.0
 40
0.0
 40
0.0
 40
0.2416048332
 40
1.0
 40
1.0
 40
1.0
 40
1.0
 10
354.4263580035
 20
280.6065111959
 30
0.0
 10
354.7222115045
 20
281.9699281488
 30
0.0
 10
355.8187498939
 20
287.6405941182
 30
0.0
 10
356.4194051065
 20
293.4031702058
 30
0.0
 10
356.6379860715
 20
297.7770643993
 30
0.0
  0
SPLINE
  5
36A
100
AcDbEntity
  8
_1
100
AcDbSpline
 62
7
  6
CONTINUOUS
 70
0
 71
3
 72
9
 73
5
 74
0
 42
0.0000001
 43
0.0000001
 44
0.0000000001
 40
0.0
 40
0.0
 40
0.0
 40
0.0
 40
0.2528929181
 40
1.0
 40
1.0
 40
1.0
 40
1.0
 10
361.7307628545
 20
300.7173628946
 30
0.0
 10
361.679023351
 20
300.0493747573
 30
0.0
 10
361.4505413211
 20
297.4099083607
 30
0.0
 10
361.1254416431
 20
294.778679161
 30
0.0
 10
360.8253668465
 20
292.8222480369
 30
0.0
  0
SPLINE
  5
36B
100
AcDbEntity
  8
_1
100
AcDbSpline
 62
7
  6
CONTINUOUS
 70
0
 71
3
 72
9
 73
5
 74
0
 42
0.0000001
 43
0.0000001
 44
0.0000000001
 40
0.0
 40
0.0
 40
0.0
 40
0.0
 40
0.2481608386
 40
1.0
 40
1.0
 40
1.0
 40
1.0
 10
362.1522537817
 20
318.638704479
 30
0.0
 10
362.1424102943
 20
317.1558298038
 30
0.0
 10
362.0772176762
 20
311.1805639404
 30
0.0
 10
361.9107058463
 20
305.2064402011
 30
0.0
 10
361.7307628545
 20
300.7173628946
 30
0.0
  0
SPLINE
  5
36C
100
AcDbEntity
  8
_1
100
AcDbSpline
 62
7
  6
CONTINUOUS
 70
0
 71
3
 72
9
 73
5
 74
0
 42
0.0000001
 43
0.0000001
 44
0.0000000001
 40
0.0
 40
0.0
 40
0.0
 40
0.0
 40
0.2562910634
 40
1.0
 40
1.0
 40
1.0
 40
1.0
 10
358.8368569125
 20
355.7149637379
 30
0.0
 10
359.1964375747
 20
354.0835514646
 30
0.0
 10
360.4947009737
 20
347.6957765651
 30
0.0
 10
361.3651571252
 20
341.2184878856
 30
0.0
 10
361.7307628545
 20
336.3846111492
 30
0.0
  0
SPLINE
  5
36D
100
AcDbEntity
  8
_1
100
AcDbSpline
 62
7
  6
CONTINUOUS
 70
0
 71
3
 72
9
 73
5
 74
0
 42
0.0000001
 43
0.0000001
 44
0.0000000001
 40
0.0
 40
0.0
 40
0.0
 40
0.0
 40
0.2518459049
 40
1.0
 40
1.0
 40
1.0
 40
1.0
 10
362.1522537817
 20
318.638704479
 30
0.0
 10
362.1424585619
 20
320.1288788875
 30
0.0
 10
362.078467131
 20
326.0456910127
 30
0.0
 10
361.913375085
 20
331.9614492407
 30
0.0
 10
361.7307628545
 20
336.3846111492
 30
0.0
  0
SPLINE
  5
36E
100
AcDbEntity
  8
_1
100
AcDbSpline
 62
7
  6
CONTINUOUS
 70
0
 71
3
 72
9
 73
5
 74
0
 42
0.0000001
 43
0.0000001
 44
0.0000000001
 40
0.0
 40
0.0
 40
0.0
 40
0.0
 40
0.2385358009
 40
1.0
 40
1.0
 40
1.0
 40
1.0
 10
343.8009878609
 20
273.9239925152
 30
0.0
 10
343.8312473457
 20
273.9414806648
 30
0.0
 10
343.9527964586
 20
274.0240251928
 30
0.0
 10
344.0488003474
 20
274.1409277338
 30
0.0
 10
344.1055568099
 20
274.2369798424
 30
0.0
  0
SPLINE
  5
36F
100
AcDbEntity
  8
_1
100
AcDbSpline
 62
7
  6
CONTINUOUS
 70
0
 71
3
 72
9
 73
5
 74
0
 42
0.0000001
 43
0.0000001
 44
0.0000000001
 40
0.0
 40
0.0
 40
0.0
 40
0.0
 40
0.5316494249
 40
1.0
 40
1.0
 40
1.0
 40
1.0
 10
358.3154291082
 20
282.8518540422
 30
0.0
 10
358.2887672232
 20
282.7289848997
 30
0.0
 10
358.2057935012
 20
282.5012315184
 30
0.0
 10
358.0309469379
 20
282.3270451144
 30
0.0
 10
357.9350020948
 20
282.2717080799
 30
0.0
  0
SPLINE
  5
370
100
AcDbEntity
  8
_1
100
AcDbSpline
 62
7
  6
CONTINUOUS
 70
0
 71
3
 72
9
 73
5
 74
0
 42
0.0000001
 43
0.0000001
 44
0.0000000001
 40
0.0
 40
0.0
 40
0.0
 40
0.0
 40
0.5195711092
 40
1.0
 40
1.0
 40
1.0
 40
1.0
 10
335.6203371072
 20
389.4114518112
 30
0.0
 10
335.482462214
 20
389.7711899979
 30
0.0
 10
335.108041408
 20
390.421332671
 30
0.0
 10
334.5791700905
 20
390.9635590467
 30
0.0
 10
334.280053187
 20
391.157026608
 30
0.0
  0
SPLINE
  5
371
100
AcDbEntity
  8
_1
100
AcDbSpline
 62
7
  6
CONTINUOUS
 70
0
 71
3
 72
9
 73
5
 74
0
 42
0.0000001
 43
0.0000001
 44
0.0000000001
 40
0.0
 40
0.0
 40
0.0
 40
0.0
 40
0.4480220883
 40
1.0
 40
1.0
 40
1.0
 40
1.0
 10
360.4245276675
 20
292.1086432487
 30
0.0
 10
360.5330662622
 20
292.1712310902
 30
0.0
 10
360.7269318112
 20
292.3943039646
 30
0.0
 10
360.8019645603
 20
292.669669541
 30
0.0
 10
360.8253668465
 20
292.8222480369
 30
0.0
  0
SPLINE
  5
372
100
AcDbEntity
  8
_1
100
AcDbSpline
 62
7
  6
CONTINUOUS
 70
0
 71
3
 72
13
 73
9
 74
0
 42
0.0000001
 43
0.0000001
 44
0.0000000001
 40
0.0
 40
0.0
 40
0.0
 40
0.0
 40
0.11459287
 40
0.2380706217
 40
0.5005460296
 40
0.7627228902
 40
0.885851754
 40
1.0
 40
1.0
 40
1.0
 40
1.0
 10
343.7536667921
 20
376.4303254523
 30
0.0
 10
343.7595438671
 20
375.6493015152
 30
0.0
 10
343.9125227805
 20
374.0261232385
 30
0.0
 10
344.7035852688
 20
370.6992243987
 30
0.0
 10
346.5143834631
 20
366.6247659124
 30
0.0
 10
349.1539645629
 20
363.0339507171
 30
0.0
 10
351.6478309487
 20
360.704928156
 30
0.0
 10
352.9790409451
 20
359.7728931781
 30
0.0
 10
353.6528260002
 20
359.3838919956
 30
0.0
  0
SPLINE
  5
373
100
AcDbEntity
  8
_1
100
AcDbSpline
 62
7
  6
CONTINUOUS
 70
0
 71
3
 72
11
 73
7
 74
0
 42
0.0000001
 43
0.0000001
 44
0.0000000001
 40
0.0
 40
0.0
 40
0.0
 40
0.0
 40
0.2369927091
 40
0.4994505644
 40
0.7622069344
 40
1.0
 40
1.0
 40
1.0
 40
1.0
 10
342.2892727636
 20
385.5405521062
 30
0.0
 10
342.4888759868
 20
385.4253137385
 30
0.0
 10
342.8668532134
 20
385.1078615092
 30
0.0
 10
343.3088443653
 20
384.5060311318
 30
0.0
 10
343.6127153102
 20
383.8231060299
 30
0.0
 10
343.7016982285
 20
383.3365997899
 30
0.0
 10
343.7034383647
 20
383.1053473266
 30
0.0
  0
SPLINE
  5
374
100
AcDbEntity
  8
_1
100
AcDbSpline
 62
7
  6
CONTINUOUS
 70
0
 71
3
 72
10
 73
6
 74
0
 42
0.0000001
 43
0.0000001
 44
0.0000000001
 40
0.0
 40
0.0
 40
0.0
 40
0.0
 40
0.5162079819
 40
0.7735750087
 40
1.0
 40
1.0
 40
1.0
 40
1.0
 10
358.8368569125
 20
355.7149637379
 30
0.0
 10
358.7432531436
 20
356.1396426861
 30
0.0
 10
358.4756573255
 20
356.7516260191
 30
0.0
 10
357.9804247331
 20
357.4343450387
 30
0.0
 10
357.6838510109
 20
357.7198819179
 30
0.0
 10
357.5297852461
 20
357.8323486481
 30
0.0
  0
SPLINE
  5
375
100
AcDbEntity
  8
_1
100
AcDbSpline
 62
7
  6
CONTINUOUS
 70
0
 71
3
 72
9
 73
5
 74
0
 42
0.0000001
 43
0.0000001
 44
0.0000000001
 40
0.0
 40
0.0
 40
0.0
 40
0.0
 40
0.2615058413
 40
1.0
 40
1.0
 40
1.0
 40
1.0
 10
289.7672662005
 20
416.8559147705
 30
0.0
 10
289.7397823426
 20
416.8700782364
 30
0.0
 10
289.6335523285
 20
416.921968117
 30
0.0
 10
289.5226352904
 20
416.9646279093
 30
0.0
 10
289.4387554817
 20
416.9888770257
 30
0.0
  0
SPLINE
  5
376
100
AcDbEntity
  8
_1
100
AcDbSpline
 62
7
  6
CONTINUOUS
 70
0
 71
3
 72
8
 73
4
 74
0
 42
0.0000001
 43
0.0000001
 44
0.0000000001
 40
0.0
 40
0.0
 40
0.0
 40
0.0
 40
1.0
 40
1.0
 40
1.0
 40
1.0
 10
340.5440022
 20
272.0563434732
 30
0.0
 10
340.5973935879
 20
272.101723389
 30
0.0
 10
340.6440723392
 20
272.1558481766
 30
0.0
 10
340.6826858867
 20
272.2143201444
 30
0.0
  0
SPLINE
  5
377
100
AcDbEntity
  8
_1
100
AcDbSpline
 62
7
  6
CONTINUOUS
 70
0
 71
3
 72
9
 73
5
 74
0
 42
0.0000001
 43
0.0000001
 44
0.0000000001
 40
0.0
 40
0.0
 40
0.0
 40
0.0
 40
0.2308360766
 40
1.0
 40
1.0
 40
1.0
 40
1.0
 10
340.839667824
 20
381.4519585035
 30
0.0
 10
340.839001839
 20
381.5404634498
 30
0.0
 10
340.809249972
 20
381.9235611855
 30
0.0
 10
340.6893570423
 20
382.2964575588
 30
0.0
 10
340.564832081
 20
382.5637919363
 30
0.0
  0
SPLINE
  5
378
100
AcDbEntity
  8
_1
100
AcDbSpline
 62
7
  6
CONTINUOUS
 70
0
 71
3
 72
9
 73
5
 74
0
 42
0.0000001
 43
0.0000001
 44
0.0000000001
 40
0.0
 40
0.0
 40
0.0
 40
0.0
 40
0.267187639
 40
1.0
 40
1.0
 40
1.0
 40
1.0
 10
340.2533279203
 20
383.1002046408
 30
0.0
 10
340.1942847907
 20
383.183540483
 30
0.0
 10
339.959494812
 20
383.4847223127
 30
0.0
 10
339.668091456
 20
383.7471074924
 30
0.0
 10
339.4255022229
 20
383.887163283
 30
0.0
  0
SPLINE
  5
379
100
AcDbEntity
  8
_1
100
AcDbSpline
 62
7
  6
CONTINUOUS
 70
0
 71
3
 72
9
 73
5
 74
0
 42
0.0000001
 43
0.0000001
 44
0.0000000001
 40
0.0
 40
0.0
 40
0.0
 40
0.0
 40
0.2466551114
 40
1.0
 40
1.0
 40
1.0
 40
1.0
 10
347.0167945024
 20
360.770822848
 30
0.0
 10
346.8889495832
 20
360.9054833029
 30
0.0
 10
346.3779996936
 20
361.4583869302
 30
0.0
 10
345.8961686106
 20
362.038100164
 30
0.0
 10
345.5499645443
 20
362.4872831015
 30
0.0
  0
SPLINE
  5
37A
100
AcDbEntity
  8
_1
100
AcDbSpline
 62
7
  6
CONTINUOUS
 70
0
 71
3
 72
9
 73
5
 74
0
 42
0.0000001
 43
0.0000001
 44
0.0000000001
 40
0.0
 40
0.0
 40
0.0
 40
0.0
 40
0.2530591125
 40
1.0
 40
1.0
 40
1.0
 40
1.0
 10
342.4355597871
 20
367.8503136659
 30
0.0
 10
342.3619869777
 20
368.0264040176
 30
0.0
 10
342.0798989157
 20
368.7258204013
 30
0.0
 10
341.832568414
 20
369.4393428359
 30
0.0
 10
341.6696906158
 20
369.9785796542
 30
0.0
  0
SPLINE
  5
37B
100
AcDbEntity
  8
_1
100
AcDbSpline
 62
7
  6
CONTINUOUS
 70
0
 71
3
 72
9
 73
5
 74
0
 42
0.0000001
 43
0.0000001
 44
0.0000000001
 40
0.0
 40
0.0
 40
0.0
 40
0.0
 40
0.2664728507
 40
1.0
 40
1.0
 40
1.0
 40
1.0
 10
354.7995642949
 20
355.1818721944
 30
0.0
 10
354.7456522943
 20
355.250412324
 30
0.0
 10
354.5332649275
 20
355.4990915681
 30
0.0
 10
354.2791320774
 20
355.7155520819
 30
0.0
 10
354.071246387
 20
355.835572226
 30
0.0
  0
SPLINE
  5
37C
100
AcDbEntity
  8
_1
100
AcDbSpline
 62
7
  6
CONTINUOUS
 70
0
 71
3
 72
9
 73
5
 74
0
 42
0.0000001
 43
0.0000001
 44
0.0000000001
 40
0.0
 40
0.0
 40
0.0
 40
0.0
 40
0.2434995701
 40
1.0
 40
1.0
 40
1.0
 40
1.0
 10
357.6632866354
 20
334.0362666769
 30
0.0
 10
357.5872282826
 20
335.6460479494
 30
0.0
 10
357.163282619
 20
342.2515631094
 30
0.0
 10
356.3076411039
 20
348.8274227419
 30
0.0
 10
355.4516585674
 20
353.7605302285
 30
0.0
  0
SPLINE
  5
37D
100
AcDbEntity
  8
_1
100
AcDbSpline
 62
7
  6
CONTINUOUS
 70
0
 71
3
 72
9
 73
5
 74
0
 42
0.0000001
 43
0.0000001
 44
0.0000000001
 40
0.0
 40
0.0
 40
0.0
 40
0.0
 40
0.2416048332
 40
1.0
 40
1.0
 40
1.0
 40
1.0
 10
355.4516585674
 20
281.198465219
 30
0.0
 10
355.7475120685
 20
282.561882172
 30
0.0
 10
356.8440504579
 20
288.2325481413
 30
0.0
 10
357.4447056705
 20
293.995124229
 30
0.0
 10
357.6632866354
 20
298.3690184224
 30
0.0
  0
SPLINE
  5
37E
100
AcDbEntity
  8
_1
100
AcDbSpline
 62
7
  6
CONTINUOUS
 70
0
 71
3
 72
11
 73
7
 74
0
 42
0.0000001
 43
0.0000001
 44
0.0000000001
 40
0.0
 40
0.0
 40
0.0
 40
0.0
 40
0.2177817009
 40
0.4509079353
 40
0.7102947134
 40
1.0
 40
1.0
 40
1.0
 40
1.0
 10
280.2231666782
 20
383.0980440011
 30
0.0
 10
280.223166657
 20
383.2123092423
 30
0.0
 10
280.1809399912
 20
383.4504741742
 30
0.0
 10
280.0003862997
 20
383.7823141284
 30
0.0
 10
279.7149565854
 20
384.0822838308
 30
0.0
 10
279.476131459
 20
384.2467767743
 30
0.0
 10
279.3444931594
 20
384.3227764627
 30
0.0
  0
SPLINE
  5
37F
100
AcDbEntity
  8
_1
100
AcDbSpline
 62
7
  6
CONTINUOUS
 70
0
 71
3
 72
10
 73
6
 74
0
 42
0.0000001
 43
0.0000001
 44
0.0000000001
 40
0.0
 40
0.0
 40
0.0
 40
0.0
 40
0.2184031616
 40
0.452246679
 40
1.0
 40
1.0
 40
1.0
 40
1.0
 10
323.0636990069
 20
381.8734220176
 30
0.0
 10
323.0636989833
 20
381.9495839642
 30
0.0
 10
323.0357259135
 20
382.108431932
 30
0.0
 10
322.8667235164
 20
382.4185546794
 30
0.0
 10
322.6434420936
 20
382.5944051808
 30
0.0
 10
322.4780185873
 20
382.6899103261
 30
0.0
  0
SPLINE
  5
380
100
AcDbEntity
  8
_1
100
AcDbSpline
 62
7
  6
CONTINUOUS
 70
0
 71
3
 72
9
 73
5
 74
0
 42
0.0000001
 43
0.0000001
 44
0.0000000001
 40
0.0
 40
0.0
 40
0.0
 40
0.0
 40
0.258600532
 40
1.0
 40
1.0
 40
1.0
 40
1.0
 10
356.6379860715
 20
297.7770643993
 30
0.0
 10
356.5634556036
 20
296.285679361
 30
0.0
 10
356.1686746963
 20
290.5248739397
 30
0.0
 10
355.3342015625
 20
284.7902348788
 30
0.0
 10
354.4263580035
 20
280.6065111959
 30
0.0
  0
SPLINE
  5
381
100
AcDbEntity
  8
_1
100
AcDbSpline
 62
7
  6
CONTINUOUS
 70
0
 71
3
 72
9
 73
5
 74
0
 42
0.0000001
 43
0.0000001
 44
0.0000000001
 40
0.0
 40
0.0
 40
0.0
 40
0.0
 40
0.2564416329
 40
1.0
 40
1.0
 40
1.0
 40
1.0
 10
354.4263580035
 20
353.1685762054
 30
0.0
 10
354.7165188535
 20
351.4963520648
 30
0.0
 10
355.7536468535
 20
344.9597185284
 30
0.0
 10
356.4057346729
 20
338.3599325431
 30
0.0
 10
356.6379860715
 20
333.4443126538
 30
0.0
  0
SPLINE
  5
382
100
AcDbEntity
  8
_1
100
AcDbSpline
 62
7
  6
CONTINUOUS
 70
0
 71
3
 72
10
 73
6
 74
0
 42
0.0000001
 43
0.0000001
 44
0.0000000001
 40
0.0
 40
0.0
 40
0.0
 40
0.0
 40
0.2323984221
 40
0.4892597683
 40
1.0
 40
1.0
 40
1.0
 40
1.0
 10
353.045945823
 20
355.2436182029
 30
0.0
 10
353.2171356765
 20
355.1447839308
 30
0.0
 10
353.5463484179
 20
354.8809922031
 30
0.0
 10
354.0827383893
 20
354.2182733153
 30
0.0
 10
354.3520877897
 20
353.5966023999
 30
0.0
 10
354.4263580035
 20
353.1685762054
 30
0.0
  0
SPLINE
  5
383
100
AcDbEntity
  8
_1
100
AcDbSpline
 62
7
  6
CONTINUOUS
 70
0
 71
3
 72
13
 73
9
 74
0
 42
0.0000001
 43
0.0000001
 44
0.0000000001
 40
0.0
 40
0.0
 40
0.0
 40
0.0
 40
0.11459287
 40
0.2380706217
 40
0.5005460296
 40
0.7627228902
 40
0.885851754
 40
1.0
 40
1.0
 40
1.0
 40
1.0
 10
339.8645956874
 20
374.184982606
 30
0.0
 10
339.8704727624
 20
373.4039586689
 30
0.0
 10
340.0234516759
 20
371.7807803922
 30
0.0
 10
340.8145141641
 20
368.4538815525
 30
0.0
 10
342.6253123585
 20
364.3794230661
 30
0.0
 10
345.2648934583
 20
360.7886078709
 30
0.0
 10
347.758759844
 20
358.4595853097
 30
0.0
 10
349.0899698404
 20
357.5275503318
 30
0.0
 10
349.7637548955
 20
357.1385491493
 30
0.0
  0
SPLINE
  5
384
100
AcDbEntity
  8
_1
100
AcDbSpline
 62
7
  6
CONTINUOUS
 70
0
 71
3
 72
11
 73
7
 74
0
 42
0.0000001
 43
0.0000001
 44
0.0000000001
 40
0.0
 40
0.0
 40
0.0
 40
0.0
 40
0.2369927091
 40
0.4994505644
 40
0.7622069344
 40
1.0
 40
1.0
 40
1.0
 40
1.0
 10
338.4002016589
 20
383.2952092599
 30
0.0
 10
338.5998048822
 20
383.1799708922
 30
0.0
 10
338.9777821088
 20
382.862518663
 30
0.0
 10
339.4197732606
 20
382.2606882855
 30
0.0
 10
339.7236442055
 20
381.5777631836
 30
0.0
 10
339.8126271238
 20
381.0912569436
 30
0.0
 10
339.81436726
 20
380.8600044804
 30
0.0
  0
SPLINE
  5
385
100
AcDbEntity
  8
_1
100
AcDbSpline
 62
7
  6
CONTINUOUS
 70
0
 71
3
 72
11
 73
7
 74
0
 42
0.0000001
 43
0.0000001
 44
0.0000000001
 40
0.0
 40
0.0
 40
0.0
 40
0.0
 40
0.2897048043
 40
0.5490913404
 40
0.7822177947
 40
1.0
 40
1.0
 40
1.0
 40
1.0
 10
227.0185913521
 20
384.3226506867
 30
0.0
 10
226.8869555148
 20
384.2466511543
 30
0.0
 10
226.6481349232
 20
384.0821588993
 30
0.0
 10
226.3627110426
 20
383.782191406
 30
0.0
 10
226.1821612533
 20
383.4503546819
 30
0.0
 10
226.1399354759
 20
383.2121924576
 30
0.0
 10
226.1399354971
 20
383.0979284232
 30
0.0
  0
SPLINE
  5
386
100
AcDbEntity
  8
_1
100
AcDbSpline
 62
7
  6
CONTINUOUS
 70
0
 71
3
 72
9
 73
5
 74
0
 42
0.0000001
 43
0.0000001
 44
0.0000000001
 40
0.0
 40
0.0
 40
0.0
 40
0.0
 40
0.2589154379
 40
1.0
 40
1.0
 40
1.0
 40
1.0
 10
339.6573649761
 20
271.6223504151
 30
0.0
 10
339.641600543
 20
271.5984811335
 30
0.0
 10
339.5761139028
 20
271.5094610267
 30
0.0
 10
339.490126538
 20
271.4351563244
 30
0.0
 10
339.4192137092
 20
271.394229382
 30
0.0
  0
SPLINE
  5
387
100
AcDbEntity
  8
_1
100
AcDbSpline
 62
7
  6
CONTINUOUS
 70
0
 71
3
 72
10
 73
6
 74
0
 42
0.0000001
 43
0.0000001
 44
0.0000000001
 40
0.0
 40
0.0
 40
0.0
 40
0.0
 40
0.547752844
 40
0.7815965272
 40
1.0
 40
1.0
 40
1.0
 40
1.0
 10
287.1226795283
 20
382.6898253424
 30
0.0
 10
286.9572589824
 20
382.5943203158
 30
0.0
 10
286.7339818442
 20
382.4184705726
 30
0.0
 10
286.5649833383
 20
382.1083509805
 30
0.0
 10
286.5370108608
 20
381.9495049096
 30
0.0
 10
286.5370108845
 20
381.8733438341
 30
0.0
  0
SPLINE
  5
388
100
AcDbEntity
  8
_1
100
AcDbSpline
 62
7
  6
CONTINUOUS
 70
0
 71
3
 72
9
 73
5
 74
0
 42
0.0000001
 43
0.0000001
 44
0.0000000001
 40
0.0
 40
0.0
 40
0.0
 40
0.0
 40
0.2308360766
 40
1.0
 40
1.0
 40
1.0
 40
1.0
 10
281.8318526085
 20
347.3839838629
 30
0.0
 10
281.8311866235
 20
347.4724888092
 30
0.0
 10
281.8014347565
 20
347.8555865449
 30
0.0
 10
281.6815418268
 20
348.2284829182
 30
0.0
 10
281.5570168655
 20
348.4958172957
 30
0.0
  0
SPLINE
  5
389
100
AcDbEntity
  8
_1
100
AcDbSpline
 62
7
  6
CONTINUOUS
 70
0
 71
3
 72
9
 73
5
 74
0
 42
0.0000001
 43
0.0000001
 44
0.0000000001
 40
0.0
 40
0.0
 40
0.0
 40
0.0
 40
0.267187639
 40
1.0
 40
1.0
 40
1.0
 40
1.0
 10
281.2455127048
 20
349.0322300002
 30
0.0
 10
281.1864695753
 20
349.1155658424
 30
0.0
 10
280.9516795965
 20
349.4167476722
 30
0.0
 10
280.6602762405
 20
349.6791328519
 30
0.0
 10
280.4176870074
 20
349.8191886424
 30
0.0
  0
SPLINE
  5
38A
100
AcDbEntity
  8
_1
100
AcDbSpline
 62
7
  6
CONTINUOUS
 70
0
 71
3
 72
9
 73
5
 74
0
 42
0.0000001
 43
0.0000001
 44
0.0000000001
 40
0.0
 40
0.0
 40
0.0
 40
0.0
 40
0.2381234994
 40
1.0
 40
1.0
 40
1.0
 40
1.0
 10
291.7812402439
 20
323.6625285319
 30
0.0
 10
291.5312401189
 20
323.8068629061
 30
0.0
 10
290.5014379302
 20
324.4475840228
 30
0.0
 10
289.5518541157
 20
325.213405578
 30
0.0
 10
288.8761314632
 20
325.8430543723
 30
0.0
  0
SPLINE
  5
38B
100
AcDbEntity
  8
_1
100
AcDbSpline
 62
7
  6
CONTINUOUS
 70
0
 71
3
 72
9
 73
5
 74
0
 42
0.0000001
 43
0.0000001
 44
0.0000000001
 40
0.0
 40
0.0
 40
0.0
 40
0.0
 40
0.2439554958
 40
1.0
 40
1.0
 40
1.0
 40
1.0
 10
288.8761314632
 20
325.8430543723
 30
0.0
 10
288.6683122443
 20
326.0367035272
 30
0.0
 10
287.8341658475
 20
326.8493991217
 30
0.0
 10
287.0701587815
 20
327.7333300581
 30
0.0
 10
286.533197669
 20
328.4309304659
 30
0.0
  0
SPLINE
  5
38C
100
AcDbEntity
  8
_1
100
AcDbSpline
 62
7
  6
CONTINUOUS
 70
0
 71
3
 72
9
 73
5
 74
0
 42
0.0000001
 43
0.0000001
 44
0.0000000001
 40
0.0
 40
0.0
 40
0.0
 40
0.0
 40
0.2554664266
 40
1.0
 40
1.0
 40
1.0
 40
1.0
 10
283.4334965688
 20
333.768584584
 30
0.0
 10
283.3184014775
 20
334.0435559429
 30
0.0
 10
282.8887692202
 20
335.1284552745
 30
0.0
 10
282.5433641154
 20
336.2473260589
 30
0.0
 10
282.3432728801
 20
337.0927181134
 30
0.0
  0
SPLINE
  5
38D
100
AcDbEntity
  8
_1
100
AcDbSpline
 62
7
  6
CONTINUOUS
 70
0
 71
3
 72
9
 73
5
 74
0
 42
0.0000001
 43
0.0000001
 44
0.0000000001
 40
0.0
 40
0.0
 40
0.0
 40
0.0
 40
0.2613585724
 40
1.0
 40
1.0
 40
1.0
 40
1.0
 10
282.3432728801
 20
337.0927181134
 30
0.0
 10
282.2700402124
 20
337.4021285444
 30
0.0
 10
282.0192283785
 20
338.5924537476
 30
0.0
 10
281.888842682
 20
339.8103844625
 30
0.0
 10
281.8820810359
 20
340.7089619886
 30
0.0
  0
SPLINE
  5
38E
100
AcDbEntity
  8
_1
100
AcDbSpline
 62
7
  6
CONTINUOUS
 70
0
 71
3
 72
10
 73
6
 74
0
 42
0.0000001
 43
0.0000001
 44
0.0000000001
 40
0.0
 40
0.0
 40
0.0
 40
0.0
 40
0.5107402317
 40
0.7676015779
 40
1.0
 40
1.0
 40
1.0
 40
1.0
 10
296.4438433519
 20
319.6925555879
 30
0.0
 10
296.3695731382
 20
320.1205817825
 30
0.0
 10
296.1002237377
 20
320.7422526979
 30
0.0
 10
295.5638337664
 20
321.4049715856
 30
0.0
 10
295.234621025
 20
321.6687633133
 30
0.0
 10
295.0634311715
 20
321.7675975854
 30
0.0
  0
SPLINE
  5
38F
100
AcDbEntity
  8
_1
100
AcDbSpline
 62
7
  6
CONTINUOUS
 70
0
 71
3
 72
9
 73
5
 74
0
 42
0.0000001
 43
0.0000001
 44
0.0000000001
 40
0.0
 40
0.0
 40
0.0
 40
0.0
 40
0.2416048332
 40
1.0
 40
1.0
 40
1.0
 40
1.0
 10
296.4438433519
 20
247.1304905784
 30
0.0
 10
296.739696853
 20
248.4939075314
 30
0.0
 10
297.8362352424
 20
254.1645735007
 30
0.0
 10
298.436890455
 20
259.9271495884
 30
0.0
 10
298.6554714199
 20
264.3010437818
 30
0.0
  0
SPLINE
  5
390
100
AcDbEntity
  8
_1
100
AcDbSpline
 62
7
  6
CONTINUOUS
 70
0
 71
3
 72
11
 73
7
 74
0
 42
0.0000001
 43
0.0000001
 44
0.0000000001
 40
0.0
 40
0.0
 40
0.0
 40
0.0
 40
0.2372524156
 40
0.4999996414
 40
0.7627470637
 40
1.0
 40
1.0
 40
1.0
 40
1.0
 10
306.2146421072
 20
371.2590737618
 30
0.0
 10
306.0138539509
 20
371.1431493576
 30
0.0
 10
305.5469519616
 20
370.9739608392
 30
0.0
 10
304.8004303579
 20
370.8930723517
 30
0.0
 10
304.0539078868
 20
370.9739575927
 30
0.0
 10
303.5870044155
 20
371.1431437524
 30
0.0
 10
303.3862149825
 20
371.259066963
 30
0.0
  0
SPLINE
  5
391
100
AcDbEntity
  8
_1
100
AcDbSpline
 62
7
  6
CONTINUOUS
 70
0
 71
3
 72
10
 73
6
 74
0
 42
0.0000001
 43
0.0000001
 44
0.0000000001
 40
0.0
 40
0.0
 40
0.0
 40
0.0
 40
0.2184036142
 40
0.4522473232
 40
1.0
 40
1.0
 40
1.0
 40
1.0
 10
323.0636990069
 20
381.4651708106
 30
0.0
 10
323.06369899
 20
381.3890096853
 30
0.0
 10
323.0357265574
 20
381.2301635501
 30
0.0
 10
322.8667279321
 20
380.9200440009
 30
0.0
 10
322.6434508595
 20
380.7441942988
 30
0.0
 10
322.4780303631
 20
380.6486893008
 30
0.0
  0
SPLINE
  5
392
100
AcDbEntity
  8
_1
100
AcDbSpline
 62
7
  6
CONTINUOUS
 70
0
 71
3
 72
11
 73
7
 74
0
 42
0.0000001
 43
0.0000001
 44
0.0000000001
 40
0.0
 40
0.0
 40
0.0
 40
0.0
 40
0.2177821605
 40
0.4509085882
 40
0.7102951949
 40
1.0
 40
1.0
 40
1.0
 40
1.0
 10
280.2231666782
 20
382.6897927926
 30
0.0
 10
280.2231666461
 20
382.575528782
 30
0.0
 10
280.1809409724
 20
382.3373665961
 30
0.0
 10
280.0003911698
 20
382.0055298567
 30
0.0
 10
279.7149672542
 20
381.7055623774
 30
0.0
 10
279.4761466604
 20
381.5410700614
 30
0.0
 10
279.3445108232
 20
381.465070529
 30
0.0
  0
SPLINE
  5
393
100
AcDbEntity
  8
_1
100
AcDbSpline
 62
7
  6
CONTINUOUS
 70
0
 71
3
 72
11
 73
7
 74
0
 42
0.0000001
 43
0.0000001
 44
0.0000000001
 40
0.0
 40
0.0
 40
0.0
 40
0.0
 40
0.2372405738
 40
0.5000004574
 40
0.7627600882
 40
1.0
 40
1.0
 40
1.0
 40
1.0
 10
251.0603396708
 20
367.9930103079
 30
0.0
 10
251.3615091476
 20
367.819133963
 30
0.0
 10
252.061872466
 20
367.5654083927
 30
0.0
 10
253.1816630921
 20
367.4438490624
 30
0.0
 10
254.3014521909
 20
367.565413407
 30
0.0
 10
255.0018129754
 20
367.8191424744
 30
0.0
 10
255.3029803579
 20
367.9930205059
 30
0.0
  0
SPLINE
  5
394
100
AcDbEntity
  8
_1
100
AcDbSpline
 62
7
  6
CONTINUOUS
 70
0
 71
3
 72
11
 73
7
 74
0
 42
0.0000001
 43
0.0000001
 44
0.0000000001
 40
0.0
 40
0.0
 40
0.0
 40
0.0
 40
0.2897048043
 40
0.5490913404
 40
0.7822177947
 40
1.0
 40
1.0
 40
1.0
 40
1.0
 10
279.3445108232
 20
381.8733217375
 30
0.0
 10
279.4761466604
 20
381.9493212699
 30
0.0
 10
279.714967252
 20
382.113813525
 30
0.0
 10
280.0003911326
 20
382.4137810183
 30
0.0
 10
280.180940922
 20
382.7456177423
 30
0.0
 10
280.2231666993
 20
382.9837799666
 30
0.0
 10
280.2231666782
 20
383.0980440011
 30
0.0
  0
SPLINE
  5
395
100
AcDbEntity
  8
_1
100
AcDbSpline
 62
7
  6
CONTINUOUS
 70
0
 71
3
 72
10
 73
6
 74
0
 42
0.0000001
 43
0.0000001
 44
0.0000000001
 40
0.0
 40
0.0
 40
0.0
 40
0.0
 40
0.2184031616
 40
0.452246679
 40
1.0
 40
1.0
 40
1.0
 40
1.0
 10
286.5370108845
 20
381.8733438341
 30
0.0
 10
286.5370109081
 20
381.7971818875
 30
0.0
 10
286.5649839778
 20
381.6383339197
 30
0.0
 10
286.733986375
 20
381.3282111723
 30
0.0
 10
286.9572677978
 20
381.1523606709
 30
0.0
 10
287.1226913041
 20
381.0568555256
 30
0.0
  0
SPLINE
  5
396
100
AcDbEntity
  8
_1
100
AcDbSpline
 62
7
  6
CONTINUOUS
 70
0
 71
3
 72
11
 73
7
 74
0
 42
0.0000001
 43
0.0000001
 44
0.0000000001
 40
0.0
 40
0.0
 40
0.0
 40
0.0
 40
0.2177817009
 40
0.4509079353
 40
0.7102947134
 40
1.0
 40
1.0
 40
1.0
 40
1.0
 10
226.1399354971
 20
383.0979284232
 30
0.0
 10
226.1399355183
 20
382.9836631819
 30
0.0
 10
226.182162184
 20
382.7454982501
 30
0.0
 10
226.3627158755
 20
382.4136582958
 30
0.0
 10
226.6481455898
 20
382.1136885935
 30
0.0
 10
226.8869707162
 20
381.9491956499
 30
0.0
 10
227.0186090159
 20
381.8731959615
 30
0.0
  0
SPLINE
  5
397
100
AcDbEntity
  8
_1
100
AcDbSpline
 62
7
  6
CONTINUOUS
 70
0
 71
3
 72
11
 73
7
 74
0
 42
0.0000001
 43
0.0000001
 44
0.0000000001
 40
0.0
 40
0.0
 40
0.0
 40
0.0
 40
0.2897052857
 40
0.5490919933
 40
0.7822182543
 40
1.0
 40
1.0
 40
1.0
 40
1.0
 10
227.0186090159
 20
381.464944753
 30
0.0
 10
226.8869707162
 20
381.5409444414
 30
0.0
 10
226.648145592
 20
381.7054373239
 30
0.0
 10
226.3627159127
 20
382.0054070403
 30
0.0
 10
226.1821622344
 20
382.3372469791
 30
0.0
 10
226.1399354651
 20
382.5754119494
 30
0.0
 10
226.1399354971
 20
382.6896772146
 30
0.0
  0
SPLINE
  5
398
100
AcDbEntity
  8
_1
100
AcDbSpline
 62
7
  6
CONTINUOUS
 70
0
 71
3
 72
11
 73
7
 74
0
 42
0.0000001
 43
0.0000001
 44
0.0000000001
 40
0.0
 40
0.0
 40
0.0
 40
0.0
 40
0.2372398078
 40
0.4999994051
 40
0.7627593222
 40
1.0
 40
1.0
 40
1.0
 40
1.0
 10
255.3029803579
 20
367.5847692973
 30
0.0
 10
255.0018131074
 20
367.4108913421
 30
0.0
 10
254.3014525435
 20
367.1571622943
 30
0.0
 10
253.1816636071
 20
367.0355978539
 30
0.0
 10
252.0618728186
 20
367.1571570883
 30
0.0
 10
251.3615092796
 20
367.4108826782
 30
0.0
 10
251.0603396708
 20
367.5847590993
 30
0.0
  0
SPLINE
  5
399
100
AcDbEntity
  8
_1
100
AcDbSpline
 62
7
  6
CONTINUOUS
 70
0
 71
3
 72
11
 73
7
 74
0
 42
0.0000001
 43
0.0000001
 44
0.0000000001
 40
0.0
 40
0.0
 40
0.0
 40
0.0
 40
0.2372531816
 40
0.5000006935
 40
0.7627478297
 40
1.0
 40
1.0
 40
1.0
 40
1.0
 10
303.3862149825
 20
371.6673181716
 30
0.0
 10
303.5870046231
 20
371.5513948411
 30
0.0
 10
304.0539084487
 20
371.382208641
 30
0.0
 10
304.8004311781
 20
371.3013235603
 30
0.0
 10
305.5469525235
 20
371.382212208
 30
0.0
 10
306.0138541585
 20
371.551400686
 30
0.0
 10
306.2146421072
 20
371.6673249703
 30
0.0
  0
SPLINE
  5
39A
100
AcDbEntity
  8
_1
100
AcDbSpline
 62
7
  6
CONTINUOUS
 70
0
 71
3
 72
10
 73
6
 74
0
 42
0.0000001
 43
0.0000001
 44
0.0000000001
 40
0.0
 40
0.0
 40
0.0
 40
0.0
 40
0.547752844
 40
0.7815965272
 40
1.0
 40
1.0
 40
1.0
 40
1.0
 10
322.4780303631
 20
381.0569405094
 30
0.0
 10
322.643450909
 20
381.1524455359
 30
0.0
 10
322.8667280472
 20
381.3282952791
 30
0.0
 10
323.0357265531
 20
381.6384148712
 30
0.0
 10
323.0636990306
 20
381.7972609421
 30
0.0
 10
323.0636990069
 20
381.8734220176
 30
0.0
  0
SPLINE
  5
39B
100
AcDbEntity
  8
_1
100
AcDbSpline
 62
7
  6
CONTINUOUS
 70
0
 71
3
 72
10
 73
6
 74
0
 42
0.0000001
 43
0.0000001
 44
0.0000000001
 40
0.0
 40
0.0
 40
0.0
 40
0.0
 40
0.5477534882
 40
0.7815969799
 40
1.0
 40
1.0
 40
1.0
 40
1.0
 10
287.1226913041
 20
380.648604317
 30
0.0
 10
286.9572677484
 20
380.7441094908
 30
0.0
 10
286.7339862599
 20
380.9199600334
 30
0.0
 10
286.5649839821
 20
381.2300828237
 30
0.0
 10
286.5370108675
 20
381.3889307272
 30
0.0
 10
286.5370108845
 20
381.465092624
 30
0.0
  0
SPLINE
  5
39C
100
AcDbEntity
  8
_1
100
AcDbSpline
 62
7
  6
CONTINUOUS
 70
0
 71
3
 72
9
 73
5
 74
0
 42
0.0000001
 43
0.0000001
 44
0.0000000001
 40
0.0
 40
0.0
 40
0.0
 40
0.0
 40
0.2858196386
 40
1.0
 40
1.0
 40
1.0
 40
1.0
 10
218.1674554845
 20
385.758563512
 30
0.0
 10
218.0968580858
 20
385.799322017
 30
0.0
 10
217.8431805513
 20
385.9257939104
 30
0.0
 10
217.5369120007
 20
385.9781317118
 30
0.0
 10
217.3396215197
 20
385.9274719173
 30
0.0
  0
SPLINE
  5
39D
100
AcDbEntity
  8
_1
100
AcDbSpline
 62
7
  6
CONTINUOUS
 70
0
 71
3
 72
8
 73
4
 74
0
 42
0.0000001
 43
0.0000001
 44
0.0000000001
 40
0.0
 40
0.0
 40
0.0
 40
0.0
 40
1.0
 40
1.0
 40
1.0
 40
1.0
 10
217.3396215197
 20
385.9274719173
 30
0.0
 10
217.2796405112
 20
385.9120701323
 30
0.0
 10
217.2211463406
 20
385.8884782025
 30
0.0
 10
217.1675146233
 20
385.8575173361
 30
0.0
  0
SPLINE
  5
39E
100
AcDbEntity
  8
_1
100
AcDbSpline
 62
7
  6
CONTINUOUS
 70
0
 71
3
 72
16
 73
12
 74
0
 42
0.0000001
 43
0.0000001
 44
0.0000000001
 40
0.0
 40
0.0
 40
0.0
 40
0.0
 40
0.0428779141
 40
0.0875234847
 40
0.1869287945
 40
0.3042400339
 40
0.4379633427
 40
0.5823675368
 40
0.729595529
 40
0.8712500532
 40
1.0
 40
1.0
 40
1.0
 40
1.0
 10
52.2044404432
 20
298.4589748194
 30
0.0
 10
52.3400275137
 20
298.5372692449
 30
0.0
 10
52.6389530908
 20
298.661394337
 30
0.0
 10
53.3201666752
 20
298.7613797851
 30
0.0
 10
54.2819201744
 20
298.57352711
 30
0.0
 10
55.4148325021
 20
297.9521175698
 30
0.0
 10
56.5038427956
 20
296.9888869809
 30
0.0
 10
57.4645104609
 20
295.7587583228
 30
0.0
 10
58.2210902114
 20
294.3605734294
 30
0.0
 10
58.7120037147
 20
292.9091674263
 30
0.0
 10
58.8435222376
 20
291.9206515739
 30
0.0
 10
58.8435222376
 20
291.4505200706
 30
0.0
  0
SPLINE
  5
39F
100
AcDbEntity
  8
_1
100
AcDbSpline
 62
7
  6
CONTINUOUS
 70
0
 71
3
 72
16
 73
12
 74
0
 42
0.0000001
 43
0.0000001
 44
0.0000000001
 40
0.0
 40
0.0
 40
0.0
 40
0.0
 40
0.0428779141
 40
0.0875234847
 40
0.1869287945
 40
0.3042400339
 40
0.4379633427
 40
0.5823675368
 40
0.729595529
 40
0.8712500532
 40
1.0
 40
1.0
 40
1.0
 40
1.0
 10
134.7047839228
 20
155.5649815083
 30
0.0
 10
134.8403709933
 20
155.6432759338
 30
0.0
 10
135.1392965704
 20
155.7674010259
 30
0.0
 10
135.8205101547
 20
155.867386474
 30
0.0
 10
136.782263654
 20
155.6795337989
 30
0.0
 10
137.9151759817
 20
155.0581242587
 30
0.0
 10
139.0041862752
 20
154.0948936697
 30
0.0
 10
139.9648539404
 20
152.8647650117
 30
0.0
 10
140.721433691
 20
151.4665801183
 30
0.0
 10
141.2123471943
 20
150.0151741152
 30
0.0
 10
141.3438657172
 20
149.0266582628
 30
0.0
 10
141.3438657172
 20
148.5565267595
 30
0.0
  0
SPLINE
  5
3A0
100
AcDbEntity
  8
_1
100
AcDbSpline
 62
7
  6
CONTINUOUS
 70
0
 71
3
 72
11
 73
7
 74
0
 42
0.0000001
 43
0.0000001
 44
0.0000000001
 40
0.0
 40
0.0
 40
0.0
 40
0.0
 40
0.2177696012
 40
0.4509414157
 40
0.7102110461
 40
1.0
 40
1.0
 40
1.0
 40
1.0
 10
54.8494493207
 20
212.2289189515
 30
0.0
 10
54.4536524914
 20
212.0003543655
 30
0.0
 10
53.7128134959
 20
211.3778936354
 30
0.0
 10
52.9247074865
 20
210.0886791298
 30
0.0
 10
52.4559730268
 20
208.5000657617
 30
0.0
 10
52.3640819267
 20
207.3437347418
 30
0.0
 10
52.3640819267
 20
206.7355289256
 30
0.0
  0
SPLINE
  5
3A1
100
AcDbEntity
  8
_1
100
AcDbSpline
 62
7
  6
CONTINUOUS
 70
0
 71
3
 72
9
 73
5
 74
0
 42
0.0000001
 43
0.0000001
 44
0.0000000001
 40
0.0
 40
0.0
 40
0.0
 40
0.0
 40
0.258600532
 40
1.0
 40
1.0
 40
1.0
 40
1.0
 10
168.9019172912
 20
189.3882415464
 30
0.0
 10
168.8273868233
 20
187.8968565082
 30
0.0
 10
168.4326059161
 20
182.1360510868
 30
0.0
 10
167.5981327823
 20
176.401412026
 30
0.0
 10
166.6902892232
 20
172.217688343
 30
0.0
  0
SPLINE
  5
3A2
100
AcDbEntity
  8
_1
100
AcDbSpline
 62
7
  6
CONTINUOUS
 70
0
 71
3
 72
10
 73
6
 74
0
 42
0.0000001
 43
0.0000001
 44
0.0000000001
 40
0.0
 40
0.0
 40
0.0
 40
0.0
 40
0.2323984221
 40
0.4892597683
 40
1.0
 40
1.0
 40
1.0
 40
1.0
 10
165.3098770427
 20
246.85479535
 30
0.0
 10
165.4810668962
 20
246.7559610779
 30
0.0
 10
165.8102796376
 20
246.4921693502
 30
0.0
 10
166.346669609
 20
245.8294504624
 30
0.0
 10
166.6160190094
 20
245.2077795471
 30
0.0
 10
166.6902892232
 20
244.7797533525
 30
0.0
  0
SPLINE
  5
3A3
100
AcDbEntity
  8
_1
100
AcDbSpline
 62
7
  6
CONTINUOUS
 70
0
 71
3
 72
13
 73
9
 74
0
 42
0.0000001
 43
0.0000001
 44
0.0000000001
 40
0.0
 40
0.0
 40
0.0
 40
0.0
 40
0.11459287
 40
0.2380706217
 40
0.5005460296
 40
0.7627228902
 40
0.885851754
 40
1.0
 40
1.0
 40
1.0
 40
1.0
 10
152.1285269071
 20
265.7961597532
 30
0.0
 10
152.1344039821
 20
265.015135816
 30
0.0
 10
152.2873828956
 20
263.3919575394
 30
0.0
 10
153.0784453838
 20
260.0650586996
 30
0.0
 10
154.8892435782
 20
255.9906002132
 30
0.0
 10
157.528824678
 20
252.399785018
 30
0.0
 10
160.0226910638
 20
250.0707624568
 30
0.0
 10
161.3539010602
 20
249.138727479
 30
0.0
 10
162.0276861152
 20
248.7497262965
 30
0.0
  0
SPLINE
  5
3A4
100
AcDbEntity
  8
_1
100
AcDbSpline
 62
7
  6
CONTINUOUS
 70
0
 71
3
 72
11
 73
7
 74
0
 42
0.0000001
 43
0.0000001
 44
0.0000000001
 40
0.0
 40
0.0
 40
0.0
 40
0.0
 40
0.2369927091
 40
0.4994505644
 40
0.7622069344
 40
1.0
 40
1.0
 40
1.0
 40
1.0
 10
150.6641328786
 20
274.906386407
 30
0.0
 10
150.8637361019
 20
274.7911480394
 30
0.0
 10
151.2417133285
 20
274.4736958101
 30
0.0
 10
151.6837044803
 20
273.8718654327
 30
0.0
 10
151.9875754252
 20
273.1889403307
 30
0.0
 10
152.0765583435
 20
272.7024340907
 30
0.0
 10
152.0782984798
 20
272.4711816275
 30
0.0
  0
SPLINE
  5
3A5
100
AcDbEntity
  8
_1
100
AcDbSpline
 62
7
  6
CONTINUOUS
 70
0
 71
3
 72
13
 73
9
 74
0
 42
0.0000001
 43
0.0000001
 44
0.0000000001
 40
0.0
 40
0.0
 40
0.0
 40
0.0
 40
0.1080958468
 40
0.2182289131
 40
0.3322539652
 40
0.4517064541
 40
0.7105895391
 40
1.0
 40
1.0
 40
1.0
 40
1.0
 10
72.6618291565
 20
264.6593409179
 30
0.0
 10
71.8666237088
 20
264.2002806603
 30
0.0
 10
70.3378434351
 20
263.1333579934
 30
0.0
 10
68.3176753527
 20
261.1454107943
 30
0.0
 10
66.5802621878
 20
258.7856920212
 30
0.0
 10
64.6105532591
 20
255.081873923
 30
0.0
 10
62.9869634916
 20
249.5865243361
 30
0.0
 10
62.6168726567
 20
244.9151067803
 30
0.0
 10
62.6168726567
 20
242.4567683131
 30
0.0
  0
SPLINE
  5
3A6
100
AcDbEntity
  8
_1
100
AcDbSpline
 62
7
  6
CONTINUOUS
 70
0
 71
3
 72
23
 73
19
 74
0
 42
0.0000001
 43
0.0000001
 44
0.0000000001
 40
0.0
 40
0.0
 40
0.0
 40
0.0
 40
0.0428145166
 40
0.0873965192
 40
0.1351794166
 40
0.1870887323
 40
0.2435354523
 40
0.3044930317
 40
0.3695910938
 40
0.4381991939
 40
0.5094968414
 40
0.5825325449
 40
0.6562756193
 40
0.7296644022
 40
0.8016522045
 40
0.8712565662
 40
0.9376056817
 40
1.0
 40
1.0
 40
1.0
 40
1.0
 10
63.7299027068
 20
272.7815231782
 30
0.0
 10
65.2091460176
 20
273.6355573463
 30
0.0
 10
68.4698851424
 20
274.9908301079
 30
0.0
 10
73.8524609705
 20
275.7796866065
 30
0.0
 10
79.6324808273
 20
275.3542150097
 30
0.0
 10
85.6816461508
 20
273.7470103181
 30
0.0
 10
91.8811693475
 20
271.0071071102
 30
0.0
 10
98.1076394279
 20
267.1977975435
 30
0.0
 10
104.234578906
 20
262.4011318732
 30
0.0
 10
110.1347679755
 20
256.7187553562
 30
0.0
 10
115.6840393602
 20
250.2711216482
 30
0.0
 10
120.7646611251
 20
243.1952957716
 30
0.0
 10
125.2684190421
 20
235.6420733268
 30
0.0
 10
129.0992207451
 20
227.7725414406
 30
0.0
 10
132.1754164917
 20
219.7546023769
 30
0.0
 10
134.4314107903
 20
211.758223459
 30
0.0
 10
135.819103665
 20
203.954394159
 30
0.0
 10
136.1563105677
 20
198.8147606737
 30
0.0
 10
136.1563105677
 20
196.3255477552
 30
0.0
  0
SPLINE
  5
3A7
100
AcDbEntity
  8
_1
100
AcDbSpline
 62
7
  6
CONTINUOUS
 70
0
 71
3
 72
14
 73
10
 74
0
 42
0.0000001
 43
0.0000001
 44
0.0000000001
 40
0.0
 40
0.0
 40
0.0
 40
0.0
 40
0.108047219
 40
0.2181316133
 40
0.3321053793
 40
0.4515027594
 40
0.5774625305
 40
0.7107203477
 40
1.0
 40
1.0
 40
1.0
 40
1.0
 10
61.2299178352
 20
277.1116498311
 30
0.0
 10
60.164206031
 20
276.4963680847
 30
0.0
 10
58.1152008251
 20
275.066652828
 30
0.0
 10
55.4078487387
 20
272.4022183522
 30
0.0
 10
53.0794474681
 20
269.2398227388
 30
0.0
 10
51.1515647947
 20
265.6151970029
 30
0.0
 10
49.6390030579
 20
261.564789282
 30
0.0
 10
48.1522405389
 20
255.4863507558
 30
0.0
 10
47.7675949243
 20
250.6503138697
 30
0.0
 10
47.7675949243
 20
247.3556420702
 30
0.0
  0
SPLINE
  5
3A8
100
AcDbEntity
  8
_1
100
AcDbSpline
 62
7
  6
CONTINUOUS
 70
0
 71
3
 72
11
 73
7
 74
0
 42
0.0000001
 43
0.0000001
 44
0.0000000001
 40
0.0
 40
0.0
 40
0.0
 40
0.0
 40
0.2369685237
 40
0.4994503089
 40
0.7622309485
 40
1.0
 40
1.0
 40
1.0
 40
1.0
 10
146.0449338058
 20
260.4271102128
 30
0.0
 10
147.1426434993
 20
259.7933615631
 30
0.0
 10
149.2214033924
 20
258.0472989658
 30
0.0
 10
151.6530771691
 20
254.7375377536
 30
0.0
 10
153.3237448263
 20
250.9809730767
 30
0.0
 10
153.8132747944
 20
248.3052486617
 30
0.0
 10
153.8228446121
 20
247.0334839254
 30
0.0
  0
SPLINE
  5
3A9
100
AcDbEntity
  8
_1
100
AcDbSpline
 62
7
  6
CONTINUOUS
 70
0
 71
3
 72
9
 73
5
 74
0
 42
0.0000001
 43
0.0000001
 44
0.0000000001
 40
0.0
 40
0.0
 40
0.0
 40
0.0
 40
0.2465287234
 40
1.0
 40
1.0
 40
1.0
 40
1.0
 10
52.2044404432
 20
203.1954994782
 30
0.0
 10
52.2578350995
 20
203.2263320931
 30
0.0
 10
52.4806627366
 20
203.3404606231
 30
0.0
 10
52.7264300035
 20
203.4081292735
 30
0.0
 10
52.9131854392
 20
203.4333072082
 30
0.0
  0
SPLINE
  5
3AA
100
AcDbEntity
  8
_1
100
AcDbSpline
 62
7
  6
CONTINUOUS
 70
0
 71
3
 72
16
 73
12
 74
0
 42
0.0000001
 43
0.0000001
 44
0.0000000001
 40
0.0
 40
0.0
 40
0.0
 40
0.0
 40
0.0428779141
 40
0.0875234847
 40
0.1869287945
 40
0.3042400339
 40
0.4379633427
 40
0.5823675368
 40
0.729595529
 40
0.8712500532
 40
1.0
 40
1.0
 40
1.0
 40
1.0
 10
134.7047839228
 20
250.8284568495
 30
0.0
 10
134.8403709933
 20
250.906751275
 30
0.0
 10
135.1392965704
 20
251.0308763671
 30
0.0
 10
135.8205101547
 20
251.1308618152
 30
0.0
 10
136.782263654
 20
250.9430091402
 30
0.0
 10
137.9151759817
 20
250.3215996
 30
0.0
 10
139.0041862752
 20
249.358369011
 30
0.0
 10
139.9648539404
 20
248.1282403529
 30
0.0
 10
140.721433691
 20
246.7300554595
 30
0.0
 10
141.2123471943
 20
245.2786494564
 30
0.0
 10
141.3438657172
 20
244.290133604
 30
0.0
 10
141.3438657172
 20
243.8200021008
 30
0.0
  0
SPLINE
  5
3AB
100
AcDbEntity
  8
_1
100
AcDbSpline
 62
7
  6
CONTINUOUS
 70
0
 71
3
 72
11
 73
7
 74
0
 42
0.0000001
 43
0.0000001
 44
0.0000000001
 40
0.0
 40
0.0
 40
0.0
 40
0.0
 40
0.2897768139
 40
0.5490678485
 40
0.7822253266
 40
1.0
 40
1.0
 40
1.0
 40
1.0
 10
137.5596877592
 20
141.2178419682
 30
0.0
 10
138.0424826024
 20
140.9391065414
 30
0.0
 10
139.0025643775
 20
140.4821407512
 30
0.0
 10
140.4784720554
 20
140.1260665082
 30
0.0
 10
141.8630941187
 20
140.1609734571
 30
0.0
 10
142.69678981
 20
140.4636686059
 30
0.0
 10
143.0596237185
 20
140.6731432151
 30
0.0
  0
SPLINE
  5
3AC
100
AcDbEntity
  8
_1
100
AcDbSpline
 62
7
  6
CONTINUOUS
 70
0
 71
3
 72
11
 73
7
 74
0
 42
0.0000001
 43
0.0000001
 44
0.0000000001
 40
0.0
 40
0.0
 40
0.0
 40
0.0
 40
0.2377690515
 40
0.5005496911
 40
0.7630314763
 40
1.0
 40
1.0
 40
1.0
 40
1.0
 10
47.0715824127
 20
202.363141051
 30
0.0
 10
47.0811522304
 20
201.0913763147
 30
0.0
 10
47.5706821985
 20
198.4156518997
 30
0.0
 10
49.2413498557
 20
194.6590872227
 30
0.0
 10
51.6730236323
 20
191.3493260106
 30
0.0
 10
53.7517835255
 20
189.6032634133
 30
0.0
 10
54.849493219
 20
188.9695147635
 30
0.0
  0
SPLINE
  5
3AD
100
AcDbEntity
  8
_1
100
AcDbSpline
 62
7
  6
CONTINUOUS
 70
0
 71
3
 72
11
 73
7
 74
0
 42
0.0000001
 43
0.0000001
 44
0.0000000001
 40
0.0
 40
0.0
 40
0.0
 40
0.0
 40
0.2897016594
 40
0.5490895814
 40
0.7822189142
 40
1.0
 40
1.0
 40
1.0
 40
1.0
 10
141.3438657172
 20
243.8200021008
 30
0.0
 10
141.3438657172
 20
243.5413282881
 30
0.0
 10
141.3016149652
 20
243.011347038
 30
0.0
 10
141.0869901452
 20
242.2831752051
 30
0.0
 10
140.7256068994
 20
241.6923054541
 30
0.0
 10
140.3861574039
 20
241.4069543833
 30
0.0
 10
140.204740535
 20
241.3021956517
 30
0.0
  0
SPLINE
  5
3AE
100
AcDbEntity
  8
_1
100
AcDbSpline
 62
7
  6
CONTINUOUS
 70
0
 71
3
 72
9
 73
5
 74
0
 42
0.0000001
 43
0.0000001
 44
0.0000000001
 40
0.0
 40
0.0
 40
0.0
 40
0.0
 40
0.2568131914
 40
1.0
 40
1.0
 40
1.0
 40
1.0
 10
58.2892090838
 20
194.196457999
 30
0.0
 10
58.2488605786
 20
194.1421378319
 30
0.0
 10
58.0820737374
 20
193.9380563675
 30
0.0
 10
57.8739726144
 20
193.7671592762
 30
0.0
 10
57.7043970555
 20
193.6692382804
 30
0.0
  0
SPLINE
  5
3AF
100
AcDbEntity
  8
_1
100
AcDbSpline
 62
7
  6
CONTINUOUS
 70
0
 71
3
 72
11
 73
7
 74
0
 42
0.0000001
 43
0.0000001
 44
0.0000000001
 40
0.0
 40
0.0
 40
0.0
 40
0.0
 40
0.2897016594
 40
0.5490895814
 40
0.7822189142
 40
1.0
 40
1.0
 40
1.0
 40
1.0
 10
141.3438657172
 20
148.5565267595
 30
0.0
 10
141.3438657172
 20
148.2778529468
 30
0.0
 10
141.3016149652
 20
147.7478716967
 30
0.0
 10
141.0869901452
 20
147.0196998639
 30
0.0
 10
140.7256068994
 20
146.4288301129
 30
0.0
 10
140.3861574039
 20
146.143479042
 30
0.0
 10
140.204740535
 20
146.0387203105
 30
0.0
  0
SPLINE
  5
3B0
100
AcDbEntity
  8
_1
100
AcDbSpline
 62
7
  6
CONTINUOUS
 70
0
 71
3
 72
11
 73
7
 74
0
 42
0.0000001
 43
0.0000001
 44
0.0000000001
 40
0.0
 40
0.0
 40
0.0
 40
0.0
 40
0.2897016594
 40
0.5490895814
 40
0.7822189142
 40
1.0
 40
1.0
 40
1.0
 40
1.0
 10
58.8435222376
 20
291.4505200706
 30
0.0
 10
58.8435222376
 20
291.1718462579
 30
0.0
 10
58.8012714857
 20
290.6418650078
 30
0.0
 10
58.5866466657
 20
289.913693175
 30
0.0
 10
58.2252634198
 20
289.322823424
 30
0.0
 10
57.8858139243
 20
289.0374723531
 30
0.0
 10
57.7043970555
 20
288.9327136216
 30
0.0
  0
SPLINE
  5
3B1
100
AcDbEntity
  8
_1
100
AcDbSpline
 62
7
  6
CONTINUOUS
 70
0
 71
3
 72
11
 73
7
 74
0
 42
0.0000001
 43
0.0000001
 44
0.0000000001
 40
0.0
 40
0.0
 40
0.0
 40
0.0
 40
0.2177746734
 40
0.4509321515
 40
0.7102231861
 40
1.0
 40
1.0
 40
1.0
 40
1.0
 10
57.8348033063
 20
308.7234817613
 30
0.0
 10
58.1976372148
 20
308.9329563705
 30
0.0
 10
59.0313329061
 20
309.2356515192
 30
0.0
 10
60.4159549694
 20
309.2705584682
 30
0.0
 10
61.8918626473
 20
308.9144842251
 30
0.0
 10
62.8519444224
 20
308.457518435
 30
0.0
 10
63.3347392656
 20
308.1787830081
 30
0.0
  0
SPLINE
  5
3B2
100
AcDbEntity
  8
_1
100
AcDbSpline
 62
7
  6
CONTINUOUS
 70
0
 71
3
 72
11
 73
7
 74
0
 42
0.0000001
 43
0.0000001
 44
0.0000000001
 40
0.0
 40
0.0
 40
0.0
 40
0.0
 40
0.2182576202
 40
0.4516168347
 40
0.7107274315
 40
1.0
 40
1.0
 40
1.0
 40
1.0
 10
49.3495572598
 20
303.8245519148
 30
0.0
 10
48.9908078198
 20
303.6174353886
 30
0.0
 10
48.319097917
 20
303.0552260702
 30
0.0
 10
47.5997955249
 20
301.8926399362
 30
0.0
 10
47.1665784153
 20
300.4598941538
 30
0.0
 10
47.0757498474
 20
299.4161936514
 30
0.0
 10
47.0715824127
 20
298.8671814935
 30
0.0
  0
SPLINE
  5
3B3
100
AcDbEntity
  8
_1
100
AcDbSpline
 62
7
  6
CONTINUOUS
 70
0
 71
3
 72
10
 73
6
 74
0
 42
0.0000001
 43
0.0000001
 44
0.0000000001
 40
0.0
 40
0.0
 40
0.0
 40
0.0
 40
0.2184082244
 40
0.4522516324
 40
1.0
 40
1.0
 40
1.0
 40
1.0
 10
87.413960492
 20
310.9447151022
 30
0.0
 10
87.4799218219
 20
310.9827936421
 30
0.0
 10
87.6314742418
 20
311.0379941025
 30
0.0
 10
87.9845486594
 20
311.046699289
 30
0.0
 10
88.2484798986
 20
310.9412652388
 30
0.0
 10
88.4139013557
 20
310.8457612766
 30
0.0
  0
SPLINE
  5
3B4
100
AcDbEntity
  8
_1
100
AcDbSpline
 62
7
  6
CONTINUOUS
 70
0
 71
3
 72
9
 73
5
 74
0
 42
0.0000001
 43
0.0000001
 44
0.0000000001
 40
0.0
 40
0.0
 40
0.0
 40
0.0
 40
0.5000005437
 40
1.0
 40
1.0
 40
1.0
 40
1.0
 10
114.2357030105
 20
295.1214033467
 30
0.0
 10
114.0258225773
 20
295.24257513
 30
0.0
 10
113.5285955371
 20
295.3384033127
 30
0.0
 10
113.031368551
 20
295.2425729806
 30
0.0
 10
112.8214894481
 20
295.1213999473
 30
0.0
  0
SPLINE
  5
3B5
100
AcDbEntity
  8
_1
100
AcDbSpline
 62
7
  6
CONTINUOUS
 70
0
 71
3
 72
11
 73
7
 74
0
 42
0.0000001
 43
0.0000001
 44
0.0000000001
 40
0.0
 40
0.0
 40
0.0
 40
0.0
 40
0.2861917377
 40
0.5440976218
 40
0.7787519717
 40
1.0
 40
1.0
 40
1.0
 40
1.0
 10
98.7327606667
 20
286.976046249
 30
0.0
 10
98.4676244502
 20
286.802407337
 30
0.0
 10
97.9876950854
 20
286.4317912156
 30
0.0
 10
97.4205687357
 20
285.7725819524
 30
0.0
 10
97.065038338
 20
285.0558496411
 30
0.0
 10
96.9827841508
 20
284.5479684456
 30
0.0
 10
96.982784154
 20
284.3029536652
 30
0.0
  0
SPLINE
  5
3B6
100
AcDbEntity
  8
_1
100
AcDbSpline
 62
7
  6
CONTINUOUS
 70
0
 71
3
 72
11
 73
7
 74
0
 42
0.0000001
 43
0.0000001
 44
0.0000000001
 40
0.0
 40
0.0
 40
0.0
 40
0.0
 40
0.2306304773
 40
0.4760766412
 40
0.7336509601
 40
1.0
 40
1.0
 40
1.0
 40
1.0
 10
47.7675949243
 20
247.3556420702
 30
0.0
 10
47.7675949243
 20
244.6118036744
 30
0.0
 10
48.1458702768
 20
238.9440216624
 30
0.0
 10
49.700243859
 20
230.3398697683
 30
0.0
 10
52.2251501026
 20
221.5273188336
 30
0.0
 10
54.4922236801
 20
215.7104612865
 30
0.0
 10
55.7703622537
 20
212.8108804366
 30
0.0
  0
SPLINE
  5
3B7
100
AcDbEntity
  8
_1
100
AcDbSpline
 62
7
  6
CONTINUOUS
 70
0
 71
3
 72
17
 73
13
 74
0
 42
0.0000001
 43
0.0000001
 44
0.0000000001
 40
0.0
 40
0.0
 40
0.0
 40
0.0
 40
0.1569084806
 40
0.3074432707
 40
0.4490809721
 40
0.5799610808
 40
0.6991790623
 40
0.8071440924
 40
0.857590196
 40
0.9061680715
 40
0.9534262553
 40
1.0
 40
1.0
 40
1.0
 40
1.0
 10
67.8586375427
 20
191.8897275616
 30
0.0
 10
70.0165325891
 20
188.9469262769
 30
0.0
 10
74.5377320052
 20
183.3879790929
 30
0.0
 10
81.9767804754
 20
176.0267693699
 30
0.0
 10
89.7649319035
 20
169.971153572
 30
0.0
 10
97.6839517266
 20
165.3978974565
 30
0.0
 10
105.5143452175
 20
162.4429973397
 30
0.0
 10
111.9462929524
 20
161.3965462012
 30
0.0
 10
116.7707449691
 20
161.5185564627
 30
0.0
 10
120.1413720855
 20
162.0552247104
 30
0.0
 10
123.3162450492
 20
163.0366321865
 30
0.0
 10
125.2914923617
 20
163.9867626935
 30
0.0
 10
126.2295362826
 20
164.5283362217
 30
0.0
  0
SPLINE
  5
3B8
100
AcDbEntity
  8
_1
100
AcDbSpline
 62
7
  6
CONTINUOUS
 70
0
 71
3
 72
14
 73
10
 74
0
 42
0.0000001
 43
0.0000001
 44
0.0000000001
 40
0.0
 40
0.0
 40
0.0
 40
0.0
 40
0.289278867
 40
0.4225365083
 40
0.548496389
 40
0.6678937916
 40
0.7818677049
 40
0.8919524012
 40
1.0
 40
1.0
 40
1.0
 40
1.0
 10
136.1563105677
 20
196.3255477552
 30
0.0
 10
136.1563105677
 20
193.2843203899
 30
0.0
 10
135.8012560473
 20
188.8202960969
 30
0.0
 10
134.4288631137
 20
183.2094383047
 30
0.0
 10
133.0326612784
 20
179.4705973919
 30
0.0
 10
131.2530759737
 20
176.1247857316
 30
0.0
 10
129.103780655
 20
173.2056471313
 30
0.0
 10
126.6046869711
 20
170.7461551241
 30
0.0
 10
124.7132880986
 20
169.4264186243
 30
0.0
 10
123.7295514109
 20
168.8584628746
 30
0.0
  0
SPLINE
  5
3B9
100
AcDbEntity
  8
_1
100
AcDbSpline
 62
7
  6
CONTINUOUS
 70
0
 71
3
 72
9
 73
5
 74
0
 42
0.0000001
 43
0.0000001
 44
0.0000000001
 40
0.0
 40
0.0
 40
0.0
 40
0.0
 40
0.477177528
 40
1.0
 40
1.0
 40
1.0
 40
1.0
 10
62.6168726567
 20
242.4567683131
 30
0.0
 10
62.6168726567
 20
238.7224701321
 30
0.0
 10
63.5584943708
 20
230.8893530035
 30
0.0
 10
65.8787332517
 20
223.3759235101
 30
0.0
 10
67.381274519
 20
219.5702966217
 30
0.0
  0
SPLINE
  5
3BA
100
AcDbEntity
  8
_1
100
AcDbSpline
 62
7
  6
CONTINUOUS
 70
0
 71
3
 72
15
 73
11
 74
0
 42
0.0000001
 43
0.0000001
 44
0.0000000001
 40
0.0
 40
0.0
 40
0.0
 40
0.0
 40
0.1571273181
 40
0.3072338157
 40
0.448157198
 40
0.5783830517
 40
0.697303805
 40
0.8055282458
 40
0.905184128
 40
1.0
 40
1.0
 40
1.0
 40
1.0
 10
79.5000710943
 20
198.5925336497
 30
0.0
 10
81.0947344957
 20
196.5867171285
 30
0.0
 10
84.4060949302
 20
192.8129002859
 30
0.0
 10
89.7907566622
 20
187.8496778466
 30
0.0
 10
95.36953431
 20
183.8092970642
 30
0.0
 10
100.9998344553
 20
180.7994211313
 30
0.0
 10
106.5425815086
 20
178.902853928
 30
0.0
 10
111.8655639449
 20
178.1845240813
 30
0.0
 10
116.8277794513
 20
178.6929159579
 30
0.0
 10
119.8224040824
 20
179.8817680508
 30
0.0
 10
121.1615594962
 20
180.6548425198
 30
0.0
  0
SPLINE
  5
3BB
100
AcDbEntity
  8
_1
100
AcDbSpline
 62
7
  6
CONTINUOUS
 70
0
 71
3
 72
17
 73
13
 74
0
 42
0.0000001
 43
0.0000001
 44
0.0000000001
 40
0.0
 40
0.0
 40
0.0
 40
0.0
 40
0.1286889276
 40
0.2702752976
 40
0.4174285834
 40
0.5617761264
 40
0.6954478599
 40
0.8127113764
 40
0.8646766119
 40
0.9125108666
 40
0.957140214
 40
1.0
 40
1.0
 40
1.0
 40
1.0
 10
52.3640819267
 20
206.7355289256
 30
0.0
 10
52.3640819267
 20
205.709822902
 30
0.0
 10
52.6510514224
 20
203.5531599204
 30
0.0
 10
53.721970589
 20
200.3865347216
 30
0.0
 10
55.3723575681
 20
197.3360657986
 30
0.0
 10
57.4694011634
 20
194.6518729389
 30
0.0
 10
59.8417455857
 20
192.5507035239
 30
0.0
 10
61.9891024025
 20
191.3767153286
 30
0.0
 10
63.6687872542
 20
190.929743592
 30
0.0
 10
64.8248702613
 20
190.8447128786
 30
0.0
 10
65.9013289259
 20
191.0025800778
 30
0.0
 10
66.5535207818
 20
191.273526651
 30
0.0
 10
66.8493479361
 20
191.4443607913
 30
0.0
  0
SPLINE
  5
3BC
100
AcDbEntity
  8
_1
100
AcDbSpline
 62
7
  6
CONTINUOUS
 70
0
 71
3
 72
11
 73
7
 74
0
 42
0.0000001
 43
0.0000001
 44
0.0000000001
 40
0.0
 40
0.0
 40
0.0
 40
0.0
 40
0.2892725685
 40
0.5483831653
 40
0.7817423798
 40
1.0
 40
1.0
 40
1.0
 40
1.0
 10
153.8228446121
 20
150.5294434829
 30
0.0
 10
153.8186771774
 20
149.980431325
 30
0.0
 10
153.7278486095
 20
148.9367308226
 30
0.0
 10
153.2946314999
 20
147.5039850402
 30
0.0
 10
152.5753291078
 20
146.3413989062
 30
0.0
 10
151.903619205
 20
145.7791895878
 30
0.0
 10
151.544869765
 20
145.5720730616
 30
0.0
  0
SPLINE
  5
3BD
100
AcDbEntity
  8
_1
100
AcDbSpline
 62
7
  6
CONTINUOUS
 70
0
 71
3
 72
11
 73
7
 74
0
 42
0.0000001
 43
0.0000001
 44
0.0000000001
 40
0.0
 40
0.0
 40
0.0
 40
0.0
 40
0.2897781767
 40
0.5490726313
 40
0.7822276909
 40
1.0
 40
1.0
 40
1.0
 40
1.0
 10
99.033005838
 20
281.0369933795
 30
0.0
 10
98.7257703291
 20
281.2143718704
 30
0.0
 10
98.16844079
 20
281.5980771035
 30
0.0
 10
97.5025742878
 20
282.2981507873
 30
0.0
 10
97.081245422
 20
283.0723302373
 30
0.0
 10
96.9827841574
 20
283.6280931529
 30
0.0
 10
96.982784154
 20
283.8947024566
 30
0.0
  0
SPLINE
  5
3BE
100
AcDbEntity
  8
_1
100
AcDbSpline
 62
7
  6
CONTINUOUS
 70
0
 71
3
 72
16
 73
12
 74
0
 42
0.0000001
 43
0.0000001
 44
0.0000000001
 40
0.0
 40
0.0
 40
0.0
 40
0.0
 40
0.0467289244
 40
0.0941291286
 40
0.1931434042
 40
0.3011728645
 40
0.4203236063
 40
0.5510556979
 40
0.6925388583
 40
0.842998461
 40
1.0
 40
1.0
 40
1.0
 40
1.0
 10
123.7295514109
 20
168.8584628746
 30
0.0
 10
122.8736449114
 20
168.3643092827
 30
0.0
 10
121.0723682918
 20
167.4961368849
 30
0.0
 10
117.1612802501
 20
166.2751039429
 30
0.0
 10
111.7311052542
 20
165.7965880056
 30
0.0
 10
104.8628512384
 20
166.8720451015
 30
0.0
 10
97.7219003975
 20
169.5040456029
 30
0.0
 10
90.495759881
 20
173.6025542857
 30
0.0
 10
83.374574409
 20
179.0465489104
 30
0.0
 10
76.5549690769
 20
185.6809715799
 30
0.0
 10
72.3978129022
 20
190.6992240994
 30
0.0
 10
70.4091068974
 20
193.358405523
 30
0.0
  0
SPLINE
  5
3BF
100
AcDbEntity
  8
_1
100
AcDbSpline
 62
7
  6
CONTINUOUS
 70
0
 71
3
 72
10
 73
6
 74
0
 42
0.0000001
 43
0.0000001
 44
0.0000000001
 40
0.0
 40
0.0
 40
0.0
 40
0.0
 40
0.5234152925
 40
0.7689758493
 40
1.0
 40
1.0
 40
1.0
 40
1.0
 10
58.3279821554
 20
214.2591463947
 30
0.0
 10
56.1209743776
 20
219.3916335137
 30
0.0
 10
53.4904339054
 20
227.2325413355
 30
0.0
 10
51.6340231153
 20
237.757505016
 30
0.0
 10
51.30314355
 20
242.8485075847
 30
0.0
 10
51.30314355
 20
245.3144382976
 30
0.0
  0
SPLINE
  5
3C0
100
AcDbEntity
  8
_1
100
AcDbSpline
 62
7
  6
CONTINUOUS
 70
0
 71
3
 72
11
 73
7
 74
0
 42
0.0000001
 43
0.0000001
 44
0.0000000001
 40
0.0
 40
0.0
 40
0.0
 40
0.0
 40
0.2897768139
 40
0.5490678485
 40
0.7822253266
 40
1.0
 40
1.0
 40
1.0
 40
1.0
 10
54.849493219
 20
303.2798531617
 30
0.0
 10
54.3666983758
 20
303.5585885885
 30
0.0
 10
53.4066166007
 20
304.0155543787
 30
0.0
 10
51.9307089228
 20
304.3716286217
 30
0.0
 10
50.5460868596
 20
304.3367216728
 30
0.0
 10
49.7123911683
 20
304.034026524
 30
0.0
 10
49.3495572598
 20
303.8245519148
 30
0.0
  0
SPLINE
  5
3C1
100
AcDbEntity
  8
_1
100
AcDbSpline
 62
7
  6
CONTINUOUS
 70
0
 71
3
 72
11
 73
7
 74
0
 42
0.0000001
 43
0.0000001
 44
0.0000000001
 40
0.0
 40
0.0
 40
0.0
 40
0.0
 40
0.2377690515
 40
0.5005496911
 40
0.7630314763
 40
1.0
 40
1.0
 40
1.0
 40
1.0
 10
145.3375985655
 20
242.1345540789
 30
0.0
 10
145.3280287478
 20
243.4063188152
 30
0.0
 10
144.8384987797
 20
246.0820432302
 30
0.0
 10
143.1678311225
 20
249.8386079072
 30
0.0
 10
140.7361573459
 20
253.1483691193
 30
0.0
 10
138.6573974527
 20
254.8944317166
 30
0.0
 10
137.5596877592
 20
255.5281803664
 30
0.0
  0
SPLINE
  5
3C2
100
AcDbEntity
  8
_1
100
AcDbSpline
 62
7
  6
CONTINUOUS
 70
0
 71
3
 72
11
 73
7
 74
0
 42
0.0000001
 43
0.0000001
 44
0.0000000001
 40
0.0
 40
0.0
 40
0.0
 40
0.0
 40
0.2372279391
 40
0.4999994739
 40
0.762771295
 40
1.0
 40
1.0
 40
1.0
 40
1.0
 10
108.9325007745
 20
281.037017175
 30
0.0
 10
108.2298121089
 20
280.6313221064
 30
0.0
 10
106.5956499644
 20
280.0392513439
 30
0.0
 10
103.9827610883
 20
279.7556356957
 30
0.0
 10
101.3698682698
 20
280.03923942
 30
0.0
 10
99.7356996978
 20
280.6313020683
 30
0.0
 10
99.033005838
 20
281.0369933795
 30
0.0
  0
SPLINE
  5
3C3
100
AcDbEntity
  8
_1
100
AcDbSpline
 62
7
  6
CONTINUOUS
 70
0
 71
3
 72
11
 73
7
 74
0
 42
0.0000001
 43
0.0000001
 44
0.0000000001
 40
0.0
 40
0.0
 40
0.0
 40
0.0
 40
0.2190474191
 40
0.4555950413
 40
0.7152083972
 40
1.0
 40
1.0
 40
1.0
 40
1.0
 10
67.5976731704
 20
274.4570664307
 30
0.0
 10
66.1378943276
 20
273.1209889888
 30
0.0
 10
63.4921293272
 20
269.8942481201
 30
0.0
 10
60.7193568943
 20
264.0015656987
 30
0.0
 10
59.0605131666
 20
257.1031781627
 30
0.0
 10
58.7277338408
 20
252.1738464964
 30
0.0
 10
58.7277338408
 20
249.6010019133
 30
0.0
  0
SPLINE
  5
3C4
100
AcDbEntity
  8
_1
100
AcDbSpline
 62
7
  6
CONTINUOUS
 70
0
 71
3
 72
11
 73
7
 74
0
 42
0.0000001
 43
0.0000001
 44
0.0000000001
 40
0.0
 40
0.0
 40
0.0
 40
0.0
 40
0.2897016594
 40
0.5490895814
 40
0.7822189142
 40
1.0
 40
1.0
 40
1.0
 40
1.0
 10
133.5656587406
 20
248.3106504005
 30
0.0
 10
133.5656587406
 20
248.5893242132
 30
0.0
 10
133.6079094926
 20
249.1193054633
 30
0.0
 10
133.8225343126
 20
249.8474772962
 30
0.0
 10
134.1839175584
 20
250.4383470472
 30
0.0
 10
134.5233670539
 20
250.723698118
 30
0.0
 10
134.7047839228
 20
250.8284568495
 30
0.0
  0
SPLINE
  5
3C5
100
AcDbEntity
  8
_1
100
AcDbSpline
 62
7
  6
CONTINUOUS
 70
0
 71
3
 72
11
 73
7
 74
0
 42
0.0000001
 43
0.0000001
 44
0.0000000001
 40
0.0
 40
0.0
 40
0.0
 40
0.0
 40
0.2897016594
 40
0.5490895814
 40
0.7822189142
 40
1.0
 40
1.0
 40
1.0
 40
1.0
 10
51.065315261
 20
200.6776930291
 30
0.0
 10
51.065315261
 20
200.9563668418
 30
0.0
 10
51.107566013
 20
201.4863480919
 30
0.0
 10
51.322190833
 20
202.2145199248
 30
0.0
 10
51.6835740789
 20
202.8053896758
 30
0.0
 10
52.0230235743
 20
203.0907407466
 30
0.0
 10
52.2044404432
 20
203.1954994782
 30
0.0
  0
SPLINE
  5
3C6
100
AcDbEntity
  8
_1
100
AcDbSpline
 62
7
  6
CONTINUOUS
 70
0
 71
3
 72
14
 73
10
 74
0
 42
0.0000001
 43
0.0000001
 44
0.0000000001
 40
0.0
 40
0.0
 40
0.0
 40
0.0
 40
0.108047219
 40
0.2181316133
 40
0.3321053793
 40
0.4515027594
 40
0.5774625305
 40
0.7107203477
 40
1.0
 40
1.0
 40
1.0
 40
1.0
 10
126.2295362826
 20
164.5283362217
 30
0.0
 10
127.2952480867
 20
165.1436179681
 30
0.0
 10
129.3442532927
 20
166.5733332248
 30
0.0
 10
132.051605379
 20
169.2377677006
 30
0.0
 10
134.3800066496
 20
172.400163314
 30
0.0
 10
136.307889323
 20
176.0247890499
 30
0.0
 10
137.8204510599
 20
180.0751967708
 30
0.0
 10
139.3072135788
 20
186.153635297
 30
0.0
 10
139.6918591934
 20
190.9896721831
 30
0.0
 10
139.6918591934
 20
194.2843439826
 30
0.0
  0
SPLINE
  5
3C7
100
AcDbEntity
  8
_1
100
AcDbSpline
 62
7
  6
CONTINUOUS
 70
0
 71
3
 72
14
 73
10
 74
0
 42
0.0000001
 43
0.0000001
 44
0.0000000001
 40
0.0
 40
0.0
 40
0.0
 40
0.0
 40
0.2892790848
 40
0.4225366072
 40
0.5484963024
 40
0.6678936013
 40
0.781867523
 40
0.8919523079
 40
1.0
 40
1.0
 40
1.0
 40
1.0
 10
142.1667226237
 20
195.7131985211
 30
0.0
 10
142.1667226237
 20
192.4185330703
 30
0.0
 10
141.7820800718
 20
187.5825055443
 30
0.0
 10
140.2953202898
 20
181.50407751
 30
0.0
 10
138.7827700004
 20
177.4536709049
 30
0.0
 10
136.8548879036
 20
173.8290442379
 30
0.0
 10
134.5264854894
 20
170.6666435363
 30
0.0
 10
131.8191326386
 20
168.0021921858
 30
0.0
 10
129.7701158396
 20
166.5724758752
 30
0.0
 10
128.7044000428
 20
165.9571901832
 30
0.0
  0
SPLINE
  5
3C8
100
AcDbEntity
  8
_1
100
AcDbSpline
 62
7
  6
CONTINUOUS
 70
0
 71
3
 72
11
 73
7
 74
0
 42
0.0000001
 43
0.0000001
 44
0.0000000001
 40
0.0
 40
0.0
 40
0.0
 40
0.0
 40
0.2897016594
 40
0.5490895814
 40
0.7822189142
 40
1.0
 40
1.0
 40
1.0
 40
1.0
 10
133.5656587406
 20
153.0471750593
 30
0.0
 10
133.5656587406
 20
153.325848872
 30
0.0
 10
133.6079094926
 20
153.8558301221
 30
0.0
 10
133.8225343126
 20
154.5840019549
 30
0.0
 10
134.1839175584
 20
155.1748717059
 30
0.0
 10
134.5233670539
 20
155.4602227768
 30
0.0
 10
134.7047839228
 20
155.5649815083
 30
0.0
  0
SPLINE
  5
3C9
100
AcDbEntity
  8
_1
100
AcDbSpline
 62
7
  6
CONTINUOUS
 70
0
 71
3
 72
23
 73
19
 74
0
 42
0.0000001
 43
0.0000001
 44
0.0000000001
 40
0.0
 40
0.0
 40
0.0
 40
0.0
 40
0.0428145631
 40
0.087396591
 40
0.1351795184
 40
0.1870888485
 40
0.2435355305
 40
0.3044930327
 40
0.36959101
 40
0.4381990631
 40
0.5094966675
 40
0.5825323993
 40
0.6562755592
 40
0.7296644265
 40
0.8016522219
 40
0.8712564986
 40
0.9376056049
 40
1.0
 40
1.0
 40
1.0
 40
1.0
 10
63.7047809354
 20
278.5405049467
 30
0.0
 10
65.3072964614
 20
279.465709281
 30
0.0
 10
68.8397669092
 20
280.9339221952
 30
0.0
 10
74.6708954021
 20
281.7885161168
 30
0.0
 10
80.9325863683
 20
281.3275851159
 30
0.0
 10
87.4858485282
 20
279.5864449642
 30
0.0
 10
94.2019938905
 20
276.6182166121
 30
0.0
 10
100.9473287809
 20
272.4914688079
 30
0.0
 10
107.5848398386
 20
267.2950871854
 30
0.0
 10
113.9767065517
 20
261.1391853137
 30
0.0
 10
119.9884170537
 20
254.1542522423
 30
0.0
 10
125.4924268773
 20
246.4887725467
 30
0.0
 10
130.3715034109
 20
238.3061081876
 30
0.0
 10
134.5215417856
 20
229.7807756824
 30
0.0
 10
137.8540868749
 20
221.0946753064
 30
0.0
 10
140.2980798815
 20
212.4319358432
 30
0.0
 10
141.8014142432
 20
203.9777883301
 30
0.0
 10
142.1667226237
 20
198.4098491609
 30
0.0
 10
142.1667226237
 20
195.7131985211
 30
0.0
  0
SPLINE
  5
3CA
100
AcDbEntity
  8
_1
100
AcDbSpline
 62
7
  6
CONTINUOUS
 70
0
 71
3
 72
11
 73
7
 74
0
 42
0.0000001
 43
0.0000001
 44
0.0000000001
 40
0.0
 40
0.0
 40
0.0
 40
0.0
 40
0.2897016594
 40
0.5490895814
 40
0.7822189142
 40
1.0
 40
1.0
 40
1.0
 40
1.0
 10
51.065315261
 20
295.9411683704
 30
0.0
 10
51.065315261
 20
296.2198421831
 30
0.0
 10
51.107566013
 20
296.7498234332
 30
0.0
 10
51.322190833
 20
297.4779952661
 30
0.0
 10
51.6835740789
 20
298.068865017
 30
0.0
 10
52.0230235743
 20
298.3542160879
 30
0.0
 10
52.2044404432
 20
298.4589748194
 30
0.0
  0
SPLINE
  5
3CB
100
AcDbEntity
  8
_1
100
AcDbSpline
 62
7
  6
CONTINUOUS
 70
0
 71
3
 72
16
 73
12
 74
0
 42
0.0000001
 43
0.0000001
 44
0.0000000001
 40
0.0
 40
0.0
 40
0.0
 40
0.0
 40
0.0428779141
 40
0.0875234847
 40
0.1869287945
 40
0.3042400339
 40
0.4379633427
 40
0.5823675368
 40
0.729595529
 40
0.8712500532
 40
1.0
 40
1.0
 40
1.0
 40
1.0
 10
140.204740535
 20
146.0387203105
 30
0.0
 10
140.0691534645
 20
145.960425885
 30
0.0
 10
139.7702278874
 20
145.8363007929
 30
0.0
 10
139.0890143031
 20
145.7363153448
 30
0.0
 10
138.1272608038
 20
145.9241680199
 30
0.0
 10
136.9943484761
 20
146.5455775601
 30
0.0
 10
135.9053381826
 20
147.508808149
 30
0.0
 10
134.9446705174
 20
148.7389368071
 30
0.0
 10
134.1880907669
 20
150.1371217005
 30
0.0
 10
133.6971772635
 20
151.5885277036
 30
0.0
 10
133.5656587406
 20
152.577043556
 30
0.0
 10
133.5656587406
 20
153.0471750593
 30
0.0
  0
SPLINE
  5
3CC
100
AcDbEntity
  8
_1
100
AcDbSpline
 62
7
  6
CONTINUOUS
 70
0
 71
3
 72
17
 73
13
 74
0
 42
0.0000001
 43
0.0000001
 44
0.0000000001
 40
0.0
 40
0.0
 40
0.0
 40
0.0
 40
0.0428595039
 40
0.087488893
 40
0.1353233594
 40
0.187288892
 40
0.3045519341
 40
0.4382215219
 40
0.5825668323
 40
0.7297207643
 40
0.8713092579
 40
1.0
 40
1.0
 40
1.0
 40
1.0
 10
90.9117417531
 20
233.04937646
 30
0.0
 10
91.2075666783
 20
233.2202099864
 30
0.0
 10
91.8597594156
 20
233.4911505292
 30
0.0
 10
92.9362169032
 20
233.6490159417
 30
0.0
 10
94.0923053665
 20
233.5639940223
 30
0.0
 10
95.7719889252
 20
233.1170138598
 30
0.0
 10
97.9193304895
 20
231.9430395911
 30
0.0
 10
100.291646921
 20
229.8418972674
 30
0.0
 10
102.3886890333
 20
227.1577415445
 30
0.0
 10
104.0390833596
 20
224.1072713365
 30
0.0
 10
105.1100341387
 20
220.9406181898
 30
0.0
 10
105.3970110281
 20
218.7839231834
 30
0.0
 10
105.3970110281
 20
217.7582026646
 30
0.0
  0
SPLINE
  5
3CD
100
AcDbEntity
  8
_1
100
AcDbSpline
 62
7
  6
CONTINUOUS
 70
0
 71
3
 72
11
 73
7
 74
0
 42
0.0000001
 43
0.0000001
 44
0.0000000001
 40
0.0
 40
0.0
 40
0.0
 40
0.0
 40
0.2177723091
 40
0.4509273687
 40
0.7102218233
 40
1.0
 40
1.0
 40
1.0
 40
1.0
 10
96.982784154
 20
284.3029536652
 30
0.0
 10
96.9827841574
 20
284.0363443615
 30
0.0
 10
97.081245422
 20
283.4805814459
 30
0.0
 10
97.5025742878
 20
282.7064019958
 30
0.0
 10
98.16844079
 20
282.006328312
 30
0.0
 10
98.7257703291
 20
281.622623079
 30
0.0
 10
99.033005838
 20
281.4452445881
 30
0.0
  0
SPLINE
  5
3CE
100
AcDbEntity
  8
_1
100
AcDbSpline
 62
7
  6
CONTINUOUS
 70
0
 71
3
 72
11
 73
7
 74
0
 42
0.0000001
 43
0.0000001
 44
0.0000000001
 40
0.0
 40
0.0
 40
0.0
 40
0.0
 40
0.2177696012
 40
0.4509414157
 40
0.7102110461
 40
1.0
 40
1.0
 40
1.0
 40
1.0
 10
66.8493479361
 20
191.4443607913
 30
0.0
 10
67.2451447655
 20
191.6729253773
 30
0.0
 10
67.9859837609
 20
192.2953861074
 30
0.0
 10
68.7740897704
 20
193.5846006129
 30
0.0
 10
69.2428242301
 20
195.173213981
 30
0.0
 10
69.3347153302
 20
196.329545001
 30
0.0
 10
69.3347153302
 20
196.9377508171
 30
0.0
  0
SPLINE
  5
3CF
100
AcDbEntity
  8
_1
100
AcDbSpline
 62
7
  6
CONTINUOUS
 70
0
 71
3
 72
11
 73
7
 74
0
 42
0.0000001
 43
0.0000001
 44
0.0000000001
 40
0.0
 40
0.0
 40
0.0
 40
0.0
 40
0.237228705
 40
0.5000005261
 40
0.7627720609
 40
1.0
 40
1.0
 40
1.0
 40
1.0
 10
99.033005838
 20
281.4452445881
 30
0.0
 10
99.7356996978
 20
281.0395532769
 30
0.0
 10
101.3698682698
 20
280.4474906286
 30
0.0
 10
103.9827610883
 20
280.1638869043
 30
0.0
 10
106.5956499644
 20
280.4475025524
 30
0.0
 10
108.2298121089
 20
281.039573315
 30
0.0
 10
108.9325007745
 20
281.4452683835
 30
0.0
  0
SPLINE
  5
3D0
100
AcDbEntity
  8
_1
100
AcDbSpline
 62
7
  6
CONTINUOUS
 70
0
 71
3
 72
13
 73
9
 74
0
 42
0.0000001
 43
0.0000001
 44
0.0000000001
 40
0.0
 40
0.0
 40
0.0
 40
0.0
 40
0.1080958468
 40
0.2182289131
 40
0.3322539652
 40
0.4517064541
 40
0.7105895391
 40
1.0
 40
1.0
 40
1.0
 40
1.0
 10
121.1615594962
 20
180.6548425198
 30
0.0
 10
121.9567649438
 20
181.1139027774
 30
0.0
 10
123.4855452176
 20
182.1808254443
 30
0.0
 10
125.5057133
 20
184.1687726433
 30
0.0
 10
127.2431264648
 20
186.5284914165
 30
0.0
 10
129.2128353935
 20
190.2323095147
 30
0.0
 10
130.836425161
 20
195.7276591016
 30
0.0
 10
131.206515996
 20
200.3990766574
 30
0.0
 10
131.206515996
 20
202.8574151246
 30
0.0
  0
SPLINE
  5
3D1
100
AcDbEntity
  8
_1
100
AcDbSpline
 62
7
  6
CONTINUOUS
 70
0
 71
3
 72
23
 73
19
 74
0
 42
0.0000001
 43
0.0000001
 44
0.0000000001
 40
0.0
 40
0.0
 40
0.0
 40
0.0
 40
0.0623942264
 40
0.1287430361
 40
0.1983471082
 40
0.2703348395
 40
0.3437238693
 40
0.4174672706
 40
0.4905031806
 40
0.5618009309
 40
0.630409151
 40
0.6955072684
 40
0.7564648065
 40
0.8129114205
 40
0.8648206619
 40
0.9126035329
 40
0.9571855152
 40
1.0
 40
1.0
 40
1.0
 40
1.0
 10
139.6918591934
 20
194.2843439826
 30
0.0
 10
139.6918591934
 20
196.9809873261
 30
0.0
 10
139.3265540521
 20
202.5489064462
 30
0.0
 10
137.8232275101
 20
211.003025757
 30
0.0
 10
135.3792495315
 20
219.6657439201
 30
0.0
 10
132.0467125717
 20
228.3518425176
 30
0.0
 10
127.8966744712
 20
236.877191504
 30
0.0
 10
123.0175891117
 20
245.0598800105
 30
0.0
 10
117.5135672287
 20
252.7253812045
 30
0.0
 10
111.5018434519
 20
259.7103309302
 30
0.0
 10
105.1099619512
 20
265.8662457771
 30
0.0
 10
98.472437285
 20
271.0626342032
 30
0.0
 10
91.727095913
 20
275.1893805032
 30
0.0
 10
85.0109530459
 20
278.1576014798
 30
0.0
 10
78.4576984396
 20
279.8987341906
 30
0.0
 10
72.1960156782
 20
280.3596597112
 30
0.0
 10
66.3648948535
 20
279.5050649178
 30
0.0
 10
62.8324314938
 20
278.0368506206
 30
0.0
 10
61.2299178352
 20
277.1116498311
 30
0.0
  0
SPLINE
  5
3D2
100
AcDbEntity
  8
_1
100
AcDbSpline
 62
7
  6
CONTINUOUS
 70
0
 71
3
 72
16
 73
12
 74
0
 42
0.0000001
 43
0.0000001
 44
0.0000000001
 40
0.0
 40
0.0
 40
0.0
 40
0.0
 40
0.0428779141
 40
0.0875234847
 40
0.1869287945
 40
0.3042400339
 40
0.4379633427
 40
0.5823675368
 40
0.729595529
 40
0.8712500532
 40
1.0
 40
1.0
 40
1.0
 40
1.0
 10
57.7043970555
 20
193.6692382804
 30
0.0
 10
57.5688099849
 20
193.5909438549
 30
0.0
 10
57.2698844078
 20
193.4668187628
 30
0.0
 10
56.5886708235
 20
193.3668333147
 30
0.0
 10
55.6269173243
 20
193.5546859898
 30
0.0
 10
54.4940049965
 20
194.17609553
 30
0.0
 10
53.404994703
 20
195.1393261189
 30
0.0
 10
52.4443270378
 20
196.369454777
 30
0.0
 10
51.6877472873
 20
197.7676396704
 30
0.0
 10
51.196833784
 20
199.2190456735
 30
0.0
 10
51.065315261
 20
200.2075615259
 30
0.0
 10
51.065315261
 20
200.6776930291
 30
0.0
  0
SPLINE
  5
3D3
100
AcDbEntity
  8
_1
100
AcDbSpline
 62
7
  6
CONTINUOUS
 70
0
 71
3
 72
14
 73
10
 74
0
 42
0.0000001
 43
0.0000001
 44
0.0000000001
 40
0.0
 40
0.0
 40
0.0
 40
0.0
 40
0.289278867
 40
0.4225365083
 40
0.548496389
 40
0.6678937916
 40
0.7818677049
 40
0.8919524012
 40
1.0
 40
1.0
 40
1.0
 40
1.0
 10
51.30314355
 20
245.3144382976
 30
0.0
 10
51.30314355
 20
248.3556656629
 30
0.0
 10
51.6581980704
 20
252.8196899559
 30
0.0
 10
53.0305910041
 20
258.4305477481
 30
0.0
 10
54.4267928393
 20
262.1693886609
 30
0.0
 10
56.206378144
 20
265.5152003212
 30
0.0
 10
58.3556734628
 20
268.4343389215
 30
0.0
 10
60.8547671466
 20
270.8938309287
 30
0.0
 10
62.7461660191
 20
272.2135674285
 30
0.0
 10
63.7299027068
 20
272.7815231782
 30
0.0
  0
SPLINE
  5
3D4
100
AcDbEntity
  8
_1
100
AcDbSpline
 62
7
  6
CONTINUOUS
 70
0
 71
3
 72
16
 73
12
 74
0
 42
0.0000001
 43
0.0000001
 44
0.0000000001
 40
0.0
 40
0.0
 40
0.0
 40
0.0
 40
0.0428779141
 40
0.0875234847
 40
0.1869287945
 40
0.3042400339
 40
0.4379633427
 40
0.5823675368
 40
0.729595529
 40
0.8712500532
 40
1.0
 40
1.0
 40
1.0
 40
1.0
 10
140.204740535
 20
241.3021956517
 30
0.0
 10
140.0691534645
 20
241.2239012263
 30
0.0
 10
139.7702278874
 20
241.0997761341
 30
0.0
 10
139.0890143031
 20
240.9997906861
 30
0.0
 10
138.1272608038
 20
241.1876433611
 30
0.0
 10
136.9943484761
 20
241.8090529013
 30
0.0
 10
135.9053381826
 20
242.7722834903
 30
0.0
 10
134.9446705174
 20
244.0024121483
 30
0.0
 10
134.1880907669
 20
245.4005970417
 30
0.0
 10
133.6971772635
 20
246.8520030449
 30
0.0
 10
133.5656587406
 20
247.8405188972
 30
0.0
 10
133.5656587406
 20
248.3106504005
 30
0.0
  0
SPLINE
  5
3D5
100
AcDbEntity
  8
_1
100
AcDbSpline
 62
7
  6
CONTINUOUS
 70
0
 71
3
 72
10
 73
6
 74
0
 42
0.0000001
 43
0.0000001
 44
0.0000000001
 40
0.0
 40
0.0
 40
0.0
 40
0.0
 40
0.2310247073
 40
0.4765847866
 40
1.0
 40
1.0
 40
1.0
 40
1.0
 10
58.7277338408
 20
249.6010019133
 30
0.0
 10
58.7277338408
 20
247.1352035201
 30
0.0
 10
59.0585763681
 20
242.0444857043
 30
0.0
 10
60.9147962579
 20
231.5200981999
 30
0.0
 10
63.5450669161
 20
223.6796003954
 30
0.0
 10
65.7518612713
 20
218.5473634015
 30
0.0
  0
SPLINE
  5
3D6
100
AcDbEntity
  8
_1
100
AcDbSpline
 62
7
  6
CONTINUOUS
 70
0
 71
3
 72
15
 73
11
 74
0
 42
0.0000001
 43
0.0000001
 44
0.0000000001
 40
0.0
 40
0.0
 40
0.0
 40
0.0
 40
0.1534420606
 40
0.3012880503
 40
0.441511057
 40
0.5725352451
 40
0.693417599
 40
0.8040672029
 40
0.9054925899
 40
1.0
 40
1.0
 40
1.0
 40
1.0
 10
77.8338566398
 20
197.6447546158
 30
0.0
 10
79.6465676755
 20
195.2209187936
 30
0.0
 10
83.4244882828
 20
190.619852447
 30
0.0
 10
89.5876781156
 20
184.4465889613
 30
0.0
 10
96.0288336673
 20
179.2369679389
 30
0.0
 10
102.5987213545
 20
175.1145885757
 30
0.0
 10
109.1488251283
 20
172.1776542912
 30
0.0
 10
115.536992315
 20
170.5029768532
 30
0.0
 10
121.6183504859
 20
170.1469826377
 30
0.0
 10
125.4698730034
 20
170.8384703009
 30
0.0
 10
127.2437870812
 20
171.4115663841
 30
0.0
  0
SPLINE
  5
3D7
100
AcDbEntity
  8
_1
100
AcDbSpline
 62
7
  6
CONTINUOUS
 70
0
 71
3
 72
16
 73
12
 74
0
 42
0.0000001
 43
0.0000001
 44
0.0000000001
 40
0.0
 40
0.0
 40
0.0
 40
0.0
 40
0.0428779141
 40
0.0875234847
 40
0.1869287945
 40
0.3042400339
 40
0.4379633427
 40
0.5823675368
 40
0.729595529
 40
0.8712500532
 40
1.0
 40
1.0
 40
1.0
 40
1.0
 10
57.7043970555
 20
288.9327136216
 30
0.0
 10
57.5688099849
 20
288.8544191961
 30
0.0
 10
57.2698844078
 20
288.730294104
 30
0.0
 10
56.5886708235
 20
288.6303086559
 30
0.0
 10
55.6269173243
 20
288.818161331
 30
0.0
 10
54.4940049965
 20
289.4395708712
 30
0.0
 10
53.404994703
 20
290.4028014602
 30
0.0
 10
52.4443270378
 20
291.6329301182
 30
0.0
 10
51.6877472873
 20
293.0311150116
 30
0.0
 10
51.196833784
 20
294.4825210148
 30
0.0
 10
51.065315261
 20
295.4710368671
 30
0.0
 10
51.065315261
 20
295.9411683704
 30
0.0
  0
SPLINE
  5
3D8
100
AcDbEntity
  8
_1
100
AcDbSpline
 62
7
  6
CONTINUOUS
 70
0
 71
3
 72
12
 73
8
 74
0
 42
0.0000001
 43
0.0000001
 44
0.0000000001
 40
0.0
 40
0.0
 40
0.0
 40
0.0
 40
0.2875181786
 40
0.5458102735
 40
0.7796799189
 40
0.8907784794
 40
1.0
 40
1.0
 40
1.0
 40
1.0
 10
135.4267302833
 20
203.8901001934
 30
0.0
 10
135.3531895316
 20
201.5857787538
 30
0.0
 10
134.8666190833
 20
197.2071291082
 30
0.0
 10
132.9149973994
 20
191.2146473682
 30
0.0
 10
130.2584740055
 20
187.085531992
 30
0.0
 10
127.6229717633
 20
184.5528857827
 30
0.0
 10
126.1626724884
 20
183.5421727539
 30
0.0
 10
125.4041823868
 20
183.1043077345
 30
0.0
  0
SPLINE
  5
3D9
100
AcDbEntity
  8
_1
100
AcDbSpline
 62
7
  6
CONTINUOUS
 70
0
 71
3
 72
21
 73
17
 74
0
 42
0.0000001
 43
0.0000001
 44
0.0000000001
 40
0.0
 40
0.0
 40
0.0
 40
0.0
 40
0.0624107478
 40
0.1287788059
 40
0.1984017135
 40
0.2704093743
 40
0.4174485572
 40
0.5616802477
 40
0.6303072334
 40
0.6954232111
 40
0.7563975598
 40
0.8128597669
 40
0.8647833322
 40
0.9125794061
 40
0.9571737085
 40
1.0
 40
1.0
 40
1.0
 40
1.0
 10
131.206515996
 20
202.8574151246
 30
0.0
 10
131.206515996
 20
204.8695050099
 30
0.0
 10
130.9339287289
 20
209.0240556488
 30
0.0
 10
129.8122448445
 20
215.3320533379
 30
0.0
 10
127.9886537111
 20
221.796119661
 30
0.0
 10
124.6505239214
 20
230.4947163348
 30
0.0
 10
119.0476540227
 20
240.8461058892
 30
0.0
 10
111.866829836
 20
250.0422266189
 30
0.0
 10
105.4033570221
 20
256.2684995442
 30
0.0
 10
100.4504357034
 20
260.1458458163
 30
0.0
 10
95.4174490016
 20
263.2250261324
 30
0.0
 10
90.4061525013
 20
265.4397810198
 30
0.0
 10
85.5164146282
 20
266.7389394097
 30
0.0
 10
80.844235927
 20
267.0828519502
 30
0.0
 10
76.4932994733
 20
266.4452257067
 30
0.0
 10
73.8575817916
 20
265.3496310993
 30
0.0
 10
72.6618291565
 20
264.6593409179
 30
0.0
  0
SPLINE
  5
3DA
100
AcDbEntity
  8
_1
100
AcDbSpline
 62
7
  6
CONTINUOUS
 70
0
 71
3
 72
11
 73
7
 74
0
 42
0.0000001
 43
0.0000001
 44
0.0000000001
 40
0.0
 40
0.0
 40
0.0
 40
0.0
 40
0.2897901079
 40
0.5490572946
 40
0.7822295523
 40
1.0
 40
1.0
 40
1.0
 40
1.0
 10
105.3970110281
 20
217.7582026646
 30
0.0
 10
105.3970110281
 20
217.1499940305
 30
0.0
 10
105.3051231844
 20
215.9936640954
 30
0.0
 10
104.8363841519
 20
214.4050540461
 30
0.0
 10
104.0482893274
 20
213.115833972
 30
0.0
 10
103.3074451348
 20
212.4933732765
 30
0.0
 10
102.9116468996
 20
212.2648069776
 30
0.0
  0
SPLINE
  5
3DB
100
AcDbEntity
  8
_1
100
AcDbSpline
 62
7
  6
CONTINUOUS
 70
0
 71
3
 72
11
 73
7
 74
0
 42
0.0000001
 43
0.0000001
 44
0.0000000001
 40
0.0
 40
0.0
 40
0.0
 40
0.0
 40
0.2182576202
 40
0.4516168347
 40
0.7107274315
 40
1.0
 40
1.0
 40
1.0
 40
1.0
 10
143.0596237185
 20
140.6731432151
 30
0.0
 10
143.4183731584
 20
140.8802597413
 30
0.0
 10
144.0900830612
 20
141.4424690598
 30
0.0
 10
144.8093854533
 20
142.6050551937
 30
0.0
 10
145.242602563
 20
144.0378009761
 30
0.0
 10
145.3334311308
 20
145.0815014785
 30
0.0
 10
145.3375985655
 20
145.6305136364
 30
0.0
  0
SPLINE
  5
3DC
100
AcDbEntity
  8
_1
100
AcDbSpline
 62
7
  6
CONTINUOUS
 70
0
 71
3
 72
17
 73
13
 74
0
 42
0.0000001
 43
0.0000001
 44
0.0000000001
 40
0.0
 40
0.0
 40
0.0
 40
0.0
 40
0.1286889276
 40
0.2702752976
 40
0.4174285834
 40
0.5617761264
 40
0.6954478599
 40
0.8127113764
 40
0.8646766119
 40
0.9125108666
 40
0.957140214
 40
1.0
 40
1.0
 40
1.0
 40
1.0
 10
69.3347153302
 20
196.9377508171
 30
0.0
 10
69.3347153302
 20
197.9634568408
 30
0.0
 10
69.0477458345
 20
200.1201198224
 30
0.0
 10
67.9768266679
 20
203.2867450212
 30
0.0
 10
66.3264396888
 20
206.3372139442
 30
0.0
 10
64.2293960935
 20
209.0214068039
 30
0.0
 10
61.8570516712
 20
211.1225762189
 30
0.0
 10
59.7096948543
 20
212.2965644141
 30
0.0
 10
58.0300100026
 20
212.7435361508
 30
0.0
 10
56.8739269955
 20
212.8285668642
 30
0.0
 10
55.7974683309
 20
212.6706996649
 30
0.0
 10
55.1452764751
 20
212.3997530918
 30
0.0
 10
54.8494493207
 20
212.2289189515
 30
0.0
  0
SPLINE
  5
3DD
100
AcDbEntity
  8
_1
100
AcDbSpline
 62
7
  6
CONTINUOUS
 70
0
 71
3
 72
13
 73
9
 74
0
 42
0.0000001
 43
0.0000001
 44
0.0000000001
 40
0.0
 40
0.0
 40
0.0
 40
0.0
 40
0.1082036745
 40
0.2184288338
 40
0.3325148276
 40
0.4519872664
 40
0.7108053135
 40
1.0
 40
1.0
 40
1.0
 40
1.0
 10
76.9044523124
 20
267.1088055496
 30
0.0
 10
77.6959454478
 20
267.5657227281
 30
0.0
 10
79.3757896214
 20
268.3533220349
 30
0.0
 10
82.093280041
 20
269.1080210452
 30
0.0
 10
84.9898282324
 20
269.43647746
 30
0.0
 10
89.1589486089
 20
269.300839792
 30
0.0
 10
94.6996330993
 20
267.9828930029
 30
0.0
 10
98.9103035868
 20
265.9932380674
 30
0.0
 10
101.0295126424
 20
264.7786379304
 30
0.0
  0
SPLINE
  5
3DE
100
AcDbEntity
  8
_1
100
AcDbSpline
 62
7
  6
CONTINUOUS
 70
0
 71
3
 72
9
 73
5
 74
0
 42
0.0000001
 43
0.0000001
 44
0.0000000001
 40
0.0
 40
0.0
 40
0.0
 40
0.0
 40
0.4491688219
 40
1.0
 40
1.0
 40
1.0
 40
1.0
 10
217.1675146207
 20
385.8575173377
 30
0.0
 10
217.3024086093
 20
385.9353897232
 30
0.0
 10
217.6714918779
 20
385.9914477459
 30
0.0
 10
218.0020340273
 20
385.8540674742
 30
0.0
 10
218.1674554845
 20
385.758563512
 30
0.0
  0
SPLINE
  5
3DF
100
AcDbEntity
  8
_1
100
AcDbSpline
 62
7
  6
CONTINUOUS
 70
0
 71
3
 72
9
 73
5
 74
0
 42
0.0000001
 43
0.0000001
 44
0.0000000001
 40
0.0
 40
0.0
 40
0.0
 40
0.0
 40
0.2589154379
 40
1.0
 40
1.0
 40
1.0
 40
1.0
 10
281.6748503246
 20
238.1463297976
 30
0.0
 10
281.6590858915
 20
238.1224605161
 30
0.0
 10
281.5935992513
 20
238.0334404093
 30
0.0
 10
281.5076118864
 20
237.959135707
 30
0.0
 10
281.4366990577
 20
237.9182087646
 30
0.0
  0
SPLINE
  5
3E0
100
AcDbEntity
  8
_1
100
AcDbSpline
 62
7
  6
CONTINUOUS
 70
0
 71
3
 72
9
 73
5
 74
0
 42
0.0000001
 43
0.0000001
 44
0.0000000001
 40
0.0
 40
0.0
 40
0.0
 40
0.0
 40
0.258600532
 40
1.0
 40
1.0
 40
1.0
 40
1.0
 10
298.6554714199
 20
264.3010437818
 30
0.0
 10
298.5809409521
 20
262.8096587436
 30
0.0
 10
298.1861600448
 20
257.0488533222
 30
0.0
 10
297.351686911
 20
251.3142142614
 30
0.0
 10
296.4438433519
 20
247.1304905784
 30
0.0
  0
SPLINE
  5
3E1
100
AcDbEntity
  8
_1
100
AcDbSpline
 62
7
  6
CONTINUOUS
 70
0
 71
3
 72
9
 73
5
 74
0
 42
0.0000001
 43
0.0000001
 44
0.0000000001
 40
0.0
 40
0.0
 40
0.0
 40
0.0
 40
0.2564416329
 40
1.0
 40
1.0
 40
1.0
 40
1.0
 10
296.4438433519
 20
319.6925555879
 30
0.0
 10
296.7340042019
 20
318.0203314474
 30
0.0
 10
297.7711322019
 20
311.4836979109
 30
0.0
 10
298.4232200214
 20
304.8839119257
 30
0.0
 10
298.6554714199
 20
299.9682920363
 30
0.0
  0
SPLINE
  5
3E2
100
AcDbEntity
  8
_1
100
AcDbSpline
 62
7
  6
CONTINUOUS
 70
0
 71
3
 72
9
 73
5
 74
0
 42
0.0000001
 43
0.0000001
 44
0.0000000001
 40
0.0
 40
0.0
 40
0.0
 40
0.0
 40
0.4876836404
 40
1.0
 40
1.0
 40
1.0
 40
1.0
 10
295.0634311715
 20
321.7675975854
 30
0.0
 10
295.4215646141
 20
321.5608338235
 30
0.0
 10
296.0240650883
 20
320.9195695836
 30
0.0
 10
296.3695731382
 20
320.1205817825
 30
0.0
 10
296.4438433519
 20
319.6925555879
 30
0.0
  0
SPLINE
  5
3E3
100
AcDbEntity
  8
_1
100
AcDbSpline
 62
7
  6
CONTINUOUS
 70
0
 71
3
 72
11
 73
7
 74
0
 42
0.0000001
 43
0.0000001
 44
0.0000000001
 40
0.0
 40
0.0
 40
0.0
 40
0.0
 40
0.2377670757
 40
0.5005497159
 40
0.7630334845
 40
1.0
 40
1.0
 40
1.0
 40
1.0
 10
281.8820810359
 20
340.7089619886
 30
0.0
 10
281.8942607065
 20
339.0903652676
 30
0.0
 10
282.517284054
 20
335.6848951029
 30
0.0
 10
284.6435917645
 20
330.9037954467
 30
0.0
 10
287.738462668
 20
326.6913607611
 30
0.0
 10
290.3841665816
 20
324.4691111396
 30
0.0
 10
291.7812402439
 20
323.6625285319
 30
0.0
  0
SPLINE
  5
3E4
100
AcDbEntity
  8
_1
100
AcDbSpline
 62
7
  6
CONTINUOUS
 70
0
 71
3
 72
11
 73
7
 74
0
 42
0.0000001
 43
0.0000001
 44
0.0000000001
 40
0.0
 40
0.0
 40
0.0
 40
0.0
 40
0.2369927091
 40
0.4994505644
 40
0.7622069344
 40
1.0
 40
1.0
 40
1.0
 40
1.0
 10
280.4176870074
 20
349.8191886424
 30
0.0
 10
280.6172902306
 20
349.7039502748
 30
0.0
 10
280.9952674572
 20
349.3864980455
 30
0.0
 10
281.4372586091
 20
348.7846676681
 30
0.0
 10
281.7411295539
 20
348.1017425662
 30
0.0
 10
281.8301124723
 20
347.6152363261
 30
0.0
 10
281.8318526085
 20
347.3839838629
 30
0.0
  0
SPLINE
  5
3E5
100
AcDbEntity
  8
_1
100
AcDbSpline
 62
7
  6
CONTINUOUS
 70
0
 71
3
 72
9
 73
5
 74
0
 42
0.0000001
 43
0.0000001
 44
0.0000000001
 40
0.0
 40
0.0
 40
0.0
 40
0.0
 40
0.2380419583
 40
1.0
 40
1.0
 40
1.0
 40
1.0
 10
162.0276861152
 20
248.7497262965
 30
0.0
 10
161.7777750991
 20
248.8940092248
 30
0.0
 10
160.7480374367
 20
249.534799008
 30
0.0
 10
159.7983883785
 20
250.3005047978
 30
0.0
 10
159.1226089463
 20
250.9302186782
 30
0.0
  0
SPLINE
  5
3E6
100
AcDbEntity
  8
_1
100
AcDbSpline
 62
7
  6
CONTINUOUS
 70
0
 71
3
 72
9
 73
5
 74
0
 42
0.0000001
 43
0.0000001
 44
0.0000000001
 40
0.0
 40
0.0
 40
0.0
 40
0.0
 40
0.2439810622
 40
1.0
 40
1.0
 40
1.0
 40
1.0
 10
159.1226089463
 20
250.9302186782
 30
0.0
 10
158.9147523366
 20
251.1239064201
 30
0.0
 10
158.0805419018
 20
251.9366764976
 30
0.0
 10
157.3164910949
 20
252.8207025556
 30
0.0
 10
156.7795377169
 20
253.5183647752
 30
0.0
  0
SPLINE
  5
3E7
100
AcDbEntity
  8
_1
100
AcDbSpline
 62
7
  6
CONTINUOUS
 70
0
 71
3
 72
9
 73
5
 74
0
 42
0.0000001
 43
0.0000001
 44
0.0000000001
 40
0.0
 40
0.0
 40
0.0
 40
0.0
 40
0.2554717505
 40
1.0
 40
1.0
 40
1.0
 40
1.0
 10
153.6799255937
 20
258.8559788822
 30
0.0
 10
153.5648274901
 20
259.1309337936
 30
0.0
 10
153.1350978198
 20
260.2157104132
 30
0.0
 10
152.7898159238
 20
261.33454104
 30
0.0
 10
152.5897273804
 20
262.1798667892
 30
0.0
  0
SPLINE
  5
3E8
100
AcDbEntity
  8
_1
100
AcDbSpline
 62
7
  6
CONTINUOUS
 70
0
 71
3
 72
9
 73
5
 74
0
 42
0.0000001
 43
0.0000001
 44
0.0000000001
 40
0.0
 40
0.0
 40
0.0
 40
0.0
 40
0.2614045708
 40
1.0
 40
1.0
 40
1.0
 40
1.0
 10
152.5897273804
 20
262.1798667892
 30
0.0
 10
152.516476354
 20
262.4893346763
 30
0.0
 10
152.2657318795
 20
263.6796904115
 30
0.0
 10
152.1352882211
 20
264.8976263753
 30
0.0
 10
152.1285269071
 20
265.7961597532
 30
0.0
  0
SPLINE
  5
3E9
100
AcDbEntity
  8
_1
100
AcDbSpline
 62
7
  6
CONTINUOUS
 70
0
 71
3
 72
9
 73
5
 74
0
 42
0.0000001
 43
0.0000001
 44
0.0000000001
 40
0.0
 40
0.0
 40
0.0
 40
0.0
 40
0.5123163596
 40
1.0
 40
1.0
 40
1.0
 40
1.0
 10
166.6902892232
 20
244.7797533525
 30
0.0
 10
166.6160190094
 20
245.2077795471
 30
0.0
 10
166.2705109596
 20
246.0067673482
 30
0.0
 10
165.6680104853
 20
246.6480315881
 30
0.0
 10
165.3098770427
 20
246.85479535
 30
0.0
  0
SPLINE
  5
3EA
100
AcDbEntity
  8
_1
100
AcDbSpline
 62
7
  6
CONTINUOUS
 70
0
 71
3
 72
9
 73
5
 74
0
 42
0.0000001
 43
0.0000001
 44
0.0000000001
 40
0.0
 40
0.0
 40
0.0
 40
0.0
 40
0.2434995701
 40
1.0
 40
1.0
 40
1.0
 40
1.0
 10
168.9019172912
 20
225.0554898009
 30
0.0
 10
168.8258589384
 20
226.6652710734
 30
0.0
 10
168.4019132747
 20
233.2707862334
 30
0.0
 10
167.5462717597
 20
239.8466458659
 30
0.0
 10
166.6902892232
 20
244.7797533525
 30
0.0
  0
SPLINE
  5
3EB
100
AcDbEntity
  8
_1
100
AcDbSpline
 62
7
  6
CONTINUOUS
 70
0
 71
3
 72
8
 73
4
 74
0
 42
0.0000001
 43
0.0000001
 44
0.0000000001
 40
0.0
 40
0.0
 40
0.0
 40
0.0
 40
1.0
 40
1.0
 40
1.0
 40
1.0
 10
87.5860673909
 20
311.0146696818
 30
0.0
 10
87.5260863825
 20
310.9992678969
 30
0.0
 10
87.4675922119
 20
310.9756759671
 30
0.0
 10
87.4139604946
 20
310.9447151007
 30
0.0
  0
SPLINE
  5
3EC
100
AcDbEntity
  8
_1
100
AcDbSpline
 62
7
  6
CONTINUOUS
 70
0
 71
3
 72
9
 73
5
 74
0
 42
0.0000001
 43
0.0000001
 44
0.0000000001
 40
0.0
 40
0.0
 40
0.0
 40
0.0
 40
0.2308360766
 40
1.0
 40
1.0
 40
1.0
 40
1.0
 10
152.0782984798
 20
272.4711816275
 30
0.0
 10
152.0776324948
 20
272.5596865738
 30
0.0
 10
152.0478806278
 20
272.9427843095
 30
0.0
 10
151.9279876981
 20
273.3156806828
 30
0.0
 10
151.8034627367
 20
273.5830150603
 30
0.0
  0
SPLINE
  5
3ED
100
AcDbEntity
  8
_1
100
AcDbSpline
 62
7
  6
CONTINUOUS
 70
0
 71
3
 72
9
 73
5
 74
0
 42
0.0000001
 43
0.0000001
 44
0.0000000001
 40
0.0
 40
0.0
 40
0.0
 40
0.0
 40
0.267187639
 40
1.0
 40
1.0
 40
1.0
 40
1.0
 10
151.4919585761
 20
274.1194277648
 30
0.0
 10
151.4329154465
 20
274.202763607
 30
0.0
 10
151.1981254677
 20
274.5039454367
 30
0.0
 10
150.9067221118
 20
274.7663306164
 30
0.0
 10
150.6641328786
 20
274.906386407
 30
0.0
  0
SPLINE
  5
3EE
100
AcDbEntity
  8
_1
100
AcDbSpline
 62
7
  6
CONTINUOUS
 70
0
 71
3
 72
9
 73
5
 74
0
 42
0.0000001
 43
0.0000001
 44
0.0000000001
 40
0.0
 40
0.0
 40
0.0
 40
0.0
 40
0.2416048332
 40
1.0
 40
1.0
 40
1.0
 40
1.0
 10
166.6902892232
 20
172.217688343
 30
0.0
 10
166.9861427243
 20
173.581105296
 30
0.0
 10
168.0826811137
 20
179.2517712653
 30
0.0
 10
168.6833363263
 20
185.014347353
 30
0.0
 10
168.9019172912
 20
189.3882415464
 30
0.0
  0
ELLIPSE
  5
3EF
100
AcDbEntity
  8
_1
100
AcDbEllipse
 62
7
  6
CONTINUOUS
 10
326.3008784632
 20
394.1183482664
 30
0.0
 11
2.3730687665
 21
4.4026444242
 31
0.0
 40
0.556862072
 41
-2.372483465
 42
-0.8016871382
  0
ELLIPSE
  5
3F0
100
AcDbEntity
  8
_1
100
AcDbEllipse
 62
7
  6
CONTINUOUS
 10
320.3566393644
 20
410.1015724182
 30
0.0
 11
-6.9732295899
 21
12.1706873307
 31
0.0
 40
0.5773483695
 41
4.2636328641
 42
6.2393851482
  0
ELLIPSE
  5
3F1
100
AcDbEntity
  8
_1
100
AcDbEllipse
 62
7
  6
CONTINUOUS
 10
192.4332507808
 20
349.1687875734
 30
0.0
 11
113.9080210456
 21
65.2639215266
 31
0.0
 40
0.0753349731
 41
-0.3837585309
 42
0.471358875
  0
ELLIPSE
  5
3F2
100
AcDbEntity
  8
_1
100
AcDbEllipse
 62
7
  6
CONTINUOUS
 10
588.2836190626
 20
537.7212140554
 30
0.0
 11
273.5438290272
 21
140.9202579684
 31
0.0
 40
0.0331551908
 41
2.7916930674
 42
3.1245139142
  0
ELLIPSE
  5
3F3
100
AcDbEntity
  8
_1
100
AcDbEllipse
 62
7
  6
CONTINUOUS
 10
276.0468966481
 20
396.1879520229
 30
0.0
 11
2.3730687665
 21
4.4026444242
 31
0.0
 40
0.556862072
 41
-2.372483465
 42
-0.8016871382
  0
ELLIPSE
  5
3F4
100
AcDbEntity
  8
_1
100
AcDbEllipse
 62
7
  6
CONTINUOUS
 10
270.1520431808
 20
411.9997946017
 30
0.0
 11
-6.9732295899
 21
12.1706873307
 31
0.0
 40
0.5773483695
 41
4.2785797136
 42
6.2393851432
  0
ELLIPSE
  5
3F5
100
AcDbEntity
  8
_1
100
AcDbEllipse
 62
7
  6
CONTINUOUS
 10
140.8144469227
 20
350.3933908596
 30
0.0
 11
113.9080210456
 21
65.2639215266
 31
0.0
 40
0.0753349731
 41
5.8994267763
 42
6.7545441822
  0
ELLIPSE
  5
3F6
100
AcDbEntity
  8
_1
100
AcDbEllipse
 62
7
  6
CONTINUOUS
 10
536.6648152045
 20
538.9458173417
 30
0.0
 11
273.5438290272
 21
140.9202579684
 31
0.0
 40
0.0331551908
 41
2.7767462179
 42
3.1245139142
  0
ENDSEC
  0
SECTION
  2
OBJECTS
  0
DICTIONARY
  5
C
100
AcDbDictionary
280
0
281
1
  3
ACAD_GROUP
350
D
  3
ACAD_MLINESTYLE
350
17
  3
ACAD_LAYOUT
350
1A
  3
ACAD_PLOTSETTINGS
350
19
  3
ACAD_PLOTSTYLENAME
350
E
  0
DICTIONARY
  5
D
102
{ACAD_REACTORS
330
C
102
}
100
AcDbDictionary
280
0
281
1
  0
ACDBDICTIONARYWDFLT
  5
E
102
{ACAD_REACTORS
330
C
102
}
100
AcDbDictionary
281
1
  3
Normal
350
F
100
AcDbDictionaryWithDefault
340
F
  0
DICTIONARY
  5
17
102
{ACAD_REACTORS
330
C
102
}
100
AcDbDictionary
280
0
281
1
  3
Standard
350
18
  0
DICTIONARY
  5
19
102
{ACAD_REACTORS
330
C
102
}
100
AcDbDictionary
281
1
  0
DICTIONARY
  5
1A
102
{ACAD_REACTORS
330
C
102
}
100
AcDbDictionary
281
1
  3
Model
350
3F7
  3
Layout1
350
3F8
  0
ACDBPLACEHOLDER
  5
F
102
{ACAD_REACTORS
330
E
102
}
  0
MLINESTYLE
  5
18
102
{ACAD_REACTORS
330
17
102
}
100
AcDbMlineStyle
  2
STANDARD
 70
0
  3

 62
256
 51
90.0
 52
90.0
 71
2
 49
0.5
 62
256
  6
BYLAYER
 49
-0.5
 62
256
  6
BYLAYER
  0
LAYOUT
  5
3F7
102
{ACAD_REACTORS
330
1A
102
}
100
AcDbPlotSettings
  1

  2
none_device
  4

  6

 40
0.0
 41
0.0
 42
0.0
 43
0.0
 44
210.0
 45
297.0
 46
0.0
 47
0.0
 48
0.0
 49
0.0
140
0.0
141
0.0
142
1.0
143
1.0
 70
1024
 72
1
 73
0
 74
0
  7

 75
0
147
1.0
148
0.0
149
0.0
100
AcDbLayout
  1
Model
 70
0
 71
0
 10
0.0
 20
0.0
 11
210.0
 21
297.0
 12
0.0
 22
0.0
 32
0.0
 14
0.0
 24
0.0
 34
0.0
 15
0.0
 25
0.0
 35
0.0
146
0.0
 13
0.0
 23
0.0
 33
0.0
 16
1.0
 26
0.0
 36
0.0
 17
0.0
 27
1.0
 37
0.0
 76
0
330
211
345
0
346
0
  0
LAYOUT
  5
3F8
102
{ACAD_REACTORS
330
1A
102
}
100
AcDbPlotSettings
  1

  2
none_device
  4

  6

 40
0.0
 41
0.0
 42
0.0
 43
0.0
 44
210.0
 45
297.0
 46
0.0
 47
0.0
 48
0.0
 49
0.0
140
0.0
141
0.0
142
1.0
143
1.0
 70
0
 72
1
 73
0
 74
0
  7

 75
0
147
1.0
148
0.0
149
0.0
100
AcDbLayout
  1
Layout1
 70
0
 71
1
 10
0.0
 20
0.0
 11
210.0
 21
297.0
 12
0.0
 22
0.0
 32
0.0
 14
0.0
 24
0.0
 34
0.0
 15
0.0
 25
0.0
 35
0.0
146
0.0
 13
0.0
 23
0.0
 33
0.0
 16
1.0
 26
0.0
 36
0.0
 17
0.0
 27
1.0
 37
0.0
 76
0
330
212
345
0
346
0
  0
ENDSEC
  0
EOF
