999
DXF file: C:\Users\sesa63760\Dev\_Creo\CAD\MCADID0005712_3D-CAD\mcadid0005712_3d-simplified-ec_1.dxf
999
Pro/ENGINEER 2019471 by Parametric Technology Corporation
  0
SECTION
  2
HEADER
  9
$ACADVER
  1
AC1024
  9
$DWGCODEPAGE
  3
ANSI_1252
  9
$EXTMAX
 10
216.9054519979
 20
306.7662821112
 30
0.0
  9
$EXTMIN
 10
0.0
 20
0.0
 30
0.0
  9
$LIMMIN
 10
0.0
 20
0.0
  9
$LIMMAX
 10
216.9054519979
 20
306.7662821112
  9
$VIEWCTR
 10
108.4527259989
 20
153.3831410556
  9
$VIEWSIZE
 40
306.7662821112
  9
$CLAYER
  8
0
  9
$LTSCALE
 40
19.996616908
  9
$CELTYPE
  6
BYLAYER
  9
$DIMSCALE
 40
1.0
  9
$DIMASZ
 40
2.5822077619
  9
$DIMEXO
 40
1.0
  9
$DIMDLI
 40
13.8158444092
  9
$DIMEXE
 40
1.0
  9
$DIMCEN
 40
3.2721736759
  9
$DIMLFAC
 40
1.0
  9
$DIMBLK
  1
_FILLED
  9
$DIMALT
 70
0
  9
$DIMALTF
 40
0.0393700787
  9
$DIMTXT
 40
3.6150908666
  9
$DIMTOL
 70
1
  9
$DIMLIM
 70
0
  9
$DIMTFAC
 40
1.0
  9
$DIMTP
 40
0.01
  9
$DIMTM
 40
0.01
  9
$DIMGAP
 40
0.625
  9
$DIMDSEP
 70
46
  9
$AUNITS
 70
0
  9
$PDMODE
 70
3
  9
$PDSIZE
 40
0.3125
  9
$HANDSEED
  5
48E
  9
$TILEMODE
 70
1
  9
$MEASUREMENT
 70
1
  9
$INSUNITS
 70
4
  0
ENDSEC
  0
SECTION
  2
CLASSES
  0
CLASS
  1
ACDBDICTIONARYWDFLT
  2
AcDbDictionaryWithDefault
  3
AutoCAD 2000
 90
0
 91
1
280
0
281
0
  0
CLASS
  1
ACDBPLACEHOLDER
  2
AcDbPlaceHolder
  3
AutoCAD 2000
 90
0
 91
1
280
0
281
0
  0
CLASS
  1
LAYOUT
  2
AcDbLayout
  3
AutoCAD 2000
 90
0
 91
0
280
0
281
0
  0
ENDSEC
  0
SECTION
  2
TABLES
  0
TABLE
  2
VPORT
  5
8
100
AcDbSymbolTable
 70
2
  0
VPORT
  5
1F4
100
AcDbSymbolTableRecord
100
AcDbViewportTableRecord
  2
*ACTIVE
 70
0
 10
0.0
 20
0.0
 11
1.0
 21
1.0
 12
108.4527259989
 22
153.3831410556
 13
0.0
 23
0.0
 14
1.0
 24
1.0
 15
0.0
 25
0.0
 16
0.0
 26
0.0
 36
1.0
 17
0.0
 27
0.0
 37
0.0
 40
306.7662821112
 41
0.7070707071
 42
50.0
 43
0.0
 44
0.0
 50
0.0
 51
0.0
 71
0
 72
100
 73
1
 74
1
 75
0
 76
0
 77
0
 78
0
  0
ENDTAB
  0
TABLE
  2
LTYPE
  5
5
100
AcDbSymbolTable
 70
6
  0
LTYPE
  5
14
100
AcDbSymbolTableRecord
100
AcDbLinetypeTableRecord
  2
BYBLOCK
 70
0
  3

 72
65
 73
0
 40
0.0
  0
LTYPE
  5
15
100
AcDbSymbolTableRecord
100
AcDbLinetypeTableRecord
  2
BYLAYER
 70
0
  3

 72
65
 73
0
 40
0.0
  0
LTYPE
  5
16
100
AcDbSymbolTableRecord
100
AcDbLinetypeTableRecord
  2
CONTINUOUS
 70
64
  3
Solid line
 72
65
 73
0
 40
0.0
  0
LTYPE
  5
1F5
100
AcDbSymbolTableRecord
100
AcDbLinetypeTableRecord
  2
CENTER
 70
64
  3
____ _ ____ _ ____ _ ____ _ ____ _ ____ _ ____
 72
65
 73
4
 40
0.6
 49
0.375
 74
0
 49
-0.075
 74
0
 49
0.075
 74
0
 49
-0.075
 74
0
  0
LTYPE
  5
1F6
100
AcDbSymbolTableRecord
100
AcDbLinetypeTableRecord
  2
HIDDEN
 70
64
  3
- - - - - - - - - - - - - - - - - - - -
 72
65
 73
2
 40
0.2
 49
0.1
 74
0
 49
-0.1
 74
0
  0
LTYPE
  5
1F7
100
AcDbSymbolTableRecord
100
AcDbLinetypeTableRecord
  2
PHANTOM
 70
64
  3
_____ _ _ _____ _ _ _____ _ _ _____
 72
65
 73
6
 40
0.8
 49
0.45
 74
0
 49
-0.05
 74
0
 49
0.1
 74
0
 49
-0.05
 74
0
 49
0.1
 74
0
 49
-0.05
 74
0
  0
LTYPE
  5
1F8
100
AcDbSymbolTableRecord
100
AcDbLinetypeTableRecord
  2
DOT
 70
64
  3
. . . . . . . . . . . . . . . . . . . .
 72
65
 73
2
 40
0.2
 49
0.1
 74
0
 49
-0.1
 74
0
  0
LTYPE
  5
1F9
100
AcDbSymbolTableRecord
100
AcDbLinetypeTableRecord
  2
DASHED
 70
64
  3
- - - - - - - - - - - - - - - - - - - -
 72
65
 73
2
 40
0.2
 49
0.1
 74
0
 49
-0.1
 74
0
  0
ENDTAB
  0
TABLE
  2
LAYER
  5
2
100
AcDbSymbolTable
 70
36
  0
LAYER
  5
10
100
AcDbSymbolTableRecord
100
AcDbLayerTableRecord
  2
0
 70
0
 62
7
  6
CONTINUOUS
370
-3
390
F
  0
LAYER
  5
1FA
100
AcDbSymbolTableRecord
100
AcDbLayerTableRecord
  2
DEFAULT_1
 70
0
 62
7
  6
CENTER
370
-3
390
F
  0
LAYER
  5
1FB
100
AcDbSymbolTableRecord
100
AcDbLayerTableRecord
  2
DEFAULT_2
 70
0
 62
7
  6
HIDDEN
370
-3
390
F
  0
LAYER
  5
1FC
100
AcDbSymbolTableRecord
100
AcDbLayerTableRecord
  2
DEFAULT_3
 70
0
 62
7
  6
PHANTOM
370
-3
390
F
  0
LAYER
  5
1FD
100
AcDbSymbolTableRecord
100
AcDbLayerTableRecord
  2
00_COMPONENTS
 70
0
 62
7
  6
CONTINUOUS
370
-3
390
F
  0
LAYER
  5
1FE
100
AcDbSymbolTableRecord
100
AcDbLayerTableRecord
  2
01_1_DEFAULT_DATUMS
 70
0
 62
7
  6
CONTINUOUS
370
-3
390
F
  0
LAYER
  5
1FF
100
AcDbSymbolTableRecord
100
AcDbLayerTableRecord
  2
01_PLANES
 70
0
 62
7
  6
CONTINUOUS
370
-3
390
F
  0
LAYER
  5
200
100
AcDbSymbolTableRecord
100
AcDbLayerTableRecord
  2
02_COORD_SYS
 70
0
 62
7
  6
CONTINUOUS
370
-3
390
F
  0
LAYER
  5
201
100
AcDbSymbolTableRecord
100
AcDbLayerTableRecord
  2
03_AXES
 70
0
 62
7
  6
CONTINUOUS
370
-3
390
F
  0
LAYER
  5
202
100
AcDbSymbolTableRecord
100
AcDbLayerTableRecord
  2
04_POINTS
 70
0
 62
7
  6
CONTINUOUS
370
-3
390
F
  0
LAYER
  5
203
100
AcDbSymbolTableRecord
100
AcDbLayerTableRecord
  2
05_CURVES
 70
0
 62
7
  6
CONTINUOUS
370
-3
390
F
  0
LAYER
  5
204
100
AcDbSymbolTableRecord
100
AcDbLayerTableRecord
  2
06_SURFS
 70
0
 62
7
  6
CONTINUOUS
370
-3
390
F
  0
LAYER
  5
205
100
AcDbSymbolTableRecord
100
AcDbLayerTableRecord
  2
07_COSMETICS
 70
0
 62
7
  6
CONTINUOUS
370
-3
390
F
  0
LAYER
  5
206
100
AcDbSymbolTableRecord
100
AcDbLayerTableRecord
  2
10_NOTES
 70
0
 62
7
  6
CONTINUOUS
370
-3
390
F
  0
LAYER
  5
207
100
AcDbSymbolTableRecord
100
AcDbLayerTableRecord
  2
11_NOTES_PUB
 70
0
 62
7
  6
CONTINUOUS
370
-3
390
F
  0
LAYER
  5
208
100
AcDbSymbolTableRecord
100
AcDbLayerTableRecord
  2
13_REF_GTOL
 70
0
 62
7
  6
CONTINUOUS
370
-3
390
F
  0
LAYER
  5
209
100
AcDbSymbolTableRecord
100
AcDbLayerTableRecord
  2
16_MISC
 70
0
 62
7
  6
CONTINUOUS
370
-3
390
F
  0
LAYER
  5
20A
100
AcDbSymbolTableRecord
100
AcDbLayerTableRecord
  2
17_NO_PRINT
 70
0
 62
7
  6
CONTINUOUS
370
-3
390
F
  0
LAYER
  5
20B
100
AcDbSymbolTableRecord
100
AcDbLayerTableRecord
  2
18_DATUM_CAMS_JOINTS
 70
0
 62
7
  6
CONTINUOUS
370
-3
390
F
  0
LAYER
  5
20C
100
AcDbSymbolTableRecord
100
AcDbLayerTableRecord
  2
19_DATUM_FUNCTIONAL
 70
0
 62
7
  6
CONTINUOUS
370
-3
390
F
  0
LAYER
  5
20D
100
AcDbSymbolTableRecord
100
AcDbLayerTableRecord
  2
20_DATUM_KINEMATIC_SCHEME
 70
0
 62
7
  6
CONTINUOUS
370
-3
390
F
  0
ENDTAB
  0
TABLE
  2
STYLE
  5
3
100
AcDbSymbolTable
 70
1
  0
STYLE
  5
11
100
AcDbSymbolTableRecord
100
AcDbTextStyleTableRecord
  2
STANDARD
 70
0
 40
0.0
 41
1.0
 50
0.0
 71
0
 42
0.2
  3
ARIAL.TTF
  4

  0
STYLE
  5
20E
100
AcDbSymbolTableRecord
100
AcDbTextStyleTableRecord
  2
TEXTSTYLE_1
 70
0
 40
0.0
 41
0.8
 50
0.0
 71
0
 42
0.2
  3
gdt
  4

  0
ENDTAB
  0
TABLE
  2
VIEW
  5
6
100
AcDbSymbolTable
 70
0
  0
ENDTAB
  0
TABLE
  2
UCS
  5
7
100
AcDbSymbolTable
 70
0
  0
ENDTAB
  0
TABLE
  2
APPID
  5
9
100
AcDbSymbolTable
 70
1
  0
APPID
  5
20F
100
AcDbSymbolTableRecord
100
AcDbRegAppTableRecord
  2
ACAD
 70
0
  0
ENDTAB
  0
TABLE
  2
BLOCK_RECORD
  5
1
100
AcDbSymbolTable
 70
0
  0
BLOCK_RECORD
  5
210
100
AcDbSymbolTableRecord
100
AcDbBlockTableRecord
  2
*Model_Space
  0
BLOCK_RECORD
  5
211
100
AcDbSymbolTableRecord
100
AcDbBlockTableRecord
  2
*Paper_Space
  0
BLOCK_RECORD
  5
212
100
AcDbSymbolTableRecord
100
AcDbBlockTableRecord
  2
_FILLED
  0
ENDTAB
  0
TABLE
  2
DIMSTYLE
  5
A
100
AcDbSymbolTable
 70
1
100
AcDbDimStyleTable
 71
0
  0
DIMSTYLE
105
213
100
AcDbSymbolTableRecord
100
AcDbDimStyleTableRecord
  2
STANDARD
 70
0
  3

  4

 40
1.0
 41
2.5822077619
 42
1.0
 43
0.38
 44
1.0
 45
0.0
 46
0.0
 47
0.01
 48
0.01
140
3.6150908666
141
0.09
142
0.0
143
25.4
144
1.0
145
0.0
146
1.0
147
0.625
 71
1
 72
0
 73
0
 74
0
 75
0
 76
0
 77
1
 78
8
 79
2
170
0
171
1
172
0
173
0
174
0
175
0
176
0
177
0
178
0
270
2
179
2
271
2
272
2
273
2
274
2
275
0
280
0
281
0
282
0
283
1
284
8
285
0
286
0
287
3
288
0
340
11
278
46
341
212
342
212
343
212
344
212
  0
ENDTAB
  0
ENDSEC
  0
SECTION
  2
BLOCKS
  0
BLOCK
  5
20
100
AcDbEntity
  8
0
100
AcDbBlockBegin
  2
*Model_Space
 70
0
 10
0.0
 20
0.0
 30
0.0
  3
*Model_Space
  1

  0
ENDBLK
  5
21
100
AcDbEntity
  8
0
100
AcDbBlockEnd
  0
BLOCK
  5
1C
100
AcDbEntity
  8
0
100
AcDbBlockBegin
  2
*Paper_Space
 70
0
 10
0.0
 20
0.0
 30
0.0
  3
*Paper_Space
  1

  0
ENDBLK
  5
1D
100
AcDbEntity
  8
0
100
AcDbBlockEnd
  0
BLOCK
  5
214
100
AcDbEntity
  8
0
100
AcDbBlockBegin
  2
_FILLED
 70
64
 10
0.0
 20
0.0
  3
_FILLED
  1

  0
SOLID
  5
215
100
AcDbEntity
  8
0
  6
BYBLOCK
 62
0
100
AcDbTrace
 10
0.0
 20
0.0
 11
-1.0
 21
0.25
 12
-1.0
 22
-0.25
 13
-1.0
 23
-0.25
  0
ENDBLK
  5
216
100
AcDbEntity
  8
0
  6
BYBLOCK
 62
0
100
AcDbBlockEnd
  0
ENDSEC
  0
SECTION
  2
ENTITIES
  0
LINE
  5
217
100
AcDbEntity
  8
0
100
AcDbLine
 62
7
  6
BYLAYER
 10
25.1636090522
 20
191.9208515105
 11
26.0306306861
 21
103.3184282578
  0
LINE
  5
218
100
AcDbEntity
  8
0
100
AcDbLine
 62
7
  6
BYLAYER
 10
27.5184569649
 20
101.261144965
 11
26.651435331
 21
189.8635682176
  0
LINE
  5
219
100
AcDbEntity
  8
0
100
AcDbLine
 62
7
  6
BYLAYER
 10
52.5188268996
 20
82.0330273353
 11
63.0547618043
 21
75.9502400907
  0
LINE
  5
21A
100
AcDbEntity
  8
0
100
AcDbLine
 62
7
  6
BYLAYER
 10
52.5188268998
 20
83.6660321772
 11
63.0547618045
 21
77.5832449325
  0
LINE
  5
21B
100
AcDbEntity
  8
0
100
AcDbLine
 62
7
  6
BYLAYER
 10
57.4685743681
 20
83.6660440743
 11
63.0547411968
 21
80.4409421124
  0
LINE
  5
21C
100
AcDbEntity
  8
0
100
AcDbLine
 62
7
  6
BYLAYER
 10
96.359522769
 20
61.5166362326
 11
67.2423128055
 21
78.32708494
  0
LINE
  5
21D
100
AcDbEntity
  8
0
100
AcDbLine
 62
7
  6
BYLAYER
 10
55.256778516
 20
85.246779844
 11
27.5184569649
 21
101.261144965
  0
LINE
  5
21E
100
AcDbEntity
  8
0
100
AcDbLine
 62
7
  6
BYLAYER
 10
64.4689126504
 20
81.2574095082
 11
60.2969897167
 21
83.666015848
  0
LINE
  5
21F
100
AcDbEntity
  8
0
100
AcDbLine
 62
7
  6
BYLAYER
 10
67.2346407928
 20
79.955660366
 11
56.6279949152
 21
86.079271684
  0
LINE
  5
220
100
AcDbEntity
  8
0
100
AcDbLine
 62
7
  6
BYLAYER
 10
55.5632063975
 20
88.8285517688
 11
56.7136856964
 21
88.1643372621
  0
LINE
  5
221
100
AcDbEntity
  8
0
100
AcDbLine
 62
7
  6
BYLAYER
 10
62.1909340752
 20
85.002117974
 11
63.3414133741
 21
84.3379034673
  0
LINE
  5
222
100
AcDbEntity
  8
0
100
AcDbLine
 62
7
  6
BYLAYER
 10
26.6513962445
 20
194.0112456452
 11
116.6961552714
 21
245.9983011876
  0
LINE
  5
223
100
AcDbEntity
  8
0
100
AcDbLine
 62
7
  6
BYLAYER
 10
55.5632063979
 20
91.6293392434
 11
56.7136856968
 21
90.9651247368
  0
LINE
  5
224
100
AcDbEntity
  8
0
100
AcDbLine
 62
7
  6
BYLAYER
 10
62.1909340757
 20
87.8029054486
 11
63.3414133746
 21
87.138690942
  0
LINE
  5
225
100
AcDbEntity
  8
0
100
AcDbLine
 62
7
  6
BYLAYER
 10
67.1980060018
 20
87.7323058267
 11
56.5913601245
 21
93.8559171468
  0
LINE
  5
226
100
AcDbEntity
  8
0
100
AcDbLine
 62
7
  6
BYLAYER
 10
40.2092155933
 20
188.5523187642
 11
40.2092155938
 21
191.1747583267
  0
LINE
  5
227
100
AcDbEntity
  8
0
100
AcDbLine
 62
7
  6
BYLAYER
 10
42.3491608562
 20
190.432706209
 11
42.3491608563
 21
191.1693036941
  0
LINE
  5
228
100
AcDbEntity
  8
0
100
AcDbLine
 62
7
  6
BYLAYER
 10
42.5648382291
 20
190.5469817647
 11
42.5648382293
 21
192.0263179434
  0
LINE
  5
229
100
AcDbEntity
  8
0
100
AcDbLine
 62
7
  6
BYLAYER
 10
43.1997128277
 20
190.6758934211
 11
43.1997128278
 21
191.6580234011
  0
LINE
  5
22A
100
AcDbEntity
  8
0
100
AcDbLine
 62
7
  6
BYLAYER
 10
43.8376268063
 20
190.5452270027
 11
43.8376268065
 21
192.0245631814
  0
LINE
  5
22B
100
AcDbEntity
  8
0
100
AcDbLine
 62
7
  6
BYLAYER
 10
41.7142862578
 20
191.5375982363
 11
42.5648382293
 21
192.0263179433
  0
LINE
  5
22C
100
AcDbEntity
  8
0
100
AcDbLine
 62
7
  6
BYLAYER
 10
41.7112468777
 20
190.8027639138
 11
42.3491608563
 21
191.1693036941
  0
LINE
  5
22D
100
AcDbEntity
  8
0
100
AcDbLine
 62
7
  6
BYLAYER
 10
43.1997128278
 20
191.6580234011
 11
43.8376268065
 21
192.0245631814
  0
LINE
  5
22E
100
AcDbEntity
  8
0
100
AcDbLine
 62
7
  6
BYLAYER
 10
137.6988820879
 20
237.0786095961
 11
134.6659955639
 21
235.9450996168
  0
LINE
  5
22F
100
AcDbEntity
  8
0
100
AcDbLine
 62
7
  6
BYLAYER
 10
44.0462122924
 20
190.43387609
 11
44.0462122925
 21
191.1669640114
  0
LINE
  5
230
100
AcDbEntity
  8
0
100
AcDbLine
 62
7
  6
BYLAYER
 10
46.2092155933
 20
188.5523187632
 11
46.2092155938
 21
191.1747583257
  0
LINE
  5
231
100
AcDbEntity
  8
0
100
AcDbLine
 62
7
  6
BYLAYER
 10
125.4741577469
 20
233.2870664812
 11
128.1611523284
 21
234.838394266
  0
LINE
  5
232
100
AcDbEntity
  8
0
100
AcDbLine
 62
7
  6
BYLAYER
 10
127.7616685713
 20
232.2562983011
 11
134.4084446411
 21
236.0937933475
  0
LINE
  5
233
100
AcDbEntity
  8
0
100
AcDbLine
 62
7
  6
BYLAYER
 10
134.7372544905
 20
235.373246206
 11
130.6006970428
 21
232.9850179059
  0
LINE
  5
234
100
AcDbEntity
  8
0
100
AcDbLine
 62
7
  6
BYLAYER
 10
42.3575186942
 20
190.4278577773
 11
42.5648382291
 21
190.5469817647
  0
LINE
  5
235
100
AcDbEntity
  8
0
100
AcDbLine
 62
7
  6
BYLAYER
 10
44.6841262712
 20
191.5335037917
 11
44.0462122925
 21
191.1669640114
  0
LINE
  5
236
100
AcDbEntity
  8
0
100
AcDbLine
 62
7
  6
BYLAYER
 10
43.195660321
 20
190.6782443044
 11
42.5577463423
 21
190.3117045241
  0
LINE
  5
237
100
AcDbEntity
  8
0
100
AcDbLine
 62
7
  6
BYLAYER
 10
43.6303072714
 20
190.4261030153
 11
43.8376268063
 21
190.5452270027
  0
LINE
  5
238
100
AcDbEntity
  8
0
100
AcDbLine
 62
7
  6
BYLAYER
 10
44.681086891
 20
190.7986694691
 11
43.8305349195
 21
190.3099497621
  0
LINE
  5
239
100
AcDbEntity
  8
0
100
AcDbLine
 62
7
  6
BYLAYER
 10
138.3682261294
 20
237.7163517748
 11
137.8378982515
 21
237.4369056085
  0
LINE
  5
23A
100
AcDbEntity
  8
0
100
AcDbLine
 62
7
  6
BYLAYER
 10
56.6279949152
 20
86.079271684
 11
56.6281867121
 21
86.0385580089
  0
LINE
  5
23B
100
AcDbEntity
  8
0
100
AcDbLine
 62
7
  6
BYLAYER
 10
52.5188268996
 20
82.0330273353
 11
52.5188268998
 21
83.6660321772
  0
LINE
  5
23C
100
AcDbEntity
  8
0
100
AcDbLine
 62
7
  6
BYLAYER
 10
54.9774011165
 20
92.4458456096
 11
54.9774011161
 21
89.6450581349
  0
LINE
  5
23D
100
AcDbEntity
  8
0
100
AcDbLine
 62
7
  6
BYLAYER
 10
55.5632063979
 20
91.6293392434
 11
55.5632063975
 21
88.8285517688
  0
LINE
  5
23E
100
AcDbEntity
  8
0
100
AcDbLine
 62
7
  6
BYLAYER
 10
56.7136856964
 20
88.1643372621
 11
56.7136856968
 21
90.9651247368
  0
LINE
  5
23F
100
AcDbEntity
  8
0
100
AcDbLine
 62
7
  6
BYLAYER
 10
57.9964514708
 20
90.5198833712
 11
57.9964514703
 21
87.7190958966
  0
LINE
  5
240
100
AcDbEntity
  8
0
100
AcDbLine
 62
7
  6
BYLAYER
 10
58.0412389935
 20
181.5604131286
 11
58.0412389937
 21
182.662663166
  0
LINE
  5
241
100
AcDbEntity
  8
0
100
AcDbLine
 62
7
  6
BYLAYER
 10
58.2180243733
 20
179.1722001252
 11
58.2180243737
 21
181.4583483508
  0
LINE
  5
242
100
AcDbEntity
  8
0
100
AcDbLine
 62
7
  6
BYLAYER
 10
60.2969897167
 20
83.9610244688
 11
60.2969897167
 21
83.666015848
  0
LINE
  5
243
100
AcDbEntity
  8
0
100
AcDbLine
 62
7
  6
BYLAYER
 10
60.586808685
 20
177.8046128036
 11
60.5868086861
 21
184.7038815559
  0
LINE
  5
244
100
AcDbEntity
  8
0
100
AcDbLine
 62
7
  6
BYLAYER
 10
132.0432258088
 20
232.1521923752
 11
132.8634293216
 21
232.6257342675
  0
LINE
  5
245
100
AcDbEntity
  8
0
100
AcDbLine
 62
7
  6
BYLAYER
 10
132.6159597594
 20
231.8215317551
 11
136.7525172071
 21
234.2097600552
  0
LINE
  5
246
100
AcDbEntity
  8
0
100
AcDbLine
 62
7
  6
BYLAYER
 10
138.3293718942
 20
233.2993831723
 11
134.1928144465
 21
230.9111548721
  0
LINE
  5
247
100
AcDbEntity
  8
0
100
AcDbLine
 62
7
  6
BYLAYER
 10
135.6353432125
 20
230.0783293415
 11
136.4555467253
 21
230.5518712337
  0
LINE
  5
248
100
AcDbEntity
  8
0
100
AcDbLine
 62
7
  6
BYLAYER
 10
127.238806151
 20
224.7651174043
 11
127.7616685701
 21
225.0669903518
  0
LINE
  5
249
100
AcDbEntity
  8
0
100
AcDbLine
 62
7
  6
BYLAYER
 10
136.2080771632
 20
229.7476687213
 11
140.3446346109
 21
232.1358970215
  0
LINE
  5
24A
100
AcDbEntity
  8
0
100
AcDbLine
 62
7
  6
BYLAYER
 10
52.4625792247
 20
181.0135936618
 11
94.6795067217
 21
205.3874026245
  0
LINE
  5
24B
100
AcDbEntity
  8
0
100
AcDbLine
 62
7
  6
BYLAYER
 10
128.3768646615
 20
224.5281058812
 11
128.3591713124
 21
224.5178906823
  0
LINE
  5
24C
100
AcDbEntity
  8
0
100
AcDbLine
 62
7
  6
BYLAYER
 10
128.0555276504
 20
224.2935936803
 11
128.419291245
 21
224.5036114359
  0
LINE
  5
24D
100
AcDbEntity
  8
0
100
AcDbLine
 62
7
  6
BYLAYER
 10
53.1520215964
 20
180.6155529278
 11
94.5843597074
 21
204.5363817012
  0
LINE
  5
24E
100
AcDbEntity
  8
0
100
AcDbLine
 62
7
  6
BYLAYER
 10
57.5462621861
 20
182.9484316943
 11
60.5868086861
 21
184.7038815559
  0
LINE
  5
24F
100
AcDbEntity
  8
0
100
AcDbLine
 62
7
  6
BYLAYER
 10
87.0890605049
 20
200.004872443
 11
90.1296070049
 21
201.7603223047
  0
LINE
  5
250
100
AcDbEntity
  8
0
100
AcDbLine
 62
7
  6
BYLAYER
 10
67.491678628
 20
188.5556657085
 11
70.532225128
 21
190.3111155702
  0
LINE
  5
251
100
AcDbEntity
  8
0
100
AcDbLine
 62
7
  6
BYLAYER
 10
77.3769902723
 20
194.2629189797
 11
80.4175367723
 21
196.0183688413
  0
LINE
  5
252
100
AcDbEntity
  8
0
100
AcDbLine
 62
7
  6
BYLAYER
 10
141.921489298
 20
231.2255201386
 11
137.7849318503
 21
228.8372918384
  0
LINE
  5
253
100
AcDbEntity
  8
0
100
AcDbLine
 62
7
  6
BYLAYER
 10
57.0866488135
 20
182.1115335583
 11
58.0412389937
 21
182.662663166
  0
LINE
  5
254
100
AcDbEntity
  8
0
100
AcDbLine
 62
7
  6
BYLAYER
 10
61.0817854937
 20
184.4181130276
 11
62.036375674
 21
184.9692426354
  0
LINE
  5
255
100
AcDbEntity
  8
0
100
AcDbLine
 62
7
  6
BYLAYER
 10
86.6294471323
 20
199.167974307
 11
87.5840373125
 21
199.7191039147
  0
LINE
  5
256
100
AcDbEntity
  8
0
100
AcDbLine
 62
7
  6
BYLAYER
 10
90.6245838125
 20
201.4745537764
 11
91.5791739928
 21
202.0256833841
  0
LINE
  5
257
100
AcDbEntity
  8
0
100
AcDbLine
 62
7
  6
BYLAYER
 10
67.0320652554
 20
187.7187675726
 11
67.9866554356
 21
188.2698971803
  0
LINE
  5
258
100
AcDbEntity
  8
0
100
AcDbLine
 62
7
  6
BYLAYER
 10
71.0272019356
 20
190.0253470419
 11
71.9817921159
 21
190.5764766497
  0
LINE
  5
259
100
AcDbEntity
  8
0
100
AcDbLine
 62
7
  6
BYLAYER
 10
76.9173768996
 20
193.4260208437
 11
77.8719670799
 21
193.9771504514
  0
LINE
  5
25A
100
AcDbEntity
  8
0
100
AcDbLine
 62
7
  6
BYLAYER
 10
80.9125135799
 20
195.7326003131
 11
81.8671037601
 21
196.2837299208
  0
LINE
  5
25B
100
AcDbEntity
  8
0
100
AcDbLine
 62
7
  6
BYLAYER
 10
123.2766560942
 20
219.62641619
 11
130.3476944664
 21
223.7088577287
  0
LINE
  5
25C
100
AcDbEntity
  8
0
100
AcDbLine
 62
7
  6
BYLAYER
 10
56.2381336295
 20
180.3152647199
 11
58.2180243737
 21
181.4583483508
  0
LINE
  5
25D
100
AcDbEntity
  8
0
100
AcDbLine
 62
7
  6
BYLAYER
 10
63.1677512342
 20
184.3160574279
 11
65.1476419784
 21
185.4591410587
  0
LINE
  5
25E
100
AcDbEntity
  8
0
100
AcDbLine
 62
7
  6
BYLAYER
 10
85.7809319483
 20
197.3717054687
 11
87.7608226925
 21
198.5147890995
  0
LINE
  5
25F
100
AcDbEntity
  8
0
100
AcDbLine
 62
7
  6
BYLAYER
 10
92.710549553
 20
201.3724981766
 11
94.6904402972
 21
202.5155818075
  0
LINE
  5
260
100
AcDbEntity
  8
0
100
AcDbLine
 62
7
  6
BYLAYER
 10
66.1835500714
 20
185.9224987342
 11
68.1634408156
 21
187.0655823651
  0
LINE
  5
261
100
AcDbEntity
  8
0
100
AcDbLine
 62
7
  6
BYLAYER
 10
73.1131676761
 20
189.9232914422
 11
75.0930584203
 21
191.066375073
  0
LINE
  5
262
100
AcDbEntity
  8
0
100
AcDbLine
 62
7
  6
BYLAYER
 10
76.0688617157
 20
191.6297520054
 11
78.0487524599
 21
192.7728356362
  0
LINE
  5
263
100
AcDbEntity
  8
0
100
AcDbLine
 62
7
  6
BYLAYER
 10
82.9984793204
 20
195.6305447133
 11
84.9783700646
 21
196.7736283441
  0
LINE
  5
264
100
AcDbEntity
  8
0
100
AcDbLine
 62
7
  6
BYLAYER
 10
139.2274606163
 20
228.0044663078
 11
140.0476641291
 21
228.4780082
  0
LINE
  5
265
100
AcDbEntity
  8
0
100
AcDbLine
 62
7
  6
BYLAYER
 10
67.2346407928
 20
79.955660366
 11
67.2423128055
 21
78.32708494
  0
LINE
  5
266
100
AcDbEntity
  8
0
100
AcDbLine
 62
7
  6
BYLAYER
 10
67.2111643684
 20
84.9391152934
 11
67.1980060018
 21
87.7323058267
  0
LINE
  5
267
100
AcDbEntity
  8
0
100
AcDbLine
 62
7
  6
BYLAYER
 10
61.0817854926
 20
177.5188442754
 11
61.0817854937
 21
184.4181130276
  0
LINE
  5
268
100
AcDbEntity
  8
0
100
AcDbLine
 62
7
  6
BYLAYER
 10
61.419732546
 20
88.5434946268
 11
61.4197325455
 21
85.7427071521
  0
LINE
  5
269
100
AcDbEntity
  8
0
100
AcDbLine
 62
7
  6
BYLAYER
 10
62.0363756727
 20
177.4575502017
 11
62.036375674
 21
184.9692426354
  0
LINE
  5
26A
100
AcDbEntity
  8
0
100
AcDbLine
 62
7
  6
BYLAYER
 10
62.1909340757
 20
87.8029054486
 11
62.1909340752
 21
85.0021179739
  0
LINE
  5
26B
100
AcDbEntity
  8
0
100
AcDbLine
 62
7
  6
BYLAYER
 10
63.0547618043
 20
75.9502400907
 11
63.0547618045
 21
77.5832449325
  0
LINE
  5
26C
100
AcDbEntity
  8
0
100
AcDbLine
 62
7
  6
BYLAYER
 10
63.1677512332
 20
178.1107462871
 11
63.1677512342
 21
184.3160574279
  0
LINE
  5
26D
100
AcDbEntity
  8
0
100
AcDbLine
 62
7
  6
BYLAYER
 10
63.3414133741
 20
84.3379034673
 11
63.3414133746
 21
87.138690942
  0
LINE
  5
26E
100
AcDbEntity
  8
0
100
AcDbLine
 62
7
  6
BYLAYER
 10
65.1476419774
 20
179.2538299179
 11
65.1476419784
 21
185.4591410587
  0
LINE
  5
26F
100
AcDbEntity
  8
0
100
AcDbLine
 62
7
  6
BYLAYER
 10
66.1604660689
 20
87.1332854428
 11
66.1604660684
 21
84.3324979681
  0
LINE
  5
270
100
AcDbEntity
  8
0
100
AcDbLine
 62
7
  6
BYLAYER
 10
67.9866554354
 20
187.1676471429
 11
67.9866554356
 21
188.2698971803
  0
LINE
  5
271
100
AcDbEntity
  8
0
100
AcDbLine
 62
7
  6
BYLAYER
 10
68.1634408152
 20
184.7794341395
 11
68.1634408156
 21
187.0655823651
  0
LINE
  5
272
100
AcDbEntity
  8
0
100
AcDbLine
 62
7
  6
BYLAYER
 10
139.8001945669
 20
227.6738056876
 11
143.9367520146
 21
230.0620339877
  0
LINE
  5
273
100
AcDbEntity
  8
0
100
AcDbLine
 62
7
  6
BYLAYER
 10
125.7515401315
 20
219.4223271743
 11
132.8225785037
 21
223.504768713
  0
LINE
  5
274
100
AcDbEntity
  8
0
100
AcDbLine
 62
7
  6
BYLAYER
 10
145.5136067017
 20
229.1516571048
 11
141.377049254
 21
226.7634288047
  0
LINE
  5
275
100
AcDbEntity
  8
0
100
AcDbLine
 62
7
  6
BYLAYER
 10
134.071427288
 20
222.3755210877
 11
131.4268083391
 21
220.8486587398
  0
LINE
  5
276
100
AcDbEntity
  8
0
100
AcDbLine
 62
7
  6
BYLAYER
 10
130.3521117021
 20
220.2281860508
 11
127.7074927531
 21
218.7013237029
  0
LINE
  5
277
100
AcDbEntity
  8
0
100
AcDbLine
 62
7
  6
BYLAYER
 10
142.81957802
 20
225.930603274
 11
143.6397815328
 21
226.4041451663
  0
LINE
  5
278
100
AcDbEntity
  8
0
100
AcDbLine
 62
7
  6
BYLAYER
 10
143.3923119707
 20
225.5999426538
 11
147.5288694184
 21
227.988170954
  0
LINE
  5
279
100
AcDbEntity
  8
0
100
AcDbLine
 62
7
  6
BYLAYER
 10
100.0644742083
 20
199.4129520719
 11
91.1549658594
 21
194.2690757332
  0
LINE
  5
27A
100
AcDbEntity
  8
0
100
AcDbLine
 62
7
  6
BYLAYER
 10
70.5216758895
 20
182.3565113232
 11
61.6121675406
 21
177.2126349844
  0
LINE
  5
27B
100
AcDbEntity
  8
0
100
AcDbLine
 62
7
  6
BYLAYER
 10
90.3524039757
 20
193.6709986086
 11
81.4428956268
 21
188.5271222698
  0
LINE
  5
27C
100
AcDbEntity
  8
0
100
AcDbLine
 62
7
  6
BYLAYER
 10
80.4670923315
 20
187.9637453375
 11
71.5575839826
 21
182.8198689987
  0
LINE
  5
27D
100
AcDbEntity
  8
0
100
AcDbLine
 62
7
  6
BYLAYER
 10
126.0344122845
 20
213.9808906357
 11
129.4285107032
 21
215.9404625743
  0
LINE
  5
27E
100
AcDbEntity
  8
0
100
AcDbLine
 62
7
  6
BYLAYER
 10
137.6765054017
 20
220.7024161087
 11
139.8936474939
 21
221.9824760516
  0
LINE
  5
27F
100
AcDbEntity
  8
0
100
AcDbLine
 62
7
  6
BYLAYER
 10
136.1907765561
 20
219.7624180846
 11
134.7495377319
 21
218.9303234284
  0
LINE
  5
280
100
AcDbEntity
  8
0
100
AcDbLine
 62
7
  6
BYLAYER
 10
132.4714609701
 20
217.6150830477
 11
131.030222146
 21
216.7829883915
  0
LINE
  5
281
100
AcDbEntity
  8
0
100
AcDbLine
 62
7
  6
BYLAYER
 10
149.1057241055
 20
227.0777940711
 11
144.9691666578
 21
224.6895657709
  0
LINE
  5
282
100
AcDbEntity
  8
0
100
AcDbLine
 62
7
  6
BYLAYER
 10
131.2410859095
 20
216.661248895
 11
132.4714609701
 21
217.3716020272
  0
LINE
  5
283
100
AcDbEntity
  8
0
100
AcDbLine
 62
7
  6
BYLAYER
 10
134.9604014954
 20
218.8085839319
 11
136.1907765561
 21
219.5189370641
  0
LINE
  5
284
100
AcDbEntity
  8
0
100
AcDbLine
 62
7
  6
BYLAYER
 10
138.6498486595
 20
219.732228075
 11
136.0052297106
 21
218.2053657271
  0
LINE
  5
285
100
AcDbEntity
  8
0
100
AcDbLine
 62
7
  6
BYLAYER
 10
134.9305330735
 20
217.5848930381
 11
132.2859141245
 21
216.0580306902
  0
LINE
  5
286
100
AcDbEntity
  8
0
100
AcDbLine
 62
7
  6
BYLAYER
 10
146.4116954238
 20
223.8567402403
 11
147.2318989366
 21
224.3302821325
  0
LINE
  5
287
100
AcDbEntity
  8
0
100
AcDbLine
 62
7
  6
BYLAYER
 10
146.9844293744
 20
223.5260796201
 11
151.1209868221
 21
225.9143079202
  0
LINE
  5
288
100
AcDbEntity
  8
0
100
AcDbLine
 62
7
  6
BYLAYER
 10
155.9611490636
 20
223.4056644199
 11
159.2515865104
 21
224.6354313937
  0
LINE
  5
289
100
AcDbEntity
  8
0
100
AcDbLine
 62
7
  6
BYLAYER
 10
70.5322251269
 20
183.4118468179
 11
70.532225128
 21
190.3111155702
  0
LINE
  5
28A
100
AcDbEntity
  8
0
100
AcDbLine
 62
7
  6
BYLAYER
 10
71.0272019345
 20
183.1260782897
 11
71.0272019356
 21
190.0253470419
  0
LINE
  5
28B
100
AcDbEntity
  8
0
100
AcDbLine
 62
7
  6
BYLAYER
 10
71.9817921147
 20
183.064784216
 11
71.9817921159
 21
190.5764766497
  0
LINE
  5
28C
100
AcDbEntity
  8
0
100
AcDbLine
 62
7
  6
BYLAYER
 10
73.1131676751
 20
183.7179803014
 11
73.1131676761
 21
189.9232914422
  0
LINE
  5
28D
100
AcDbEntity
  8
0
100
AcDbLine
 62
7
  6
BYLAYER
 10
74.4319926684
 20
172.5872475163
 11
74.4319926696
 21
180.0989399499
  0
LINE
  5
28E
100
AcDbEntity
  8
0
100
AcDbLine
 62
7
  6
BYLAYER
 10
75.0930584193
 20
184.8610639322
 11
75.0930584203
 21
191.066375073
  0
LINE
  5
28F
100
AcDbEntity
  8
0
100
AcDbLine
 62
7
  6
BYLAYER
 10
134.7372544904
 20
235.1329620324
 11
132.8634293216
 21
233.0421505002
  0
LINE
  5
290
100
AcDbEntity
  8
0
100
AcDbLine
 62
7
  6
BYLAYER
 10
75.2345545533
 20
180.6970170744
 11
84.1440629022
 21
185.8408934132
  0
LINE
  5
291
100
AcDbEntity
  8
0
100
AcDbLine
 62
7
  6
BYLAYER
 10
85.1198661976
 20
186.4042703455
 11
94.0293745465
 21
191.5481466843
  0
LINE
  5
292
100
AcDbEntity
  8
0
100
AcDbLine
 62
7
  6
BYLAYER
 10
65.5224843207
 20
174.9550636111
 11
74.4319926696
 21
180.0989399499
  0
LINE
  5
293
100
AcDbEntity
  8
0
100
AcDbLine
 62
7
  6
BYLAYER
 10
95.0652826395
 20
192.0115043598
 11
103.9747909884
 21
197.1553806986
  0
LINE
  5
294
100
AcDbEntity
  8
0
100
AcDbLine
 62
7
  6
BYLAYER
 10
134.2368568344
 20
214.5234381181
 11
141.3078952065
 21
218.6058796568
  0
LINE
  5
295
100
AcDbEntity
  8
0
100
AcDbLine
 62
7
  6
BYLAYER
 10
152.6978415092
 20
225.0039310373
 11
148.5612840615
 21
222.6157027372
  0
LINE
  5
296
100
AcDbEntity
  8
0
100
AcDbLine
 62
7
  6
BYLAYER
 10
144.1363058448
 20
219.5330315235
 11
141.3078952064
 21
217.9000576276
  0
LINE
  5
297
100
AcDbEntity
  8
0
100
AcDbLine
 62
7
  6
BYLAYER
 10
133.671169054
 20
213.4910180462
 11
130.2770706354
 21
211.5314461077
  0
LINE
  5
298
100
AcDbEntity
  8
0
100
AcDbLine
 62
7
  6
BYLAYER
 10
150.0038128275
 20
221.7828772065
 11
150.8240163403
 21
222.2564190988
  0
LINE
  5
299
100
AcDbEntity
  8
0
100
AcDbLine
 62
7
  6
BYLAYER
 10
150.5765467782
 20
221.4522165864
 11
154.7131042259
 21
223.8404448865
  0
LINE
  5
29A
100
AcDbEntity
  8
0
100
AcDbLine
 62
7
  6
BYLAYER
 10
149.3143729938
 20
219.8131200987
 11
155.9611490636
 21
223.6506151451
  0
LINE
  5
29B
100
AcDbEntity
  8
0
100
AcDbLine
 62
7
  6
BYLAYER
 10
118.0946750938
 20
200.6175540596
 11
122.6484238055
 21
203.2466464105
  0
LINE
  5
29C
100
AcDbEntity
  8
0
100
AcDbLine
 62
7
  6
BYLAYER
 10
149.9118757359
 20
218.3617810912
 11
154.0130779918
 21
220.7295971836
  0
LINE
  5
29D
100
AcDbEntity
  8
0
100
AcDbLine
 62
7
  6
BYLAYER
 10
122.9393576478
 20
202.3564360247
 11
118.4987455502
 21
199.7926627384
  0
LINE
  5
29E
100
AcDbEntity
  8
0
100
AcDbLine
 62
7
  6
BYLAYER
 10
118.6401674953
 20
199.7110145875
 11
123.0807795929
 21
202.2747878737
  0
LINE
  5
29F
100
AcDbEntity
  8
0
100
AcDbLine
 62
7
  6
BYLAYER
 10
99.4034084576
 20
188.4455169488
 11
97.4235177134
 21
187.302433318
  0
LINE
  5
2A0
100
AcDbEntity
  8
0
100
AcDbLine
 62
7
  6
BYLAYER
 10
92.4737908529
 20
184.4447242409
 11
90.4939001087
 21
183.30164061
  0
LINE
  5
2A1
100
AcDbEntity
  8
0
100
AcDbLine
 62
7
  6
BYLAYER
 10
89.5180968133
 20
182.7382636777
 11
87.5382060691
 21
181.5951800468
  0
LINE
  5
2A2
100
AcDbEntity
  8
0
100
AcDbLine
 62
7
  6
BYLAYER
 10
82.5884792086
 20
178.7374709697
 11
80.6085884644
 21
177.5943873389
  0
LINE
  5
2A3
100
AcDbEntity
  8
0
100
AcDbLine
 62
7
  6
BYLAYER
 10
109.3488248995
 20
194.0527509631
 11
107.3689341553
 21
192.9096673322
  0
LINE
  5
2A4
100
AcDbEntity
  8
0
100
AcDbLine
 62
7
  6
BYLAYER
 10
102.4192072948
 20
190.0519582552
 11
100.4393165506
 21
188.9088746243
  0
LINE
  5
2A5
100
AcDbEntity
  8
0
100
AcDbLine
 62
7
  6
BYLAYER
 10
79.8060265807
 20
176.9963102143
 11
77.8261358365
 21
175.8532265835
  0
LINE
  5
2A6
100
AcDbEntity
  8
0
100
AcDbLine
 62
7
  6
BYLAYER
 10
72.876408976
 20
172.9955175064
 11
70.8965182318
 21
171.8524338756
  0
LINE
  5
2A7
100
AcDbEntity
  8
0
100
AcDbLine
 62
7
  6
BYLAYER
 10
98.5548932736
 20
186.6492481105
 11
97.6003030934
 21
186.0981185028
  0
LINE
  5
2A8
100
AcDbEntity
  8
0
100
AcDbLine
 62
7
  6
BYLAYER
 10
94.5597565934
 20
184.3426686411
 11
93.6051664131
 21
183.7915390334
  0
LINE
  5
2A9
100
AcDbEntity
  8
0
100
AcDbLine
 62
7
  6
BYLAYER
 10
88.6695816294
 20
180.9419948393
 11
87.7149914491
 21
180.3908652316
  0
LINE
  5
2AA
100
AcDbEntity
  8
0
100
AcDbLine
 62
7
  6
BYLAYER
 10
84.6744449491
 20
178.63541537
 11
83.7198547689
 21
178.0842857622
  0
LINE
  5
2AB
100
AcDbEntity
  8
0
100
AcDbLine
 62
7
  6
BYLAYER
 10
108.5003097155
 20
192.2564821248
 11
107.5457195353
 21
191.705352517
  0
LINE
  5
2AC
100
AcDbEntity
  8
0
100
AcDbLine
 62
7
  6
BYLAYER
 10
104.5051730353
 20
189.9499026554
 11
103.550582855
 21
189.3987730477
  0
LINE
  5
2AD
100
AcDbEntity
  8
0
100
AcDbLine
 62
7
  6
BYLAYER
 10
78.9575113967
 20
175.200041376
 11
78.0029212165
 21
174.6489117683
  0
LINE
  5
2AE
100
AcDbEntity
  8
0
100
AcDbLine
 62
7
  6
BYLAYER
 10
74.9623747165
 20
172.8934619066
 11
74.0077845362
 21
172.3423322989
  0
LINE
  5
2AF
100
AcDbEntity
  8
0
100
AcDbLine
 62
7
  6
BYLAYER
 10
144.1363058437
 20
212.8086702703
 11
141.6483744612
 21
211.372270991
  0
LINE
  5
2B0
100
AcDbEntity
  8
0
100
AcDbLine
 62
7
  6
BYLAYER
 10
113.173254496
 20
194.7102739177
 11
70.956326999
 21
170.3364649549
  0
LINE
  5
2B1
100
AcDbEntity
  8
0
100
AcDbLine
 62
7
  6
BYLAYER
 10
141.7798479231
 20
211.1445509158
 11
134.2845472259
 21
206.817162898
  0
LINE
  5
2B2
100
AcDbEntity
  8
0
100
AcDbLine
 62
7
  6
BYLAYER
 10
125.4485783171
 20
201.6300130226
 11
120.8948296054
 21
199.0009206717
  0
LINE
  5
2B3
100
AcDbEntity
  8
0
100
AcDbLine
 62
7
  6
BYLAYER
 10
159.390602674
 20
224.993727406
 11
159.9209305519
 21
225.2731735724
  0
LINE
  5
2B4
100
AcDbEntity
  8
0
100
AcDbLine
 62
7
  6
BYLAYER
 10
77.8261358363
 20
174.302727261
 11
77.8261358365
 21
175.8532265835
  0
LINE
  5
2B5
100
AcDbEntity
  8
0
100
AcDbLine
 62
7
  6
BYLAYER
 10
77.8719670797
 20
192.8749004141
 11
77.8719670799
 21
193.9771504514
  0
LINE
  5
2B6
100
AcDbEntity
  8
0
100
AcDbLine
 62
7
  6
BYLAYER
 10
78.0029212165
 20
174.4047937386
 11
78.0029212165
 21
174.6489117683
  0
LINE
  5
2B7
100
AcDbEntity
  8
0
100
AcDbLine
 62
7
  6
BYLAYER
 10
78.0487524595
 20
190.4866874106
 11
78.0487524599
 21
192.7728356362
  0
LINE
  5
2B8
100
AcDbEntity
  8
0
100
AcDbLine
 62
7
  6
BYLAYER
 10
80.4175367712
 20
189.119100089
 11
80.4175367723
 21
196.0183688413
  0
LINE
  5
2B9
100
AcDbEntity
  8
0
100
AcDbLine
 62
7
  6
BYLAYER
 10
80.9125135788
 20
188.8333315608
 11
80.9125135799
 21
195.7326003131
  0
LINE
  5
2BA
100
AcDbEntity
  8
0
100
AcDbLine
 62
7
  6
BYLAYER
 10
81.8671037589
 20
188.7720374872
 11
81.8671037601
 21
196.2837299208
  0
LINE
  5
2BB
100
AcDbEntity
  8
0
100
AcDbLine
 62
7
  6
BYLAYER
 10
82.9984793194
 20
189.4252335725
 11
82.9984793204
 21
195.6305447133
  0
LINE
  5
2BC
100
AcDbEntity
  8
0
100
AcDbLine
 62
7
  6
BYLAYER
 10
84.144062901
 20
178.3292009796
 11
84.1440629022
 21
185.8408934132
  0
LINE
  5
2BD
100
AcDbEntity
  8
0
100
AcDbLine
 62
7
  6
BYLAYER
 10
84.9783700636
 20
190.5683172033
 11
84.9783700646
 21
196.7736283441
  0
LINE
  5
2BE
100
AcDbEntity
  8
0
100
AcDbLine
 62
7
  6
BYLAYER
 10
85.9225754561
 20
165.4634801718
 11
85.9225754563
 21
166.5657302092
  0
LINE
  5
2BF
100
AcDbEntity
  8
0
100
AcDbLine
 62
7
  6
BYLAYER
 10
116.2515746361
 20
203.657513055
 11
115.9567962733
 21
203.2466187279
  0
LINE
  5
2C0
100
AcDbEntity
  8
0
100
AcDbLine
 62
7
  6
BYLAYER
 10
138.3293718942
 20
233.0590989986
 11
136.4555467254
 21
230.9682874664
  0
LINE
  5
2C1
100
AcDbEntity
  8
0
100
AcDbLine
 62
7
  6
BYLAYER
 10
141.9214892979
 20
230.9852359649
 11
140.0476641291
 21
228.8944244327
  0
LINE
  5
2C2
100
AcDbEntity
  8
0
100
AcDbLine
 62
7
  6
BYLAYER
 10
156.8980915584
 20
218.247489996
 11
154.2110969768
 21
216.6961622113
  0
LINE
  5
2C3
100
AcDbEntity
  8
0
100
AcDbLine
 62
7
  6
BYLAYER
 10
159.9209305508
 20
218.5637655807
 11
157.8703294231
 21
217.3798575347
  0
LINE
  5
2C4
100
AcDbEntity
  8
0
100
AcDbLine
 62
7
  6
BYLAYER
 10
149.911875735
 20
212.7850695827
 11
149.3143729926
 21
212.4401032727
  0
LINE
  5
2C5
100
AcDbEntity
  8
0
100
AcDbLine
 62
7
  6
BYLAYER
 10
150.0444569527
 20
212.5554308068
 11
149.21577611
 21
212.076994555
  0
LINE
  5
2C6
100
AcDbEntity
  8
0
100
AcDbLine
 62
7
  6
BYLAYER
 10
80.2873469092
 20
164.9493199714
 11
122.5042744062
 21
189.3231289342
  0
LINE
  5
2C7
100
AcDbEntity
  8
0
100
AcDbLine
 62
7
  6
BYLAYER
 10
158.5725291833
 20
93.287417829
 11
155.0576980028
 21
95.3166606496
  0
LINE
  5
2C8
100
AcDbEntity
  8
0
100
AcDbLine
 62
7
  6
BYLAYER
 10
158.5852501775
 20
95.7794603416
 11
157.2222614235
 21
96.5663644635
  0
LINE
  5
2C9
100
AcDbEntity
  8
0
100
AcDbLine
 62
7
  6
BYLAYER
 10
86.0993608359
 20
163.0752671684
 11
86.0993608363
 21
165.361415394
  0
LINE
  5
2CA
100
AcDbEntity
  8
0
100
AcDbLine
 62
7
  6
BYLAYER
 10
87.5382060689
 20
179.9099601535
 11
87.5382060691
 21
181.5951800468
  0
LINE
  5
2CB
100
AcDbEntity
  8
0
100
AcDbLine
 62
7
  6
BYLAYER
 10
87.5840373123
 20
198.6168538774
 11
87.5840373125
 21
199.7191039147
  0
LINE
  5
2CC
100
AcDbEntity
  8
0
100
AcDbLine
 62
7
  6
BYLAYER
 10
87.7149914491
 20
180.0120266311
 11
87.7149914491
 21
180.3908652316
  0
LINE
  5
2CD
100
AcDbEntity
  8
0
100
AcDbLine
 62
7
  6
BYLAYER
 10
87.7608226921
 20
196.2286408739
 11
87.7608226925
 21
198.5147890995
  0
LINE
  5
2CE
100
AcDbEntity
  8
0
100
AcDbLine
 62
7
  6
BYLAYER
 10
88.4681451476
 20
161.7076798468
 11
88.4681451487
 21
168.6069485991
  0
LINE
  5
2CF
100
AcDbEntity
  8
0
100
AcDbLine
 62
7
  6
BYLAYER
 10
88.9631219552
 20
161.4219113186
 11
88.9631219563
 21
168.3211800708
  0
LINE
  5
2D0
100
AcDbEntity
  8
0
100
AcDbLine
 62
7
  6
BYLAYER
 10
89.9177121353
 20
161.3606172449
 11
89.9177121365
 21
168.8723096786
  0
LINE
  5
2D1
100
AcDbEntity
  8
0
100
AcDbLine
 62
7
  6
BYLAYER
 10
90.1296070038
 20
194.8610535524
 11
90.1296070049
 21
201.7603223047
  0
LINE
  5
2D2
100
AcDbEntity
  8
0
100
AcDbLine
 62
7
  6
BYLAYER
 10
90.6245838114
 20
194.5752850241
 11
90.6245838125
 21
201.4745537764
  0
LINE
  5
2D3
100
AcDbEntity
  8
0
100
AcDbLine
 62
7
  6
BYLAYER
 10
91.0490876957
 20
162.0138133303
 11
91.0490876968
 21
168.2191244711
  0
LINE
  5
2D4
100
AcDbEntity
  8
0
100
AcDbLine
 62
7
  6
BYLAYER
 10
91.5791739915
 20
194.5139909505
 11
91.5791739928
 21
202.0256833841
  0
LINE
  5
2D5
100
AcDbEntity
  8
0
100
AcDbLine
 62
7
  6
BYLAYER
 10
92.710549552
 20
195.1671870358
 11
92.710549553
 21
201.3724981766
  0
LINE
  5
2D6
100
AcDbEntity
  8
0
100
AcDbLine
 62
7
  6
BYLAYER
 10
93.02897844
 20
163.1568969611
 11
93.028978441
 21
169.3622081019
  0
LINE
  5
2D7
100
AcDbEntity
  8
0
100
AcDbLine
 62
7
  6
BYLAYER
 10
94.0293745452
 20
184.0364542507
 11
94.0293745465
 21
191.5481466843
  0
LINE
  5
2D8
100
AcDbEntity
  8
0
100
AcDbLine
 62
7
  6
BYLAYER
 10
145.5136067017
 20
228.9113729312
 11
143.6397815329
 21
226.8205613989
  0
LINE
  5
2D9
100
AcDbEntity
  8
0
100
AcDbLine
 62
7
  6
BYLAYER
 10
149.1057241054
 20
226.8375098974
 11
147.2318989366
 21
224.7466983652
  0
LINE
  5
2DA
100
AcDbEntity
  8
0
100
AcDbLine
 62
7
  6
BYLAYER
 10
152.6978415092
 20
224.7636468636
 11
150.8240163404
 21
222.6728353315
  0
LINE
  5
2DB
100
AcDbEntity
  8
0
100
AcDbLine
 62
7
  6
BYLAYER
 10
81.0333580642
 20
164.518619974
 11
122.4656961699
 21
188.4394487444
  0
LINE
  5
2DC
100
AcDbEntity
  8
0
100
AcDbLine
 62
7
  6
BYLAYER
 10
85.4275986487
 20
166.8514987375
 11
88.4681451487
 21
168.6069485991
  0
LINE
  5
2DD
100
AcDbEntity
  8
0
100
AcDbLine
 62
7
  6
BYLAYER
 10
114.9703969675
 20
183.9079394862
 11
118.0109434675
 21
185.6633893479
  0
LINE
  5
2DE
100
AcDbEntity
  8
0
100
AcDbLine
 62
7
  6
BYLAYER
 10
95.3730150906
 20
172.4587327517
 11
98.4135615906
 21
174.2141826134
  0
LINE
  5
2DF
100
AcDbEntity
  8
0
100
AcDbLine
 62
7
  6
BYLAYER
 10
105.2583267348
 20
178.1659860229
 11
108.2988732349
 21
179.9214358845
  0
LINE
  5
2E0
100
AcDbEntity
  8
0
100
AcDbLine
 62
7
  6
BYLAYER
 10
84.967985276
 20
166.0146006015
 11
85.9225754563
 21
166.5657302092
  0
LINE
  5
2E1
100
AcDbEntity
  8
0
100
AcDbLine
 62
7
  6
BYLAYER
 10
88.9631219563
 20
168.3211800708
 11
89.9177121365
 21
168.8723096786
  0
LINE
  5
2E2
100
AcDbEntity
  8
0
100
AcDbLine
 62
7
  6
BYLAYER
 10
114.5107835948
 20
183.0710413502
 11
115.4653737751
 21
183.6221709579
  0
LINE
  5
2E3
100
AcDbEntity
  8
0
100
AcDbLine
 62
7
  6
BYLAYER
 10
118.5059202751
 20
185.3776208196
 11
119.4605104553
 21
185.9287504273
  0
LINE
  5
2E4
100
AcDbEntity
  8
0
100
AcDbLine
 62
7
  6
BYLAYER
 10
94.9134017179
 20
171.6218346158
 11
95.8679918982
 21
172.1729642235
  0
LINE
  5
2E5
100
AcDbEntity
  8
0
100
AcDbLine
 62
7
  6
BYLAYER
 10
98.9085383982
 20
173.9284140851
 11
99.8631285784
 21
174.4795436929
  0
LINE
  5
2E6
100
AcDbEntity
  8
0
100
AcDbLine
 62
7
  6
BYLAYER
 10
104.7987133622
 20
177.3290878869
 11
105.7533035424
 21
177.8802174946
  0
LINE
  5
2E7
100
AcDbEntity
  8
0
100
AcDbLine
 62
7
  6
BYLAYER
 10
108.7938500425
 20
179.6356673563
 11
109.7484402227
 21
180.186796964
  0
LINE
  5
2E8
100
AcDbEntity
  8
0
100
AcDbLine
 62
7
  6
BYLAYER
 10
84.1194700921
 20
164.2183317631
 11
86.0993608363
 21
165.361415394
  0
LINE
  5
2E9
100
AcDbEntity
  8
0
100
AcDbLine
 62
7
  6
BYLAYER
 10
91.0490876968
 20
168.2191244711
 11
93.028978441
 21
169.3622081019
  0
LINE
  5
2EA
100
AcDbEntity
  8
0
100
AcDbLine
 62
7
  6
BYLAYER
 10
113.6622684108
 20
181.2747725119
 11
115.6421591551
 21
182.4178561427
  0
LINE
  5
2EB
100
AcDbEntity
  8
0
100
AcDbLine
 62
7
  6
BYLAYER
 10
120.5918860155
 20
185.2755652198
 11
122.5717767597
 21
186.4186488507
  0
LINE
  5
2EC
100
AcDbEntity
  8
0
100
AcDbLine
 62
7
  6
BYLAYER
 10
94.064886534
 20
169.8255657774
 11
96.0447772782
 21
170.9686494083
  0
LINE
  5
2ED
100
AcDbEntity
  8
0
100
AcDbLine
 62
7
  6
BYLAYER
 10
100.9945041387
 20
173.8263584854
 11
102.9743948829
 21
174.9694421162
  0
LINE
  5
2EE
100
AcDbEntity
  8
0
100
AcDbLine
 62
7
  6
BYLAYER
 10
103.9501981782
 20
175.5328190486
 11
105.9300889224
 21
176.6759026794
  0
LINE
  5
2EF
100
AcDbEntity
  8
0
100
AcDbLine
 62
7
  6
BYLAYER
 10
110.8798157829
 20
179.5336117565
 11
112.8597065271
 21
180.6766953873
  0
LINE
  5
2F0
100
AcDbEntity
  8
0
100
AcDbLine
 62
7
  6
BYLAYER
 10
127.9458106709
 20
183.3160191151
 11
119.036302322
 21
178.1721427764
  0
LINE
  5
2F1
100
AcDbEntity
  8
0
100
AcDbLine
 62
7
  6
BYLAYER
 10
98.4030123521
 20
166.2595783664
 11
89.4935040032
 21
161.1157020276
  0
LINE
  5
2F2
100
AcDbEntity
  8
0
100
AcDbLine
 62
7
  6
BYLAYER
 10
118.2337404382
 20
177.5740656518
 11
109.3242320894
 21
172.430189313
  0
LINE
  5
2F3
100
AcDbEntity
  8
0
100
AcDbLine
 62
7
  6
BYLAYER
 10
108.348428794
 20
171.8668123807
 11
99.4389204451
 21
166.7229360419
  0
LINE
  5
2F4
100
AcDbEntity
  8
0
100
AcDbLine
 62
7
  6
BYLAYER
 10
160.7809661263
 20
97.7686822358
 11
160.0428515784
 21
98.1948232282
  0
LINE
  5
2F5
100
AcDbEntity
  8
0
100
AcDbLine
 62
7
  6
BYLAYER
 10
94.6795067217
 20
204.4814497896
 11
94.6795067217
 21
205.3874026245
  0
LINE
  5
2F6
100
AcDbEntity
  8
0
100
AcDbLine
 62
7
  6
BYLAYER
 10
94.6904402962
 20
196.3102706666
 11
94.6904402972
 21
202.5155818075
  0
LINE
  5
2F7
100
AcDbEntity
  8
0
100
AcDbLine
 62
7
  6
BYLAYER
 10
95.867991898
 20
171.0707141861
 11
95.8679918982
 21
172.1729642235
  0
LINE
  5
2F8
100
AcDbEntity
  8
0
100
AcDbLine
 62
7
  6
BYLAYER
 10
96.0447772778
 20
168.6825011827
 11
96.0447772782
 21
170.9686494083
  0
LINE
  5
2F9
100
AcDbEntity
  8
0
100
AcDbLine
 62
7
  6
BYLAYER
 10
97.4235177131
 20
185.6172134246
 11
97.4235177134
 21
187.302433318
  0
LINE
  5
2FA
100
AcDbEntity
  8
0
100
AcDbLine
 62
7
  6
BYLAYER
 10
97.6003030933
 20
185.7192799022
 11
97.6003030934
 21
186.0981185028
  0
LINE
  5
2FB
100
AcDbEntity
  8
0
100
AcDbLine
 62
7
  6
BYLAYER
 10
98.4135615895
 20
167.3149138611
 11
98.4135615906
 21
174.2141826134
  0
LINE
  5
2FC
100
AcDbEntity
  8
0
100
AcDbLine
 62
7
  6
BYLAYER
 10
98.9085383971
 20
167.0291453329
 11
98.9085383982
 21
173.9284140851
  0
LINE
  5
2FD
100
AcDbEntity
  8
0
100
AcDbLine
 62
7
  6
BYLAYER
 10
99.8631285772
 20
166.9678512592
 11
99.8631285784
 21
174.4795436929
  0
LINE
  5
2FE
100
AcDbEntity
  8
0
100
AcDbLine
 62
7
  6
BYLAYER
 10
100.9945041377
 20
167.6210473446
 11
100.9945041387
 21
173.8263584854
  0
LINE
  5
2FF
100
AcDbEntity
  8
0
100
AcDbLine
 62
7
  6
BYLAYER
 10
102.3133291309
 20
156.4903145594
 11
102.3133291322
 21
164.0020069931
  0
LINE
  5
300
100
AcDbEntity
  8
0
100
AcDbLine
 62
7
  6
BYLAYER
 10
96.3942072534
 20
149.5984709925
 11
96.359522769
 21
61.5166362326
  0
LINE
  5
301
100
AcDbEntity
  8
0
100
AcDbLine
 62
7
  6
BYLAYER
 10
157.8703294231
 20
217.3798575347
 11
157.1909818329
 21
216.7530246261
  0
LINE
  5
302
100
AcDbEntity
  8
0
100
AcDbLine
 62
7
  6
BYLAYER
 10
103.1158910159
 20
164.6000841176
 11
112.0253993648
 21
169.7439604564
  0
LINE
  5
303
100
AcDbEntity
  8
0
100
AcDbLine
 62
7
  6
BYLAYER
 10
113.0012026601
 20
170.3073373887
 11
121.910711009
 21
175.4512137275
  0
LINE
  5
304
100
AcDbEntity
  8
0
100
AcDbLine
 62
7
  6
BYLAYER
 10
93.4038207833
 20
158.8581306543
 11
102.3133291322
 21
164.0020069931
  0
LINE
  5
305
100
AcDbEntity
  8
0
100
AcDbLine
 62
7
  6
BYLAYER
 10
122.946619102
 20
175.914571403
 11
131.8561274509
 21
181.0584477418
  0
LINE
  5
306
100
AcDbEntity
  8
0
100
AcDbLine
 62
7
  6
BYLAYER
 10
127.2847449201
 20
172.348583992
 11
125.3048541759
 21
171.2055003612
  0
LINE
  5
307
100
AcDbEntity
  8
0
100
AcDbLine
 62
7
  6
BYLAYER
 10
120.3551273154
 20
168.3477912841
 11
118.3752365712
 21
167.2047076532
  0
LINE
  5
308
100
AcDbEntity
  8
0
100
AcDbLine
 62
7
  6
BYLAYER
 10
117.3994332759
 20
166.6413307209
 11
115.4195425317
 21
165.49824709
  0
LINE
  5
309
100
AcDbEntity
  8
0
100
AcDbLine
 62
7
  6
BYLAYER
 10
110.4698156712
 20
162.6405380129
 11
108.489924927
 21
161.4974543821
  0
LINE
  5
30A
100
AcDbEntity
  8
0
100
AcDbLine
 62
7
  6
BYLAYER
 10
137.230161362
 20
177.9558180063
 11
135.2502706179
 21
176.8127343754
  0
LINE
  5
30B
100
AcDbEntity
  8
0
100
AcDbLine
 62
7
  6
BYLAYER
 10
130.3005437574
 20
173.9550252983
 11
128.3206530132
 21
172.8119416675
  0
LINE
  5
30C
100
AcDbEntity
  8
0
100
AcDbLine
 62
7
  6
BYLAYER
 10
107.6873630433
 20
160.8993772575
 11
105.7074722991
 21
159.7562936267
  0
LINE
  5
30D
100
AcDbEntity
  8
0
100
AcDbLine
 62
7
  6
BYLAYER
 10
100.7577454386
 20
156.8985845496
 11
98.7778546944
 21
155.7555009188
  0
LINE
  5
30E
100
AcDbEntity
  8
0
100
AcDbLine
 62
7
  6
BYLAYER
 10
96.3942072534
 20
149.5984709925
 11
26.651435331
 21
189.8635682176
  0
LINE
  5
30F
100
AcDbEntity
  8
0
100
AcDbLine
 62
7
  6
BYLAYER
 10
102.9743948819
 20
168.7641309754
 11
102.9743948829
 21
174.9694421162
  0
LINE
  5
310
100
AcDbEntity
  8
0
100
AcDbLine
 62
7
  6
BYLAYER
 10
103.9747909872
 20
189.643688265
 11
103.9747909884
 21
197.1553806986
  0
LINE
  5
311
100
AcDbEntity
  8
0
100
AcDbLine
 62
7
  6
BYLAYER
 10
105.7074722988
 20
158.2711134012
 11
105.7074722991
 21
159.7562936267
  0
LINE
  5
312
100
AcDbEntity
  8
0
100
AcDbLine
 62
7
  6
BYLAYER
 10
105.7533035423
 20
176.7779674573
 11
105.7533035424
 21
177.8802174946
  0
LINE
  5
313
100
AcDbEntity
  8
0
100
AcDbLine
 62
7
  6
BYLAYER
 10
105.884257679
 20
158.3731798788
 11
105.8842576791
 21
158.5519788115
  0
LINE
  5
314
100
AcDbEntity
  8
0
100
AcDbLine
 62
7
  6
BYLAYER
 10
105.9300889221
 20
174.3897544538
 11
105.9300889224
 21
176.6759026794
  0
LINE
  5
315
100
AcDbEntity
  8
0
100
AcDbLine
 62
7
  6
BYLAYER
 10
107.368934155
 20
191.3591680097
 11
107.3689341553
 21
192.9096673322
  0
LINE
  5
316
100
AcDbEntity
  8
0
100
AcDbLine
 62
7
  6
BYLAYER
 10
107.5457195353
 20
191.4612344873
 11
107.5457195353
 21
191.705352517
  0
LINE
  5
317
100
AcDbEntity
  8
0
100
AcDbLine
 62
7
  6
BYLAYER
 10
108.2988732337
 20
173.0221671322
 11
108.2988732349
 21
179.9214358845
  0
LINE
  5
318
100
AcDbEntity
  8
0
100
AcDbLine
 62
7
  6
BYLAYER
 10
108.7938500413
 20
172.736398604
 11
108.7938500425
 21
179.6356673563
  0
LINE
  5
319
100
AcDbEntity
  8
0
100
AcDbLine
 62
7
  6
BYLAYER
 10
109.7484402215
 20
172.6751045304
 11
109.7484402227
 21
180.186796964
  0
LINE
  5
31A
100
AcDbEntity
  8
0
100
AcDbLine
 62
7
  6
BYLAYER
 10
110.8798157819
 20
173.3283006157
 11
110.8798157829
 21
179.5336117565
  0
LINE
  5
31B
100
AcDbEntity
  8
0
100
AcDbLine
 62
7
  6
BYLAYER
 10
103.5436135099
 20
61.5166482026
 11
103.5782979943
 21
149.598482963
  0
LINE
  5
31C
100
AcDbEntity
  8
0
100
AcDbLine
 62
7
  6
BYLAYER
 10
137.8378982515
 20
237.4369056085
 11
137.6988820879
 21
237.0786095961
  0
LINE
  5
31D
100
AcDbEntity
  8
0
100
AcDbLine
 62
7
  6
BYLAYER
 10
126.4362297362
 20
170.5523151537
 11
125.4816395559
 21
170.0011855459
  0
LINE
  5
31E
100
AcDbEntity
  8
0
100
AcDbLine
 62
7
  6
BYLAYER
 10
122.4410930559
 20
168.2457356843
 11
121.4865028757
 21
167.6946060766
  0
LINE
  5
31F
100
AcDbEntity
  8
0
100
AcDbLine
 62
7
  6
BYLAYER
 10
116.5509180919
 20
164.8450618825
 11
115.5963279117
 21
164.2939322748
  0
LINE
  5
320
100
AcDbEntity
  8
0
100
AcDbLine
 62
7
  6
BYLAYER
 10
112.5557814116
 20
162.5384824132
 11
111.6011912314
 21
161.9873528054
  0
LINE
  5
321
100
AcDbEntity
  8
0
100
AcDbLine
 62
7
  6
BYLAYER
 10
136.3816461781
 20
176.159549168
 11
135.4270559979
 21
175.6084195602
  0
LINE
  5
322
100
AcDbEntity
  8
0
100
AcDbLine
 62
7
  6
BYLAYER
 10
132.3865094978
 20
173.8529696986
 11
131.4319193176
 21
173.3018400909
  0
LINE
  5
323
100
AcDbEntity
  8
0
100
AcDbLine
 62
7
  6
BYLAYER
 10
106.8388478593
 20
159.1031084192
 11
105.8842576791
 21
158.5519788115
  0
LINE
  5
324
100
AcDbEntity
  8
0
100
AcDbLine
 62
7
  6
BYLAYER
 10
102.843711179
 20
156.7965289498
 11
101.8891209988
 21
156.2453993421
  0
LINE
  5
325
100
AcDbEntity
  8
0
100
AcDbLine
 62
7
  6
BYLAYER
 10
140.9980221577
 20
178.6460002404
 11
98.7810946607
 21
154.2721912777
  0
LINE
  5
326
100
AcDbEntity
  8
0
100
AcDbLine
 62
7
  6
BYLAYER
 10
103.5782979943
 20
149.598482963
 11
193.6230570212
 21
201.5855385054
  0
LINE
  5
327
100
AcDbEntity
  8
0
100
AcDbLine
 62
7
  6
BYLAYER
 10
98.7810946607
 20
154.2721912777
 11
80.2873469092
 21
164.9493199714
  0
LINE
  5
328
100
AcDbEntity
  8
0
100
AcDbLine
 62
7
  6
BYLAYER
 10
70.956326999
 20
170.3364649549
 11
52.4625792247
 21
181.0135936618
  0
LINE
  5
329
100
AcDbEntity
  8
0
100
AcDbLine
 62
7
  6
BYLAYER
 10
98.7778546944
 20
155.7555009188
 11
93.4038207833
 21
158.8581306543
  0
LINE
  5
32A
100
AcDbEntity
  8
0
100
AcDbLine
 62
7
  6
BYLAYER
 10
89.4935040032
 20
161.1157020276
 11
84.1194700921
 21
164.2183317631
  0
LINE
  5
32B
100
AcDbEntity
  8
0
100
AcDbLine
 62
7
  6
BYLAYER
 10
70.8965182318
 20
171.8524338756
 11
65.5224843207
 21
174.9550636111
  0
LINE
  5
32C
100
AcDbEntity
  8
0
100
AcDbLine
 62
7
  6
BYLAYER
 10
61.6121675406
 20
177.2126349844
 11
56.2381336295
 21
180.3152647199
  0
LINE
  5
32D
100
AcDbEntity
  8
0
100
AcDbLine
 62
7
  6
BYLAYER
 10
101.8891209988
 20
156.2453993421
 11
100.7577454386
 21
156.8985845496
  0
LINE
  5
32E
100
AcDbEntity
  8
0
100
AcDbLine
 62
7
  6
BYLAYER
 10
86.0993608363
 20
165.361415394
 11
84.967985276
 21
166.0146006015
  0
LINE
  5
32F
100
AcDbEntity
  8
0
100
AcDbLine
 62
7
  6
BYLAYER
 10
74.0077845362
 20
172.3423322989
 11
72.876408976
 21
172.9955175064
  0
LINE
  5
330
100
AcDbEntity
  8
0
100
AcDbLine
 62
7
  6
BYLAYER
 10
58.2180243737
 20
181.4583483508
 11
57.0866488135
 21
182.1115335583
  0
LINE
  5
331
100
AcDbEntity
  8
0
100
AcDbLine
 62
7
  6
BYLAYER
 10
102.9985578105
 20
156.7071302279
 11
102.843711179
 21
156.7965289498
  0
LINE
  5
332
100
AcDbEntity
  8
0
100
AcDbLine
 62
7
  6
BYLAYER
 10
85.9225754563
 20
166.5657302092
 11
85.4275986487
 21
166.8514987375
  0
LINE
  5
333
100
AcDbEntity
  8
0
100
AcDbLine
 62
7
  6
BYLAYER
 10
75.173790154
 20
172.7714039081
 11
74.9623747165
 21
172.8934619066
  0
LINE
  5
334
100
AcDbEntity
  8
0
100
AcDbLine
 62
7
  6
BYLAYER
 10
58.0412389937
 20
182.662663166
 11
57.5462621861
 21
182.9484316943
  0
LINE
  5
335
100
AcDbEntity
  8
0
100
AcDbLine
 62
7
  6
BYLAYER
 10
42.5577463423
 20
190.3117045241
 11
41.7112468777
 21
190.8027639138
  0
LINE
  5
336
100
AcDbEntity
  8
0
100
AcDbLine
 62
7
  6
BYLAYER
 10
42.5648382291
 20
190.5469817647
 11
42.7650658772
 21
190.4308285115
  0
LINE
  5
337
100
AcDbEntity
  8
0
100
AcDbLine
 62
7
  6
BYLAYER
 10
43.8305349195
 20
190.3099497621
 11
43.195660321
 21
190.6782443044
  0
LINE
  5
338
100
AcDbEntity
  8
0
100
AcDbLine
 62
7
  6
BYLAYER
 10
42.3491608563
 20
191.1693036941
 11
41.7142862578
 21
191.5375982363
  0
LINE
  5
339
100
AcDbEntity
  8
0
100
AcDbLine
 62
7
  6
BYLAYER
 10
43.8376268063
 20
190.5452270027
 11
44.0378544544
 21
190.4290737495
  0
LINE
  5
33A
100
AcDbEntity
  8
0
100
AcDbLine
 62
7
  6
BYLAYER
 10
42.5648382293
 20
192.0263179434
 11
43.1997128278
 21
191.6580234011
  0
LINE
  5
33B
100
AcDbEntity
  8
0
100
AcDbLine
 62
7
  6
BYLAYER
 10
44.0462122925
 20
191.1669640114
 11
44.681086891
 21
190.7986694691
  0
LINE
  5
33C
100
AcDbEntity
  8
0
100
AcDbLine
 62
7
  6
BYLAYER
 10
43.8376268065
 20
192.0245631814
 11
44.6841262712
 21
191.5335037917
  0
LINE
  5
33D
100
AcDbEntity
  8
0
100
AcDbLine
 62
7
  6
BYLAYER
 10
112.0253993635
 20
162.2322680228
 11
112.0253993648
 21
169.7439604564
  0
LINE
  5
33E
100
AcDbEntity
  8
0
100
AcDbLine
 62
7
  6
BYLAYER
 10
112.8597065261
 20
174.4713842465
 11
112.8597065271
 21
180.6766953873
  0
LINE
  5
33F
100
AcDbEntity
  8
0
100
AcDbLine
 62
7
  6
BYLAYER
 10
115.4195425314
 20
163.8783462937
 11
115.4195425317
 21
165.49824709
  0
LINE
  5
340
100
AcDbEntity
  8
0
100
AcDbLine
 62
7
  6
BYLAYER
 10
115.4653737749
 20
182.5199209206
 11
115.4653737751
 21
183.6221709579
  0
LINE
  5
341
100
AcDbEntity
  8
0
100
AcDbLine
 62
7
  6
BYLAYER
 10
115.5963279116
 20
163.9804127713
 11
115.5963279117
 21
164.2939322748
  0
LINE
  5
342
100
AcDbEntity
  8
0
100
AcDbLine
 62
7
  6
BYLAYER
 10
115.6421591547
 20
180.1317079171
 11
115.6421591551
 21
182.4178561427
  0
LINE
  5
343
100
AcDbEntity
  8
0
100
AcDbLine
 62
7
  6
BYLAYER
 10
118.0109434664
 20
178.7641205956
 11
118.0109434675
 21
185.6633893479
  0
LINE
  5
344
100
AcDbEntity
  8
0
100
AcDbLine
 62
7
  6
BYLAYER
 10
118.0946750938
 20
200.6175540596
 11
118.0946750938
 21
199.2703539608
  0
LINE
  5
345
100
AcDbEntity
  8
0
100
AcDbLine
 62
7
  6
BYLAYER
 10
118.505920274
 20
178.4783520673
 11
118.5059202751
 21
185.3776208196
  0
LINE
  5
346
100
AcDbEntity
  8
0
100
AcDbLine
 62
7
  6
BYLAYER
 10
118.6401674953
 20
199.7110145875
 11
118.6401674952
 21
198.9777534621
  0
LINE
  5
347
100
AcDbEntity
  8
0
100
AcDbLine
 62
7
  6
BYLAYER
 10
119.4605104541
 20
178.4170579937
 11
119.4605104553
 21
185.9287504273
  0
LINE
  5
348
100
AcDbEntity
  8
0
100
AcDbLine
 62
7
  6
BYLAYER
 10
60.5868086861
 20
184.7038815559
 11
61.0817854937
 21
184.4181130276
  0
LINE
  5
349
100
AcDbEntity
  8
0
100
AcDbLine
 62
7
  6
BYLAYER
 10
78.0029212165
 20
174.6489117683
 11
78.214336654
 21
174.5268537698
  0
LINE
  5
34A
100
AcDbEntity
  8
0
100
AcDbLine
 62
7
  6
BYLAYER
 10
88.4681451487
 20
168.6069485991
 11
88.9631219563
 21
168.3211800708
  0
LINE
  5
34B
100
AcDbEntity
  8
0
100
AcDbLine
 62
7
  6
BYLAYER
 10
105.8842576791
 20
158.5519788115
 11
106.0391043105
 21
158.4625800896
  0
LINE
  5
34C
100
AcDbEntity
  8
0
100
AcDbLine
 62
7
  6
BYLAYER
 10
62.036375674
 20
184.9692426354
 11
63.1677512342
 21
184.3160574279
  0
LINE
  5
34D
100
AcDbEntity
  8
0
100
AcDbLine
 62
7
  6
BYLAYER
 10
77.8261358365
 20
175.8532265835
 11
78.9575113967
 21
175.200041376
  0
LINE
  5
34E
100
AcDbEntity
  8
0
100
AcDbLine
 62
7
  6
BYLAYER
 10
89.9177121365
 20
168.8723096786
 11
91.0490876968
 21
168.2191244711
  0
LINE
  5
34F
100
AcDbEntity
  8
0
100
AcDbLine
 62
7
  6
BYLAYER
 10
105.7074722991
 20
159.7562936267
 11
106.8388478593
 21
159.1031084192
  0
LINE
  5
350
100
AcDbEntity
  8
0
100
AcDbLine
 62
7
  6
BYLAYER
 10
65.1476419784
 20
185.4591410587
 11
70.5216758895
 21
182.3565113232
  0
LINE
  5
351
100
AcDbEntity
  8
0
100
AcDbLine
 62
7
  6
BYLAYER
 10
74.4319926696
 20
180.0989399499
 11
79.8060265807
 21
176.9963102143
  0
LINE
  5
352
100
AcDbEntity
  8
0
100
AcDbLine
 62
7
  6
BYLAYER
 10
93.028978441
 20
169.3622081019
 11
98.4030123521
 21
166.2595783664
  0
LINE
  5
353
100
AcDbEntity
  8
0
100
AcDbLine
 62
7
  6
BYLAYER
 10
102.3133291322
 20
164.0020069931
 11
107.6873630433
 21
160.8993772575
  0
LINE
  5
354
100
AcDbEntity
  8
0
100
AcDbLine
 62
7
  6
BYLAYER
 10
108.489924927
 20
161.4974543821
 11
103.1158910159
 21
164.6000841176
  0
LINE
  5
355
100
AcDbEntity
  8
0
100
AcDbLine
 62
7
  6
BYLAYER
 10
99.4389204451
 20
166.7229360419
 11
94.064886534
 21
169.8255657774
  0
LINE
  5
356
100
AcDbEntity
  8
0
100
AcDbLine
 62
7
  6
BYLAYER
 10
80.6085884644
 20
177.5943873389
 11
75.2345545533
 21
180.6970170744
  0
LINE
  5
357
100
AcDbEntity
  8
0
100
AcDbLine
 62
7
  6
BYLAYER
 10
71.5575839826
 20
182.8198689987
 11
66.1835500714
 21
185.9224987342
  0
LINE
  5
358
100
AcDbEntity
  8
0
100
AcDbLine
 62
7
  6
BYLAYER
 10
111.6011912314
 20
161.9873528054
 11
110.4698156712
 21
162.6405380129
  0
LINE
  5
359
100
AcDbEntity
  8
0
100
AcDbLine
 62
7
  6
BYLAYER
 10
96.0447772782
 20
170.9686494083
 11
94.9134017179
 21
171.6218346158
  0
LINE
  5
35A
100
AcDbEntity
  8
0
100
AcDbLine
 62
7
  6
BYLAYER
 10
83.7198547689
 20
178.0842857622
 11
82.5884792086
 21
178.7374709697
  0
LINE
  5
35B
100
AcDbEntity
  8
0
100
AcDbLine
 62
7
  6
BYLAYER
 10
68.1634408156
 20
187.0655823651
 11
67.0320652554
 21
187.7187675726
  0
LINE
  5
35C
100
AcDbEntity
  8
0
100
AcDbLine
 62
7
  6
BYLAYER
 10
112.8273011478
 20
162.3817239667
 11
112.5557814116
 21
162.5384824132
  0
LINE
  5
35D
100
AcDbEntity
  8
0
100
AcDbLine
 62
7
  6
BYLAYER
 10
95.8679918982
 20
172.1729642235
 11
95.3730150906
 21
172.4587327517
  0
LINE
  5
35E
100
AcDbEntity
  8
0
100
AcDbLine
 62
7
  6
BYLAYER
 10
85.0025334913
 20
178.445997647
 11
84.6744449491
 21
178.63541537
  0
LINE
  5
35F
100
AcDbEntity
  8
0
100
AcDbLine
 62
7
  6
BYLAYER
 10
67.9866554356
 20
188.2698971803
 11
67.491678628
 21
188.5556657085
  0
LINE
  5
360
100
AcDbEntity
  8
0
100
AcDbLine
 62
7
  6
BYLAYER
 10
120.5918860145
 20
179.070254079
 11
120.5918860155
 21
185.2755652198
  0
LINE
  5
361
100
AcDbEntity
  8
0
100
AcDbLine
 62
7
  6
BYLAYER
 10
121.9107110078
 20
167.9395212939
 11
121.910711009
 21
175.4512137275
  0
LINE
  5
362
100
AcDbEntity
  8
0
100
AcDbLine
 62
7
  6
BYLAYER
 10
122.5042744062
 20
188.4171760931
 11
122.5042744062
 21
189.3231289342
  0
LINE
  5
363
100
AcDbEntity
  8
0
100
AcDbLine
 62
7
  6
BYLAYER
 10
122.5717767587
 20
180.2133377098
 11
122.5717767597
 21
186.4186488507
  0
LINE
  5
364
100
AcDbEntity
  8
0
100
AcDbLine
 62
7
  6
BYLAYER
 10
122.6484238055
 20
202.1884662951
 11
122.6484238055
 21
203.2466464105
  0
LINE
  5
365
100
AcDbEntity
  8
0
100
AcDbLine
 62
7
  6
BYLAYER
 10
123.0807795925
 20
200.2629719518
 11
123.0807795929
 21
202.2747878737
  0
LINE
  5
366
100
AcDbEntity
  8
0
100
AcDbLine
 62
7
  6
BYLAYER
 10
123.2766560942
 20
219.62641619
 11
123.2766560922
 21
213.5842983046
  0
LINE
  5
367
100
AcDbEntity
  8
0
100
AcDbLine
 62
7
  6
BYLAYER
 10
124.5374195621
 20
202.274791375
 11
124.5374195619
 21
201.1039584102
  0
LINE
  5
368
100
AcDbEntity
  8
0
100
AcDbLine
 62
7
  6
BYLAYER
 10
124.8909744247
 20
201.3080821869
 11
124.8909744248
 21
202.0706709976
  0
LINE
  5
369
100
AcDbEntity
  8
0
100
AcDbLine
 62
7
  6
BYLAYER
 10
124.9818761834
 20
203.2466520195
 11
124.9818761834
 21
202.1814863319
  0
LINE
  5
36A
100
AcDbEntity
  8
0
100
AcDbLine
 62
7
  6
BYLAYER
 10
125.181267471
 20
226.5917571154
 11
125.1812674721
 21
232.8788257267
  0
LINE
  5
36B
100
AcDbEntity
  8
0
100
AcDbLine
 62
7
  6
BYLAYER
 10
125.3048541757
 20
169.5855995649
 11
125.3048541759
 21
171.2055003611
  0
LINE
  5
36C
100
AcDbEntity
  8
0
100
AcDbLine
 62
7
  6
BYLAYER
 10
125.448568602
 20
201.6300130226
 11
125.448568602
 21
202.9772131215
  0
LINE
  5
36D
100
AcDbEntity
  8
0
100
AcDbLine
 62
7
  6
BYLAYER
 10
125.4741636348
 20
232.4705815727
 11
125.4741636338
 21
226.1835129614
  0
LINE
  5
36E
100
AcDbEntity
  8
0
100
AcDbLine
 62
7
  6
BYLAYER
 10
125.4816395559
 20
169.6876660425
 11
125.4816395559
 21
170.001185546
  0
LINE
  5
36F
100
AcDbEntity
  8
0
100
AcDbLine
 62
7
  6
BYLAYER
 10
126.0344122834
 20
207.2565293824
 11
126.0344122845
 21
213.9808906357
  0
LINE
  5
370
100
AcDbEntity
  8
0
100
AcDbLine
 62
7
  6
BYLAYER
 10
127.7616685701
 20
224.8832814751
 11
127.7616685713
 21
232.2562983011
  0
LINE
  5
371
100
AcDbEntity
  8
0
100
AcDbLine
 62
7
  6
BYLAYER
 10
70.532225128
 20
190.3111155702
 11
71.0272019356
 21
190.0253470419
  0
LINE
  5
372
100
AcDbEntity
  8
0
100
AcDbLine
 62
7
  6
BYLAYER
 10
87.7149914491
 20
180.3908652316
 11
88.0430799913
 21
180.2014475086
  0
LINE
  5
373
100
AcDbEntity
  8
0
100
AcDbLine
 62
7
  6
BYLAYER
 10
98.4135615906
 20
174.2141826134
 11
98.9085383982
 21
173.9284140851
  0
LINE
  5
374
100
AcDbEntity
  8
0
100
AcDbLine
 62
7
  6
BYLAYER
 10
115.5963279117
 20
164.2939322748
 11
115.8678476478
 21
164.1371738284
  0
LINE
  5
375
100
AcDbEntity
  8
0
100
AcDbLine
 62
7
  6
BYLAYER
 10
71.9817921159
 20
190.5764766497
 11
73.1131676761
 21
189.9232914422
  0
LINE
  5
376
100
AcDbEntity
  8
0
100
AcDbLine
 62
7
  6
BYLAYER
 10
87.5382060691
 20
181.5951800468
 11
88.6695816294
 21
180.9419948393
  0
LINE
  5
377
100
AcDbEntity
  8
0
100
AcDbLine
 62
7
  6
BYLAYER
 10
99.8631285784
 20
174.4795436929
 11
100.9945041387
 21
173.8263584854
  0
LINE
  5
378
100
AcDbEntity
  8
0
100
AcDbLine
 62
7
  6
BYLAYER
 10
115.4195425317
 20
165.49824709
 11
116.5509180919
 21
164.8450618825
  0
LINE
  5
379
100
AcDbEntity
  8
0
100
AcDbLine
 62
7
  6
BYLAYER
 10
75.0930584203
 20
191.066375073
 11
80.4670923315
 21
187.9637453375
  0
LINE
  5
37A
100
AcDbEntity
  8
0
100
AcDbLine
 62
7
  6
BYLAYER
 10
84.1440629022
 20
185.8408934132
 11
89.5180968133
 21
182.7382636777
  0
LINE
  5
37B
100
AcDbEntity
  8
0
100
AcDbLine
 62
7
  6
BYLAYER
 10
102.9743948829
 20
174.9694421162
 11
108.348428794
 21
171.8668123807
  0
LINE
  5
37C
100
AcDbEntity
  8
0
100
AcDbLine
 62
7
  6
BYLAYER
 10
112.0253993648
 20
169.7439604564
 11
117.3994332759
 21
166.6413307209
  0
LINE
  5
37D
100
AcDbEntity
  8
0
100
AcDbLine
 62
7
  6
BYLAYER
 10
118.3752365712
 20
167.2047076532
 11
113.0012026601
 21
170.3073373887
  0
LINE
  5
37E
100
AcDbEntity
  8
0
100
AcDbLine
 62
7
  6
BYLAYER
 10
109.3242320894
 20
172.430189313
 11
103.9501981782
 21
175.5328190486
  0
LINE
  5
37F
100
AcDbEntity
  8
0
100
AcDbLine
 62
7
  6
BYLAYER
 10
90.4939001087
 20
183.30164061
 11
85.1198661976
 21
186.4042703455
  0
LINE
  5
380
100
AcDbEntity
  8
0
100
AcDbLine
 62
7
  6
BYLAYER
 10
81.4428956268
 20
188.5271222698
 11
76.0688617157
 21
191.6297520054
  0
LINE
  5
381
100
AcDbEntity
  8
0
100
AcDbLine
 62
7
  6
BYLAYER
 10
121.4865028757
 20
167.6946060766
 11
120.3551273154
 21
168.3477912841
  0
LINE
  5
382
100
AcDbEntity
  8
0
100
AcDbLine
 62
7
  6
BYLAYER
 10
105.9300889224
 20
176.6759026794
 11
104.7987133622
 21
177.3290878869
  0
LINE
  5
383
100
AcDbEntity
  8
0
100
AcDbLine
 62
7
  6
BYLAYER
 10
93.6051664131
 20
183.7915390334
 11
92.4737908529
 21
184.4447242409
  0
LINE
  5
384
100
AcDbEntity
  8
0
100
AcDbLine
 62
7
  6
BYLAYER
 10
78.0487524599
 20
192.7728356362
 11
76.9173768996
 21
193.4260208437
  0
LINE
  5
385
100
AcDbEntity
  8
0
100
AcDbLine
 62
7
  6
BYLAYER
 10
128.3591713124
 20
224.5178906823
 11
128.3591713124
 21
224.5383209099
  0
LINE
  5
386
100
AcDbEntity
  8
0
100
AcDbLine
 62
7
  6
BYLAYER
 10
130.2770706343
 20
204.8070848544
 11
130.2770706354
 21
211.5314461077
  0
LINE
  5
387
100
AcDbEntity
  8
0
100
AcDbLine
 62
7
  6
BYLAYER
 10
131.8561274497
 20
173.5467553082
 11
131.8561274509
 21
181.0584477418
  0
LINE
  5
388
100
AcDbEntity
  8
0
100
AcDbLine
 62
7
  6
BYLAYER
 10
132.4714609701
 20
217.3716020272
 11
132.4714609701
 21
217.6150830477
  0
LINE
  5
389
100
AcDbEntity
  8
0
100
AcDbLine
 62
7
  6
BYLAYER
 10
132.8634293216
 20
232.6257342675
 11
132.8634293217
 21
233.0421505002
  0
LINE
  5
38A
100
AcDbEntity
  8
0
100
AcDbLine
 62
7
  6
BYLAYER
 10
133.671169054
 20
213.4910180462
 11
133.671169053
 21
207.1712889398
  0
LINE
  5
38B
100
AcDbEntity
  8
0
100
AcDbLine
 62
7
  6
BYLAYER
 10
134.2368568331
 20
206.8446963361
 11
134.2368568344
 21
214.5234381181
  0
LINE
  5
38C
100
AcDbEntity
  8
0
100
AcDbLine
 62
7
  6
BYLAYER
 10
134.7372544904
 20
235.1329620324
 11
134.7372544905
 21
235.373246206
  0
LINE
  5
38D
100
AcDbEntity
  8
0
100
AcDbLine
 62
7
  6
BYLAYER
 10
135.2502706176
 20
175.32755415
 11
135.2502706179
 21
176.8127343754
  0
LINE
  5
38E
100
AcDbEntity
  8
0
100
AcDbLine
 62
7
  6
BYLAYER
 10
135.4270559978
 20
175.4296206276
 11
135.4270559979
 21
175.6084195602
  0
LINE
  5
38F
100
AcDbEntity
  8
0
100
AcDbLine
 62
7
  6
BYLAYER
 10
136.1907765561
 20
219.5189370641
 11
136.1907765561
 21
219.7624180846
  0
LINE
  5
390
100
AcDbEntity
  8
0
100
AcDbLine
 62
7
  6
BYLAYER
 10
136.4555467253
 20
230.5518712337
 11
136.4555467254
 21
230.9682874664
  0
LINE
  5
391
100
AcDbEntity
  8
0
100
AcDbLine
 62
7
  6
BYLAYER
 10
135.6124330152
 20
84.0899986887
 11
135.6074461653
 21
83.1130748822
  0
LINE
  5
392
100
AcDbEntity
  8
0
100
AcDbLine
 62
7
  6
BYLAYER
 10
159.2515865104
 20
224.6354313937
 11
159.390602674
 21
224.993727406
  0
LINE
  5
393
100
AcDbEntity
  8
0
100
AcDbLine
 62
7
  6
BYLAYER
 10
56.5913601245
 20
93.8559171468
 11
55.5538201917
 21
93.2568967629
  0
LINE
  5
394
100
AcDbEntity
  8
0
100
AcDbLine
 62
7
  6
BYLAYER
 10
122.712612792
 20
168.0889772378
 11
122.4410930559
 21
168.2457356843
  0
LINE
  5
395
100
AcDbEntity
  8
0
100
AcDbLine
 62
7
  6
BYLAYER
 10
105.7533035424
 20
177.8802174946
 11
105.2583267348
 21
178.1659860229
  0
LINE
  5
396
100
AcDbEntity
  8
0
100
AcDbLine
 62
7
  6
BYLAYER
 10
94.8878451355
 20
184.1532509181
 11
94.5597565934
 21
184.3426686411
  0
LINE
  5
397
100
AcDbEntity
  8
0
100
AcDbLine
 62
7
  6
BYLAYER
 10
77.8719670799
 20
193.9771504514
 11
77.3769902723
 21
194.2629189797
  0
LINE
  5
398
100
AcDbEntity
  8
0
100
AcDbLine
 62
7
  6
BYLAYER
 10
80.4175367723
 20
196.0183688413
 11
80.9125135799
 21
195.7326003131
  0
LINE
  5
399
100
AcDbEntity
  8
0
100
AcDbLine
 62
7
  6
BYLAYER
 10
97.6003030934
 20
186.0981185028
 11
97.9283916356
 21
185.9087007797
  0
LINE
  5
39A
100
AcDbEntity
  8
0
100
AcDbLine
 62
7
  6
BYLAYER
 10
108.2988732349
 20
179.9214358845
 11
108.7938500425
 21
179.6356673563
  0
LINE
  5
39B
100
AcDbEntity
  8
0
100
AcDbLine
 62
7
  6
BYLAYER
 10
125.4816395559
 20
170.001185546
 11
125.7531592921
 21
169.8444270995
  0
LINE
  5
39C
100
AcDbEntity
  8
0
100
AcDbLine
 62
7
  6
BYLAYER
 10
81.8671037601
 20
196.2837299208
 11
82.9984793204
 21
195.6305447133
  0
LINE
  5
39D
100
AcDbEntity
  8
0
100
AcDbLine
 62
7
  6
BYLAYER
 10
97.4235177134
 20
187.302433318
 11
98.5548932736
 21
186.6492481105
  0
LINE
  5
39E
100
AcDbEntity
  8
0
100
AcDbLine
 62
7
  6
BYLAYER
 10
109.7484402227
 20
180.186796964
 11
110.8798157829
 21
179.5336117565
  0
LINE
  5
39F
100
AcDbEntity
  8
0
100
AcDbLine
 62
7
  6
BYLAYER
 10
125.3048541759
 20
171.2055003611
 11
126.4362297362
 21
170.5523151537
  0
LINE
  5
3A0
100
AcDbEntity
  8
0
100
AcDbLine
 62
7
  6
BYLAYER
 10
84.9783700646
 20
196.7736283441
 11
90.3524039757
 21
193.6709986086
  0
LINE
  5
3A1
100
AcDbEntity
  8
0
100
AcDbLine
 62
7
  6
BYLAYER
 10
94.0293745465
 20
191.5481466843
 11
99.4034084576
 21
188.4455169488
  0
LINE
  5
3A2
100
AcDbEntity
  8
0
100
AcDbLine
 62
7
  6
BYLAYER
 10
112.8597065271
 20
180.6766953873
 11
118.2337404382
 21
177.5740656518
  0
LINE
  5
3A3
100
AcDbEntity
  8
0
100
AcDbLine
 62
7
  6
BYLAYER
 10
121.910711009
 20
175.4512137275
 11
127.2847449201
 21
172.348583992
  0
LINE
  5
3A4
100
AcDbEntity
  8
0
100
AcDbLine
 62
7
  6
BYLAYER
 10
128.3206530132
 20
172.8119416675
 11
122.946619102
 21
175.914571403
  0
LINE
  5
3A5
100
AcDbEntity
  8
0
100
AcDbLine
 62
7
  6
BYLAYER
 10
119.036302322
 20
178.1721427764
 11
113.6622684108
 21
181.2747725119
  0
LINE
  5
3A6
100
AcDbEntity
  8
0
100
AcDbLine
 62
7
  6
BYLAYER
 10
100.4393165506
 20
188.9088746243
 11
95.0652826395
 21
192.0115043598
  0
LINE
  5
3A7
100
AcDbEntity
  8
0
100
AcDbLine
 62
7
  6
BYLAYER
 10
91.1549658594
 20
194.2690757332
 11
85.7809319483
 21
197.3717054687
  0
LINE
  5
3A8
100
AcDbEntity
  8
0
100
AcDbLine
 62
7
  6
BYLAYER
 10
138.3293718942
 20
233.0590989986
 11
138.3293718942
 21
233.2993831723
  0
LINE
  5
3A9
100
AcDbEntity
  8
0
100
AcDbLine
 62
7
  6
BYLAYER
 10
140.0476641291
 20
228.4780082
 11
140.0476641291
 21
228.8944244327
  0
LINE
  5
3AA
100
AcDbEntity
  8
0
100
AcDbLine
 62
7
  6
BYLAYER
 10
141.3078952053
 20
210.8720705153
 11
141.3078952065
 21
218.6058796568
  0
LINE
  5
3AB
100
AcDbEntity
  8
0
100
AcDbLine
 62
7
  6
BYLAYER
 10
141.9214892979
 20
230.9852359649
 11
141.921489298
 21
231.2255201385
  0
LINE
  5
3AC
100
AcDbEntity
  8
0
100
AcDbLine
 62
7
  6
BYLAYER
 10
143.6397815328
 20
226.4041451663
 11
143.6397815329
 21
226.8205613989
  0
LINE
  5
3AD
100
AcDbEntity
  8
0
100
AcDbLine
 62
7
  6
BYLAYER
 10
144.1363058437
 20
212.8086702703
 11
144.1363058448
 21
219.5330315235
  0
LINE
  5
3AE
100
AcDbEntity
  8
0
100
AcDbLine
 62
7
  6
BYLAYER
 10
135.6074461653
 20
83.1130748822
 11
135.3795233227
 21
79.897009582
  0
LINE
  5
3AF
100
AcDbEntity
  8
0
100
AcDbLine
 62
7
  6
BYLAYER
 10
52.5188268998
 20
83.6660321772
 11
56.6633503954
 21
86.0588596498
  0
LINE
  5
3B0
100
AcDbEntity
  8
0
100
AcDbLine
 62
7
  6
BYLAYER
 10
59.1382344339
 20
84.6300170087
 11
57.4685743681
 21
83.6660440743
  0
LINE
  5
3B1
100
AcDbEntity
  8
0
100
AcDbLine
 62
7
  6
BYLAYER
 10
131.4319193176
 20
173.3018400909
 11
130.3005437574
 21
173.9550252983
  0
LINE
  5
3B2
100
AcDbEntity
  8
0
100
AcDbLine
 62
7
  6
BYLAYER
 10
115.6421591551
 20
182.4178561427
 11
114.5107835948
 21
183.0710413502
  0
LINE
  5
3B3
100
AcDbEntity
  8
0
100
AcDbLine
 62
7
  6
BYLAYER
 10
103.550582855
 20
189.3987730477
 11
102.4192072948
 21
190.0519582552
  0
LINE
  5
3B4
100
AcDbEntity
  8
0
100
AcDbLine
 62
7
  6
BYLAYER
 10
87.7608226925
 20
198.5147890995
 11
86.6294471323
 21
199.167974307
  0
LINE
  5
3B5
100
AcDbEntity
  8
0
100
AcDbLine
 62
7
  6
BYLAYER
 10
132.5413561293
 20
173.7635709767
 11
132.3865094978
 21
173.8529696986
  0
LINE
  5
3B6
100
AcDbEntity
  8
0
100
AcDbLine
 62
7
  6
BYLAYER
 10
115.4653737751
 20
183.6221709579
 11
114.9703969675
 21
183.9079394862
  0
LINE
  5
3B7
100
AcDbEntity
  8
0
100
AcDbLine
 62
7
  6
BYLAYER
 10
104.7165884728
 20
189.8278446569
 11
104.5051730353
 21
189.9499026554
  0
LINE
  5
3B8
100
AcDbEntity
  8
0
100
AcDbLine
 62
7
  6
BYLAYER
 10
87.5840373125
 20
199.7191039147
 11
87.0890605049
 21
200.004872443
  0
LINE
  5
3B9
100
AcDbEntity
  8
0
100
AcDbLine
 62
7
  6
BYLAYER
 10
90.1296070049
 20
201.7603223047
 11
90.6245838125
 21
201.4745537764
  0
LINE
  5
3BA
100
AcDbEntity
  8
0
100
AcDbLine
 62
7
  6
BYLAYER
 10
107.5457195353
 20
191.705352517
 11
107.7571349728
 21
191.5832945185
  0
LINE
  5
3BB
100
AcDbEntity
  8
0
100
AcDbLine
 62
7
  6
BYLAYER
 10
118.0109434675
 20
185.6633893479
 11
118.5059202751
 21
185.3776208196
  0
LINE
  5
3BC
100
AcDbEntity
  8
0
100
AcDbLine
 62
7
  6
BYLAYER
 10
135.4270559979
 20
175.6084195602
 11
135.5819026293
 21
175.5190208383
  0
LINE
  5
3BD
100
AcDbEntity
  8
0
100
AcDbLine
 62
7
  6
BYLAYER
 10
91.5791739928
 20
202.0256833841
 11
92.710549553
 21
201.3724981766
  0
LINE
  5
3BE
100
AcDbEntity
  8
0
100
AcDbLine
 62
7
  6
BYLAYER
 10
107.3689341553
 20
192.9096673322
 11
108.5003097155
 21
192.2564821248
  0
LINE
  5
3BF
100
AcDbEntity
  8
0
100
AcDbLine
 62
7
  6
BYLAYER
 10
119.4605104553
 20
185.9287504273
 11
120.5918860155
 21
185.2755652198
  0
LINE
  5
3C0
100
AcDbEntity
  8
0
100
AcDbLine
 62
7
  6
BYLAYER
 10
135.2502706179
 20
176.8127343754
 11
136.3816461781
 21
176.159549168
  0
LINE
  5
3C1
100
AcDbEntity
  8
0
100
AcDbLine
 62
7
  6
BYLAYER
 10
94.6904402972
 20
202.5155818075
 11
100.0644742083
 21
199.4129520719
  0
LINE
  5
3C2
100
AcDbEntity
  8
0
100
AcDbLine
 62
7
  6
BYLAYER
 10
103.9747909884
 20
197.1553806986
 11
109.3488248995
 21
194.0527509631
  0
LINE
  5
3C3
100
AcDbEntity
  8
0
100
AcDbLine
 62
7
  6
BYLAYER
 10
122.5717767597
 20
186.4186488507
 11
127.9458106709
 21
183.3160191151
  0
LINE
  5
3C4
100
AcDbEntity
  8
0
100
AcDbLine
 62
7
  6
BYLAYER
 10
131.8561274509
 20
181.0584477418
 11
137.230161362
 21
177.9558180063
  0
LINE
  5
3C5
100
AcDbEntity
  8
0
100
AcDbLine
 62
7
  6
BYLAYER
 10
145.5136067017
 20
228.9113729312
 11
145.5136067017
 21
229.1516571048
  0
LINE
  5
3C6
100
AcDbEntity
  8
0
100
AcDbLine
 62
7
  6
BYLAYER
 10
147.2318989366
 20
224.3302821325
 11
147.2318989366
 21
224.7466983652
  0
LINE
  5
3C7
100
AcDbEntity
  8
0
100
AcDbLine
 62
7
  6
BYLAYER
 10
149.1057241054
 20
226.8375098974
 11
149.1057241055
 21
227.0777940711
  0
LINE
  5
3C8
100
AcDbEntity
  8
0
100
AcDbLine
 62
7
  6
BYLAYER
 10
149.3143729926
 20
212.4401032727
 11
149.3143729938
 21
219.8131200987
  0
LINE
  5
3C9
100
AcDbEntity
  8
0
100
AcDbLine
 62
7
  6
BYLAYER
 10
149.911875735
 20
212.4788854619
 11
149.911875736
 21
218.3617810912
  0
LINE
  5
3CA
100
AcDbEntity
  8
0
100
AcDbLine
 62
7
  6
BYLAYER
 10
150.8240163403
 20
222.2564190988
 11
150.8240163404
 21
222.6728353315
  0
LINE
  5
3CB
100
AcDbEntity
  8
0
100
AcDbLine
 62
7
  6
BYLAYER
 10
152.6978415092
 20
224.7636468636
 11
152.6978415092
 21
225.0039310373
  0
LINE
  5
3CC
100
AcDbEntity
  8
0
100
AcDbLine
 62
7
  6
BYLAYER
 10
152.7968834135
 20
210.4090902008
 11
152.7968834146
 21
216.6961588121
  0
LINE
  5
3CD
100
AcDbEntity
  8
0
100
AcDbLine
 62
7
  6
BYLAYER
 10
66.1604660689
 20
87.1332854428
 11
67.1980060018
 21
87.7323058267
  0
LINE
  5
3CE
100
AcDbEntity
  8
0
100
AcDbLine
 62
7
  6
BYLAYER
 10
60.2969897167
 20
83.666015848
 11
58.882818263
 21
82.8495484522
  0
LINE
  5
3CF
100
AcDbEntity
  8
0
100
AcDbLine
 62
7
  6
BYLAYER
 10
66.1604660684
 20
84.3324979681
 11
67.2111643684
 21
84.9391152934
  0
LINE
  5
3D0
100
AcDbEntity
  8
0
100
AcDbLine
 62
7
  6
BYLAYER
 10
63.0547411968
 20
80.4409421124
 11
64.7244012636
 21
81.4049150473
  0
LINE
  5
3D1
100
AcDbEntity
  8
0
100
AcDbLine
 62
7
  6
BYLAYER
 10
63.0547618045
 20
77.5832449325
 11
67.2169633529
 21
79.9862787727
  0
LINE
  5
3D2
100
AcDbEntity
  8
0
100
AcDbLine
 62
7
  6
BYLAYER
 10
94.5843597074
 20
204.5363817012
 11
112.3886651066
 21
194.2572937264
  0
LINE
  5
3D3
100
AcDbEntity
  8
0
100
AcDbLine
 62
7
  6
BYLAYER
 10
122.4656961699
 20
188.4394487444
 11
140.2134327631
 21
178.1930200462
  0
LINE
  5
3D4
100
AcDbEntity
  8
0
100
AcDbLine
 62
7
  6
BYLAYER
 10
94.6795067217
 20
205.3874026245
 11
113.173254496
 21
194.7102739177
  0
LINE
  5
3D5
100
AcDbEntity
  8
0
100
AcDbLine
 62
7
  6
BYLAYER
 10
122.5042744062
 20
189.3231289342
 11
140.9980221577
 21
178.6460002404
  0
LINE
  5
3D6
100
AcDbEntity
  8
0
100
AcDbLine
 62
7
  6
BYLAYER
 10
154.2110969769
 20
216.6961622113
 11
154.2110969759
 21
210.4090936
  0
LINE
  5
3D7
100
AcDbEntity
  8
0
100
AcDbLine
 62
7
  6
BYLAYER
 10
155.9611490636
 20
223.6506151451
 11
155.9611490636
 21
223.4056644199
  0
LINE
  5
3D8
100
AcDbEntity
  8
0
100
AcDbLine
 62
7
  6
BYLAYER
 10
156.8980915573
 20
211.9604213847
 11
156.8980915583
 21
218.247489996
  0
LINE
  5
3D9
100
AcDbEntity
  8
0
100
AcDbLine
 62
7
  6
BYLAYER
 10
157.1909818322
 20
212.3686621392
 11
157.1909818332
 21
218.6557307505
  0
LINE
  5
3DA
100
AcDbEntity
  8
0
100
AcDbLine
 62
7
  6
BYLAYER
 10
159.9209305519
 20
225.2731735724
 11
159.9209305508
 21
218.5637655807
  0
LINE
  5
3DB
100
AcDbEntity
  8
0
100
AcDbLine
 62
7
  6
BYLAYER
 10
158.5725291833
 20
93.287417829
 11
158.5852501775
 21
95.7794603416
  0
LINE
  5
3DC
100
AcDbEntity
  8
0
100
AcDbLine
 62
7
  6
BYLAYER
 10
160.7809661264
 20
97.7686822358
 11
160.78532962
 21
98.6234905665
  0
LINE
  5
3DD
100
AcDbEntity
  8
0
100
AcDbLine
 62
7
  6
BYLAYER
 10
63.0547618043
 20
75.9502400907
 11
67.2246353672
 21
78.3577033441
  0
LINE
  5
3DE
100
AcDbEntity
  8
0
100
AcDbLine
 62
7
  6
BYLAYER
 10
118.5613772275
 20
199.0009150628
 11
118.0946848089
 21
199.2703539608
  0
LINE
  5
3DF
100
AcDbEntity
  8
0
100
AcDbLine
 62
7
  6
BYLAYER
 10
124.5374195621
 20
202.274791375
 11
124.8909744248
 21
202.0706709976
  0
LINE
  5
3E0
100
AcDbEntity
  8
0
100
AcDbLine
 62
7
  6
BYLAYER
 10
125.0323951923
 20
202.1523198283
 11
124.6788403296
 21
202.3564402058
  0
LINE
  5
3E1
100
AcDbEntity
  8
0
100
AcDbLine
 62
7
  6
BYLAYER
 10
124.9818761834
 20
203.2466520195
 11
125.448568602
 21
202.9772131215
  0
LINE
  5
3E2
100
AcDbEntity
  8
0
100
AcDbLine
 62
7
  6
BYLAYER
 10
130.2770706343
 20
204.8070848544
 11
126.0344122834
 21
207.2565293824
  0
LINE
  5
3E3
100
AcDbEntity
  8
0
100
AcDbLine
 62
7
  6
BYLAYER
 10
132.4714609701
 20
217.6150830477
 11
130.352111702
 21
220.2281860508
  0
LINE
  5
3E4
100
AcDbEntity
  8
0
100
AcDbLine
 62
7
  6
BYLAYER
 10
123.2766560942
 20
219.62641619
 11
125.7515401315
 21
219.4223271743
  0
LINE
  5
3E5
100
AcDbEntity
  8
0
100
AcDbLine
 62
7
  6
BYLAYER
 10
130.2770706354
 20
211.5314461077
 11
126.0344122845
 21
213.9808906357
  0
LINE
  5
3E6
100
AcDbEntity
  8
0
100
AcDbLine
 62
7
  6
BYLAYER
 10
133.671169054
 20
213.4910180462
 11
129.4285107032
 21
215.9404625743
  0
LINE
  5
3E7
100
AcDbEntity
  8
0
100
AcDbLine
 62
7
  6
BYLAYER
 10
134.2368568344
 20
214.5234381181
 11
125.7515401315
 21
219.4223271743
  0
LINE
  5
3E8
100
AcDbEntity
  8
0
100
AcDbLine
 62
7
  6
BYLAYER
 10
127.7074927531
 20
218.7013237029
 11
132.2859141245
 21
216.0580306902
  0
LINE
  5
3E9
100
AcDbEntity
  8
0
100
AcDbLine
 62
7
  6
BYLAYER
 10
141.3078952053
 20
211.4170267803
 11
141.7798479231
 21
211.1445509158
  0
LINE
  5
3EA
100
AcDbEntity
  8
0
100
AcDbLine
 62
7
  6
BYLAYER
 10
132.4714609701
 20
217.3716020272
 11
133.5162891851
 21
216.7683838224
  0
LINE
  5
3EB
100
AcDbEntity
  8
0
100
AcDbLine
 62
7
  6
BYLAYER
 10
134.9305330735
 20
217.5848930381
 11
130.3521117021
 21
220.2281860508
  0
LINE
  5
3EC
100
AcDbEntity
  8
0
100
AcDbLine
 62
7
  6
BYLAYER
 10
136.1907765561
 20
219.7624180846
 11
134.071427288
 21
222.3755210877
  0
LINE
  5
3ED
100
AcDbEntity
  8
0
100
AcDbLine
 62
7
  6
BYLAYER
 10
158.5852501775
 20
95.7794603416
 11
160.7809661264
 21
97.7686822358
  0
LINE
  5
3EE
100
AcDbEntity
  8
0
100
AcDbLine
 62
7
  6
BYLAYER
 10
192.7959939316
 20
117.1047459055
 11
170.923128384
 21
104.476516474
  0
LINE
  5
3EF
100
AcDbEntity
  8
0
100
AcDbLine
 62
7
  6
BYLAYER
 10
160.78532962
 20
98.6234905665
 11
135.6124330152
 21
84.0899986887
  0
LINE
  5
3F0
100
AcDbEntity
  8
0
100
AcDbLine
 62
7
  6
BYLAYER
 10
135.3795233227
 20
79.897009582
 11
103.5436135099
 21
61.5166482026
  0
LINE
  5
3F1
100
AcDbEntity
  8
0
100
AcDbLine
 62
7
  6
BYLAYER
 10
132.8225785037
 20
223.504768713
 11
130.3476944663
 21
223.7088577287
  0
LINE
  5
3F2
100
AcDbEntity
  8
0
100
AcDbLine
 62
7
  6
BYLAYER
 10
131.4268083391
 20
220.8486587398
 11
136.0052297106
 21
218.2053657271
  0
LINE
  5
3F3
100
AcDbEntity
  8
0
100
AcDbLine
 62
7
  6
BYLAYER
 10
136.1907765561
 20
219.5189370641
 11
137.2356047712
 21
218.9157188593
  0
LINE
  5
3F4
100
AcDbEntity
  8
0
100
AcDbLine
 62
7
  6
BYLAYER
 10
149.21577611
 20
212.076994555
 11
144.1363058441
 21
215.0095618226
  0
LINE
  5
3F5
100
AcDbEntity
  8
0
100
AcDbLine
 62
7
  6
BYLAYER
 10
129.7080240054
 20
223.3395460204
 11
127.2388061511
 21
224.7651174042
  0
LINE
  5
3F6
100
AcDbEntity
  8
0
100
AcDbLine
 62
7
  6
BYLAYER
 10
127.7616685701
 20
224.8832814751
 11
130.0717876239
 21
223.5495637898
  0
LINE
  5
3F7
100
AcDbEntity
  8
0
100
AcDbLine
 62
7
  6
BYLAYER
 10
144.1363058441
 20
215.4295941045
 11
149.3143729926
 21
212.4401032727
  0
LINE
  5
3F8
100
AcDbEntity
  8
0
100
AcDbLine
 62
7
  6
BYLAYER
 10
138.6498486595
 20
219.732228075
 11
134.071427288
 21
222.3755210877
  0
LINE
  5
3F9
100
AcDbEntity
  8
0
100
AcDbLine
 62
7
  6
BYLAYER
 10
141.3078952065
 20
218.6058796568
 11
132.8225785037
 21
223.504768713
  0
LINE
  5
3FA
100
AcDbEntity
  8
0
100
AcDbLine
 62
7
  6
BYLAYER
 10
139.8936474939
 20
221.9824760516
 11
144.1363058448
 21
219.5330315235
  0
LINE
  5
3FB
100
AcDbEntity
  8
0
100
AcDbLine
 62
7
  6
BYLAYER
 10
152.7968834146
 20
216.6961588121
 11
149.9118757359
 21
218.3617810912
  0
LINE
  5
3FC
100
AcDbEntity
  8
0
100
AcDbLine
 62
7
  6
BYLAYER
 10
127.7616685711
 20
231.1499198588
 11
125.4741636348
 21
232.4705815727
  0
LINE
  5
3FD
100
AcDbEntity
  8
0
100
AcDbLine
 62
7
  6
BYLAYER
 10
193.6230570212
 20
201.5855385054
 11
192.7959939316
 21
117.1047459055
  0
LINE
  5
3FE
100
AcDbEntity
  8
0
100
AcDbLine
 62
7
  6
BYLAYER
 10
195.1108441401
 20
203.6427873529
 11
194.2837810505
 21
119.161994753
  0
LINE
  5
3FF
100
AcDbEntity
  8
0
100
AcDbLine
 62
7
  6
BYLAYER
 10
170.923128384
 20
104.476516474
 11
158.5725291833
 21
93.287417829
  0
LINE
  5
400
100
AcDbEntity
  8
0
100
AcDbLine
 62
7
  6
BYLAYER
 10
127.7616685713
 20
232.2562983011
 11
149.3143729938
 21
219.8131200987
  0
LINE
  5
401
100
AcDbEntity
  8
0
100
AcDbLine
 62
7
  6
BYLAYER
 10
150.5765467782
 20
221.4522165863
 11
148.5612840615
 21
222.6157027372
  0
LINE
  5
402
100
AcDbEntity
  8
0
100
AcDbLine
 62
7
  6
BYLAYER
 10
146.9844293744
 20
223.5260796201
 11
144.9691666578
 21
224.6895657709
  0
LINE
  5
403
100
AcDbEntity
  8
0
100
AcDbLine
 62
7
  6
BYLAYER
 10
143.3923119707
 20
225.5999426538
 11
141.377049254
 21
226.7634288047
  0
LINE
  5
404
100
AcDbEntity
  8
0
100
AcDbLine
 62
7
  6
BYLAYER
 10
139.8001945669
 20
227.6738056876
 11
137.7849318503
 21
228.8372918384
  0
LINE
  5
405
100
AcDbEntity
  8
0
100
AcDbLine
 62
7
  6
BYLAYER
 10
136.2080771632
 20
229.7476687213
 11
134.1928144465
 21
230.9111548721
  0
LINE
  5
406
100
AcDbEntity
  8
0
100
AcDbLine
 62
7
  6
BYLAYER
 10
132.6159597594
 20
231.8215317551
 11
130.6006970428
 21
232.9850179059
  0
LINE
  5
407
100
AcDbEntity
  8
0
100
AcDbLine
 62
7
  6
BYLAYER
 10
132.8634293216
 20
232.6257342675
 11
133.4361632722
 21
232.2950736473
  0
LINE
  5
408
100
AcDbEntity
  8
0
100
AcDbLine
 62
7
  6
BYLAYER
 10
136.4555467253
 20
230.5518712337
 11
137.028280676
 21
230.2212106136
  0
LINE
  5
409
100
AcDbEntity
  8
0
100
AcDbLine
 62
7
  6
BYLAYER
 10
140.0476641291
 20
228.4780082
 11
140.6203980797
 21
228.1473475798
  0
LINE
  5
40A
100
AcDbEntity
  8
0
100
AcDbLine
 62
7
  6
BYLAYER
 10
143.6397815328
 20
226.4041451663
 11
144.2125154835
 21
226.0734845461
  0
LINE
  5
40B
100
AcDbEntity
  8
0
100
AcDbLine
 62
7
  6
BYLAYER
 10
147.2318989366
 20
224.3302821325
 11
147.8046328872
 21
223.9996215123
  0
LINE
  5
40C
100
AcDbEntity
  8
0
100
AcDbLine
 62
7
  6
BYLAYER
 10
150.8240163403
 20
222.2564190988
 11
151.396750291
 21
221.9257584786
  0
LINE
  5
40D
100
AcDbEntity
  8
0
100
AcDbLine
 62
7
  6
BYLAYER
 10
129.5753658907
 20
234.8383976652
 11
130.9047052923
 21
234.0709205662
  0
LINE
  5
40E
100
AcDbEntity
  8
0
100
AcDbLine
 62
7
  6
BYLAYER
 10
154.0130779918
 20
220.7295971836
 11
156.8980856704
 21
219.0639749045
  0
LINE
  5
40F
100
AcDbEntity
  8
0
100
AcDbLine
 62
7
  6
BYLAYER
 10
132.8634293217
 20
233.0421505002
 11
133.7967954638
 21
232.5032834974
  0
LINE
  5
410
100
AcDbEntity
  8
0
100
AcDbLine
 62
7
  6
BYLAYER
 10
136.4555467254
 20
230.9682874664
 11
137.3889128675
 21
230.4294204636
  0
LINE
  5
411
100
AcDbEntity
  8
0
100
AcDbLine
 62
7
  6
BYLAYER
 10
140.0476641291
 20
228.8944244327
 11
140.9810302713
 21
228.3555574299
  0
LINE
  5
412
100
AcDbEntity
  8
0
100
AcDbLine
 62
7
  6
BYLAYER
 10
143.6397815329
 20
226.8205613989
 11
144.573147675
 21
226.2816943961
  0
LINE
  5
413
100
AcDbEntity
  8
0
100
AcDbLine
 62
7
  6
BYLAYER
 10
147.2318989366
 20
224.7466983652
 11
148.1652650788
 21
224.2078313624
  0
LINE
  5
414
100
AcDbEntity
  8
0
100
AcDbLine
 62
7
  6
BYLAYER
 10
150.8240163404
 20
222.6728353315
 11
151.7573824825
 21
222.1339683286
  0
LINE
  5
415
100
AcDbEntity
  8
0
100
AcDbLine
 62
7
  6
BYLAYER
 10
134.7372544904
 20
235.1329620324
 11
136.5444220338
 21
234.089616968
  0
LINE
  5
416
100
AcDbEntity
  8
0
100
AcDbLine
 62
7
  6
BYLAYER
 10
138.3293718942
 20
233.0590989986
 11
140.1365394375
 21
232.0157539343
  0
LINE
  5
417
100
AcDbEntity
  8
0
100
AcDbLine
 62
7
  6
BYLAYER
 10
141.9214892979
 20
230.9852359649
 11
143.7286568412
 21
229.9418909005
  0
LINE
  5
418
100
AcDbEntity
  8
0
100
AcDbLine
 62
7
  6
BYLAYER
 10
145.5136067017
 20
228.9113729312
 11
147.320774245
 21
227.8680278668
  0
LINE
  5
419
100
AcDbEntity
  8
0
100
AcDbLine
 62
7
  6
BYLAYER
 10
149.1057241054
 20
226.8375098974
 11
150.9128916487
 21
225.794164833
  0
LINE
  5
41A
100
AcDbEntity
  8
0
100
AcDbLine
 62
7
  6
BYLAYER
 10
152.6978415092
 20
224.7636468636
 11
154.5050090525
 21
223.7203017993
  0
LINE
  5
41B
100
AcDbEntity
  8
0
100
AcDbLine
 62
7
  6
BYLAYER
 10
134.7372544905
 20
235.373246206
 11
136.7525172071
 21
234.2097600552
  0
LINE
  5
41C
100
AcDbEntity
  8
0
100
AcDbLine
 62
7
  6
BYLAYER
 10
138.3293718942
 20
233.2993831723
 11
140.3446346109
 21
232.1358970215
  0
LINE
  5
41D
100
AcDbEntity
  8
0
100
AcDbLine
 62
7
  6
BYLAYER
 10
141.921489298
 20
231.2255201385
 11
143.9367520146
 21
230.0620339877
  0
LINE
  5
41E
100
AcDbEntity
  8
0
100
AcDbLine
 62
7
  6
BYLAYER
 10
145.5136067017
 20
229.1516571048
 11
147.5288694184
 21
227.988170954
  0
LINE
  5
41F
100
AcDbEntity
  8
0
100
AcDbLine
 62
7
  6
BYLAYER
 10
149.1057241055
 20
227.0777940711
 11
151.1209868221
 21
225.9143079202
  0
LINE
  5
420
100
AcDbEntity
  8
0
100
AcDbLine
 62
7
  6
BYLAYER
 10
152.6978415092
 20
225.0039310373
 11
154.7131042259
 21
223.8404448865
  0
LINE
  5
421
100
AcDbEntity
  8
0
100
AcDbLine
 62
7
  6
BYLAYER
 10
134.4084446411
 20
236.0937933475
 11
155.9611490636
 21
223.650615145
  0
LINE
  5
422
100
AcDbEntity
  8
0
100
AcDbLine
 62
7
  6
BYLAYER
 10
137.6988820879
 20
237.0786095961
 11
159.2515865104
 21
224.6354313937
  0
LINE
  5
423
100
AcDbEntity
  8
0
100
AcDbLine
 62
7
  6
BYLAYER
 10
137.8378982515
 20
237.4369056085
 11
159.390602674
 21
224.993727406
  0
LINE
  5
424
100
AcDbEntity
  8
0
100
AcDbLine
 62
7
  6
BYLAYER
 10
193.6230179346
 20
205.733215933
 11
159.9209305519
 21
225.190684969
  0
LINE
  5
425
100
AcDbEntity
  8
0
100
AcDbLine
 62
7
  6
BYLAYER
 10
138.2935263309
 20
237.6769901399
 11
123.8802460123
 21
245.9983131582
  0
LINE
  5
426
100
AcDbEntity
  8
0
100
AcDbLine
 62
7
  6
BYLAYER
 10
138.3682261294
 20
237.7163517748
 11
159.9209305519
 21
225.2731735724
  0
ARC
  5
427
100
AcDbEntity
  8
0
100
AcDbCircle
 62
7
  6
BYLAYER
 10
42.9801061722
 20
191.9678067323
 40
4.7547449004
100
AcDbArc
 50
252.5345687046
 51
253.5170011515
  0
ARC
  5
428
100
AcDbEntity
  8
0
100
AcDbCircle
 62
7
  6
BYLAYER
 10
43.719322756
 20
191.3041038662
 40
4.0470330288
100
AcDbArc
 50
292.6706328981
 51
293.2157780072
  0
ARC
  5
429
100
AcDbEntity
  8
0
100
AcDbCircle
 62
7
  6
BYLAYER
 10
117.0546532731
 20
205.6530543907
 40
2.8994307499
100
AcDbArc
 50
282.6880457765
 51
286.11238384
  0
ARC
  5
42A
100
AcDbEntity
  8
0
100
AcDbCircle
 62
7
  6
BYLAYER
 10
41.0609869646
 20
188.5114894202
 40
1.3393856138
100
AcDbArc
 50
155.2356492794
 51
162.9555557491
  0
ARC
  5
42B
100
AcDbEntity
  8
0
100
AcDbCircle
 62
7
  6
BYLAYER
 10
117.2206444058
 20
203.6228036441
 40
0.9088016622
100
AcDbArc
 50
299.9957250617
 51
301.4523934347
  0
ARC
  5
42C
100
AcDbEntity
  8
0
100
AcDbCircle
 62
7
  6
BYLAYER
 10
124.9783104687
 20
201.6504134852
 40
0.4143449699
100
AcDbArc
 50
350.747219617
 51
359.9676470524
  0
ARC
  5
42D
100
AcDbEntity
  8
0
100
AcDbCircle
 62
7
  6
BYLAYER
 10
118.5515612988
 20
199.2906773729
 40
0.4130687143
100
AcDbArc
 50
180.0209119108
 51
188.0176963259
  0
SPLINE
  5
42E
100
AcDbEntity
  8
0
100
AcDbSpline
 62
7
  6
BYLAYER
 70
0
 71
3
 72
11
 73
7
 74
0
 42
0.0000001
 43
0.0000001
 44
0.0000000001
 40
0.0
 40
0.0
 40
0.0
 40
0.0
 40
0.2612564132
 40
0.513084153
 40
0.7582637227
 40
1.0
 40
1.0
 40
1.0
 40
1.0
 10
46.0370612668
 20
187.9740290972
 30
0.0
 10
46.0648729503
 20
188.0193593735
 30
0.0
 10
46.1142954412
 20
188.1117348947
 30
0.0
 10
46.1688735442
 20
188.2566126556
 30
0.0
 10
46.2018397023
 20
188.4038425893
 30
0.0
 10
46.2092143633
 20
188.5031103388
 30
0.0
 10
46.2092121348
 20
188.5523187593
 30
0.0
  0
SPLINE
  5
42F
100
AcDbEntity
  8
0
100
AcDbSpline
 62
7
  6
BYLAYER
 70
0
 71
3
 72
14
 73
10
 74
0
 42
0.0000001
 43
0.0000001
 44
0.0000000001
 40
0.0
 40
0.0
 40
0.0
 40
0.0
 40
0.1079764432
 40
0.218000133
 40
0.3319336885
 40
0.4513173308
 40
0.5772870874
 40
0.7105834347
 40
1.0
 40
1.0
 40
1.0
 40
1.0
 10
40.2092190327
 20
191.1747583289
 30
0.0
 10
40.2092164484
 20
191.231725416
 30
0.0
 10
40.2191491597
 20
191.3469717202
 30
0.0
 10
40.2634328811
 20
191.517179473
 30
0.0
 10
40.3365458779
 20
191.6836962496
 30
0.0
 10
40.4375383966
 20
191.8448176601
 30
0.0
 10
40.5652714535
 20
191.9991101378
 30
0.0
 10
40.7751360812
 20
192.1992147467
 30
0.0
 10
40.9605732557
 20
192.3263345545
 30
0.0
 10
41.092966932
 20
192.4024068004
 30
0.0
  0
SPLINE
  5
430
100
AcDbEntity
  8
0
100
AcDbSpline
 62
7
  6
BYLAYER
 70
0
 71
3
 72
24
 73
20
 74
0
 42
0.0000001
 43
0.0000001
 44
0.0000000001
 40
0.0
 40
0.0
 40
0.0
 40
0.0
 40
0.0624523141
 40
0.1288475177
 40
0.1984817344
 40
0.270485238
 40
0.3438759501
 40
0.4176090265
 40
0.4906246815
 40
0.5618949485
 40
0.6304712923
 40
0.695536206
 40
0.7564620317
 40
0.8128807929
 40
0.8647678043
 40
0.9125349113
 40
0.9571069536
 40
0.9786674244
 40
1.0
 40
1.0
 40
1.0
 40
1.0
 10
41.092966932
 20
192.4024068004
 30
0.0
 10
41.2008855694
 20
192.4644159034
 30
0.0
 10
41.432054454
 20
192.5778668289
 30
0.0
 10
41.8047829475
 20
192.7122764113
 30
0.0
 10
42.2073836867
 20
192.8139287727
 30
0.0
 10
42.6312634089
 20
192.8806548721
 30
0.0
 10
43.0674487003
 20
192.9110543834
 30
0.0
 10
43.5066513542
 20
192.9044789746
 30
0.0
 10
43.9395216139
 20
192.8610688619
 30
0.0
 10
44.3568537376
 20
192.7817456903
 30
0.0
 10
44.7498000199
 20
192.6681814417
 30
0.0
 10
45.1100705373
 20
192.5227411477
 30
0.0
 10
45.4301111126
 20
192.3483816835
 30
0.0
 10
45.7032329046
 20
192.148540029
 30
0.0
 10
45.9236285151
 20
191.9269049051
 30
0.0
 10
46.0862333047
 20
191.6875947785
 30
0.0
 10
46.1706621743
 20
191.4744040735
 30
0.0
 10
46.2037242896
 20
191.3028620278
 30
0.0
 10
46.2092102262
 20
191.2172733399
 30
0.0
 10
46.2092121548
 20
191.1747583235
 30
0.0
  0
SPLINE
  5
431
100
AcDbEntity
  8
0
100
AcDbSpline
 62
7
  6
BYLAYER
 70
0
 71
3
 72
9
 73
5
 74
0
 42
0.0000001
 43
0.0000001
 44
0.0000000001
 40
0.0
 40
0.0
 40
0.0
 40
0.0
 40
0.4910449419
 40
1.0
 40
1.0
 40
1.0
 40
1.0
 10
40.2092190518
 20
188.5523187681
 30
0.0
 10
40.2092226745
 20
188.4723254208
 30
0.0
 10
40.2291222474
 20
188.3088640824
 30
0.0
 10
40.2862533714
 20
188.1547268327
 30
0.0
 10
40.3227745462
 20
188.0802927353
 30
0.0
  0
SPLINE
  5
432
100
AcDbEntity
  8
0
100
AcDbSpline
 62
7
  6
BYLAYER
 70
0
 71
3
 72
24
 73
20
 74
0
 42
0.0000001
 43
0.0000001
 44
0.0000000001
 40
0.0
 40
0.0
 40
0.0
 40
0.0
 40
0.0624523141
 40
0.1288475177
 40
0.1984817344
 40
0.270485238
 40
0.3438759501
 40
0.4176090265
 40
0.4906246815
 40
0.5618949485
 40
0.6304712923
 40
0.695536206
 40
0.7564620317
 40
0.8128807929
 40
0.8647678043
 40
0.9125349113
 40
0.9571069536
 40
0.9786674244
 40
1.0
 40
1.0
 40
1.0
 40
1.0
 10
45.3254642555
 20
189.9471098519
 30
0.0
 10
45.2175456181
 20
189.8851007489
 30
0.0
 10
44.9863767335
 20
189.7716498234
 30
0.0
 10
44.61364824
 20
189.6372402411
 30
0.0
 10
44.2110475008
 20
189.5355878797
 30
0.0
 10
43.7871677786
 20
189.4688617803
 30
0.0
 10
43.3509824872
 20
189.438462269
 30
0.0
 10
42.9117798333
 20
189.4450376777
 30
0.0
 10
42.4789095736
 20
189.4884477904
 30
0.0
 10
42.0615774499
 20
189.567770962
 30
0.0
 10
41.6686311676
 20
189.6813352106
 30
0.0
 10
41.3083606502
 20
189.8267755046
 30
0.0
 10
40.9883200749
 20
190.0011349688
 30
0.0
 10
40.7151982829
 20
190.2009766234
 30
0.0
 10
40.4948026724
 20
190.4226117473
 30
0.0
 10
40.3321978828
 20
190.6619218739
 30
0.0
 10
40.2477690132
 20
190.8751125788
 30
0.0
 10
40.2147068979
 20
191.0466546245
 30
0.0
 10
40.2092209613
 20
191.1322433124
 30
0.0
 10
40.2092190327
 20
191.1747583289
 30
0.0
  0
SPLINE
  5
433
100
AcDbEntity
  8
0
100
AcDbSpline
 62
7
  6
BYLAYER
 70
0
 71
3
 72
14
 73
10
 74
0
 42
0.0000001
 43
0.0000001
 44
0.0000000001
 40
0.0
 40
0.0
 40
0.0
 40
0.0
 40
0.1079764432
 40
0.218000133
 40
0.3319336885
 40
0.4513173308
 40
0.5772870874
 40
0.7105834347
 40
1.0
 40
1.0
 40
1.0
 40
1.0
 10
46.2092121548
 20
191.1747583235
 30
0.0
 10
46.2092147391
 20
191.1177912364
 30
0.0
 10
46.1992820278
 20
191.0025449321
 30
0.0
 10
46.1549983064
 20
190.8323371793
 30
0.0
 10
46.0818853096
 20
190.6658204028
 30
0.0
 10
45.9808927909
 20
190.5046989923
 30
0.0
 10
45.8531597341
 20
190.3504065145
 30
0.0
 10
45.6432951064
 20
190.1503019056
 30
0.0
 10
45.4578579318
 20
190.0231820978
 30
0.0
 10
45.3254642555
 20
189.9471098519
 30
0.0
  0
SPLINE
  5
434
100
AcDbEntity
  8
0
100
AcDbSpline
 62
7
  6
BYLAYER
 70
0
 71
3
 72
9
 73
5
 74
0
 42
0.0000001
 43
0.0000001
 44
0.0000000001
 40
0.0
 40
0.0
 40
0.0
 40
0.0
 40
0.486288011
 40
1.0
 40
1.0
 40
1.0
 40
1.0
 10
118.3384922706
 20
199.2905266103
 30
0.0
 10
118.3384922682
 20
199.255886893
 30
0.0
 10
118.3495885218
 20
199.1842882837
 30
0.0
 10
118.3805710019
 20
199.1191059035
 30
0.0
 10
118.4000076121
 20
199.0881013713
 30
0.0
  0
SPLINE
  5
435
100
AcDbEntity
  8
0
100
AcDbSpline
 62
7
  6
BYLAYER
 70
0
 71
3
 72
12
 73
8
 74
0
 42
0.0000001
 43
0.0000001
 44
0.0000000001
 40
0.0
 40
0.0
 40
0.0
 40
0.0
 40
0.1081611056
 40
0.218361969
 40
0.4513635025
 40
0.7104173283
 40
1.0
 40
1.0
 40
1.0
 40
1.0
 10
118.138492612
 20
199.2905266103
 30
0.0
 10
118.1384926115
 20
199.3138116872
 30
0.0
 10
118.1425499408
 20
199.3609174526
 30
0.0
 10
118.1670054786
 20
199.4553597442
 30
0.0
 10
118.2298313489
 20
199.5711556622
 30
0.0
 10
118.3468243385
 20
199.6940449611
 30
0.0
 10
118.444755913
 20
199.7614919929
 30
0.0
 10
118.4987455501
 20
199.7926627383
 30
0.0
  0
SPLINE
  5
436
100
AcDbEntity
  8
0
100
AcDbSpline
 62
7
  6
BYLAYER
 70
0
 71
3
 72
15
 73
11
 74
0
 42
0.0000001
 43
0.0000001
 44
0.0000000001
 40
0.0
 40
0.0
 40
0.0
 40
0.0
 40
0.1141545727
 40
0.2373261359
 40
0.3669756039
 40
0.4999994966
 40
0.6330234587
 40
0.762673132
 40
0.8858450149
 40
1.0
 40
1.0
 40
1.0
 40
1.0
 10
122.9393576476
 20
202.3564360245
 30
0.0
 10
122.9988982439
 20
202.3908115987
 30
0.0
 10
123.129094516
 20
202.4514390538
 30
0.0
 10
123.3411116464
 20
202.5158795673
 30
0.0
 10
123.5706533942
 20
202.5555451808
 30
0.0
 10
123.8090975525
 20
202.5689282334
 30
0.0
 10
124.0475418971
 20
202.5555463066
 30
0.0
 10
124.2770841926
 20
202.5158817779
 30
0.0
 10
124.4891022158
 20
202.4514422754
 30
0.0
 10
124.61929927
 20
202.3908154749
 30
0.0
 10
124.6788403293
 20
202.3564402059
 30
0.0
  0
SPLINE
  5
437
100
AcDbEntity
  8
0
100
AcDbSpline
 62
7
  6
BYLAYER
 70
0
 71
3
 72
12
 73
8
 74
0
 42
0.0000001
 43
0.0000001
 44
0.0000000001
 40
0.0
 40
0.0
 40
0.0
 40
0.0
 40
0.2895831544
 40
0.5486371604
 40
0.7816384909
 40
0.891839144
 40
1.0
 40
1.0
 40
1.0
 40
1.0
 10
125.0323951924
 20
202.1523198283
 30
0.0
 10
125.0863858405
 20
202.1211490182
 30
0.0
 10
125.1843192748
 20
202.0537017238
 30
0.0
 10
125.301314644
 20
201.9308115167
 30
0.0
 10
125.3641418854
 20
201.8150144315
 30
0.0
 10
125.3885979567
 20
201.7205711178
 30
0.0
 10
125.392655372
 20
201.6734648423
 30
0.0
 10
125.3926553726
 20
201.6501795189
 30
0.0
  0
SPLINE
  5
438
100
AcDbEntity
  8
0
100
AcDbSpline
 62
7
  6
BYLAYER
 70
0
 71
3
 72
9
 73
5
 74
0
 42
0.0000001
 43
0.0000001
 44
0.0000000001
 40
0.0
 40
0.0
 40
0.0
 40
0.0
 40
0.5147902773
 40
1.0
 40
1.0
 40
1.0
 40
1.0
 10
125.1258229315
 20
201.4394650555
 30
0.0
 10
125.1468592497
 20
201.4715244985
 30
0.0
 10
125.1805182092
 20
201.5391425978
 30
0.0
 10
125.1926557116
 20
201.6140379299
 30
0.0
 10
125.192655714
 20
201.650179519
 30
0.0
  0
SPLINE
  5
439
100
AcDbEntity
  8
0
100
AcDbSpline
 62
7
  6
BYLAYER
 70
0
 71
3
 72
15
 73
11
 74
0
 42
0.0000001
 43
0.0000001
 44
0.0000000001
 40
0.0
 40
0.0
 40
0.0
 40
0.0
 40
0.1141549974
 40
0.2373268943
 40
0.3669765743
 40
0.5000005394
 40
0.6330244291
 40
0.7626738905
 40
0.8858454396
 40
1.0
 40
1.0
 40
1.0
 40
1.0
 10
124.537419562
 20
202.2747913751
 30
0.0
 10
124.4875599703
 20
202.3035771725
 30
0.0
 10
124.3785331557
 20
202.3543459603
 30
0.0
 10
124.2009895911
 20
202.4083074975
 30
0.0
 10
124.0087712331
 20
202.441522505
 30
0.0
 10
123.809098323
 20
202.4527285038
 30
0.0
 10
123.6094255761
 20
202.4415215524
 30
0.0
 10
123.4172077028
 20
202.4083056278
 30
0.0
 10
123.2396649192
 20
202.3543432492
 30
0.0
 10
123.1306387858
 20
202.3035739204
 30
0.0
 10
123.0807795926
 20
202.2747878736
 30
0.0
  0
SPLINE
  5
43A
100
AcDbEntity
  8
0
100
AcDbSpline
 62
7
  6
BYLAYER
 70
0
 71
3
 72
11
 73
7
 74
0
 42
0.0000001
 43
0.0000001
 44
0.0000000001
 40
0.0
 40
0.0
 40
0.0
 40
0.0
 40
0.2898017708
 40
0.5490515988
 40
0.7822294074
 40
1.0
 40
1.0
 40
1.0
 40
1.0
 10
118.6401674956
 20
199.7110145877
 30
0.0
 10
118.5949566599
 20
199.6849122553
 30
0.0
 10
118.5129473599
 20
199.6284608107
 30
0.0
 10
118.4149838062
 20
199.5254398901
 30
0.0
 10
118.3529715733
 20
199.4115386051
 30
0.0
 10
118.3384922732
 20
199.3297558105
 30
0.0
 10
118.3384922706
 20
199.2905266103
 30
0.0
  0
SPLINE
  5
43B
100
AcDbEntity
  8
0
100
AcDbSpline
 62
7
  6
BYLAYER
 70
0
 71
3
 72
11
 73
7
 74
0
 42
0.0000001
 43
0.0000001
 44
0.0000000001
 40
0.0
 40
0.0
 40
0.0
 40
0.0
 40
0.2177701422
 40
0.4509477659
 40
0.7101977596
 40
1.0
 40
1.0
 40
1.0
 40
1.0
 10
125.192655714
 20
201.650179519
 30
0.0
 10
125.1926557167
 20
201.6894091433
 30
0.0
 10
125.1781760758
 20
201.7711928849
 30
0.0
 10
125.1161625018
 20
201.8850952725
 30
0.0
 10
125.0181969587
 20
201.9881169553
 30
0.0
 10
124.9361861046
 20
202.0445686126
 30
0.0
 10
124.890974425
 20
202.0706709975
 30
0.0
  0
SPLINE
  5
43C
100
AcDbEntity
  8
0
100
AcDbSpline
 62
7
  6
BYLAYER
 70
0
 71
3
 72
18
 73
14
 74
0
 42
0.0000001
 43
0.0000001
 44
0.0000000001
 40
0.0
 40
0.0
 40
0.0
 40
0.0
 40
0.042847704
 40
0.0874648297
 40
0.1352861146
 40
0.1872374042
 40
0.2437281458
 40
0.3047334316
 40
0.4383675807
 40
0.5826756901
 40
0.7297918191
 40
0.8713433915
 40
1.0
 40
1.0
 40
1.0
 40
1.0
 10
127.7820873557
 20
213.6951299259
 30
0.0
 10
127.7820815783
 20
213.6381957828
 30
0.0
 10
127.7973248001
 20
213.5214835675
 30
0.0
 10
127.8642424982
 20
213.3529532262
 30
0.0
 10
127.9728642045
 20
213.1931910364
 30
0.0
 10
128.1200861579
 20
213.0453685746
 30
0.0
 10
128.3025028926
 20
212.9120538592
 30
0.0
 10
128.5963638682
 20
212.7522967749
 30
0.0
 10
129.0269618491
 20
212.6084868187
 30
0.0
 10
129.588822891
 20
212.5295925349
 30
0.0
 10
130.1667453592
 20
212.545555507
 30
0.0
 10
130.7130371489
 20
212.6548718804
 30
0.0
 10
131.0482496666
 20
212.7931721791
 30
0.0
 10
131.1962997358
 20
212.8786484162
 30
0.0
  0
SPLINE
  5
43D
100
AcDbEntity
  8
0
100
AcDbSpline
 62
7
  6
BYLAYER
 70
0
 71
3
 72
9
 73
5
 74
0
 42
0.0000001
 43
0.0000001
 44
0.0000000001
 40
0.0
 40
0.0
 40
0.0
 40
0.0
 40
0.5204970875
 40
1.0
 40
1.0
 40
1.0
 40
1.0
 10
141.0633175481
 20
218.7317952364
 30
0.0
 10
141.1975281597
 20
218.7595531658
 30
0.0
 10
141.4522248594
 20
218.8300341122
 30
0.0
 10
141.6935153982
 20
218.9391825282
 30
0.0
 10
141.8028572941
 20
219.0023107243
 30
0.0
  0
SPLINE
  5
43E
100
AcDbEntity
  8
0
100
AcDbSpline
 62
7
  6
BYLAYER
 70
0
 71
3
 72
12
 73
8
 74
0
 42
0.0000001
 43
0.0000001
 44
0.0000000001
 40
0.0
 40
0.0
 40
0.0
 40
0.0
 40
0.2895712533
 40
0.5486429745
 40
0.7816379692
 40
0.8918399222
 40
1.0
 40
1.0
 40
1.0
 40
1.0
 10
141.8028572941
 20
219.0023107243
 30
0.0
 10
141.8906417896
 20
219.0529928239
 30
0.0
 10
142.0498768016
 20
219.162667879
 30
0.0
 10
142.2401244191
 20
219.3624787795
 30
0.0
 10
142.3422578769
 20
219.550777396
 30
0.0
 10
142.3820482387
 20
219.7043343591
 30
0.0
 10
142.3886269316
 20
219.7809307102
 30
0.0
 10
142.3886307736
 20
219.8187922334
 30
0.0
  0
SPLINE
  5
43F
100
AcDbEntity
  8
0
100
AcDbSpline
 62
7
  6
BYLAYER
 70
0
 71
3
 72
12
 73
8
 74
0
 42
0.0000001
 43
0.0000001
 44
0.0000000001
 40
0.0
 40
0.0
 40
0.0
 40
0.0
 40
0.2895712533
 40
0.5486429745
 40
0.7816379692
 40
0.8918399222
 40
1.0
 40
1.0
 40
1.0
 40
1.0
 10
131.1962997358
 20
212.8786484162
 30
0.0
 10
131.2840842314
 20
212.9293305159
 30
0.0
 10
131.4433192434
 20
213.0390055709
 30
0.0
 10
131.6335668608
 20
213.2388164714
 30
0.0
 10
131.7357003187
 20
213.4271150879
 30
0.0
 10
131.7754906805
 20
213.580672051
 30
0.0
 10
131.7820693733
 20
213.6572684022
 30
0.0
 10
131.7820732154
 20
213.6951299253
 30
0.0
  0
SPLINE
  5
440
100
AcDbEntity
  8
0
100
AcDbSpline
 62
7
  6
BYLAYER
 70
0
 71
3
 72
11
 73
7
 74
0
 42
0.0000001
 43
0.0000001
 44
0.0000000001
 40
0.0
 40
0.0
 40
0.0
 40
0.0
 40
0.2436202228
 40
0.4994529146
 40
0.7555780618
 40
1.0
 40
1.0
 40
1.0
 40
1.0
 10
130.5817872282
 20
212.6653970258
 30
0.0
 10
130.4584468532
 20
212.7082802729
 30
0.0
 10
130.1967789925
 20
212.7719127989
 30
0.0
 10
129.7915546918
 20
212.8041041813
 30
0.0
 10
129.3856894141
 20
212.7747347435
 30
0.0
 10
129.1229788391
 20
212.7130164919
 30
0.0
 10
128.998867117
 20
212.671057991
 30
0.0
  0
SPLINE
  5
441
100
AcDbEntity
  8
0
100
AcDbSpline
 62
7
  6
BYLAYER
 70
0
 71
3
 72
18
 73
14
 74
0
 42
0.0000001
 43
0.0000001
 44
0.0000000001
 40
0.0
 40
0.0
 40
0.0
 40
0.0
 40
0.042847704
 40
0.0874648297
 40
0.1352861146
 40
0.1872374042
 40
0.2437281458
 40
0.3047334316
 40
0.4383675807
 40
0.5826756901
 40
0.7297918191
 40
0.8713433915
 40
1.0
 40
1.0
 40
1.0
 40
1.0
 10
142.3886307736
 20
219.8187922334
 30
0.0
 10
142.3886365511
 20
219.8757263765
 30
0.0
 10
142.3733933292
 20
219.9924385918
 30
0.0
 10
142.3064756311
 20
220.160968933
 30
0.0
 10
142.1978539248
 20
220.3207311228
 30
0.0
 10
142.0506319714
 20
220.4685535847
 30
0.0
 10
141.8682152368
 20
220.6018683001
 30
0.0
 10
141.5743542611
 20
220.7616253843
 30
0.0
 10
141.1437562802
 20
220.9054353405
 30
0.0
 10
140.5818952383
 20
220.9843296244
 30
0.0
 10
140.0039727702
 20
220.9683666523
 30
0.0
 10
139.4576809804
 20
220.8590502789
 30
0.0
 10
139.1224684627
 20
220.7207499801
 30
0.0
 10
138.9744183935
 20
220.635273743
 30
0.0
  0
SPLINE
  5
442
100
AcDbEntity
  8
0
100
AcDbSpline
 62
7
  6
BYLAYER
 70
0
 71
3
 72
9
 73
5
 74
0
 42
0.0000001
 43
0.0000001
 44
0.0000000001
 40
0.0
 40
0.0
 40
0.0
 40
0.0
 40
0.2745356534
 40
1.0
 40
1.0
 40
1.0
 40
1.0
 10
138.9744183935
 20
220.635273743
 30
0.0
 10
138.9239290116
 20
220.6061238588
 30
0.0
 10
138.7453950111
 20
220.4918118767
 30
0.0
 10
138.5871977672
 20
220.3393270982
 30
0.0
 10
138.5059516524
 20
220.2084334881
 30
0.0
  0
SPLINE
  5
443
100
AcDbEntity
  8
0
100
AcDbSpline
 62
7
  6
BYLAYER
 70
0
 71
3
 72
10
 73
6
 74
0
 42
0.0000001
 43
0.0000001
 44
0.0000000001
 40
0.0
 40
0.0
 40
0.0
 40
0.0
 40
0.5184095207
 40
0.7660894571
 40
1.0
 40
1.0
 40
1.0
 40
1.0
 10
140.356947643
 20
219.17702092
 30
0.0
 10
140.5837587051
 20
219.1791022568
 30
0.0
 10
140.9207743064
 20
219.1496902971
 30
0.0
 10
141.3456678598
 20
219.0428332775
 30
0.0
 10
141.5433044128
 20
218.967787677
 30
0.0
 10
141.6362547439
 20
218.9249579728
 30
0.0
  0
SPLINE
  5
444
100
AcDbEntity
  8
0
100
AcDbSpline
 62
7
  6
BYLAYER
 70
0
 71
3
 72
9
 73
5
 74
0
 42
0.0000001
 43
0.0000001
 44
0.0000000001
 40
0.0
 40
0.0
 40
0.0
 40
0.0
 40
0.2443708283
 40
1.0
 40
1.0
 40
1.0
 40
1.0
 10
141.1883447865
 20
218.7890593339
 30
0.0
 10
141.1659068053
 20
218.7968606195
 30
0.0
 10
141.0735223054
 20
218.8271453787
 30
0.0
 10
140.9790794194
 20
218.8510671077
 30
0.0
 10
140.9071196228
 20
218.8658140269
 30
0.0
  0
SPLINE
  5
445
100
AcDbEntity
  8
0
100
AcDbSpline
 62
7
  6
BYLAYER
 70
0
 71
3
 72
11
 73
7
 74
0
 42
0.0000001
 43
0.0000001
 44
0.0000000001
 40
0.0
 40
0.0
 40
0.0
 40
0.0
 40
0.2404404153
 40
0.4998559018
 40
0.7593565325
 40
1.0
 40
1.0
 40
1.0
 40
1.0
 10
128.5297779267
 20
212.7991166682
 30
0.0
 10
128.7162895233
 20
212.8855911976
 30
0.0
 10
129.1291598168
 20
213.0125417956
 30
0.0
 10
129.7791864925
 20
213.0744843645
 30
0.0
 10
130.4294845771
 20
213.0135997771
 30
0.0
 10
130.842824572
 20
212.8874029294
 30
0.0
 10
131.0296971857
 20
212.8012956647
 30
0.0
  0
SPLINE
  5
446
100
AcDbEntity
  8
0
100
AcDbSpline
 62
7
  6
BYLAYER
 70
0
 71
3
 72
12
 73
8
 74
0
 42
0.0000001
 43
0.0000001
 44
0.0000000001
 40
0.0
 40
0.0
 40
0.0
 40
0.0
 40
0.2895712533
 40
0.5486429745
 40
0.7816379692
 40
0.8918399222
 40
1.0
 40
1.0
 40
1.0
 40
1.0
 10
128.3678608353
 20
214.5116114349
 30
0.0
 10
128.2800763397
 20
214.4609293353
 30
0.0
 10
128.1208413277
 20
214.3512542802
 30
0.0
 10
127.9305937103
 20
214.1514433797
 30
0.0
 10
127.8284602524
 20
213.9631447633
 30
0.0
 10
127.7886698906
 20
213.8095878001
 30
0.0
 10
127.7820911978
 20
213.732991449
 30
0.0
 10
127.7820873557
 20
213.6951299259
 30
0.0
  0
SPLINE
  5
447
100
AcDbEntity
  8
0
100
AcDbSpline
 62
7
  6
BYLAYER
 70
0
 71
3
 72
18
 73
14
 74
0
 42
0.0000001
 43
0.0000001
 44
0.0000000001
 40
0.0
 40
0.0
 40
0.0
 40
0.0
 40
0.042847704
 40
0.0874648297
 40
0.1352861146
 40
0.1872374042
 40
0.2437281458
 40
0.3047334316
 40
0.4383675807
 40
0.5826756901
 40
0.7297918191
 40
0.8713433915
 40
1.0
 40
1.0
 40
1.0
 40
1.0
 10
131.7820732154
 20
213.6951299253
 30
0.0
 10
131.7820789928
 20
213.7520640684
 30
0.0
 10
131.766835771
 20
213.8687762837
 30
0.0
 10
131.6999180729
 20
214.0373066249
 30
0.0
 10
131.5912963666
 20
214.1970688147
 30
0.0
 10
131.4440744132
 20
214.3448912766
 30
0.0
 10
131.2616576785
 20
214.478205992
 30
0.0
 10
130.9677967029
 20
214.6379630762
 30
0.0
 10
130.537198722
 20
214.7817730325
 30
0.0
 10
129.9753376801
 20
214.8606673163
 30
0.0
 10
129.3974152119
 20
214.8447043442
 30
0.0
 10
128.8511234222
 20
214.7353879708
 30
0.0
 10
128.5159109045
 20
214.597087672
 30
0.0
 10
128.3678608353
 20
214.5116114349
 30
0.0
  0
SPLINE
  5
448
100
AcDbEntity
  8
0
100
AcDbSpline
 62
7
  6
BYLAYER
 70
0
 71
3
 72
13
 73
9
 74
0
 42
0.0000001
 43
0.0000001
 44
0.0000000001
 40
0.0
 40
0.0
 40
0.0
 40
0.0
 40
0.0992323553
 40
0.2021624794
 40
0.3118437049
 40
0.43034543
 40
0.6965085345
 40
1.0
 40
1.0
 40
1.0
 40
1.0
 10
126.653120508
 20
233.0196751948
 30
0.0
 10
126.6531209094
 20
232.9671338178
 30
0.0
 10
126.666348974
 20
232.859677216
 30
0.0
 10
126.7247592384
 20
232.7038337776
 30
0.0
 10
126.8198415869
 20
232.5551813139
 30
0.0
 10
126.9991751841
 20
232.3629128004
 30
0.0
 10
127.3071567837
 20
232.1594096419
 30
0.0
 10
127.5912371348
 20
232.0521851788
 30
0.0
 10
127.7458742152
 20
232.0084892164
 30
0.0
  0
SPLINE
  5
449
100
AcDbEntity
  8
0
100
AcDbSpline
 62
7
  6
BYLAYER
 70
0
 71
3
 72
11
 73
7
 74
0
 42
0.0000001
 43
0.0000001
 44
0.0000000001
 40
0.0
 40
0.0
 40
0.0
 40
0.0
 40
0.2177821605
 40
0.4509085882
 40
0.7102951949
 40
1.0
 40
1.0
 40
1.0
 40
1.0
 10
125.1812724619
 20
232.8788257267
 30
0.0
 10
125.1812724726
 20
232.9169137302
 30
0.0
 10
125.1953476972
 20
232.9963011255
 30
0.0
 10
125.2555309647
 20
233.106913372
 30
0.0
 10
125.3506722699
 20
233.2069025317
 30
0.0
 10
125.4302791345
 20
233.2617333038
 30
0.0
 10
125.4741577469
 20
233.2870664812
 30
0.0
  0
SPLINE
  5
44A
100
AcDbEntity
  8
0
100
AcDbSpline
 62
7
  6
BYLAYER
 70
0
 71
3
 72
17
 73
13
 74
0
 42
0.0000001
 43
0.0000001
 44
0.0000000001
 40
0.0
 40
0.0
 40
0.0
 40
0.0
 40
0.0428572919
 40
0.0874861242
 40
0.1353201636
 40
0.1872834625
 40
0.3045489593
 40
0.4382184128
 40
0.5825634491
 40
0.7297198563
 40
0.8713077028
 40
1.0
 40
1.0
 40
1.0
 40
1.0
 10
151.7979423342
 20
218.5026339586
 30
0.0
 10
151.7979427583
 20
218.4471254935
 30
0.0
 10
151.8127757751
 20
218.3333302165
 30
0.0
 10
151.8780399493
 20
218.169021773
 30
0.0
 10
151.9839439256
 20
218.013248593
 30
0.0
 10
152.1832970852
 20
217.8131610069
 30
0.0
 10
152.5230094926
 20
217.6063917504
 30
0.0
 10
153.0114399277
 20
217.4432324611
 30
0.0
 10
153.5595700398
 20
217.3662080149
 30
0.0
 10
154.122953371
 20
217.3818169236
 30
0.0
 10
154.6556155139
 20
217.488375571
 30
0.0
 10
154.9824424611
 20
217.6232241776
 30
0.0
 10
155.1267929722
 20
217.7065644866
 30
0.0
  0
SPLINE
  5
44B
100
AcDbEntity
  8
0
100
AcDbSpline
 62
7
  6
BYLAYER
 70
0
 71
3
 72
11
 73
7
 74
0
 42
0.0000001
 43
0.0000001
 44
0.0000000001
 40
0.0
 40
0.0
 40
0.0
 40
0.0
 40
0.2897052857
 40
0.5490919933
 40
0.7822182543
 40
1.0
 40
1.0
 40
1.0
 40
1.0
 10
156.8980856704
 20
219.0639749045
 30
0.0
 10
156.9419651037
 20
219.038641675
 30
0.0
 10
157.0215734784
 20
218.9838107142
 30
0.0
 10
157.1167167048
 20
218.8838208087
 30
0.0
 10
157.1769012642
 20
218.7732074957
 30
0.0
 10
157.190976854
 20
218.6938191723
 30
0.0
 10
157.1909768433
 20
218.6557307505
 30
0.0
  0
SPLINE
  5
44C
100
AcDbEntity
  8
0
100
AcDbSpline
 62
7
  6
BYLAYER
 70
0
 71
3
 72
11
 73
7
 74
0
 42
0.0000001
 43
0.0000001
 44
0.0000000001
 40
0.0
 40
0.0
 40
0.0
 40
0.0
 40
0.289776191
 40
0.5490699478
 40
0.7822281783
 40
1.0
 40
1.0
 40
1.0
 40
1.0
 10
155.1267929722
 20
217.7065644866
 30
0.0
 10
155.2123781005
 20
217.7559767885
 30
0.0
 10
155.3676316859
 20
217.8628644301
 30
0.0
 10
155.5531199367
 20
218.0578837059
 30
0.0
 10
155.6704902719
 20
218.2735458424
 30
0.0
 10
155.6979162496
 20
218.4283652256
 30
0.0
 10
155.6979156821
 20
218.5026339579
 30
0.0
  0
SPLINE
  5
44D
100
AcDbEntity
  8
0
100
AcDbSpline
 62
7
  6
BYLAYER
 70
0
 71
3
 72
11
 73
7
 74
0
 42
0.0000001
 43
0.0000001
 44
0.0000000001
 40
0.0
 40
0.0
 40
0.0
 40
0.0
 40
0.2372398078
 40
0.4999994051
 40
0.7627593222
 40
1.0
 40
1.0
 40
1.0
 40
1.0
 10
128.1611523284
 20
234.838394266
 30
0.0
 10
128.2615414119
 20
234.8963535844
 30
0.0
 10
128.4949949332
 20
234.9809299336
 30
0.0
 10
128.868257912
 20
235.0214514137
 30
0.0
 10
129.2415215081
 20
234.9809316689
 30
0.0
 10
129.4749760211
 20
234.8963564722
 30
0.0
 10
129.5753658907
 20
234.8383976652
 30
0.0
  0
SPLINE
  5
44E
100
AcDbEntity
  8
0
100
AcDbSpline
 62
7
  6
BYLAYER
 70
0
 71
3
 72
15
 73
11
 74
0
 42
0.0000001
 43
0.0000001
 44
0.0000000001
 40
0.0
 40
0.0
 40
0.0
 40
0.0
 40
0.1070110792
 40
0.2257715891
 40
0.3538899387
 40
0.4878589481
 40
0.6235664607
 40
0.7567329643
 40
0.883327219
 40
1.0
 40
1.0
 40
1.0
 40
1.0
 10
130.2032214363
 20
233.6631167628
 30
0.0
 10
130.1171862724
 20
233.734418154
 30
0.0
 10
129.9174452437
 20
233.8632752964
 30
0.0
 10
129.574968201
 20
234.005823748
 30
0.0
 10
129.1879404911
 20
234.1028910376
 30
0.0
 10
128.7741143686
 20
234.1499854846
 30
0.0
 10
128.3524118816
 20
234.1450242064
 30
0.0
 10
127.9421954116
 20
234.0882021025
 30
0.0
 10
127.5624438216
 20
233.9821792034
 30
0.0
 10
127.3297505568
 20
233.8766589929
 30
0.0
 10
127.2242432179
 20
233.815744666
 30
0.0
  0
SPLINE
  5
44F
100
AcDbEntity
  8
0
100
AcDbSpline
 62
7
  6
BYLAYER
 70
0
 71
3
 72
9
 73
5
 74
0
 42
0.0000001
 43
0.0000001
 44
0.0000000001
 40
0.0
 40
0.0
 40
0.0
 40
0.0
 40
0.2638259454
 40
1.0
 40
1.0
 40
1.0
 40
1.0
 10
144.8273956933
 20
215.0114374441
 30
0.0
 10
144.7708162153
 20
215.0356598396
 30
0.0
 10
144.5590035917
 20
215.13331923
 30
0.0
 10
144.3577046168
 20
215.2553379691
 30
0.0
 10
144.2221954227
 20
215.3608420788
 30
0.0
  0
SPLINE
  5
450
100
AcDbEntity
  8
0
100
AcDbSpline
 62
7
  6
BYLAYER
 70
0
 71
3
 72
9
 73
5
 74
0
 42
0.0000001
 43
0.0000001
 44
0.0000000001
 40
0.0
 40
0.0
 40
0.0
 40
0.0
 40
0.2638259454
 40
1.0
 40
1.0
 40
1.0
 40
1.0
 10
148.4195130971
 20
212.9375744103
 30
0.0
 10
148.362933619
 20
212.9617968059
 30
0.0
 10
148.1511209954
 20
213.0594561962
 30
0.0
 10
147.9498220205
 20
213.1814749353
 30
0.0
 10
147.8143128264
 20
213.286979045
 30
0.0
  0
SPLINE
  5
451
100
AcDbEntity
  8
0
100
AcDbSpline
 62
7
  6
BYLAYER
 70
0
 71
3
 72
11
 73
7
 74
0
 42
0.0000001
 43
0.0000001
 44
0.0000000001
 40
0.0
 40
0.0
 40
0.0
 40
0.0
 40
0.2372398078
 40
0.4999994051
 40
0.7627593222
 40
1.0
 40
1.0
 40
1.0
 40
1.0
 10
154.2110969768
 20
216.6961622113
 30
0.0
 10
154.1107078933
 20
216.6382028928
 30
0.0
 10
153.877254372
 20
216.5536265436
 30
0.0
 10
153.5039913933
 20
216.5131050635
 30
0.0
 10
153.1307277972
 20
216.5536248084
 30
0.0
 10
152.8972732842
 20
216.638200005
 30
0.0
 10
152.7968834146
 20
216.6961588121
 30
0.0
  0
SPLINE
  5
452
100
AcDbEntity
  8
0
100
AcDbSpline
 62
7
  6
BYLAYER
 70
0
 71
3
 72
11
 73
7
 74
0
 42
0.0000001
 43
0.0000001
 44
0.0000000001
 40
0.0
 40
0.0
 40
0.0
 40
0.0
 40
0.289776191
 40
0.5490699478
 40
0.7822281783
 40
1.0
 40
1.0
 40
1.0
 40
1.0
 10
152.3690650441
 20
219.2987034298
 30
0.0
 10
152.2834799158
 20
219.2492911279
 30
0.0
 10
152.1282263305
 20
219.1424034863
 30
0.0
 10
151.9427380796
 20
218.9473842105
 30
0.0
 10
151.8253677444
 20
218.731722074
 30
0.0
 10
151.7979417667
 20
218.5769026908
 30
0.0
 10
151.7979423342
 20
218.5026339586
 30
0.0
  0
SPLINE
  5
453
100
AcDbEntity
  8
0
100
AcDbSpline
 62
7
  6
BYLAYER
 70
0
 71
3
 72
17
 73
13
 74
0
 42
0.0000001
 43
0.0000001
 44
0.0000000001
 40
0.0
 40
0.0
 40
0.0
 40
0.0
 40
0.0428572919
 40
0.0874861242
 40
0.1353201636
 40
0.1872834625
 40
0.3045489593
 40
0.4382184128
 40
0.5825634491
 40
0.7297198563
 40
0.8713077028
 40
1.0
 40
1.0
 40
1.0
 40
1.0
 10
155.6979156821
 20
218.5026339579
 30
0.0
 10
155.697915258
 20
218.558142423
 30
0.0
 10
155.6830822413
 20
218.6719376999
 30
0.0
 10
155.6178180671
 20
218.8362461434
 30
0.0
 10
155.5119140907
 20
218.9920193235
 30
0.0
 10
155.3125609311
 20
219.1921069096
 30
0.0
 10
154.9728485237
 20
219.3988761661
 30
0.0
 10
154.4844180886
 20
219.5620354553
 30
0.0
 10
153.9362879765
 20
219.6390599015
 30
0.0
 10
153.3729046453
 20
219.6234509928
 30
0.0
 10
152.8402425024
 20
219.5168923454
 30
0.0
 10
152.5134155553
 20
219.3820437388
 30
0.0
 10
152.3690650441
 20
219.2987034298
 30
0.0
  0
SPLINE
  5
454
100
AcDbEntity
  8
0
100
AcDbSpline
 62
7
  6
BYLAYER
 70
0
 71
3
 72
11
 73
7
 74
0
 42
0.0000001
 43
0.0000001
 44
0.0000000001
 40
0.0
 40
0.0
 40
0.0
 40
0.0
 40
0.289776191
 40
0.5490699478
 40
0.7822281783
 40
1.0
 40
1.0
 40
1.0
 40
1.0
 10
127.2242432179
 20
233.815744666
 30
0.0
 10
127.1386580896
 20
233.7663323641
 30
0.0
 10
126.9834045042
 20
233.6594447225
 30
0.0
 10
126.7979162534
 20
233.4644254468
 30
0.0
 10
126.6805459182
 20
233.2487633102
 30
0.0
 10
126.6531199405
 20
233.093943927
 30
0.0
 10
126.653120508
 20
233.0196751948
 30
0.0
  0
SPLINE
  5
455
100
AcDbEntity
  8
0
100
AcDbSpline
 62
7
  6
BYLAYER
 70
0
 71
3
 72
11
 73
7
 74
0
 42
0.0000001
 43
0.0000001
 44
0.0000000001
 40
0.0
 40
0.0
 40
0.0
 40
0.0
 40
0.2177821605
 40
0.4509085882
 40
0.7102951949
 40
1.0
 40
1.0
 40
1.0
 40
1.0
 10
157.1909768433
 20
218.6557307505
 30
0.0
 10
157.1909768326
 20
218.617642747
 30
0.0
 10
157.176901608
 20
218.5382553517
 30
0.0
 10
157.1167183405
 20
218.4276431053
 30
0.0
 10
157.0215770353
 20
218.3276539455
 30
0.0
 10
156.9419701708
 20
218.2728231735
 30
0.0
 10
156.8980915584
 20
218.247489996
 30
0.0
  0
SPLINE
  5
456
100
AcDbEntity
  8
0
100
AcDbSpline
 62
7
  6
BYLAYER
 70
0
 71
3
 72
11
 73
7
 74
0
 42
0.0000001
 43
0.0000001
 44
0.0000000001
 40
0.0
 40
0.0
 40
0.0
 40
0.0
 40
0.2897052857
 40
0.5490919933
 40
0.7822182543
 40
1.0
 40
1.0
 40
1.0
 40
1.0
 10
125.4741636348
 20
232.4705815727
 30
0.0
 10
125.4302842016
 20
232.4959148022
 30
0.0
 10
125.3506758269
 20
232.5507457631
 30
0.0
 10
125.2555326004
 20
232.6507356686
 30
0.0
 10
125.195348041
 20
232.7613489816
 30
0.0
 10
125.1812724513
 20
232.840737305
 30
0.0
 10
125.1812724619
 20
232.8788257267
 30
0.0
  0
SPLINE
  5
457
100
AcDbEntity
  8
0
100
AcDbSpline
 62
7
  6
BYLAYER
 70
0
 71
3
 72
9
 73
5
 74
0
 42
0.0000001
 43
0.0000001
 44
0.0000000001
 40
0.0
 40
0.0
 40
0.0
 40
0.0
 40
0.2550461919
 40
1.0
 40
1.0
 40
1.0
 40
1.0
 10
130.0349526214
 20
223.5287867795
 30
0.0
 10
130.0190615076
 20
223.5389111931
 30
0.0
 10
129.9571969905
 20
223.5792952201
 30
0.0
 10
129.8971515005
 20
223.6224840425
 30
0.0
 10
129.8537258077
 20
223.6562942137
 30
0.0
  0
SPLINE
  5
458
100
AcDbEntity
  8
0
100
AcDbSpline
 62
7
  6
BYLAYER
 70
0
 71
3
 72
11
 73
7
 74
0
 42
0.0000001
 43
0.0000001
 44
0.0000000001
 40
0.0
 40
0.0
 40
0.0
 40
0.0
 40
0.2177643494
 40
0.4508943819
 40
0.7103680107
 40
1.0
 40
1.0
 40
1.0
 40
1.0
 10
39.7273831008
 20
189.2067692169
 30
0.0
 10
39.7274360521
 20
189.0734708449
 30
0.0
 10
39.7764880623
 20
188.7955999109
 30
0.0
 10
39.9872532348
 20
188.4084202823
 30
0.0
 10
40.3203080243
 20
188.0585215563
 30
0.0
 10
40.5989076626
 20
187.8665580166
 30
0.0
 10
40.7524463108
 20
187.7779144422
 30
0.0
  0
SPLINE
  5
459
100
AcDbEntity
  8
0
100
AcDbSpline
 62
7
  6
BYLAYER
 70
0
 71
3
 72
9
 73
5
 74
0
 42
0.0000001
 43
0.0000001
 44
0.0000000001
 40
0.0
 40
0.0
 40
0.0
 40
0.0
 40
0.4574153511
 40
1.0
 40
1.0
 40
1.0
 40
1.0
 10
115.9567960578
 20
203.2466187278
 30
0.0
 10
115.9568351665
 20
203.1781807641
 30
0.0
 10
116.0072622985
 20
203.027549303
 30
0.0
 10
116.1206612194
 20
202.9232337974
 30
0.0
 10
116.1871682063
 20
202.8766810223
 30
0.0
  0
SPLINE
  5
45A
100
AcDbEntity
  8
0
100
AcDbSpline
 62
7
  6
BYLAYER
 70
0
 71
3
 72
11
 73
7
 74
0
 42
0.0000001
 43
0.0000001
 44
0.0000000001
 40
0.0
 40
0.0
 40
0.0
 40
0.0
 40
0.2177223257
 40
0.4508705615
 40
0.7104663776
 40
1.0
 40
1.0
 40
1.0
 40
1.0
 10
114.9633679616
 20
203.8998205272
 30
0.0
 10
114.9633650266
 20
203.8236656845
 30
0.0
 10
114.9913708989
 20
203.6648847026
 30
0.0
 10
115.1118046097
 20
203.4435932208
 30
0.0
 10
115.3022054765
 20
203.2437159668
 30
0.0
 10
115.4613674356
 20
203.1339679921
 30
0.0
 10
115.5490729001
 20
203.0833323641
 30
0.0
  0
SPLINE
  5
45B
100
AcDbEntity
  8
0
100
AcDbSpline
 62
7
  6
BYLAYER
 70
0
 71
3
 72
11
 73
7
 74
0
 42
0.0000001
 43
0.0000001
 44
0.0000000001
 40
0.0
 40
0.0
 40
0.0
 40
0.0
 40
0.2372531816
 40
0.5000006935
 40
0.7627478297
 40
1.0
 40
1.0
 40
1.0
 40
1.0
 10
118.5613772276
 20
199.0009150628
 30
0.0
 10
118.727028681
 20
198.9052783151
 30
0.0
 10
119.1122243372
 20
198.7656997
 30
0.0
 10
119.728105589
 20
198.6989695084
 30
0.0
 10
120.3439856989
 20
198.7657026428
 30
0.0
 10
120.7291795478
 20
198.9052831372
 30
0.0
 10
120.8948296055
 20
199.0009206717
 30
0.0
  0
SPLINE
  5
45C
100
AcDbEntity
  8
0
100
AcDbSpline
 62
7
  6
BYLAYER
 70
0
 71
3
 72
11
 73
7
 74
0
 42
0.0000001
 43
0.0000001
 44
0.0000000001
 40
0.0
 40
0.0
 40
0.0
 40
0.0
 40
0.2895416688
 40
0.549118971
 40
0.7822562702
 40
1.0
 40
1.0
 40
1.0
 40
1.0
 10
125.448578317
 20
201.6300130226
 30
0.0
 10
125.5209358434
 20
201.6717884106
 30
0.0
 10
125.6522408288
 20
201.7623276851
 30
0.0
 10
125.8093075513
 20
201.9272216399
 30
0.0
 10
125.9086815267
 20
202.1097767572
 30
0.0
 10
125.9317549677
 20
202.2407773796
 30
0.0
 10
125.9317549482
 20
202.3036102669
 30
0.0
  0
SPLINE
  5
45D
100
AcDbEntity
  8
0
100
AcDbSpline
 62
7
  6
BYLAYER
 70
0
 71
3
 72
9
 73
5
 74
0
 42
0.0000001
 43
0.0000001
 44
0.0000000001
 40
0.0
 40
0.0
 40
0.0
 40
0.0
 40
0.2416356174
 40
1.0
 40
1.0
 40
1.0
 40
1.0
 10
115.5490729001
 20
203.0833323641
 30
0.0
 10
115.5711124859
 20
203.0706080911
 30
0.0
 10
115.6634036253
 20
203.0198306385
 30
0.0
 10
115.7596155768
 20
202.9762958678
 30
0.0
 10
115.8338963636
 20
202.946941339
 30
0.0
  0
SPLINE
  5
45E
100
AcDbEntity
  8
0
100
AcDbSpline
 62
7
  6
BYLAYER
 70
0
 71
3
 72
9
 73
5
 74
0
 42
0.0000001
 43
0.0000001
 44
0.0000000001
 40
0.0
 40
0.0
 40
0.0
 40
0.0
 40
0.4908861566
 40
1.0
 40
1.0
 40
1.0
 40
1.0
 10
115.8338963636
 20
202.946941339
 30
0.0
 10
116.120137601
 20
202.8338235732
 30
0.0
 10
116.7459590595
 20
202.7097155648
 30
0.0
 10
117.3801063469
 20
202.7541818275
 30
0.0
 10
117.6914919657
 20
202.8244266045
 30
0.0
  0
SPLINE
  5
45F
100
AcDbEntity
  8
0
100
AcDbSpline
 62
7
  6
BYLAYER
 70
0
 71
3
 72
9
 73
5
 74
0
 42
0.0000001
 43
0.0000001
 44
0.0000000001
 40
0.0
 40
0.0
 40
0.0
 40
0.0
 40
0.2557910277
 40
1.0
 40
1.0
 40
1.0
 40
1.0
 10
117.8593099881
 20
202.8675156198
 30
0.0
 10
117.8847750381
 20
202.8748838044
 30
0.0
 10
117.9839070931
 20
202.905116796
 30
0.0
 10
118.0813102111
 20
202.9411077892
 30
0.0
 10
118.1522475903
 20
202.9713837864
 30
0.0
  0
SPLINE
  5
460
100
AcDbEntity
  8
0
100
AcDbSpline
 62
7
  6
BYLAYER
 70
0
 71
3
 72
11
 73
7
 74
0
 42
0.0000001
 43
0.0000001
 44
0.0000000001
 40
0.0
 40
0.0
 40
0.0
 40
0.0
 40
0.2974518698
 40
0.5599951293
 40
0.7901418574
 40
1.0
 40
1.0
 40
1.0
 40
1.0
 10
118.1522475903
 20
202.9713837864
 30
0.0
 10
118.2707415547
 20
203.021956883
 30
0.0
 10
118.4868221186
 20
203.1358779708
 30
0.0
 10
118.7508434449
 20
203.3588735333
 30
0.0
 10
118.922101633
 20
203.6167436957
 30
0.0
 10
118.9631831874
 20
203.8089253141
 30
0.0
 10
118.9631858549
 20
203.899820941
 30
0.0
  0
SPLINE
  5
461
100
AcDbEntity
  8
0
100
AcDbSpline
 62
7
  6
BYLAYER
 70
0
 71
3
 72
9
 73
5
 74
0
 42
0.0000001
 43
0.0000001
 44
0.0000000001
 40
0.0
 40
0.0
 40
0.0
 40
0.0
 40
0.2381772067
 40
1.0
 40
1.0
 40
1.0
 40
1.0
 10
40.7524463108
 20
187.7779144422
 30
0.0
 10
40.8124730998
 20
187.7432587434
 30
0.0
 10
41.0691315732
 20
187.6058253688
 30
0.0
 10
41.341586349
 20
187.4988113398
 30
0.0
 10
41.5530630095
 20
187.4322641099
 30
0.0
  0
SPLINE
  5
462
100
AcDbEntity
  8
0
100
AcDbSpline
 62
7
  6
BYLAYER
 70
0
 71
3
 72
9
 73
5
 74
0
 42
0.0000001
 43
0.0000001
 44
0.0000000001
 40
0.0
 40
0.0
 40
0.0
 40
0.0
 40
0.4939748144
 40
1.0
 40
1.0
 40
1.0
 40
1.0
 10
41.631038477
 20
187.4084629832
 30
0.0
 10
42.0403548919
 20
187.2873326627
 30
0.0
 10
42.9020210237
 20
187.1488279231
 30
0.0
 10
43.7724147369
 20
187.1940307782
 30
0.0
 10
44.20367501
 20
187.2663186357
 30
0.0
  0
SPLINE
  5
463
100
AcDbEntity
  8
0
100
AcDbSpline
 62
7
  6
BYLAYER
 70
0
 71
3
 72
9
 73
5
 74
0
 42
0.0000001
 43
0.0000001
 44
0.0000000001
 40
0.0
 40
0.0
 40
0.0
 40
0.0
 40
0.2593800707
 40
1.0
 40
1.0
 40
1.0
 40
1.0
 10
44.20367501
 20
187.2663186357
 30
0.0
 10
44.299077868
 20
187.2823100651
 30
0.0
 10
44.6651466983
 20
187.353506078
 30
0.0
 10
45.0243173804
 20
187.4632983005
 30
0.0
 10
45.2791834135
 20
187.5697617466
 30
0.0
  0
SPLINE
  5
464
100
AcDbEntity
  8
0
100
AcDbSpline
 62
7
  6
BYLAYER
 70
0
 71
3
 72
9
 73
5
 74
0
 42
0.0000001
 43
0.0000001
 44
0.0000000001
 40
0.0
 40
0.0
 40
0.0
 40
0.0
 40
0.2786934412
 40
1.0
 40
1.0
 40
1.0
 40
1.0
 10
45.3146429589
 20
187.5847719656
 30
0.0
 10
45.4377202323
 20
187.6375650957
 30
0.0
 10
45.8682867066
 20
187.847946038
 30
0.0
 10
46.2637041833
 20
188.1565323416
 30
0.0
 10
46.4647221428
 20
188.438902055
 30
0.0
  0
SPLINE
  5
465
100
AcDbEntity
  8
0
100
AcDbSpline
 62
7
  6
BYLAYER
 70
0
 71
3
 72
9
 73
5
 74
0
 42
0.0000001
 43
0.0000001
 44
0.0000000001
 40
0.0
 40
0.0
 40
0.0
 40
0.0
 40
0.5168465409
 40
1.0
 40
1.0
 40
1.0
 40
1.0
 10
46.4647221428
 20
188.438902055
 30
0.0
 10
46.5468033801
 20
188.5542014814
 30
0.0
 10
46.6788627053
 20
188.7989665676
 30
0.0
 10
46.7272889383
 20
189.0744632519
 30
0.0
 10
46.7272363813
 20
189.2067687445
 30
0.0
  0
SPLINE
  5
466
100
AcDbEntity
  8
0
100
AcDbSpline
 62
7
  6
BYLAYER
 70
0
 71
3
 72
11
 73
7
 74
0
 42
0.0000001
 43
0.0000001
 44
0.0000000001
 40
0.0
 40
0.0
 40
0.0
 40
0.0
 40
0.2177434119
 40
0.4508805377
 40
0.710457812
 40
1.0
 40
1.0
 40
1.0
 40
1.0
 10
117.6114984627
 20
199.9439568153
 30
0.0
 10
117.6114984822
 20
199.8811232094
 30
0.0
 10
117.6345724077
 20
199.750121019
 30
0.0
 10
117.7339486221
 20
199.5675641882
 30
0.0
 10
117.8910184125
 20
199.4026689605
 30
0.0
 10
118.0223259182
 20
199.3121294407
 30
0.0
 10
118.0946848089
 20
199.2703539608
 30
0.0
  0
SPLINE
  5
467
100
AcDbEntity
  8
0
100
AcDbSpline
 62
7
  6
BYLAYER
 70
0
 71
3
 72
11
 73
7
 74
0
 42
0.0000001
 43
0.0000001
 44
0.0000000001
 40
0.0
 40
0.0
 40
0.0
 40
0.0
 40
0.2177451942
 40
0.4508812155
 40
0.7104528975
 40
1.0
 40
1.0
 40
1.0
 40
1.0
 10
54.9775111086
 20
89.6450581578
 30
0.0
 10
54.9775137858
 20
89.5688938565
 30
0.0
 10
55.005481738
 20
89.410099753
 30
0.0
 10
55.1259415125
 20
89.1888161822
 30
0.0
 10
55.3163289663
 20
88.9889354504
 30
0.0
 10
55.4754951687
 20
88.8791907247
 30
0.0
 10
55.5632063975
 20
88.8285517688
 30
0.0
  0
SPLINE
  5
468
100
AcDbEntity
  8
0
100
AcDbSpline
 62
7
  6
BYLAYER
 70
0
 71
3
 72
11
 73
7
 74
0
 42
0.0000001
 43
0.0000001
 44
0.0000000001
 40
0.0
 40
0.0
 40
0.0
 40
0.0
 40
0.2181110293
 40
0.4514052639
 40
0.7108410193
 40
1.0
 40
1.0
 40
1.0
 40
1.0
 10
54.9775111111
 20
92.445845631
 30
0.0
 10
54.9775084963
 20
92.5213532428
 30
0.0
 10
55.0049692056
 20
92.678684048
 30
0.0
 10
55.1233536154
 20
92.898252394
 30
0.0
 10
55.310664221
 20
93.0969413877
 30
0.0
 10
55.4674184744
 20
93.2063450227
 30
0.0
 10
55.5538201917
 20
93.2568967629
 30
0.0
  0
SPLINE
  5
469
100
AcDbEntity
  8
0
100
AcDbSpline
 62
7
  6
BYLAYER
 70
0
 71
3
 72
9
 73
5
 74
0
 42
0.0000001
 43
0.0000001
 44
0.0000000001
 40
0.0
 40
0.0
 40
0.0
 40
0.0
 40
0.2332231706
 40
1.0
 40
1.0
 40
1.0
 40
1.0
 10
56.7136856964
 20
88.1643372621
 30
0.0
 10
56.8053692999
 20
88.1114049064
 30
0.0
 10
57.2108022597
 20
87.9058916158
 30
0.0
 10
57.6537070402
 20
87.7797011692
 30
0.0
 10
57.9964514705
 20
87.7190958965
 30
0.0
  0
SPLINE
  5
46A
100
AcDbEntity
  8
0
100
AcDbSpline
 62
7
  6
BYLAYER
 70
0
 71
3
 72
10
 73
6
 74
0
 42
0.0000001
 43
0.0000001
 44
0.0000000001
 40
0.0
 40
0.0
 40
0.0
 40
0.0
 40
0.2936788608
 40
0.5623922319
 40
1.0
 40
1.0
 40
1.0
 40
1.0
 10
57.9964514705
 20
87.7190958965
 30
0.0
 10
58.3886186608
 20
87.6539822094
 30
0.0
 10
59.1342119482
 20
87.4720124203
 30
0.0
 10
60.3723426844
 20
86.9371868173
 30
0.0
 10
61.1556096172
 20
86.2729304208
 30
0.0
 10
61.4197317027
 20
85.7427088441
 30
0.0
  0
SPLINE
  5
46B
100
AcDbEntity
  8
0
100
AcDbSpline
 62
7
  6
BYLAYER
 70
0
 71
3
 72
9
 73
5
 74
0
 42
0.0000001
 43
0.0000001
 44
0.0000000001
 40
0.0
 40
0.0
 40
0.0
 40
0.0
 40
0.2243889955
 40
1.0
 40
1.0
 40
1.0
 40
1.0
 10
61.4197317027
 20
85.7427088441
 30
0.0
 10
61.4557082677
 20
85.6704859159
 30
0.0
 10
61.6490448502
 20
85.3648083105
 30
0.0
 10
61.9473681604
 20
85.1379885507
 30
0.0
 10
62.1909340752
 20
85.002117974
 30
0.0
  0
SPLINE
  5
46C
100
AcDbEntity
  8
0
100
AcDbSpline
 62
7
  6
BYLAYER
 70
0
 71
3
 72
11
 73
7
 74
0
 42
0.0000001
 43
0.0000001
 44
0.0000000001
 40
0.0
 40
0.0
 40
0.0
 40
0.0
 40
0.2370549605
 40
0.4995821367
 40
0.7623363979
 40
1.0
 40
1.0
 40
1.0
 40
1.0
 10
63.3414133741
 20
84.3379034673
 30
0.0
 10
63.5413034373
 20
84.2224994963
 30
0.0
 10
64.0059380402
 20
84.0537521467
 30
0.0
 10
64.7491807911
 20
83.9721248621
 30
0.0
 10
65.4933146863
 20
84.0510437155
 30
0.0
 10
65.9594027221
 20
84.2179485912
 30
0.0
 10
66.1604660684
 20
84.3324979681
 30
0.0
  0
SPLINE
  5
46D
100
AcDbEntity
  8
0
100
AcDbSpline
 62
7
  6
BYLAYER
 70
0
 71
3
 72
9
 73
5
 74
0
 42
0.0000001
 43
0.0000001
 44
0.0000000001
 40
0.0
 40
0.0
 40
0.0
 40
0.0
 40
0.5485153296
 40
1.0
 40
1.0
 40
1.0
 40
1.0
 10
117.6948479644
 20
202.8475285663
 30
0.0
 10
117.772983172
 20
202.8953284709
 30
0.0
 10
117.9069872088
 20
203.0035420762
 30
0.0
 10
117.9698081747
 20
203.17122529
 30
0.0
 10
117.9697650913
 20
203.2466187433
 30
0.0
  0
SPLINE
  5
46E
100
AcDbEntity
  8
0
100
AcDbSpline
 62
7
  6
BYLAYER
 70
0
 71
3
 72
9
 73
5
 74
0
 42
0.0000001
 43
0.0000001
 44
0.0000000001
 40
0.0
 40
0.0
 40
0.0
 40
0.0
 40
0.2302636451
 40
1.0
 40
1.0
 40
1.0
 40
1.0
 10
144.0981574055
 20
215.3883421467
 30
0.0
 10
144.1594849852
 20
215.3344155064
 30
0.0
 10
144.4400652595
 20
215.1164392643
 30
0.0
 10
144.7650673506
 20
214.9601632242
 30
0.0
 10
145.0220076529
 20
214.8679296508
 30
0.0
  0
SPLINE
  5
46F
100
AcDbEntity
  8
0
100
AcDbSpline
 62
7
  6
BYLAYER
 70
0
 71
3
 72
9
 73
5
 74
0
 42
0.0000001
 43
0.0000001
 44
0.0000000001
 40
0.0
 40
0.0
 40
0.0
 40
0.0
 40
0.241613706
 40
1.0
 40
1.0
 40
1.0
 40
1.0
 10
129.6893255966
 20
223.7202720682
 30
0.0
 10
129.7108380893
 20
223.7002833493
 30
0.0
 10
129.8017449581
 20
223.6195737922
 30
0.0
 10
129.8996732682
 20
223.5469012569
 30
0.0
 10
129.9765416385
 20
223.4960362142
 30
0.0
  0
SPLINE
  5
470
100
AcDbEntity
  8
0
100
AcDbSpline
 62
7
  6
BYLAYER
 70
0
 71
3
 72
9
 73
5
 74
0
 42
0.0000001
 43
0.0000001
 44
0.0000000001
 40
0.0
 40
0.0
 40
0.0
 40
0.0
 40
0.2289256746
 40
1.0
 40
1.0
 40
1.0
 40
1.0
 10
147.6499126154
 20
213.3509568995
 30
0.0
 10
147.7124038746
 20
213.2928920236
 30
0.0
 10
148.0021923779
 20
213.0573501281
 30
0.0
 10
148.343698828
 20
212.8911412184
 30
0.0
 10
148.6141250566
 20
212.7940666171
 30
0.0
  0
SPLINE
  5
471
100
AcDbEntity
  8
0
100
AcDbSpline
 62
7
  6
BYLAYER
 70
0
 71
3
 72
9
 73
5
 74
0
 42
0.0000001
 43
0.0000001
 44
0.0000000001
 40
0.0
 40
0.0
 40
0.0
 40
0.0
 40
0.24032985
 40
1.0
 40
1.0
 40
1.0
 40
1.0
 10
39.8447735492
 20
189.0725408891
 30
0.0
 10
39.8605104874
 20
189.1067464006
 30
0.0
 10
39.9316794352
 20
189.2464446374
 30
0.0
 10
40.0245830641
 20
189.3745865024
 30
0.0
 10
40.1029354503
 20
189.4641725858
 30
0.0
  0
SPLINE
  5
472
100
AcDbEntity
  8
0
100
AcDbSpline
 62
7
  6
BYLAYER
 70
0
 71
3
 72
15
 73
11
 74
0
 42
0.0000001
 43
0.0000001
 44
0.0000000001
 40
0.0
 40
0.0
 40
0.0
 40
0.0
 40
0.1288248645
 40
0.2705982855
 40
0.41789924
 40
0.5623954097
 40
0.6962086576
 40
0.8136002245
 40
0.9130679534
 40
1.0
 40
1.0
 40
1.0
 40
1.0
 10
118.3774882489
 20
204.7163089796
 30
0.0
 10
118.2294470036
 20
204.8017786988
 30
0.0
 10
117.894204196
 20
204.9400623252
 30
0.0
 10
117.3479018136
 20
205.0494151295
 30
0.0
 10
116.7700292643
 20
205.0653323664
 30
0.0
 10
116.208016324
 20
204.9864164029
 30
0.0
 10
115.706649407
 20
204.8188902597
 30
0.0
 10
115.3050611047
 20
204.5741810163
 30
0.0
 10
115.0329630189
 20
204.2647901113
 30
0.0
 10
114.9633724072
 20
204.0151737815
 30
0.0
 10
114.9633679616
 20
203.8998205272
 30
0.0
  0
SPLINE
  5
473
100
AcDbEntity
  8
0
100
AcDbSpline
 62
7
  6
BYLAYER
 70
0
 71
3
 72
11
 73
7
 74
0
 42
0.0000001
 43
0.0000001
 44
0.0000000001
 40
0.0
 40
0.0
 40
0.0
 40
0.0
 40
0.2177434119
 40
0.4508805377
 40
0.710457812
 40
1.0
 40
1.0
 40
1.0
 40
1.0
 10
125.9317549482
 20
202.3036102669
 30
0.0
 10
125.9317549287
 20
202.3664438729
 30
0.0
 10
125.9086810032
 20
202.4974460633
 30
0.0
 10
125.8093047888
 20
202.680002894
 30
0.0
 10
125.6522349984
 20
202.8448981218
 30
0.0
 10
125.5209274927
 20
202.9354376415
 30
0.0
 10
125.448568602
 20
202.9772131215
 30
0.0
  0
SPLINE
  5
474
100
AcDbEntity
  8
0
100
AcDbSpline
 62
7
  6
BYLAYER
 70
0
 71
3
 72
11
 73
7
 74
0
 42
0.0000001
 43
0.0000001
 44
0.0000000001
 40
0.0
 40
0.0
 40
0.0
 40
0.0
 40
0.2177497509
 40
0.450897751
 40
0.7104712095
 40
1.0
 40
1.0
 40
1.0
 40
1.0
 10
118.9631858549
 20
203.899820941
 30
0.0
 10
118.9631880901
 20
203.9759854608
 30
0.0
 10
118.9351951337
 20
204.1347798834
 30
0.0
 10
118.8147400249
 20
204.3560639414
 30
0.0
 10
118.6243522037
 20
204.5559378989
 30
0.0
 10
118.4651923468
 20
204.6656741406
 30
0.0
 10
118.3774882489
 20
204.7163089796
 30
0.0
  0
SPLINE
  5
475
100
AcDbEntity
  8
0
100
AcDbSpline
 62
7
  6
BYLAYER
 70
0
 71
3
 72
9
 73
5
 74
0
 42
0.0000001
 43
0.0000001
 44
0.0000000001
 40
0.0
 40
0.0
 40
0.0
 40
0.0
 40
0.5228954849
 40
1.0
 40
1.0
 40
1.0
 40
1.0
 10
40.0990247844
 20
190.1128918738
 30
0.0
 10
39.9851730288
 20
189.9819186974
 30
0.0
 10
39.7985673793
 20
189.6995195576
 30
0.0
 10
39.7273202008
 20
189.3651121379
 30
0.0
 10
39.7273831008
 20
189.2067692169
 30
0.0
  0
SPLINE
  5
476
100
AcDbEntity
  8
0
100
AcDbSpline
 62
7
  6
BYLAYER
 70
0
 71
3
 72
9
 73
5
 74
0
 42
0.0000001
 43
0.0000001
 44
0.0000000001
 40
0.0
 40
0.0
 40
0.0
 40
0.0
 40
0.4703992562
 40
1.0
 40
1.0
 40
1.0
 40
1.0
 10
46.7272363813
 20
189.2067687445
 30
0.0
 10
46.7271627859
 20
189.3920360285
 30
0.0
 10
46.6269725002
 20
189.7892296142
 30
0.0
 10
46.3760907431
 20
190.1050405224
 30
0.0
 10
46.2254450687
 20
190.2493080281
 30
0.0
  0
SPLINE
  5
477
100
AcDbEntity
  8
0
100
AcDbSpline
 62
7
  6
BYLAYER
 70
0
 71
3
 72
11
 73
7
 74
0
 42
0.0000001
 43
0.0000001
 44
0.0000000001
 40
0.0
 40
0.0
 40
0.0
 40
0.0
 40
0.2376638435
 40
0.5004181924
 40
0.7629452804
 40
1.0
 40
1.0
 40
1.0
 40
1.0
 10
66.160466069
 20
87.1332854428
 30
0.0
 10
65.9594025185
 20
87.0187359496
 30
0.0
 10
65.4933141363
 20
86.851831035
 30
0.0
 10
64.7491799885
 20
86.7729123382
 30
0.0
 10
64.005937491
 20
86.8545397786
 30
0.0
 10
63.5413032346
 20
87.0232870882
 30
0.0
 10
63.3414133746
 20
87.138690942
 30
0.0
  0
SPLINE
  5
478
100
AcDbEntity
  8
0
100
AcDbSpline
 62
7
  6
BYLAYER
 70
0
 71
3
 72
9
 73
5
 74
0
 42
0.0000001
 43
0.0000001
 44
0.0000000001
 40
0.0
 40
0.0
 40
0.0
 40
0.0
 40
0.2795965993
 40
1.0
 40
1.0
 40
1.0
 40
1.0
 10
62.1909340757
 20
87.8029054486
 30
0.0
 10
62.1032403258
 20
87.851824446
 30
0.0
 10
61.8001360457
 20
88.0423407803
 30
0.0
 10
61.5350941469
 20
88.3119062964
 30
0.0
 10
61.4197333888
 20
88.5434929348
 30
0.0
  0
SPLINE
  5
479
100
AcDbEntity
  8
0
100
AcDbSpline
 62
7
  6
BYLAYER
 70
0
 71
3
 72
10
 73
6
 74
0
 42
0.0000001
 43
0.0000001
 44
0.0000000001
 40
0.0
 40
0.0
 40
0.0
 40
0.0
 40
0.4376076618
 40
0.7063210619
 40
1.0
 40
1.0
 40
1.0
 40
1.0
 10
61.4197333888
 20
88.5434929348
 30
0.0
 10
61.1556111308
 20
89.0737148577
 30
0.0
 10
60.3723451448
 20
89.7379732559
 30
0.0
 10
59.1342131463
 20
90.2727995125
 30
0.0
 10
58.3886191159
 20
90.4547696085
 30
0.0
 10
57.996451471
 20
90.5198833712
 30
0.0
  0
SPLINE
  5
47A
100
AcDbEntity
  8
0
100
AcDbSpline
 62
7
  6
BYLAYER
 70
0
 71
3
 72
9
 73
5
 74
0
 42
0.0000001
 43
0.0000001
 44
0.0000000001
 40
0.0
 40
0.0
 40
0.0
 40
0.0
 40
0.2657766874
 40
1.0
 40
1.0
 40
1.0
 40
1.0
 10
57.996451471
 20
90.5198833712
 30
0.0
 10
57.8776799385
 20
90.5408849703
 30
0.0
 10
57.4342427005
 20
90.6363279961
 30
0.0
 10
57.0022497304
 20
90.7985259832
 30
0.0
 10
56.7136856968
 20
90.9651247368
 30
0.0
  0
SPLINE
  5
47B
100
AcDbEntity
  8
0
100
AcDbSpline
 62
7
  6
BYLAYER
 70
0
 71
3
 72
11
 73
7
 74
0
 42
0.0000001
 43
0.0000001
 44
0.0000000001
 40
0.0
 40
0.0
 40
0.0
 40
0.0
 40
0.2895470688
 40
0.5491189457
 40
0.7822549428
 40
1.0
 40
1.0
 40
1.0
 40
1.0
 10
55.5632063979
 20
91.6293392434
 30
0.0
 10
55.4754951807
 20
91.6799781927
 30
0.0
 10
55.3163290079
 20
91.7897230376
 30
0.0
 10
55.1259414168
 20
91.9896037104
 30
0.0
 10
55.0054817452
 20
92.2108873428
 30
0.0
 10
54.9775137486
 20
92.3696813788
 30
0.0
 10
54.9775111111
 20
92.445845631
 30
0.0
  0
SPLINE
  5
47C
100
AcDbEntity
  8
0
100
AcDbSpline
 62
7
  6
BYLAYER
 70
0
 71
3
 72
11
 73
7
 74
0
 42
0.0000001
 43
0.0000001
 44
0.0000000001
 40
0.0
 40
0.0
 40
0.0
 40
0.0
 40
0.2895416688
 40
0.549118971
 40
0.7822562702
 40
1.0
 40
1.0
 40
1.0
 40
1.0
 10
118.0946750939
 20
200.6175540597
 30
0.0
 10
118.0223175675
 20
200.5757786717
 30
0.0
 10
117.8910125821
 20
200.4852393971
 30
0.0
 10
117.7339458596
 20
200.3203454423
 30
0.0
 10
117.6345718842
 20
200.1377903251
 30
0.0
 10
117.6114984432
 20
200.0067897026
 30
0.0
 10
117.6114984627
 20
199.9439568153
 30
0.0
  0
SPLINE
  5
47D
100
AcDbEntity
  8
0
100
AcDbSpline
 62
7
  6
BYLAYER
 70
0
 71
3
 72
13
 73
9
 74
0
 42
0.0000001
 43
0.0000001
 44
0.0000000001
 40
0.0
 40
0.0
 40
0.0
 40
0.0
 40
0.0871382313
 40
0.1868460714
 40
0.3045099889
 40
0.4386443369
 40
0.7300494959
 40
1.0
 40
1.0
 40
1.0
 40
1.0
 10
117.9697650913
 20
203.2466187433
 30
0.0
 10
117.9697319206
 20
203.3046654554
 30
0.0
 10
117.9346786562
 20
203.4302598454
 30
0.0
 10
117.7977632569
 20
203.5859351505
 30
0.0
 10
117.5957000038
 20
203.7091547884
 30
0.0
 10
117.2501652963
 20
203.8243087008
 30
0.0
 10
116.7795397271
 20
203.8481449908
 30
0.0
 10
116.407308973
 20
203.7474257796
 30
0.0
 10
116.2515746361
 20
203.657513055
 30
0.0
  0
SPLINE
  5
47E
100
AcDbEntity
  8
0
100
AcDbSpline
 62
7
  6
BYLAYER
 70
0
 71
3
 72
11
 73
7
 74
0
 42
0.0000001
 43
0.0000001
 44
0.0000000001
 40
0.0
 40
0.0
 40
0.0
 40
0.0
 40
0.2372531816
 40
0.5000006935
 40
0.7627478297
 40
1.0
 40
1.0
 40
1.0
 40
1.0
 10
124.9818761834
 20
203.2466520195
 30
0.0
 10
124.8162247299
 20
203.3422887671
 30
0.0
 10
124.4310290738
 20
203.4818673822
 30
0.0
 10
123.8151478219
 20
203.5485975738
 30
0.0
 10
123.199267712
 20
203.4818644394
 30
0.0
 10
122.8140738631
 20
203.342283945
 30
0.0
 10
122.6484238054
 20
203.2466464105
 30
0.0
  0
SPLINE
  5
47F
100
AcDbEntity
  8
0
100
AcDbSpline
 62
7
  6
BYLAYER
 70
0
 71
3
 72
9
 73
5
 74
0
 42
0.0000001
 43
0.0000001
 44
0.0000000001
 40
0.0
 40
0.0
 40
0.0
 40
0.0
 40
0.2621757027
 40
1.0
 40
1.0
 40
1.0
 40
1.0
 10
45.7021731713
 20
189.9824215881
 30
0.0
 10
45.7514236294
 20
189.9539874661
 30
0.0
 10
45.9363480621
 20
189.8406567748
 30
0.0
 10
46.1094461793
 20
189.707142972
 30
0.0
 10
46.2250609859
 20
189.5964763644
 30
0.0
  0
SPLINE
  5
480
100
AcDbEntity
  8
0
100
AcDbSpline
 62
7
  6
BYLAYER
 70
0
 71
3
 72
9
 73
5
 74
0
 42
0.0000001
 43
0.0000001
 44
0.0000000001
 40
0.0
 40
0.0
 40
0.0
 40
0.0
 40
0.2644556244
 40
1.0
 40
1.0
 40
1.0
 40
1.0
 10
46.2250609859
 20
189.5964763644
 30
0.0
 10
46.2634285117
 20
189.5597509306
 30
0.0
 10
46.4034198484
 20
189.4158171846
 30
0.0
 10
46.521713918
 20
189.2495981514
 30
0.0
 10
46.5881589669
 20
189.1176635579
 30
0.0
  0
SPLINE
  5
481
100
AcDbEntity
  8
0
100
AcDbSpline
 62
7
  6
BYLAYER
 70
0
 71
3
 72
9
 73
5
 74
0
 42
0.0000001
 43
0.0000001
 44
0.0000000001
 40
0.0
 40
0.0
 40
0.0
 40
0.0
 40
0.2701789414
 40
1.0
 40
1.0
 40
1.0
 40
1.0
 10
118.3774882489
 20
204.0631070433
 30
0.0
 10
118.4210094197
 20
204.0379806521
 30
0.0
 10
118.5780453833
 20
203.9386300296
 30
0.0
 10
118.7197004604
 20
203.8114743835
 30
0.0
 10
118.8007552705
 20
203.7025820188
 30
0.0
  0
SPLINE
  5
482
100
AcDbEntity
  8
0
100
AcDbSpline
 62
7
  6
BYLAYER
 70
0
 71
3
 72
9
 73
5
 74
0
 42
0.0000001
 43
0.0000001
 44
0.0000000001
 40
0.0
 40
0.0
 40
0.0
 40
0.0
 40
0.2561667147
 40
1.0
 40
1.0
 40
1.0
 40
1.0
 10
118.8007552705
 20
203.7025820188
 30
0.0
 10
118.808663534
 20
203.6919577325
 30
0.0
 10
118.8387064991
 20
203.6498771593
 30
0.0
 10
118.865326966
 20
203.6053228319
 30
0.0
 10
118.8827185053
 20
203.571021834
 30
0.0
  0
SPLINE
  5
483
100
AcDbEntity
  8
0
100
AcDbSpline
 62
7
  6
BYLAYER
 70
0
 71
3
 72
9
 73
5
 74
0
 42
0.0000001
 43
0.0000001
 44
0.0000000001
 40
0.0
 40
0.0
 40
0.0
 40
0.0
 40
0.2423345679
 40
1.0
 40
1.0
 40
1.0
 40
1.0
 10
115.0590406519
 20
203.5995177644
 30
0.0
 10
115.0671296734
 20
203.6140656843
 30
0.0
 10
115.1022371255
 20
203.6731309045
 30
0.0
 10
115.1439507045
 20
203.7281861039
 30
0.0
 10
115.178226431
 20
203.7673475865
 30
0.0
  0
SPLINE
  5
484
100
AcDbEntity
  8
0
100
AcDbSpline
 62
7
  6
BYLAYER
 70
0
 71
3
 72
11
 73
7
 74
0
 42
0.0000001
 43
0.0000001
 44
0.0000000001
 40
0.0
 40
0.0
 40
0.0
 40
0.0
 40
0.2153326166
 40
0.4765163591
 40
0.7510704076
 40
1.0
 40
1.0
 40
1.0
 40
1.0
 10
115.178226431
 20
203.7673475865
 30
0.0
 10
115.3389507462
 20
203.9509819867
 30
0.0
 10
115.8191415798
 20
204.2427919193
 30
0.0
 10
116.6585801483
 20
204.4271455867
 30
0.0
 10
117.5562359761
 20
204.3911020181
 30
0.0
 10
118.1331705688
 20
204.2041607307
 30
0.0
 10
118.3774882489
 20
204.0631070433
 30
0.0
  0
ELLIPSE
  5
485
100
AcDbEntity
  8
0
100
AcDbEllipse
 62
7
  6
BYLAYER
 10
120.2882201864
 20
243.9243362202
 30
0.0
 11
5.0800002596
 21
-0.0000112404
 31
0.0
 40
0.5773604223
 41
0.7854208226
 42
2.3561852678
  0
ELLIPSE
  5
486
100
AcDbEntity
  8
0
100
AcDbEllipse
 62
7
  6
BYLAYER
 10
189.2036999701
 20
119.1785786337
 30
0.0
 11
5.0801622209
 21
-0.000011237
 31
0.0
 40
0.5773236091
 41
-0.785375505
 42
-0.005650633
  0
ELLIPSE
  5
487
100
AcDbEntity
  8
0
100
AcDbEllipse
 62
7
  6
BYLAYER
 10
99.951548595
 20
63.5906131701
 30
0.0
 11
5.0800002596
 21
-0.000011241
 31
0.0
 40
0.5773604223
 41
-2.3561718309
 42
-0.7854073858
  0
ELLIPSE
  5
488
100
AcDbEntity
  8
0
100
AcDbEllipse
 62
7
  6
BYLAYER
 10
31.1107118398
 20
103.3349896639
 30
0.0
 11
5.0801622209
 21
-0.0000112375
 31
0.0
 40
0.5773236091
 41
-3.1359420208
 42
-2.3562037134
  0
ELLIPSE
  5
489
100
AcDbEntity
  8
0
100
AcDbEllipse
 62
7
  6
BYLAYER
 10
99.9862330793
 20
151.6724479304
 30
0.0
 11
5.0800002596
 21
-0.0000112404
 31
0.0
 40
0.5773604223
 41
-2.356171831
 42
-0.7854073858
  0
ELLIPSE
  5
48A
100
AcDbEntity
  8
0
100
AcDbEllipse
 62
7
  6
BYLAYER
 10
190.0307630597
 20
203.6593712336
 30
0.0
 11
5.0801622209
 21
-0.000011237
 31
0.0
 40
0.5773236091
 41
-0.785375505
 42
0.7853889401
  0
ELLIPSE
  5
48B
100
AcDbEntity
  8
0
100
AcDbEllipse
 62
7
  6
BYLAYER
 10
30.243690206
 20
191.9374129171
 30
0.0
 11
5.0801622209
 21
-0.000011237
 31
0.0
 40
0.5773236091
 41
2.3562171485
 42
3.9269815937
  0
ENDSEC
  0
SECTION
  2
OBJECTS
  0
DICTIONARY
  5
C
100
AcDbDictionary
280
0
281
1
  3
ACAD_GROUP
350
D
  3
ACAD_MLINESTYLE
350
17
  3
ACAD_LAYOUT
350
1A
  3
ACAD_PLOTSETTINGS
350
19
  3
ACAD_PLOTSTYLENAME
350
E
  0
DICTIONARY
  5
D
102
{ACAD_REACTORS
330
C
102
}
100
AcDbDictionary
280
0
281
1
  0
ACDBDICTIONARYWDFLT
  5
E
102
{ACAD_REACTORS
330
C
102
}
100
AcDbDictionary
281
1
  3
Normal
350
F
100
AcDbDictionaryWithDefault
340
F
  0
DICTIONARY
  5
17
102
{ACAD_REACTORS
330
C
102
}
100
AcDbDictionary
280
0
281
1
  3
Standard
350
18
  0
DICTIONARY
  5
19
102
{ACAD_REACTORS
330
C
102
}
100
AcDbDictionary
281
1
  0
DICTIONARY
  5
1A
102
{ACAD_REACTORS
330
C
102
}
100
AcDbDictionary
281
1
  3
Model
350
48C
  3
Layout1
350
48D
  0
ACDBPLACEHOLDER
  5
F
102
{ACAD_REACTORS
330
E
102
}
  0
MLINESTYLE
  5
18
102
{ACAD_REACTORS
330
17
102
}
100
AcDbMlineStyle
  2
STANDARD
 70
0
  3

 62
256
 51
90.0
 52
90.0
 71
2
 49
0.5
 62
256
  6
BYLAYER
 49
-0.5
 62
256
  6
BYLAYER
  0
LAYOUT
  5
48C
102
{ACAD_REACTORS
330
1A
102
}
100
AcDbPlotSettings
  1

  2
none_device
  4

  6

 40
0.0
 41
0.0
 42
0.0
 43
0.0
 44
210.0
 45
297.0
 46
0.0
 47
0.0
 48
0.0
 49
0.0
140
0.0
141
0.0
142
1.0
143
1.0
 70
1024
 72
1
 73
0
 74
0
  7

 75
0
147
1.0
148
0.0
149
0.0
100
AcDbLayout
  1
Model
 70
0
 71
0
 10
0.0
 20
0.0
 11
210.0
 21
297.0
 12
0.0
 22
0.0
 32
0.0
 14
0.0
 24
0.0
 34
0.0
 15
0.0
 25
0.0
 35
0.0
146
0.0
 13
0.0
 23
0.0
 33
0.0
 16
1.0
 26
0.0
 36
0.0
 17
0.0
 27
1.0
 37
0.0
 76
0
330
210
345
0
346
0
  0
LAYOUT
  5
48D
102
{ACAD_REACTORS
330
1A
102
}
100
AcDbPlotSettings
  1

  2
none_device
  4

  6

 40
0.0
 41
0.0
 42
0.0
 43
0.0
 44
210.0
 45
297.0
 46
0.0
 47
0.0
 48
0.0
 49
0.0
140
0.0
141
0.0
142
1.0
143
1.0
 70
0
 72
1
 73
0
 74
0
  7

 75
0
147
1.0
148
0.0
149
0.0
100
AcDbLayout
  1
Layout1
 70
0
 71
1
 10
0.0
 20
0.0
 11
210.0
 21
297.0
 12
0.0
 22
0.0
 32
0.0
 14
0.0
 24
0.0
 34
0.0
 15
0.0
 25
0.0
 35
0.0
146
0.0
 13
0.0
 23
0.0
 33
0.0
 16
1.0
 26
0.0
 36
0.0
 17
0.0
 27
1.0
 37
0.0
 76
0
330
211
345
0
346
0
  0
ENDSEC
  0
EOF
