999
DXF file: C:\Users\sesa63760\Dev\_Creo\CAD\MCADID0000921_3D-CAD\drw0001_5.dxf
999
Pro/ENGINEER 2019471 by Parametric Technology Corporation
  0
SECTION
  2
HEADER
  9
$ACADVER
  1
AC1024
  9
$DWGCODEPAGE
  3
ANSI_1252
  9
$EXTMAX
 10
358.1547509706
 20
506.5331478012
 30
0.0
  9
$EXTMIN
 10
0.0
 20
0.0
 30
0.0
  9
$LIMMIN
 10
0.0
 20
0.0
  9
$LIMMAX
 10
358.1547509706
 20
506.5331478012
  9
$VIEWCTR
 10
179.0773754853
 20
253.2665739006
  9
$VIEWSIZE
 40
506.5331478012
  9
$CLAYER
  8
0
  9
$LTSCALE
 40
33.0184570419
  9
$CELTYPE
  6
BYLAYER
  9
$DIMSCALE
 40
1.0
  9
$DIMASZ
 40
4.2637470354
  9
$DIMEXO
 40
1.0
  9
$DIMDLI
 40
22.812752138
  9
$DIMEXE
 40
1.0
  9
$DIMCEN
 40
5.4030202432
  9
$DIMLFAC
 40
1.0
  9
$DIMBLK
  1
_FILLED
  9
$DIMALT
 70
0
  9
$DIMALTF
 40
0.0393700787
  9
$DIMTXT
 40
5.9692458495
  9
$DIMTOL
 70
1
  9
$DIMLIM
 70
0
  9
$DIMTFAC
 40
1.0
  9
$DIMTP
 40
0.01
  9
$DIMTM
 40
0.01
  9
$DIMGAP
 40
0.625
  9
$DIMDSEP
 70
46
  9
$AUNITS
 70
0
  9
$PDMODE
 70
3
  9
$PDSIZE
 40
0.3125
  9
$HANDSEED
  5
3B5
  9
$TILEMODE
 70
1
  9
$MEASUREMENT
 70
1
  9
$INSUNITS
 70
4
  0
ENDSEC
  0
SECTION
  2
CLASSES
  0
CLASS
  1
ACDBDICTIONARYWDFLT
  2
AcDbDictionaryWithDefault
  3
AutoCAD 2000
 90
0
 91
1
280
0
281
0
  0
CLASS
  1
ACDBPLACEHOLDER
  2
AcDbPlaceHolder
  3
AutoCAD 2000
 90
0
 91
1
280
0
281
0
  0
CLASS
  1
LAYOUT
  2
AcDbLayout
  3
AutoCAD 2000
 90
0
 91
0
280
0
281
0
  0
ENDSEC
  0
SECTION
  2
TABLES
  0
TABLE
  2
VPORT
  5
8
100
AcDbSymbolTable
 70
2
  0
VPORT
  5
1F4
100
AcDbSymbolTableRecord
100
AcDbViewportTableRecord
  2
*ACTIVE
 70
0
 10
0.0
 20
0.0
 11
1.0
 21
1.0
 12
179.0773754853
 22
253.2665739006
 13
0.0
 23
0.0
 14
1.0
 24
1.0
 15
0.0
 25
0.0
 16
0.0
 26
0.0
 36
1.0
 17
0.0
 27
0.0
 37
0.0
 40
506.5331478012
 41
0.7070707071
 42
50.0
 43
0.0
 44
0.0
 50
0.0
 51
0.0
 71
0
 72
100
 73
1
 74
1
 75
0
 76
0
 77
0
 78
0
  0
ENDTAB
  0
TABLE
  2
LTYPE
  5
5
100
AcDbSymbolTable
 70
6
  0
LTYPE
  5
14
100
AcDbSymbolTableRecord
100
AcDbLinetypeTableRecord
  2
BYBLOCK
 70
0
  3

 72
65
 73
0
 40
0.0
  0
LTYPE
  5
15
100
AcDbSymbolTableRecord
100
AcDbLinetypeTableRecord
  2
BYLAYER
 70
0
  3

 72
65
 73
0
 40
0.0
  0
LTYPE
  5
16
100
AcDbSymbolTableRecord
100
AcDbLinetypeTableRecord
  2
CONTINUOUS
 70
64
  3
Solid line
 72
65
 73
0
 40
0.0
  0
LTYPE
  5
1F5
100
AcDbSymbolTableRecord
100
AcDbLinetypeTableRecord
  2
CENTER
 70
64
  3
____ _ ____ _ ____ _ ____ _ ____ _ ____ _ ____
 72
65
 73
4
 40
0.6
 49
0.375
 74
0
 49
-0.075
 74
0
 49
0.075
 74
0
 49
-0.075
 74
0
  0
LTYPE
  5
1F6
100
AcDbSymbolTableRecord
100
AcDbLinetypeTableRecord
  2
HIDDEN
 70
64
  3
- - - - - - - - - - - - - - - - - - - -
 72
65
 73
2
 40
0.2
 49
0.1
 74
0
 49
-0.1
 74
0
  0
LTYPE
  5
1F7
100
AcDbSymbolTableRecord
100
AcDbLinetypeTableRecord
  2
PHANTOM
 70
64
  3
_____ _ _ _____ _ _ _____ _ _ _____
 72
65
 73
6
 40
0.8
 49
0.45
 74
0
 49
-0.05
 74
0
 49
0.1
 74
0
 49
-0.05
 74
0
 49
0.1
 74
0
 49
-0.05
 74
0
  0
LTYPE
  5
1F8
100
AcDbSymbolTableRecord
100
AcDbLinetypeTableRecord
  2
DOT
 70
64
  3
. . . . . . . . . . . . . . . . . . . .
 72
65
 73
2
 40
0.2
 49
0.1
 74
0
 49
-0.1
 74
0
  0
LTYPE
  5
1F9
100
AcDbSymbolTableRecord
100
AcDbLinetypeTableRecord
  2
DASHED
 70
64
  3
- - - - - - - - - - - - - - - - - - - -
 72
65
 73
2
 40
0.2
 49
0.1
 74
0
 49
-0.1
 74
0
  0
ENDTAB
  0
TABLE
  2
LAYER
  5
2
100
AcDbSymbolTable
 70
36
  0
LAYER
  5
10
100
AcDbSymbolTableRecord
100
AcDbLayerTableRecord
  2
0
 70
0
 62
7
  6
CONTINUOUS
370
-3
390
F
  0
LAYER
  5
1FA
100
AcDbSymbolTableRecord
100
AcDbLayerTableRecord
  2
DEFAULT_1
 70
0
 62
7
  6
CENTER
370
-3
390
F
  0
LAYER
  5
1FB
100
AcDbSymbolTableRecord
100
AcDbLayerTableRecord
  2
DEFAULT_2
 70
0
 62
8
  6
HIDDEN
370
-3
390
F
  0
LAYER
  5
1FC
100
AcDbSymbolTableRecord
100
AcDbLayerTableRecord
  2
DEFAULT_3
 70
0
 62
7
  6
PHANTOM
370
-3
390
F
  0
LAYER
  5
1FD
100
AcDbSymbolTableRecord
100
AcDbLayerTableRecord
  2
00_COMPONENTS
 70
0
 62
7
  6
CONTINUOUS
370
-3
390
F
  0
LAYER
  5
1FE
100
AcDbSymbolTableRecord
100
AcDbLayerTableRecord
  2
01_1_DEFAULT_DATUMS
 70
0
 62
7
  6
CONTINUOUS
370
-3
390
F
  0
LAYER
  5
1FF
100
AcDbSymbolTableRecord
100
AcDbLayerTableRecord
  2
01_PLANES
 70
0
 62
7
  6
CONTINUOUS
370
-3
390
F
  0
LAYER
  5
200
100
AcDbSymbolTableRecord
100
AcDbLayerTableRecord
  2
02_COORD_SYS
 70
0
 62
7
  6
CONTINUOUS
370
-3
390
F
  0
LAYER
  5
201
100
AcDbSymbolTableRecord
100
AcDbLayerTableRecord
  2
03_AXES
 70
0
 62
7
  6
CONTINUOUS
370
-3
390
F
  0
LAYER
  5
202
100
AcDbSymbolTableRecord
100
AcDbLayerTableRecord
  2
04_POINTS
 70
0
 62
7
  6
CONTINUOUS
370
-3
390
F
  0
LAYER
  5
203
100
AcDbSymbolTableRecord
100
AcDbLayerTableRecord
  2
05_CURVES
 70
0
 62
7
  6
CONTINUOUS
370
-3
390
F
  0
LAYER
  5
204
100
AcDbSymbolTableRecord
100
AcDbLayerTableRecord
  2
06_SURFS
 70
0
 62
7
  6
CONTINUOUS
370
-3
390
F
  0
LAYER
  5
205
100
AcDbSymbolTableRecord
100
AcDbLayerTableRecord
  2
07_COSMETICS
 70
0
 62
7
  6
CONTINUOUS
370
-3
390
F
  0
LAYER
  5
206
100
AcDbSymbolTableRecord
100
AcDbLayerTableRecord
  2
10_NOTES
 70
0
 62
7
  6
CONTINUOUS
370
-3
390
F
  0
LAYER
  5
207
100
AcDbSymbolTableRecord
100
AcDbLayerTableRecord
  2
11_NOTES_PUB
 70
0
 62
7
  6
CONTINUOUS
370
-3
390
F
  0
LAYER
  5
208
100
AcDbSymbolTableRecord
100
AcDbLayerTableRecord
  2
13_REF_GTOL
 70
0
 62
7
  6
CONTINUOUS
370
-3
390
F
  0
LAYER
  5
209
100
AcDbSymbolTableRecord
100
AcDbLayerTableRecord
  2
16_MISC
 70
0
 62
7
  6
CONTINUOUS
370
-3
390
F
  0
LAYER
  5
20A
100
AcDbSymbolTableRecord
100
AcDbLayerTableRecord
  2
17_NO_PRINT
 70
0
 62
7
  6
CONTINUOUS
370
-3
390
F
  0
LAYER
  5
20B
100
AcDbSymbolTableRecord
100
AcDbLayerTableRecord
  2
18_DATUM_CAMS_JOINTS
 70
0
 62
7
  6
CONTINUOUS
370
-3
390
F
  0
LAYER
  5
20C
100
AcDbSymbolTableRecord
100
AcDbLayerTableRecord
  2
19_DATUM_FUNCTIONAL
 70
0
 62
7
  6
CONTINUOUS
370
-3
390
F
  0
LAYER
  5
20D
100
AcDbSymbolTableRecord
100
AcDbLayerTableRecord
  2
20_DATUM_KINEMATIC_SCHEME
 70
0
 62
7
  6
CONTINUOUS
370
-3
390
F
  0
ENDTAB
  0
TABLE
  2
STYLE
  5
3
100
AcDbSymbolTable
 70
1
  0
STYLE
  5
11
100
AcDbSymbolTableRecord
100
AcDbTextStyleTableRecord
  2
STANDARD
 70
0
 40
0.0
 41
0.8
 50
0.0
 71
0
 42
0.2
  3
txt
  4

  0
STYLE
  5
20E
100
AcDbSymbolTableRecord
100
AcDbTextStyleTableRecord
  2
TEXTSTYLE_1
 70
0
 40
0.0
 41
0.8
 50
0.0
 71
0
 42
0.2
  3
gdt
  4

  0
ENDTAB
  0
TABLE
  2
VIEW
  5
6
100
AcDbSymbolTable
 70
0
  0
ENDTAB
  0
TABLE
  2
UCS
  5
7
100
AcDbSymbolTable
 70
0
  0
ENDTAB
  0
TABLE
  2
APPID
  5
9
100
AcDbSymbolTable
 70
1
  0
APPID
  5
20F
100
AcDbSymbolTableRecord
100
AcDbRegAppTableRecord
  2
ACAD
 70
0
  0
ENDTAB
  0
TABLE
  2
BLOCK_RECORD
  5
1
100
AcDbSymbolTable
 70
0
  0
BLOCK_RECORD
  5
210
100
AcDbSymbolTableRecord
100
AcDbBlockTableRecord
  2
*Model_Space
  0
BLOCK_RECORD
  5
211
100
AcDbSymbolTableRecord
100
AcDbBlockTableRecord
  2
*Paper_Space
  0
BLOCK_RECORD
  5
212
100
AcDbSymbolTableRecord
100
AcDbBlockTableRecord
  2
_FILLED
  0
ENDTAB
  0
TABLE
  2
DIMSTYLE
  5
A
100
AcDbSymbolTable
 70
1
100
AcDbDimStyleTable
 71
0
  0
DIMSTYLE
105
213
100
AcDbSymbolTableRecord
100
AcDbDimStyleTableRecord
  2
STANDARD
 70
0
  3

  4

 40
1.0
 41
4.2637470354
 42
1.0
 43
0.38
 44
1.0
 45
0.0
 46
0.0
 47
0.01
 48
0.01
140
5.9692458495
141
0.09
142
0.0
143
25.4
144
1.0
145
0.0
146
1.0
147
0.625
 71
1
 72
0
 73
0
 74
0
 75
0
 76
0
 77
1
 78
8
 79
2
170
0
171
1
172
0
173
0
174
0
175
0
176
0
177
0
178
0
270
2
179
2
271
2
272
2
273
2
274
2
275
0
280
0
281
0
282
0
283
1
284
8
285
0
286
0
287
3
288
0
340
11
278
46
341
212
342
212
343
212
344
212
  0
ENDTAB
  0
ENDSEC
  0
SECTION
  2
BLOCKS
  0
BLOCK
  5
20
100
AcDbEntity
  8
0
100
AcDbBlockBegin
  2
*Model_Space
 70
0
 10
0.0
 20
0.0
 30
0.0
  3
*Model_Space
  1

  0
ENDBLK
  5
21
100
AcDbEntity
  8
0
100
AcDbBlockEnd
  0
BLOCK
  5
1C
100
AcDbEntity
  8
0
100
AcDbBlockBegin
  2
*Paper_Space
 70
0
 10
0.0
 20
0.0
 30
0.0
  3
*Paper_Space
  1

  0
ENDBLK
  5
1D
100
AcDbEntity
  8
0
100
AcDbBlockEnd
  0
BLOCK
  5
214
100
AcDbEntity
  8
0
100
AcDbBlockBegin
  2
_FILLED
 70
64
 10
0.0
 20
0.0
  3
_FILLED
  1

  0
SOLID
  5
215
100
AcDbEntity
  8
0
  6
BYBLOCK
 62
0
100
AcDbTrace
 10
0.0
 20
0.0
 11
-1.0
 21
0.25
 12
-1.0
 22
-0.25
 13
-1.0
 23
-0.25
  0
ENDBLK
  5
216
100
AcDbEntity
  8
0
  6
BYBLOCK
 62
0
100
AcDbBlockEnd
  0
ENDSEC
  0
SECTION
  2
ENTITIES
  0
LINE
  5
217
100
AcDbEntity
  8
0
100
AcDbLine
 62
7
  6
CONTINUOUS
 10
242.8421427715
 20
42.4697088676
 11
242.5450789971
 21
42.3877466142
  0
LINE
  5
218
100
AcDbEntity
  8
0
100
AcDbLine
 62
7
  6
CONTINUOUS
 10
236.3067743268
 20
42.7982944653
 11
238.6050987861
 21
42.7982976719
  0
LINE
  5
219
100
AcDbEntity
  8
0
100
AcDbLine
 62
7
  6
CONTINUOUS
 10
204.1563307728
 20
61.059546145
 11
203.8592669984
 21
60.9775838915
  0
LINE
  5
21A
100
AcDbEntity
  8
0
100
AcDbLine
 62
7
  6
CONTINUOUS
 10
203.8027773822
 20
61.4130995356
 11
203.5057136078
 21
61.3311372821
  0
LINE
  5
21B
100
AcDbEntity
  8
0
100
AcDbLine
 62
7
  6
CONTINUOUS
 10
199.3819372942
 20
73.2250512695
 11
197.9877407267
 21
72.8514799357
  0
LINE
  5
21C
100
AcDbEntity
  8
0
100
AcDbLine
 62
7
  6
CONTINUOUS
 10
224.093330448
 20
78.0436943671
 11
213.3042706632
 21
78.0436892142
  0
LINE
  5
21D
100
AcDbEntity
  8
0
100
AcDbLine
 62
7
  6
CONTINUOUS
 10
247.3930423285
 20
56.4616516156
 11
247.6052089119
 21
56.4251704971
  0
LINE
  5
21E
100
AcDbEntity
  8
0
100
AcDbLine
 62
7
  6
CONTINUOUS
 10
199.8612029934
 20
60.2999492447
 11
224.3647022629
 21
51.3814105551
  0
LINE
  5
21F
100
AcDbEntity
  8
0
100
AcDbLine
 62
7
  6
CONTINUOUS
 10
247.6052089119
 20
56.4251704971
 11
247.2522229523
 21
56.5536470915
  0
LINE
  5
220
100
AcDbEntity
  8
0
100
AcDbLine
 62
7
  6
CONTINUOUS
 10
179.7522211045
 20
461.1436887643
 11
180.1522211045
 21
461.5436887643
  0
LINE
  5
221
100
AcDbEntity
  8
0
100
AcDbLine
 62
7
  6
CONTINUOUS
 10
86.2123076142
 20
96.5436887643
 11
68.2123083891
 21
96.5436887643
  0
LINE
  5
222
100
AcDbEntity
  8
0
100
AcDbLine
 62
7
  6
CONTINUOUS
 10
213.8623083891
 20
104.543690314
 11
212.3623083891
 21
104.543690314
  0
LINE
  5
223
100
AcDbEntity
  8
0
100
AcDbLine
 62
7
  6
CONTINUOUS
 10
213.8623083891
 20
105.7936887643
 11
238.5623083891
 21
105.7936887643
  0
LINE
  5
224
100
AcDbEntity
  8
0
100
AcDbLine
 62
7
  6
CONTINUOUS
 10
214.1123083891
 20
106.043690314
 11
213.8623083891
 21
106.043690314
  0
LINE
  5
225
100
AcDbEntity
  8
0
100
AcDbLine
 62
7
  6
CONTINUOUS
 10
202.6123035969
 20
106.5436941287
 11
209.6836333796
 21
106.5436941287
  0
LINE
  5
226
100
AcDbEntity
  8
0
100
AcDbLine
 62
7
  6
CONTINUOUS
 10
211.8049455942
 20
106.5436941287
 11
236.9802523674
 21
106.5436941287
  0
LINE
  5
227
100
AcDbEntity
  8
0
100
AcDbLine
 62
7
  6
CONTINUOUS
 10
201.6526822906
 20
64.237700567
 11
224.3647022629
 21
51.3814105551
  0
LINE
  5
228
100
AcDbEntity
  8
0
100
AcDbLine
 62
7
  6
CONTINUOUS
 10
186.4459788893
 20
449.8148136067
 11
186.8248538892
 21
450.1936886067
  0
LINE
  5
229
100
AcDbEntity
  8
0
100
AcDbLine
 62
7
  6
CONTINUOUS
 10
238.5623083891
 20
111.8930529367
 11
238.6211542894
 21
111.8930529367
  0
LINE
  5
22A
100
AcDbEntity
  8
0
100
AcDbLine
 62
7
  6
CONTINUOUS
 10
141.7405609311
 20
112.5436913869
 11
146.740559242
 21
112.5436913869
  0
LINE
  5
22B
100
AcDbEntity
  8
0
100
AcDbLine
 62
7
  6
CONTINUOUS
 10
142.9992098631
 20
114.0436944267
 11
146.6619450869
 21
114.0436944267
  0
LINE
  5
22C
100
AcDbEntity
  8
0
100
AcDbLine
 62
7
  6
CONTINUOUS
 10
131.7385083891
 20
114.5436887643
 11
128.6176429741
 21
114.5436887643
  0
LINE
  5
22D
100
AcDbEntity
  8
0
100
AcDbLine
 62
7
  6
CONTINUOUS
 10
200.8123083891
 20
114.8436887643
 11
200.3123083891
 21
114.8436887643
  0
LINE
  5
22E
100
AcDbEntity
  8
0
100
AcDbLine
 62
7
  6
CONTINUOUS
 10
202.8120737757
 20
116.5336887643
 11
202.6123069943
 21
116.5336887643
  0
LINE
  5
22F
100
AcDbEntity
  8
0
100
AcDbLine
 62
7
  6
CONTINUOUS
 10
198.7946267542
 20
116.5336887643
 11
192.612305683
 21
116.5336887643
  0
LINE
  5
230
100
AcDbEntity
  8
0
100
AcDbLine
 62
7
  6
CONTINUOUS
 10
142.5601526754
 20
116.5336887643
 11
141.0370155697
 21
116.5336887643
  0
LINE
  5
231
100
AcDbEntity
  8
0
100
AcDbLine
 62
7
  6
CONTINUOUS
 10
192.612305683
 20
116.5436920425
 11
142.5583888115
 21
116.5436920425
  0
LINE
  5
232
100
AcDbEntity
  8
0
100
AcDbLine
 62
7
  6
CONTINUOUS
 10
141.0352517189
 20
116.5436920425
 11
133.3293546261
 21
116.5436920425
  0
LINE
  5
233
100
AcDbEntity
  8
0
100
AcDbLine
 62
7
  6
CONTINUOUS
 10
202.6123069943
 20
116.5436960957
 11
198.7946267542
 21
116.5436960957
  0
LINE
  5
234
100
AcDbEntity
  8
0
100
AcDbLine
 62
7
  6
CONTINUOUS
 10
246.2513871927
 20
57.2067995876
 11
213.5195328379
 21
76.1045529405
  0
LINE
  5
235
100
AcDbEntity
  8
0
100
AcDbLine
 62
7
  6
CONTINUOUS
 10
246.2603493118
 20
57.2016253034
 11
247.3930423285
 21
56.4616516156
  0
LINE
  5
236
100
AcDbEntity
  8
0
100
AcDbLine
 62
7
  6
CONTINUOUS
 10
184.5173655534
 20
51.3200773756
 11
185.570948745
 21
50.266486783
  0
LINE
  5
237
100
AcDbEntity
  8
0
100
AcDbLine
 62
7
  6
CONTINUOUS
 10
192.288323827
 20
47.7917523385
 11
187.6993431001
 21
52.3807330654
  0
LINE
  5
238
100
AcDbEntity
  8
0
100
AcDbLine
 62
7
  6
CONTINUOUS
 10
186.6316111038
 20
53.4484650617
 11
181.6685593983
 21
58.4115167672
  0
LINE
  5
239
100
AcDbEntity
  8
0
100
AcDbLine
 62
7
  6
CONTINUOUS
 10
190.1538407726
 20
66.8967981414
 11
195.1168924781
 21
61.9337464359
  0
LINE
  5
23A
100
AcDbEntity
  8
0
100
AcDbLine
 62
7
  6
CONTINUOUS
 10
196.1846244744
 20
60.8660144396
 11
200.7736053344
 21
56.2770335796
  0
LINE
  5
23B
100
AcDbEntity
  8
0
100
AcDbLine
 62
7
  6
CONTINUOUS
 10
68.2123083891
 20
96.5436887643
 11
68.2123083891
 21
366.5468891583
  0
LINE
  5
23C
100
AcDbEntity
  8
0
100
AcDbLine
 62
7
  6
CONTINUOUS
 10
249.212302667
 20
133.026969125
 11
247.1390378222
 21
132.9907832381
  0
LINE
  5
23D
100
AcDbEntity
  8
0
100
AcDbLine
 62
7
  6
CONTINUOUS
 10
239.6123040737
 20
132.5436946651
 11
246.9623129429
 21
132.5436949036
  0
LINE
  5
23E
100
AcDbEntity
  8
0
100
AcDbLine
 62
7
  6
CONTINUOUS
 10
293.8465405525
 20
134.5436912677
 11
249.212302667
 21
134.5436912677
  0
LINE
  5
23F
100
AcDbEntity
  8
0
100
AcDbLine
 62
7
  6
CONTINUOUS
 10
249.0623186888
 20
132.5174912116
 11
246.9623129429
 21
132.5436949036
  0
LINE
  5
240
100
AcDbEntity
  8
0
100
AcDbLine
 62
7
  6
CONTINUOUS
 10
297.0743684101
 20
134.3824612972
 11
299.5623532671
 21
134.2799539592
  0
LINE
  5
241
100
AcDbEntity
  8
0
100
AcDbLine
 62
7
  6
CONTINUOUS
 10
294.1123027624
 20
134.531889548
 11
293.8465405525
 21
134.5436912677
  0
LINE
  5
242
100
AcDbEntity
  8
0
100
AcDbLine
 62
7
  6
CONTINUOUS
 10
294.1123027624
 20
134.5181953809
 11
297.0743684101
 21
134.3824612972
  0
LINE
  5
243
100
AcDbEntity
  8
0
100
AcDbLine
 62
7
  6
CONTINUOUS
 10
201.4806899091
 20
61.2268032543
 11
199.0130515991
 21
63.6944415643
  0
LINE
  5
244
100
AcDbEntity
  8
0
100
AcDbLine
 62
7
  6
CONTINUOUS
 10
197.9453158775
 20
64.7621772859
 11
194.8003457722
 21
67.9071473912
  0
LINE
  5
245
100
AcDbEntity
  8
0
100
AcDbLine
 62
7
  6
CONTINUOUS
 10
202.1879580872
 20
61.9337487914
 11
202.5554932764
 21
61.5662136022
  0
LINE
  5
246
100
AcDbEntity
  8
0
100
AcDbLine
 62
7
  6
CONTINUOUS
 10
202.5793823349
 20
61.5423245437
 11
202.909046667
 21
61.2126602116
  0
LINE
  5
247
100
AcDbEntity
  8
0
100
AcDbLine
 62
7
  6
CONTINUOUS
 10
196.5535097058
 20
70.3966236811
 11
196.9215023888
 21
70.0286309982
  0
LINE
  5
248
100
AcDbEntity
  8
0
100
AcDbLine
 62
7
  6
CONTINUOUS
 10
199.7499299771
 20
72.8570585865
 11
199.3819372942
 21
73.2250512695
  0
LINE
  5
249
100
AcDbEntity
  8
0
100
AcDbLine
 62
7
  6
CONTINUOUS
 10
234.516670555
 20
41.2294422629
 11
224.3647022629
 21
51.3814105551
  0
LINE
  5
24A
100
AcDbEntity
  8
0
100
AcDbLine
 62
7
  6
CONTINUOUS
 10
201.8714135841
 20
74.9782152031
 11
205.0163836894
 21
71.8332450978
  0
LINE
  5
24B
100
AcDbEntity
  8
0
100
AcDbLine
 62
7
  6
CONTINUOUS
 10
202.578929687
 20
61.5418718958
 11
202.5554931579
 21
61.5662134836
  0
LINE
  5
24C
100
AcDbEntity
  8
0
100
AcDbLine
 62
7
  6
CONTINUOUS
 10
202.9324830776
 20
61.1883185052
 11
202.9090465485
 21
61.212660093
  0
LINE
  5
24D
100
AcDbEntity
  8
0
100
AcDbLine
 62
7
  6
CONTINUOUS
 10
79.4543842123
 20
359.5437002084
 11
79.4551590727
 21
358.2733613154
  0
LINE
  5
24E
100
AcDbEntity
  8
0
100
AcDbLine
 62
7
  6
CONTINUOUS
 10
84.9874338586
 20
99.323444825
 11
84.9860798837
 21
101.5436988971
  0
LINE
  5
24F
100
AcDbEntity
  8
0
100
AcDbLine
 62
7
  6
CONTINUOUS
 10
76.2123083891
 20
366.5468550958
 11
76.2123083891
 21
365.9320851641
  0
LINE
  5
250
100
AcDbEntity
  8
0
100
AcDbLine
 62
7
  6
CONTINUOUS
 10
86.2123083891
 20
365.3367389521
 11
86.2123083891
 21
365.7936887238
  0
LINE
  5
251
100
AcDbEntity
  8
0
100
AcDbLine
 62
7
  6
CONTINUOUS
 10
79.4385358961
 20
101.5436988971
 11
79.4371796716
 21
99.3183965365
  0
LINE
  5
252
100
AcDbEntity
  8
0
100
AcDbLine
 62
7
  6
CONTINUOUS
 10
84.9694576384
 20
358.2733613154
 11
84.9702324988
 21
359.5437002084
  0
LINE
  5
253
100
AcDbEntity
  8
0
100
AcDbLine
 62
7
  6
CONTINUOUS
 10
193.0454083891
 20
389.7436887643
 11
189.5454083891
 21
387.2935025632
  0
LINE
  5
254
100
AcDbEntity
  8
0
100
AcDbLine
 62
7
  6
CONTINUOUS
 10
187.7454083891
 20
381.1972786028
 11
164.1454083891
 21
367.5718122499
  0
LINE
  5
255
100
AcDbEntity
  8
0
100
AcDbLine
 62
7
  6
CONTINUOUS
 10
164.7454083891
 20
366.5325817653
 11
188.3454083891
 21
380.1580481182
  0
LINE
  5
256
100
AcDbEntity
  8
0
100
AcDbLine
 62
7
  6
CONTINUOUS
 10
247.2760544688
 20
48.2562406204
 11
247.251712881
 21
48.2796771495
  0
LINE
  5
257
100
AcDbEntity
  8
0
100
AcDbLine
 62
7
  6
CONTINUOUS
 10
240.6754149072
 20
44.5456279763
 11
241.2463846067
 21
43.9852121111
  0
LINE
  5
258
100
AcDbEntity
  8
0
100
AcDbLine
 62
7
  6
CONTINUOUS
 10
237.315642089
 20
44.0877543691
 11
239.8200002734
 21
41.5833961846
  0
LINE
  5
259
100
AcDbEntity
  8
0
100
AcDbLine
 62
7
  6
CONTINUOUS
 10
239.4595580071
 20
44.7581238299
 11
240.1737343839
 21
44.0439474531
  0
LINE
  5
25A
100
AcDbEntity
  8
0
100
AcDbLine
 62
7
  6
CONTINUOUS
 10
240.7394195972
 20
43.4782620027
 11
241.5948586657
 21
42.6228229342
  0
LINE
  5
25B
100
AcDbEntity
  8
0
100
AcDbLine
 62
7
  6
CONTINUOUS
 10
247.2517127624
 20
48.2796770309
 11
246.3962736939
 21
49.1351160994
  0
LINE
  5
25C
100
AcDbEntity
  8
0
100
AcDbLine
 62
7
  6
CONTINUOUS
 10
245.8305882436
 20
49.7008013127
 11
245.1164118667
 21
50.4149776895
  0
LINE
  5
25D
100
AcDbEntity
  8
0
100
AcDbLine
 62
7
  6
CONTINUOUS
 10
245.8009234632
 20
52.5730357433
 11
248.3052816233
 21
50.0686775832
  0
LINE
  5
25E
100
AcDbEntity
  8
0
100
AcDbLine
 62
7
  6
CONTINUOUS
 10
245.8893235856
 20
48.6281510899
 11
245.3289077203
 21
49.1991207894
  0
LINE
  5
25F
100
AcDbEntity
  8
0
100
AcDbLine
 62
7
  6
CONTINUOUS
 10
241.6182950763
 20
42.5984812278
 11
241.5948585472
 21
42.6228228157
  0
LINE
  5
260
100
AcDbEntity
  8
0
100
AcDbLine
 62
7
  6
CONTINUOUS
 10
247.6052089119
 20
56.4251704971
 11
248.6588038506
 21
55.3715755584
  0
LINE
  5
261
100
AcDbEntity
  8
0
100
AcDbLine
 62
7
  6
CONTINUOUS
 10
192.6223089613
 20
116.5336887643
 11
202.6123035969
 21
106.5436941287
  0
LINE
  5
262
100
AcDbEntity
  8
0
100
AcDbLine
 62
7
  6
CONTINUOUS
 10
198.6223083891
 20
116.5336887643
 11
200.3123083891
 21
114.8436887643
  0
LINE
  5
263
100
AcDbEntity
  8
0
100
AcDbLine
 62
7
  6
CONTINUOUS
 10
201.3163756193
 20
114.9109571478
 11
211.922971562
 21
104.3043545389
  0
LINE
  5
264
100
AcDbEntity
  8
0
100
AcDbLine
 62
7
  6
CONTINUOUS
 10
202.3770253719
 20
115.971614351
 11
212.9836581325
 21
105.3649815905
  0
LINE
  5
265
100
AcDbEntity
  8
0
100
AcDbLine
 62
7
  6
CONTINUOUS
 10
202.6453254982
 20
116.5106775918
 11
212.6123089613
 21
106.5436941287
  0
LINE
  5
266
100
AcDbEntity
  8
0
100
AcDbLine
 62
7
  6
CONTINUOUS
 10
298.1909861862
 20
178.6036887643
 11
299.8623083891
 21
178.6036887643
  0
LINE
  5
267
100
AcDbEntity
  8
0
100
AcDbLine
 62
7
  6
CONTINUOUS
 10
298.1909861862
 20
179.0936887643
 11
298.4430437827
 21
179.0936887643
  0
LINE
  5
268
100
AcDbEntity
  8
0
100
AcDbLine
 62
7
  6
CONTINUOUS
 10
298.5512196337
 20
179.0936887643
 11
299.8623083891
 21
179.0936887643
  0
LINE
  5
269
100
AcDbEntity
  8
0
100
AcDbLine
 62
7
  6
CONTINUOUS
 10
141.18781988
 20
115.6784364444
 11
141.7405609311
 21
112.5436913869
  0
LINE
  5
26A
100
AcDbEntity
  8
0
100
AcDbLine
 62
7
  6
CONTINUOUS
 10
142.9992098631
 20
114.0436944267
 11
142.7267032248
 21
115.5891422758
  0
LINE
  5
26B
100
AcDbEntity
  8
0
100
AcDbLine
 62
7
  6
CONTINUOUS
 10
131.7385083891
 20
115.8684177634
 11
131.7385083891
 21
114.5436887643
  0
LINE
  5
26C
100
AcDbEntity
  8
0
100
AcDbLine
 62
7
  6
CONTINUOUS
 10
146.740559242
 20
112.5436326303
 11
146.6619450869
 21
114.0436944267
  0
LINE
  5
26D
100
AcDbEntity
  8
0
100
AcDbLine
 62
7
  6
CONTINUOUS
 10
146.2320834481
 20
114.0436944267
 11
146.2320834481
 21
112.5436913869
  0
LINE
  5
26E
100
AcDbEntity
  8
0
100
AcDbLine
 62
7
  6
CONTINUOUS
 10
193.1050098192
 20
422.0436887643
 11
193.7454083891
 21
424.4336887643
  0
LINE
  5
26F
100
AcDbEntity
  8
0
100
AcDbLine
 62
7
  6
CONTINUOUS
 10
197.493651121
 20
346.5611722518
 11
198.0980103634
 21
347.6079531658
  0
LINE
  5
270
100
AcDbEntity
  8
0
100
AcDbLine
 62
7
  6
CONTINUOUS
 10
292.9302454056
 20
220.5436887643
 11
294.5768283074
 21
220.5436887643
  0
LINE
  5
271
100
AcDbEntity
  8
0
100
AcDbLine
 62
7
  6
CONTINUOUS
 10
295.3123785484
 20
221.3467689878
 11
294.5123095335
 21
221.3467689878
  0
LINE
  5
272
100
AcDbEntity
  8
0
100
AcDbLine
 62
7
  6
CONTINUOUS
 10
162.9454083891
 20
365.4933512808
 11
162.9454083891
 21
346.5436887643
  0
LINE
  5
273
100
AcDbEntity
  8
0
100
AcDbLine
 62
7
  6
CONTINUOUS
 10
164.1454083891
 20
365.4933512808
 11
164.1454083891
 21
348.5436887643
  0
LINE
  5
274
100
AcDbEntity
  8
0
100
AcDbLine
 62
7
  6
CONTINUOUS
 10
164.1454083891
 20
346.5436887643
 11
164.1454083891
 21
346.7106584863
  0
LINE
  5
275
100
AcDbEntity
  8
0
100
AcDbLine
 62
7
  6
CONTINUOUS
 10
213.6454083891
 20
347.7436887643
 11
213.9454083891
 21
348.2633040066
  0
LINE
  5
276
100
AcDbEntity
  8
0
100
AcDbLine
 62
7
  6
CONTINUOUS
 10
174.0454083891
 20
347.7436887643
 11
174.0454083891
 21
361.7436887643
  0
LINE
  5
277
100
AcDbEntity
  8
0
100
AcDbLine
 62
7
  6
CONTINUOUS
 10
179.7522211045
 20
456.9436887642
 11
179.7522211045
 21
461.1436887643
  0
LINE
  5
278
100
AcDbEntity
  8
0
100
AcDbLine
 62
7
  6
CONTINUOUS
 10
180.1522211045
 20
456.5436887643
 11
180.1522211045
 21
461.5436887643
  0
LINE
  5
279
100
AcDbEntity
  8
0
100
AcDbLine
 62
7
  6
CONTINUOUS
 10
294.4715405164
 20
259.1339003074
 11
293.4623083891
 21
259.0789191042
  0
LINE
  5
27A
100
AcDbEntity
  8
0
100
AcDbLine
 62
7
  6
CONTINUOUS
 10
293.4623083891
 20
248.1836887643
 11
295.3123785484
 21
248.1836887643
  0
LINE
  5
27B
100
AcDbEntity
  8
0
100
AcDbLine
 62
7
  6
CONTINUOUS
 10
186.4459788893
 20
446.6725639219
 11
186.4459788893
 21
449.8148136067
  0
LINE
  5
27C
100
AcDbEntity
  8
0
100
AcDbLine
 62
7
  6
CONTINUOUS
 10
186.4522211045
 20
454.8936887643
 11
186.4522211045
 21
463.1936887643
  0
LINE
  5
27D
100
AcDbEntity
  8
0
100
AcDbLine
 62
7
  6
CONTINUOUS
 10
186.6522211045
 20
454.6936887643
 11
186.6522211045
 21
463.3936887643
  0
LINE
  5
27E
100
AcDbEntity
  8
0
100
AcDbLine
 62
7
  6
CONTINUOUS
 10
186.8248538892
 20
446.2936889219
 11
186.8248538892
 21
450.1936886067
  0
LINE
  5
27F
100
AcDbEntity
  8
0
100
AcDbLine
 62
7
  6
CONTINUOUS
 10
186.9459688892
 20
445.4936889219
 11
186.9459688892
 21
450.9936886067
  0
LINE
  5
280
100
AcDbEntity
  8
0
100
AcDbLine
 62
7
  6
CONTINUOUS
 10
188.3454083891
 20
382.2365090873
 11
188.3454083891
 21
466.5436887643
  0
LINE
  5
281
100
AcDbEntity
  8
0
100
AcDbLine
 62
7
  6
CONTINUOUS
 10
189.5454083891
 20
425.9436887643
 11
189.5454083891
 21
387.2935025632
  0
LINE
  5
282
100
AcDbEntity
  8
0
100
AcDbLine
 62
7
  6
CONTINUOUS
 10
189.5454083891
 20
361.7436887643
 11
189.5454083891
 21
382.2365090873
  0
LINE
  5
283
100
AcDbEntity
  8
0
100
AcDbLine
 62
7
  6
CONTINUOUS
 10
189.5454083891
 20
450.7436887643
 11
189.5454083891
 21
466.5436887643
  0
LINE
  5
284
100
AcDbEntity
  8
0
100
AcDbLine
 62
7
  6
CONTINUOUS
 10
190.4522211045
 20
463.9436887643
 11
190.4522211045
 21
454.1436887643
  0
LINE
  5
285
100
AcDbEntity
  8
0
100
AcDbLine
 62
7
  6
CONTINUOUS
 10
191.7522211045
 20
454.7436887643
 11
191.7522211045
 21
463.3436887643
  0
LINE
  5
286
100
AcDbEntity
  8
0
100
AcDbLine
 62
7
  6
CONTINUOUS
 10
192.8459788893
 20
450.7436887643
 11
192.8459788893
 21
451.6936886067
  0
LINE
  5
287
100
AcDbEntity
  8
0
100
AcDbLine
 62
7
  6
CONTINUOUS
 10
193.6454083891
 20
426.0436887643
 11
193.6454083891
 21
425.9436887643
  0
LINE
  5
288
100
AcDbEntity
  8
0
100
AcDbLine
 62
7
  6
CONTINUOUS
 10
193.6459788893
 20
451.6936886067
 11
193.6459788893
 21
450.7436887643
  0
LINE
  5
289
100
AcDbEntity
  8
0
100
AcDbLine
 62
7
  6
CONTINUOUS
 10
193.7454083891
 20
389.3436887643
 11
193.7454083891
 21
388.7436887643
  0
LINE
  5
28A
100
AcDbEntity
  8
0
100
AcDbLine
 62
7
  6
CONTINUOUS
 10
193.7454083891
 20
424.4336887643
 11
193.7454083891
 21
426.0436887643
  0
LINE
  5
28B
100
AcDbEntity
  8
0
100
AcDbLine
 62
7
  6
CONTINUOUS
 10
193.8454083891
 20
402.5436887643
 11
193.8454083891
 21
409.9436887643
  0
LINE
  5
28C
100
AcDbEntity
  8
0
100
AcDbLine
 62
7
  6
CONTINUOUS
 10
193.9454083891
 20
463.2962107992
 11
193.9454083891
 21
463.2773566371
  0
LINE
  5
28D
100
AcDbEntity
  8
0
100
AcDbLine
 62
7
  6
CONTINUOUS
 10
193.9454083891
 20
454.8100208915
 11
193.9454083891
 21
454.7911667294
  0
LINE
  5
28E
100
AcDbEntity
  8
0
100
AcDbLine
 62
7
  6
CONTINUOUS
 10
194.1454083891
 20
424.5436887643
 11
194.1454083891
 21
421.4436887643
  0
LINE
  5
28F
100
AcDbEntity
  8
0
100
AcDbLine
 62
7
  6
CONTINUOUS
 10
194.2681022379
 20
463.2703398218
 11
194.2681022379
 21
454.8170377067
  0
LINE
  5
290
100
AcDbEntity
  8
0
100
AcDbLine
 62
7
  6
CONTINUOUS
 10
194.4459788893
 20
450.7436887643
 11
194.4459788893
 21
451.4936886067
  0
LINE
  5
291
100
AcDbEntity
  8
0
100
AcDbLine
 62
7
  6
CONTINUOUS
 10
195.0454083891
 20
388.7436887643
 11
195.0454083891
 21
402.5436887643
  0
LINE
  5
292
100
AcDbEntity
  8
0
100
AcDbLine
 62
7
  6
CONTINUOUS
 10
195.0454083891
 20
409.9436887643
 11
195.0454083891
 21
422.9436887643
  0
LINE
  5
293
100
AcDbEntity
  8
0
100
AcDbLine
 62
7
  6
CONTINUOUS
 10
195.3054083891
 20
422.9436887643
 11
195.3054083891
 21
426.0436887643
  0
LINE
  5
294
100
AcDbEntity
  8
0
100
AcDbLine
 62
7
  6
CONTINUOUS
 10
195.9454083891
 20
451.4596617913
 11
195.9454083891
 21
451.4346890009
  0
LINE
  5
295
100
AcDbEntity
  8
0
100
AcDbLine
 62
7
  6
CONTINUOUS
 10
196.6527850893
 20
451.4185101123
 11
196.6527850893
 21
450.7436887643
  0
LINE
  5
296
100
AcDbEntity
  8
0
100
AcDbLine
 62
7
  6
CONTINUOUS
 10
196.9465439364
 20
451.1159675747
 11
196.9464707001
 21
450.7436887643
  0
LINE
  5
297
100
AcDbEntity
  8
0
100
AcDbLine
 62
7
  6
CONTINUOUS
 10
194.9540464064
 20
462.554507839
 11
194.9454362472
 21
455.5328696896
  0
LINE
  5
298
100
AcDbEntity
  8
0
100
AcDbLine
 62
7
  6
CONTINUOUS
 10
202.7296038363
 20
116.4263992537
 11
202.7296038363
 21
116.5336887643
  0
LINE
  5
299
100
AcDbEntity
  8
0
100
AcDbLine
 62
7
  6
CONTINUOUS
 10
202.8194151703
 20
116.3365879197
 11
202.8194151703
 21
116.5336887643
  0
LINE
  5
29A
100
AcDbEntity
  8
0
100
AcDbLine
 62
7
  6
CONTINUOUS
 10
212.3623083891
 20
79.7863320401
 11
212.3623083891
 21
104.543690314
  0
LINE
  5
29B
100
AcDbEntity
  8
0
100
AcDbLine
 62
7
  6
CONTINUOUS
 10
213.8623083891
 20
106.043690314
 11
213.8623083891
 21
104.543690314
  0
LINE
  5
29C
100
AcDbEntity
  8
0
100
AcDbLine
 62
7
  6
CONTINUOUS
 10
213.9454083891
 20
348.2633040066
 11
213.9454083891
 21
353.1436887643
  0
LINE
  5
29D
100
AcDbEntity
  8
0
100
AcDbLine
 62
7
  6
CONTINUOUS
 10
218.4454083891
 20
352.0436926732
 11
218.4454083891
 21
353.1436887643
  0
LINE
  5
29E
100
AcDbEntity
  8
0
100
AcDbLine
 62
7
  6
CONTINUOUS
 10
215.4005546392
 20
352.0436924598
 11
215.1123065771
 21
346.5436962149
  0
LWPOLYLINE
  5
29F
100
AcDbEntity
  8
0
100
AcDbPolyline
 62
7
  6
CONTINUOUS
 90
3
 70
0
 10
284.2550556707
 20
346.6363887643
 10
285.2543324482
 20
348.0533547767
 10
285.8675287617
 20
348.9171036415
  0
LINE
  5
2A0
100
AcDbEntity
  8
0
100
AcDbLine
 62
7
  6
CONTINUOUS
 10
284.2550556707
 20
346.6363887643
 11
286.0641174745
 21
349.1931391887
  0
LINE
  5
2A1
100
AcDbEntity
  8
0
100
AcDbLine
 62
7
  6
CONTINUOUS
 10
295.3123785484
 20
284.8536887643
 11
293.4623083891
 21
284.8536887643
  0
LINE
  5
2A2
100
AcDbEntity
  8
0
100
AcDbLine
 62
7
  6
CONTINUOUS
 10
294.4715405164
 20
281.9534772212
 11
293.4623083891
 21
282.0084584244
  0
LINE
  5
2A3
100
AcDbEntity
  8
0
100
AcDbLine
 62
7
  6
CONTINUOUS
 10
222.0454083891
 20
353.1436887643
 11
222.0454083891
 21
352.0436929255
  0
LINE
  5
2A4
100
AcDbEntity
  8
0
100
AcDbLine
 62
7
  6
CONTINUOUS
 10
222.6954083891
 20
353.1436887643
 11
222.6954083891
 21
352.0436929711
  0
LINE
  5
2A5
100
AcDbEntity
  8
0
100
AcDbLine
 62
7
  6
CONTINUOUS
 10
226.2954083891
 20
353.1436887643
 11
226.2954083891
 21
352.0436932234
  0
LINE
  5
2A6
100
AcDbEntity
  8
0
100
AcDbLine
 62
7
  6
CONTINUOUS
 10
227.3954083891
 20
450.6486887643
 11
227.3954083891
 21
450.7436887643
  0
LINE
  5
2A7
100
AcDbEntity
  8
0
100
AcDbLine
 62
7
  6
CONTINUOUS
 10
227.7954083891
 20
450.8986887643
 11
227.7954083891
 21
450.6486887643
  0
LINE
  5
2A8
100
AcDbEntity
  8
0
100
AcDbLine
 62
7
  6
CONTINUOUS
 10
228.0954083891
 20
353.1436887643
 11
228.0954083891
 21
352.0436933495
  0
LINE
  5
2A9
100
AcDbEntity
  8
0
100
AcDbLine
 62
7
  6
CONTINUOUS
 10
230.8454083891
 20
353.1436887643
 11
230.8454083891
 21
352.0436935423
  0
LINE
  5
2AA
100
AcDbEntity
  8
0
100
AcDbLine
 62
7
  6
CONTINUOUS
 10
284.4185633533
 20
288.5436887643
 11
287.6512232549
 21
288.5436887643
  0
LINE
  5
2AB
100
AcDbEntity
  8
0
100
AcDbLine
 62
7
  6
CONTINUOUS
 10
287.5316785268
 20
288.9936943254
 11
287.412308556
 21
288.9936943254
  0
LINE
  5
2AC
100
AcDbEntity
  8
0
100
AcDbLine
 62
7
  6
CONTINUOUS
 10
234.7454083891
 20
352.0436938156
 11
234.7454083891
 21
353.1436887643
  0
LINE
  5
2AD
100
AcDbEntity
  8
0
100
AcDbLine
 62
7
  6
CONTINUOUS
 10
237.5454083891
 20
352.0436940119
 11
237.5454083891
 21
353.1436887643
  0
LINE
  5
2AE
100
AcDbEntity
  8
0
100
AcDbLine
 62
7
  6
CONTINUOUS
 10
238.5623083891
 20
105.7936887643
 11
238.5623083891
 21
111.8930529367
  0
LINE
  5
2AF
100
AcDbEntity
  8
0
100
AcDbLine
 62
7
  6
CONTINUOUS
 10
238.6211542894
 20
111.8930529367
 11
238.6211542894
 21
131.6530529367
  0
LINE
  5
2B0
100
AcDbEntity
  8
0
100
AcDbLine
 62
7
  6
CONTINUOUS
 10
238.7123037399
 20
131.8621439419
 11
238.7123037399
 21
109.5436927578
  0
LINE
  5
2B1
100
AcDbEntity
  8
0
100
AcDbLine
 62
7
  6
CONTINUOUS
 10
241.1454083891
 20
353.1436887643
 11
241.1454083891
 21
351.6436887643
  0
LINE
  5
2B2
100
AcDbEntity
  8
0
100
AcDbLine
 62
7
  6
CONTINUOUS
 10
243.2123083891
 20
348.0436941287
 11
243.2123054089
 21
347.5436907908
  0
LINE
  5
2B3
100
AcDbEntity
  8
0
100
AcDbLine
 62
7
  6
CONTINUOUS
 10
244.1454083891
 20
353.1436887643
 11
244.1454083891
 21
348.2633040066
  0
LINE
  5
2B4
100
AcDbEntity
  8
0
100
AcDbLine
 62
7
  6
CONTINUOUS
 10
245.0454083891
 20
362.6986887643
 11
245.0454083891
 21
375.6671699142
  0
LINE
  5
2B5
100
AcDbEntity
  8
0
100
AcDbLine
 62
7
  6
CONTINUOUS
 10
245.0454083891
 20
437.0986887643
 11
245.0454083891
 21
450.0986887643
  0
LINE
  5
2B6
100
AcDbEntity
  8
0
100
AcDbLine
 62
7
  6
CONTINUOUS
 10
245.1150260686
 20
347.5436907908
 11
245.1150260686
 21
346.6363887643
  0
LINE
  5
2B7
100
AcDbEntity
  8
0
100
AcDbLine
 62
7
  6
CONTINUOUS
 10
245.1619668177
 20
361.7436887643
 11
245.1619668177
 21
347.7436887643
  0
LINE
  5
2B8
100
AcDbEntity
  8
0
100
AcDbLine
 62
7
  6
CONTINUOUS
 10
245.4273637989
 20
361.7436887643
 11
245.4273637989
 21
347.7436887643
  0
LINE
  5
2B9
100
AcDbEntity
  8
0
100
AcDbLine
 62
7
  6
CONTINUOUS
 10
245.5373594281
 20
346.6363887643
 11
245.5373594281
 21
347.5436907908
  0
LINE
  5
2BA
100
AcDbEntity
  8
0
100
AcDbLine
 62
7
  6
CONTINUOUS
 10
247.089974173
 20
53.5814943115
 11
247.0899724515
 21
51.283986755
  0
LINE
  5
2BB
100
AcDbEntity
  8
0
100
AcDbLine
 62
7
  6
CONTINUOUS
 10
247.2954083891
 20
361.7436887643
 11
247.2954083891
 21
347.7436887643
  0
LINE
  5
2BC
100
AcDbEntity
  8
0
100
AcDbLine
 62
7
  6
CONTINUOUS
 10
247.497491373
 20
346.6363887643
 11
247.497491373
 21
347.5436907908
  0
LINE
  5
2BD
100
AcDbEntity
  8
0
100
AcDbLine
 62
7
  6
CONTINUOUS
 10
249.0623186888
 20
132.5174912116
 11
249.0623186888
 21
89.0397473475
  0
LINE
  5
2BE
100
AcDbEntity
  8
0
100
AcDbLine
 62
7
  6
CONTINUOUS
 10
249.212302667
 20
134.5436912677
 11
249.212302667
 21
133.026969125
  0
LINE
  5
2BF
100
AcDbEntity
  8
0
100
AcDbLine
 62
7
  6
CONTINUOUS
 10
245.3482003926
 20
436.7742029388
 11
245.3538643138
 21
437.0986887642
  0
LINE
  5
2C0
100
AcDbEntity
  8
0
100
AcDbLine
 62
7
  6
CONTINUOUS
 10
196.9270810397
 20
71.7908202486
 11
196.5535097058
 21
70.3966236811
  0
LINE
  5
2C1
100
AcDbEntity
  8
0
100
AcDbLine
 62
7
  6
CONTINUOUS
 10
254.4123083891
 20
346.6363887643
 11
254.4123083891
 21
346.2436887643
  0
LINE
  5
2C2
100
AcDbEntity
  8
0
100
AcDbLine
 62
7
  6
CONTINUOUS
 10
265.8454083891
 20
376.6417377328
 11
265.8454083891
 21
383.8986887643
  0
LINE
  5
2C3
100
AcDbEntity
  8
0
100
AcDbLine
 62
7
  6
CONTINUOUS
 10
265.9954083891
 20
428.7889938183
 11
266.0296834785
 21
435.4590615531
  0
LINE
  5
2C4
100
AcDbEntity
  8
0
100
AcDbLine
 62
7
  6
CONTINUOUS
 10
157.3623050274
 20
346.5436962149
 11
86.0709838219
 21
365.8319248023
  0
LINE
  5
2C5
100
AcDbEntity
  8
0
100
AcDbLine
 62
7
  6
CONTINUOUS
 10
85.9030000456
 20
365.8773736651
 11
85.8175013484
 21
365.9005057714
  0
LINE
  5
2C6
100
AcDbEntity
  8
0
100
AcDbLine
 62
7
  6
CONTINUOUS
 10
270.8454083891
 20
384.6986887643
 11
270.8454083891
 21
427.9677769078
  0
LINE
  5
2C7
100
AcDbEntity
  8
0
100
AcDbLine
 62
7
  6
CONTINUOUS
 10
272.400883348
 20
399.3986883297
 11
272.400883348
 21
427.7986891989
  0
LINE
  5
2C8
100
AcDbEntity
  8
0
100
AcDbLine
 62
7
  6
CONTINUOUS
 10
275.8018083891
 20
427.7986891989
 11
275.8018083891
 21
399.3986883297
  0
LINE
  5
2C9
100
AcDbEntity
  8
0
100
AcDbLine
 62
7
  6
CONTINUOUS
 10
276.3018083891
 20
427.2986634916
 11
276.3018083891
 21
399.8987140331
  0
LINE
  5
2CA
100
AcDbEntity
  8
0
100
AcDbLine
 62
7
  6
CONTINUOUS
 10
234.3999532158
 20
361.7436887643
 11
234.978421091
 21
361.8986887643
  0
LINE
  5
2CB
100
AcDbEntity
  8
0
100
AcDbLine
 62
7
  6
CONTINUOUS
 10
254.4123083891
 20
346.2436887643
 11
284.4185633533
 21
346.2436887643
  0
LINE
  5
2CC
100
AcDbEntity
  8
0
100
AcDbLine
 62
7
  6
CONTINUOUS
 10
157.3623050274
 20
346.5436887643
 11
215.1123065771
 21
346.5436887643
  0
LINE
  5
2CD
100
AcDbEntity
  8
0
100
AcDbLine
 62
7
  6
CONTINUOUS
 10
245.1150260686
 20
346.6363887643
 11
284.2549993867
 21
346.6363887643
  0
LINE
  5
2CE
100
AcDbEntity
  8
0
100
AcDbLine
 62
7
  6
CONTINUOUS
 10
243.2123054089
 20
347.5436907908
 11
247.497491373
 21
347.5436907908
  0
LINE
  5
2CF
100
AcDbEntity
  8
0
100
AcDbLine
 62
7
  6
CONTINUOUS
 10
247.2954083891
 20
347.7436887643
 11
244.4454083891
 21
347.7436887643
  0
LINE
  5
2D0
100
AcDbEntity
  8
0
100
AcDbLine
 62
7
  6
CONTINUOUS
 10
164.9454083891
 20
347.7436887643
 11
174.0454083891
 21
347.7436887643
  0
LINE
  5
2D1
100
AcDbEntity
  8
0
100
AcDbLine
 62
7
  6
CONTINUOUS
 10
197.3023303272
 20
347.7436887643
 11
213.6454083891
 21
347.7436887643
  0
LINE
  5
2D2
100
AcDbEntity
  8
0
100
AcDbLine
 62
7
  6
CONTINUOUS
 10
287.1516320254
 20
348.5436887643
 11
288.010021766
 21
348.5436887643
  0
LINE
  5
2D3
100
AcDbEntity
  8
0
100
AcDbLine
 62
7
  6
CONTINUOUS
 10
288.010021766
 20
349.1931391887
 11
286.0641174745
 21
349.1931391887
  0
LINE
  5
2D4
100
AcDbEntity
  8
0
100
AcDbLine
 62
7
  6
CONTINUOUS
 10
241.1454083891
 20
351.8846884867
 11
239.7012633049
 21
351.8846884867
  0
LINE
  5
2D5
100
AcDbEntity
  8
0
100
AcDbLine
 62
7
  6
CONTINUOUS
 10
215.4005546392
 20
352.0436924598
 11
239.2123083891
 21
352.0436941287
  0
LINE
  5
2D6
100
AcDbEntity
  8
0
100
AcDbLine
 62
7
  6
CONTINUOUS
 10
197.3023303273
 20
346.5436887643
 11
197.7158473086
 21
346.4328872231
  0
LINE
  5
2D7
100
AcDbEntity
  8
0
100
AcDbLine
 62
7
  6
CONTINUOUS
 10
197.7158473086
 20
346.4328872231
 11
197.493651121
 21
346.5611722518
  0
LINE
  5
2D8
100
AcDbEntity
  8
0
100
AcDbLine
 62
7
  6
CONTINUOUS
 10
200.0238693582
 20
346.5436887643
 11
198.5023303273
 21
347.4221497334
  0
LINE
  5
2D9
100
AcDbEntity
  8
0
100
AcDbLine
 62
7
  6
CONTINUOUS
 10
208.0635272635
 20
346.8039033678
 11
208.5142321777
 21
346.5436887643
  0
LINE
  5
2DA
100
AcDbEntity
  8
0
100
AcDbLine
 62
7
  6
CONTINUOUS
 10
295.2123083891
 20
276.6423698875
 11
294.6590865312
 21
281.7818456466
  0
LINE
  5
2DB
100
AcDbEntity
  8
0
100
AcDbLine
 62
7
  6
CONTINUOUS
 10
284.4185633533
 20
346.2436887643
 11
284.4185633533
 21
288.5436887643
  0
LINE
  5
2DC
100
AcDbEntity
  8
0
100
AcDbLine
 62
7
  6
CONTINUOUS
 10
285.4778433861
 20
346.3919670146
 11
285.4778433861
 21
288.5436887643
  0
LINE
  5
2DD
100
AcDbEntity
  8
0
100
AcDbLine
 62
7
  6
CONTINUOUS
 10
286.2739781553
 20
346.9561243523
 11
286.2739781553
 21
288.5436887643
  0
LINE
  5
2DE
100
AcDbEntity
  8
0
100
AcDbLine
 62
7
  6
CONTINUOUS
 10
287.5316785268
 20
348.5436887643
 11
287.5316785268
 21
288.9936943254
  0
LINE
  5
2DF
100
AcDbEntity
  8
0
100
AcDbLine
 62
7
  6
CONTINUOUS
 10
287.5316785268
 20
288.6450389158
 11
287.5316785268
 21
288.5436887643
  0
LINE
  5
2E0
100
AcDbEntity
  8
0
100
AcDbLine
 62
7
  6
CONTINUOUS
 10
288.010021766
 20
349.193044761
 11
288.010021766
 21
348.5436887643
  0
LINE
  5
2E1
100
AcDbEntity
  8
0
100
AcDbLine
 62
7
  6
CONTINUOUS
 10
288.1018083891
 20
426.7982611598
 11
288.1018083891
 21
400.3991163688
  0
LINE
  5
2E2
100
AcDbEntity
  8
0
100
AcDbLine
 62
7
  6
CONTINUOUS
 10
292.9302454056
 20
286.6141457957
 11
292.9302454056
 21
220.5436887643
  0
LINE
  5
2E3
100
AcDbEntity
  8
0
100
AcDbLine
 62
7
  6
CONTINUOUS
 10
293.3944027545
 20
286.3858313273
 11
293.3944027545
 21
220.5436887643
  0
LINE
  5
2E4
100
AcDbEntity
  8
0
100
AcDbLine
 62
7
  6
CONTINUOUS
 10
293.4623083891
 20
248.1836887643
 11
293.4623083891
 21
284.8536887643
  0
LINE
  5
2E5
100
AcDbEntity
  8
0
100
AcDbLine
 62
7
  6
CONTINUOUS
 10
294.4598870844
 20
285.8213127757
 11
294.4598870844
 21
284.8536887643
  0
LINE
  5
2E6
100
AcDbEntity
  8
0
100
AcDbLine
 62
7
  6
CONTINUOUS
 10
294.4598870844
 20
248.1836887643
 11
294.4598870844
 21
220.5436887643
  0
LINE
  5
2E7
100
AcDbEntity
  8
0
100
AcDbLine
 62
7
  6
CONTINUOUS
 10
294.4715405164
 20
281.9534772212
 11
294.4715405164
 21
259.1339003074
  0
LINE
  5
2E8
100
AcDbEntity
  8
0
100
AcDbLine
 62
7
  6
CONTINUOUS
 10
294.5123095335
 20
220.6626864797
 11
294.5123095335
 21
221.3467689878
  0
LINE
  5
2E9
100
AcDbEntity
  8
0
100
AcDbLine
 62
7
  6
CONTINUOUS
 10
294.6590865312
 20
259.305531882
 11
294.6590865312
 21
281.7818456466
  0
LINE
  5
2EA
100
AcDbEntity
  8
0
100
AcDbLine
 62
7
  6
CONTINUOUS
 10
295.2123083891
 20
276.6423698875
 11
295.2123083891
 21
264.4450076411
  0
LINE
  5
2EB
100
AcDbEntity
  8
0
100
AcDbLine
 62
7
  6
CONTINUOUS
 10
295.3123785484
 20
284.9370980454
 11
295.3123785484
 21
284.8536887643
  0
LINE
  5
2EC
100
AcDbEntity
  8
0
100
AcDbLine
 62
7
  6
CONTINUOUS
 10
295.3123785484
 20
248.1836887643
 11
295.3123785484
 21
221.3467689878
  0
LINE
  5
2ED
100
AcDbEntity
  8
0
100
AcDbLine
 62
7
  6
CONTINUOUS
 10
297.0743684101
 20
215.5752943049
 11
297.0743684101
 21
134.3824612972
  0
LINE
  5
2EE
100
AcDbEntity
  8
0
100
AcDbLine
 62
7
  6
CONTINUOUS
 10
297.8295013407
 20
213.9091558059
 11
297.8295013407
 21
134.3513491036
  0
LINE
  5
2EF
100
AcDbEntity
  8
0
100
AcDbLine
 62
7
  6
CONTINUOUS
 10
298.1909861862
 20
178.6036887643
 11
298.1909861862
 21
179.0936887643
  0
LINE
  5
2F0
100
AcDbEntity
  8
0
100
AcDbLine
 62
7
  6
CONTINUOUS
 10
298.4430437827
 20
179.0936887643
 11
298.4430437827
 21
178.6036887643
  0
LINE
  5
2F1
100
AcDbEntity
  8
0
100
AcDbLine
 62
7
  6
CONTINUOUS
 10
298.5512196337
 20
179.0936887643
 11
298.5512196337
 21
178.6036887643
  0
LINE
  5
2F2
100
AcDbEntity
  8
0
100
AcDbLine
 62
7
  6
CONTINUOUS
 10
298.8628341381
 20
211.4730482114
 11
298.8628341381
 21
179.0936887643
  0
LINE
  5
2F3
100
AcDbEntity
  8
0
100
AcDbLine
 62
7
  6
CONTINUOUS
 10
298.8628341381
 20
178.6036887643
 11
298.8628341381
 21
134.3087748114
  0
LINE
  5
2F4
100
AcDbEntity
  8
0
100
AcDbLine
 62
7
  6
CONTINUOUS
 10
299.0033703772
 20
179.0936887643
 11
299.0033703772
 21
178.6036887643
  0
LINE
  5
2F5
100
AcDbEntity
  8
0
100
AcDbLine
 62
7
  6
CONTINUOUS
 10
295.2123083891
 20
264.4450076411
 11
294.6590865312
 21
259.305531882
  0
LINE
  5
2F6
100
AcDbEntity
  8
0
100
AcDbLine
 62
7
  6
CONTINUOUS
 10
200.8123083891
 20
114.8436887643
 11
202.5123157205
 21
116.5436960957
  0
LINE
  5
2F7
100
AcDbEntity
  8
0
100
AcDbLine
 62
7
  6
CONTINUOUS
 10
202.3770253719
 20
115.971614351
 11
201.3163756193
 21
114.9109571478
  0
LINE
  5
2F8
100
AcDbEntity
  8
0
100
AcDbLine
 62
7
  6
CONTINUOUS
 10
86.2123076142
 20
96.5436887643
 11
133.3293546261
 21
116.5436920425
  0
LINE
  5
2F9
100
AcDbEntity
  8
0
100
AcDbLine
 62
7
  6
CONTINUOUS
 10
213.9454083891
 20
353.1436887643
 11
244.1454083891
 21
353.1436887643
  0
LINE
  5
2FA
100
AcDbEntity
  8
0
100
AcDbLine
 62
7
  6
CONTINUOUS
 10
174.0454083891
 20
361.7436887643
 11
189.5454083891
 21
361.7436887643
  0
LINE
  5
2FB
100
AcDbEntity
  8
0
100
AcDbLine
 62
7
  6
CONTINUOUS
 10
234.3999532158
 20
361.7436887643
 11
247.2954083891
 21
361.7436887643
  0
LINE
  5
2FC
100
AcDbEntity
  8
0
100
AcDbLine
 62
7
  6
CONTINUOUS
 10
234.978421091
 20
361.8986887643
 11
244.2454083891
 21
361.8986887643
  0
LINE
  5
2FD
100
AcDbEntity
  8
0
100
AcDbLine
 62
7
  6
CONTINUOUS
 10
68.2123083891
 20
365.3467268802
 11
86.2123083891
 21
365.3467268802
  0
LINE
  5
2FE
100
AcDbEntity
  8
0
100
AcDbLine
 62
7
  6
CONTINUOUS
 10
86.0709726807
 20
365.8319278166
 11
68.2123083891
 21
365.8319278166
  0
LINE
  5
2FF
100
AcDbEntity
  8
0
100
AcDbLine
 62
7
  6
CONTINUOUS
 10
85.8175013484
 20
365.9005057714
 11
76.3719199073
 21
365.9005057714
  0
LINE
  5
300
100
AcDbEntity
  8
0
100
AcDbLine
 62
7
  6
CONTINUOUS
 10
76.2123083891
 20
366.5468774944
 11
68.2123083891
 21
366.5468774944
  0
LINE
  5
301
100
AcDbEntity
  8
0
100
AcDbLine
 62
7
  6
CONTINUOUS
 10
85.8175013484
 20
365.9005057714
 11
76.3719199073
 21
365.9116220942
  0
LINE
  5
302
100
AcDbEntity
  8
0
100
AcDbLine
 62
7
  6
CONTINUOUS
 10
76.3719199073
 20
365.9162954677
 11
76.2123083891
 21
365.9320851641
  0
LINE
  5
303
100
AcDbEntity
  8
0
100
AcDbLine
 62
7
  6
CONTINUOUS
 10
193.7454083891
 20
389.3436887643
 11
193.3454083891
 21
389.7436887643
  0
LINE
  5
304
100
AcDbEntity
  8
0
100
AcDbLine
 62
7
  6
CONTINUOUS
 10
244.1454083891
 20
348.2633040066
 11
244.4454083891
 21
347.7436887643
  0
LINE
  5
305
100
AcDbEntity
  8
0
100
AcDbLine
 62
7
  6
CONTINUOUS
 10
299.5623532671
 20
209.3566696877
 11
299.5623532671
 21
179.0936887643
  0
LINE
  5
306
100
AcDbEntity
  8
0
100
AcDbLine
 62
7
  6
CONTINUOUS
 10
299.5623532671
 20
178.6036887643
 11
299.5623532671
 21
134.2799539592
  0
LINE
  5
307
100
AcDbEntity
  8
0
100
AcDbLine
 62
7
  6
CONTINUOUS
 10
299.8623083891
 20
178.6036887643
 11
299.8623083891
 21
179.0936887643
  0
LINE
  5
308
100
AcDbEntity
  8
0
100
AcDbLine
 62
7
  6
CONTINUOUS
 10
247.404826829
 20
47.0323929251
 11
247.4867890825
 21
47.3294566995
  0
LINE
  5
309
100
AcDbEntity
  8
0
100
AcDbLine
 62
7
  6
CONTINUOUS
 10
236.9802523674
 20
106.5436941287
 11
238.7123037399
 21
109.5436927578
  0
LINE
  5
30A
100
AcDbEntity
  8
0
100
AcDbLine
 62
7
  6
CONTINUOUS
 10
205.8847444027
 20
112.4638953202
 11
204.8240898225
 21
111.40324074
  0
LINE
  5
30B
100
AcDbEntity
  8
0
100
AcDbLine
 62
7
  6
CONTINUOUS
 10
245.0454083891
 20
375.6671699142
 11
265.045249637
 21
375.8417058847
  0
LINE
  5
30C
100
AcDbEntity
  8
0
100
AcDbLine
 62
7
  6
CONTINUOUS
 10
265.8454083891
 20
383.8986887643
 11
270.0454083891
 21
383.8986887643
  0
LINE
  5
30D
100
AcDbEntity
  8
0
100
AcDbLine
 62
7
  6
CONTINUOUS
 10
190.1536772796
 20
66.8969616343
 11
181.6683959054
 21
58.4116802601
  0
LINE
  5
30E
100
AcDbEntity
  8
0
100
AcDbLine
 62
7
  6
CONTINUOUS
 10
190.4845349701
 20
66.5661039438
 11
181.9992535959
 21
58.0808225696
  0
LINE
  5
30F
100
AcDbEntity
  8
0
100
AcDbLine
 62
7
  6
CONTINUOUS
 10
196.9270810397
 20
71.7908202486
 11
197.9877407267
 21
72.8514799357
  0
LINE
  5
310
100
AcDbEntity
  8
0
100
AcDbLine
 62
7
  6
CONTINUOUS
 10
196.5535097058
 20
70.3966236811
 11
199.3819372942
 21
73.2250512695
  0
LINE
  5
311
100
AcDbEntity
  8
0
100
AcDbLine
 62
7
  6
CONTINUOUS
 10
201.8712500889
 20
74.9783786983
 11
194.800182277
 21
67.9073108864
  0
LINE
  5
312
100
AcDbEntity
  8
0
100
AcDbLine
 62
7
  6
CONTINUOUS
 10
202.2021131334
 20
74.6475156538
 11
195.1310453215
 21
67.5764478419
  0
LINE
  5
313
100
AcDbEntity
  8
0
100
AcDbLine
 62
7
  6
CONTINUOUS
 10
186.089935268
 20
53.9901408975
 11
194.5752166422
 21
62.4754222717
  0
LINE
  5
314
100
AcDbEntity
  8
0
100
AcDbLine
 62
7
  6
CONTINUOUS
 10
197.403643767
 20
65.3038493965
 11
204.4747115788
 21
72.3749172084
  0
LINE
  5
315
100
AcDbEntity
  8
0
100
AcDbLine
 62
7
  6
CONTINUOUS
 10
211.7409749412
 20
78.543694214
 11
184.5173655534
 21
51.3200773756
  0
LINE
  5
316
100
AcDbEntity
  8
0
100
AcDbLine
 62
7
  6
CONTINUOUS
 10
185.570948745
 20
50.266486783
 11
213.1066855608
 21
77.8022235988
  0
LINE
  5
317
100
AcDbEntity
  8
0
100
AcDbLine
 62
7
  6
CONTINUOUS
 10
199.3089956442
 20
63.3984975193
 11
201.1338595692
 21
65.2233614443
  0
LINE
  5
318
100
AcDbEntity
  8
0
100
AcDbLine
 62
7
  6
CONTINUOUS
 10
199.7837956765
 20
62.923697487
 11
201.3634873474
 21
64.5033891579
  0
LINE
  5
319
100
AcDbEntity
  8
0
100
AcDbLine
 62
7
  6
CONTINUOUS
 10
198.6394453716
 20
61.1995209304
 11
200.0737088023
 21
62.6337843611
  0
LINE
  5
31A
100
AcDbEntity
  8
0
100
AcDbLine
 62
7
  6
CONTINUOUS
 10
188.9876536688
 20
51.0924224967
 11
197.4729350431
 21
59.5777038709
  0
LINE
  5
31B
100
AcDbEntity
  8
0
100
AcDbLine
 62
7
  6
CONTINUOUS
 10
193.7454083891
 20
388.7436887643
 11
195.0454083891
 21
388.7436887643
  0
LINE
  5
31C
100
AcDbEntity
  8
0
100
AcDbLine
 62
7
  6
CONTINUOUS
 10
193.0454083891
 20
389.7436887643
 11
193.3454083891
 21
389.7436887643
  0
LINE
  5
31D
100
AcDbEntity
  8
0
100
AcDbLine
 62
7
  6
CONTINUOUS
 10
272.4005543954
 20
399.3986883297
 11
275.8018083891
 21
399.3986883297
  0
LINE
  5
31E
100
AcDbEntity
  8
0
100
AcDbLine
 62
7
  6
CONTINUOUS
 10
276.3018083891
 20
400.3986887643
 11
288.1018083891
 21
400.3986887643
  0
LINE
  5
31F
100
AcDbEntity
  8
0
100
AcDbLine
 62
7
  6
CONTINUOUS
 10
186.8248538892
 20
446.2936889219
 11
186.4459788893
 21
446.6725639219
  0
LINE
  5
320
100
AcDbEntity
  8
0
100
AcDbLine
 62
7
  6
CONTINUOUS
 10
180.1522211045
 20
456.5436887643
 11
179.7522211045
 21
456.9436887642
  0
LINE
  5
321
100
AcDbEntity
  8
0
100
AcDbLine
 62
7
  6
CONTINUOUS
 10
189.5453320096
 20
50.5347441559
 11
198.0306133838
 21
59.0200255301
  0
LINE
  5
322
100
AcDbEntity
  8
0
100
AcDbLine
 62
7
  6
CONTINUOUS
 10
199.8612029934
 20
60.2999492447
 11
201.1343734561
 21
61.5731197074
  0
LINE
  5
323
100
AcDbEntity
  8
0
100
AcDbLine
 62
7
  6
CONTINUOUS
 10
203.4656611292
 20
63.2114518334
 11
201.4808512296
 21
61.2266419338
  0
LINE
  5
324
100
AcDbEntity
  8
0
100
AcDbLine
 62
7
  6
CONTINUOUS
 10
203.9350377491
 20
62.9457580749
 11
202.5554932764
 21
61.5662136022
  0
LINE
  5
325
100
AcDbEntity
  8
0
100
AcDbLine
 62
7
  6
CONTINUOUS
 10
202.9799612384
 20
61.2835747829
 11
202.909046667
 21
61.2126602116
  0
LINE
  5
326
100
AcDbEntity
  8
0
100
AcDbLine
 62
7
  6
CONTINUOUS
 10
204.6919047814
 20
62.5173284557
 11
203.5057136078
 21
61.3311372821
  0
LINE
  5
327
100
AcDbEntity
  8
0
100
AcDbLine
 62
7
  6
CONTINUOUS
 10
203.8425749764
 20
61.4528971298
 11
203.8027909858
 21
61.4131131392
  0
LINE
  5
328
100
AcDbEntity
  8
0
100
AcDbLine
 62
7
  6
CONTINUOUS
 10
204.6185193521
 20
61.7368362452
 11
203.8592669984
 21
60.9775838915
  0
LINE
  5
329
100
AcDbEntity
  8
0
100
AcDbLine
 62
7
  6
CONTINUOUS
 10
204.196128367
 20
61.0993437392
 11
204.1563443764
 21
61.0595597486
  0
LINE
  5
32A
100
AcDbEntity
  8
0
100
AcDbLine
 62
7
  6
CONTINUOUS
 10
200.7737454927
 20
56.2768934212
 11
192.2884641185
 21
47.791612047
  0
LINE
  5
32B
100
AcDbEntity
  8
0
100
AcDbLine
 62
7
  6
CONTINUOUS
 10
195.0454083891
 20
402.5436887643
 11
193.8454083891
 21
402.5436887643
  0
LINE
  5
32C
100
AcDbEntity
  8
0
100
AcDbLine
 62
7
  6
CONTINUOUS
 10
288.1018083891
 20
403.5986887643
 11
276.3018083891
 21
403.5986887643
  0
LINE
  5
32D
100
AcDbEntity
  8
0
100
AcDbLine
 62
7
  6
CONTINUOUS
 10
270.8454083891
 20
406.8486883297
 11
272.4012123005
 21
406.8486883297
  0
LINE
  5
32E
100
AcDbEntity
  8
0
100
AcDbLine
 62
7
  6
CONTINUOUS
 10
193.8454083891
 20
409.9436887643
 11
195.0454083891
 21
409.9436887643
  0
LINE
  5
32F
100
AcDbEntity
  8
0
100
AcDbLine
 62
7
  6
CONTINUOUS
 10
225.1161079468
 20
78.2336487672
 11
247.0883767666
 21
86.2206711671
  0
LINE
  5
330
100
AcDbEntity
  8
0
100
AcDbLine
 62
7
  6
CONTINUOUS
 10
192.9454083891
 20
419.0436887643
 11
190.7454083891
 21
419.0436887643
  0
LINE
  5
331
100
AcDbEntity
  8
0
100
AcDbLine
 62
7
  6
CONTINUOUS
 10
190.7454083891
 20
420.2436887643
 11
192.9454083891
 21
420.2436887643
  0
LINE
  5
332
100
AcDbEntity
  8
0
100
AcDbLine
 62
7
  6
CONTINUOUS
 10
272.4012123005
 20
420.3486891989
 11
270.8454083891
 21
420.3486891989
  0
LINE
  5
333
100
AcDbEntity
  8
0
100
AcDbLine
 62
7
  6
CONTINUOUS
 10
189.5454083891
 20
422.0436887643
 11
193.1050098192
 21
422.0436887643
  0
LINE
  5
334
100
AcDbEntity
  8
0
100
AcDbLine
 62
7
  6
CONTINUOUS
 10
195.0454083891
 20
422.9436887643
 11
195.3054083891
 21
422.9436887643
  0
LINE
  5
335
100
AcDbEntity
  8
0
100
AcDbLine
 62
7
  6
CONTINUOUS
 10
276.3018083891
 20
423.5986887643
 11
288.1018083891
 21
423.5986887643
  0
LINE
  5
336
100
AcDbEntity
  8
0
100
AcDbLine
 62
7
  6
CONTINUOUS
 10
195.3054083891
 20
424.5436887643
 11
194.1454083891
 21
424.5436887643
  0
LINE
  5
337
100
AcDbEntity
  8
0
100
AcDbLine
 62
7
  6
CONTINUOUS
 10
193.6454083891
 20
425.9436887643
 11
189.5454083891
 21
425.9436887643
  0
LINE
  5
338
100
AcDbEntity
  8
0
100
AcDbLine
 62
7
  6
CONTINUOUS
 10
195.3054083891
 20
426.0436887643
 11
193.6454083891
 21
426.0436887643
  0
LINE
  5
339
100
AcDbEntity
  8
0
100
AcDbLine
 62
7
  6
CONTINUOUS
 10
276.3018083891
 20
426.7986887643
 11
288.1018083891
 21
426.7986887643
  0
LINE
  5
33A
100
AcDbEntity
  8
0
100
AcDbLine
 62
7
  6
CONTINUOUS
 10
275.8018083891
 20
427.7986891989
 11
272.4005543954
 21
427.7986891989
  0
LINE
  5
33B
100
AcDbEntity
  8
0
100
AcDbLine
 62
7
  6
CONTINUOUS
 10
270.0453522605
 20
428.7677881681
 11
265.9954083891
 21
428.7889938183
  0
LINE
  5
33C
100
AcDbEntity
  8
0
100
AcDbLine
 62
7
  6
CONTINUOUS
 10
232.3953502115
 20
43.3507626065
 11
246.2513871927
 21
57.2067995876
  0
LINE
  5
33D
100
AcDbEntity
  8
0
100
AcDbLine
 62
7
  6
CONTINUOUS
 10
245.8009234632
 20
52.5730357433
 11
237.315642089
 21
44.0877543691
  0
LINE
  5
33E
100
AcDbEntity
  8
0
100
AcDbLine
 62
7
  6
CONTINUOUS
 10
234.516670555
 20
41.2294422629
 11
248.6588038506
 21
55.3715755584
  0
LINE
  5
33F
100
AcDbEntity
  8
0
100
AcDbLine
 62
7
  6
CONTINUOUS
 10
238.0524158245
 20
43.3509806335
 11
246.5376971987
 21
51.8362620078
  0
LINE
  5
340
100
AcDbEntity
  8
0
100
AcDbLine
 62
7
  6
CONTINUOUS
 10
246.632430394
 20
51.7415288125
 11
245.2111455689
 21
50.3202439874
  0
LINE
  5
341
100
AcDbEntity
  8
0
100
AcDbLine
 62
7
  6
CONTINUOUS
 10
239.5542917092
 20
44.6633901278
 11
238.1471490198
 21
43.2562474383
  0
LINE
  5
342
100
AcDbEntity
  8
0
100
AcDbLine
 62
7
  6
CONTINUOUS
 10
245.8305882436
 20
49.7008013127
 11
240.1737343839
 21
44.0439474531
  0
LINE
  5
343
100
AcDbEntity
  8
0
100
AcDbLine
 62
7
  6
CONTINUOUS
 10
239.2517804867
 20
42.1516159714
 11
241.1658806166
 21
44.0657161013
  0
LINE
  5
344
100
AcDbEntity
  8
0
100
AcDbLine
 62
7
  6
CONTINUOUS
 10
245.8088195954
 20
48.7086550801
 11
247.7370618609
 21
50.6368973456
  0
LINE
  5
345
100
AcDbEntity
  8
0
100
AcDbLine
 62
7
  6
CONTINUOUS
 10
240.739423441
 20
43.478258396
 11
246.3962773007
 21
49.1351122556
  0
LINE
  5
346
100
AcDbEntity
  8
0
100
AcDbLine
 62
7
  6
CONTINUOUS
 10
248.3054630015
 20
50.068496205
 11
246.8841782949
 21
48.6472114985
  0
LINE
  5
347
100
AcDbEntity
  8
0
100
AcDbLine
 62
7
  6
CONTINUOUS
 10
241.2273241982
 20
42.9903574017
 11
239.8201816272
 21
41.5832148308
  0
LINE
  5
348
100
AcDbEntity
  8
0
100
AcDbLine
 62
7
  6
CONTINUOUS
 10
247.2517127624
 20
48.2796770309
 11
241.5948586657
 21
42.6228229342
  0
LINE
  5
349
100
AcDbEntity
  8
0
100
AcDbLine
 62
7
  6
CONTINUOUS
 10
247.4867890825
 20
47.3294566995
 11
242.5450789971
 21
42.3877466142
  0
LINE
  5
34A
100
AcDbEntity
  8
0
100
AcDbLine
 62
7
  6
CONTINUOUS
 10
247.4048132254
 20
47.0323793215
 11
247.3650292349
 21
46.9925953309
  0
LINE
  5
34B
100
AcDbEntity
  8
0
100
AcDbLine
 62
7
  6
CONTINUOUS
 10
242.8819403657
 20
42.5095064618
 11
242.8421563751
 21
42.4697224712
  0
LINE
  5
34C
100
AcDbEntity
  8
0
100
AcDbLine
 62
7
  6
CONTINUOUS
 10
245.3538643138
 20
437.0986887642
 11
245.0454083891
 21
437.0986887643
  0
LINE
  5
34D
100
AcDbEntity
  8
0
100
AcDbLine
 62
7
  6
CONTINUOUS
 10
188.3454083891
 20
445.4936889219
 11
186.9459788892
 21
445.4936889219
  0
LINE
  5
34E
100
AcDbEntity
  8
0
100
AcDbLine
 62
7
  6
CONTINUOUS
 10
186.9459588892
 20
446.2936889219
 11
186.8248538892
 21
446.2936889219
  0
LINE
  5
34F
100
AcDbEntity
  8
0
100
AcDbLine
 62
7
  6
CONTINUOUS
 10
265.2093703069
 20
436.4275249284
 11
245.3482003926
 21
436.7742029388
  0
LINE
  5
350
100
AcDbEntity
  8
0
100
AcDbLine
 62
7
  6
CONTINUOUS
 10
193.9454083891
 20
454.7911667294
 11
191.7522211045
 21
454.7436887643
  0
LINE
  5
351
100
AcDbEntity
  8
0
100
AcDbLine
 62
7
  6
CONTINUOUS
 10
194.2679018369
 20
454.8170333491
 11
193.9454083891
 21
454.8100208915
  0
LINE
  5
352
100
AcDbEntity
  8
0
100
AcDbLine
 62
7
  6
CONTINUOUS
 10
186.8248538892
 20
450.1936886067
 11
186.9459588892
 21
450.1936886067
  0
LINE
  5
353
100
AcDbEntity
  8
0
100
AcDbLine
 62
7
  6
CONTINUOUS
 10
227.7954083891
 20
450.6486887643
 11
227.3954083891
 21
450.6486887643
  0
LINE
  5
354
100
AcDbEntity
  8
0
100
AcDbLine
 62
7
  6
CONTINUOUS
 10
227.3954083891
 20
450.7436887643
 11
189.5454083891
 21
450.7436887643
  0
LINE
  5
355
100
AcDbEntity
  8
0
100
AcDbLine
 62
7
  6
CONTINUOUS
 10
244.2454083891
 20
450.8986887643
 11
227.7954083891
 21
450.8986887643
  0
LINE
  5
356
100
AcDbEntity
  8
0
100
AcDbLine
 62
7
  6
CONTINUOUS
 10
186.9459788892
 20
450.9936886067
 11
188.3454083891
 21
450.9936886067
  0
LINE
  5
357
100
AcDbEntity
  8
0
100
AcDbLine
 62
7
  6
CONTINUOUS
 10
193.6459788893
 20
451.2835915178
 11
194.4459788893
 21
451.2835915178
  0
LINE
  5
358
100
AcDbEntity
  8
0
100
AcDbLine
 62
7
  6
CONTINUOUS
 10
192.8459788893
 20
451.6936886067
 11
193.6459788893
 21
451.6936886067
  0
LINE
  5
359
100
AcDbEntity
  8
0
100
AcDbLine
 62
7
  6
CONTINUOUS
 10
190.4522211045
 20
454.1436887643
 11
189.5454083891
 21
454.1436887643
  0
LINE
  5
35A
100
AcDbEntity
  8
0
100
AcDbLine
 62
7
  6
CONTINUOUS
 10
188.3454083891
 20
454.6936887643
 11
186.6522211045
 21
454.6936887643
  0
LINE
  5
35B
100
AcDbEntity
  8
0
100
AcDbLine
 62
7
  6
CONTINUOUS
 10
191.7522211045
 20
455.0936887643
 11
190.4522211045
 21
455.0936887643
  0
LINE
  5
35C
100
AcDbEntity
  8
0
100
AcDbLine
 62
7
  6
CONTINUOUS
 10
186.4522211045
 20
456.5436887643
 11
180.1522211045
 21
456.5436887643
  0
LINE
  5
35D
100
AcDbEntity
  8
0
100
AcDbLine
 62
7
  6
CONTINUOUS
 10
180.1522211045
 20
461.5436887643
 11
186.4522211045
 21
461.5436887643
  0
LINE
  5
35E
100
AcDbEntity
  8
0
100
AcDbLine
 62
7
  6
CONTINUOUS
 10
188.3454083891
 20
461.5436887643
 11
189.5454083891
 21
461.5436887643
  0
LINE
  5
35F
100
AcDbEntity
  8
0
100
AcDbLine
 62
7
  6
CONTINUOUS
 10
190.4522211045
 20
462.9936887643
 11
191.7522211045
 21
462.9936887643
  0
LINE
  5
360
100
AcDbEntity
  8
0
100
AcDbLine
 62
7
  6
CONTINUOUS
 10
186.6522211045
 20
463.3936887643
 11
188.3454083891
 21
463.3936887643
  0
LINE
  5
361
100
AcDbEntity
  8
0
100
AcDbLine
 62
7
  6
CONTINUOUS
 10
189.5454083891
 20
463.9436887643
 11
190.4522211045
 21
463.9436887643
  0
LINE
  5
362
100
AcDbEntity
  8
0
100
AcDbLine
 62
7
  6
CONTINUOUS
 10
191.7522211045
 20
463.3436887643
 11
193.9454083891
 21
463.2962107992
  0
LINE
  5
363
100
AcDbEntity
  8
0
100
AcDbLine
 62
7
  6
CONTINUOUS
 10
193.9454083891
 20
463.2773566371
 11
194.2679020973
 21
463.2703441738
  0
LINE
  5
364
100
AcDbEntity
  8
0
100
AcDbLine
 62
7
  6
CONTINUOUS
 10
194.4459788893
 20
451.4936886067
 11
195.9454083891
 21
451.4596617913
  0
LINE
  5
365
100
AcDbEntity
  8
0
100
AcDbLine
 62
7
  6
CONTINUOUS
 10
195.9454083891
 20
451.4346890009
 11
196.6527182972
 21
451.41851164
  0
LINE
  5
366
100
AcDbEntity
  8
0
100
AcDbLine
 62
7
  6
CONTINUOUS
 10
189.5454083891
 20
466.5436887643
 11
188.3454083891
 21
466.5436887643
  0
ARC
  5
367
100
AcDbEntity
  8
0
100
AcDbCircle
 62
7
  6
CONTINUOUS
 10
213.8433762534
 20
176.8482131042
 40
91.7996997474
100
AcDbArc
 50
21.358634423
 51
28.5081449778
  0
ARC
  5
368
100
AcDbEntity
  8
0
100
AcDbCircle
 62
7
  6
CONTINUOUS
 10
143.6749231039
 20
140.2195592524
 40
24.6755060355
100
AcDbArc
 50
253.6354780709
 51
263.4873030084
  0
ARC
  5
369
100
AcDbEntity
  8
0
100
AcDbCircle
 62
7
  6
CONTINUOUS
 10
143.6618219436
 20
140.1569572321
 40
24.6120237328
100
AcDbArc
 50
270.0011324252
 51
286.3784920554
  0
ARC
  5
36A
100
AcDbEntity
  8
0
100
AcDbCircle
 62
7
  6
CONTINUOUS
 10
143.6628761655
 20
140.1442662353
 40
24.5993327378
100
AcDbArc
 50
263.4952901802
 51
269.9986775579
  0
ARC
  5
36B
100
AcDbEntity
  8
0
100
AcDbCircle
 62
7
  6
CONTINUOUS
 10
193.3104242826
 20
52.6824314026
 40
10.0468542236
100
AcDbArc
 50
49.3057083123
 51
66.9427038503
  0
ARC
  5
36C
100
AcDbEntity
  8
0
100
AcDbCircle
 62
7
  6
CONTINUOUS
 10
201.5663623604
 20
68.9230333348
 40
7.8092233465
100
AcDbArc
 50
286.9465112142
 51
299.3582878106
  0
ARC
  5
36D
100
AcDbEntity
  8
0
100
AcDbCircle
 62
7
  6
CONTINUOUS
 10
201.9249847371
 20
68.5560753528
 40
7.7949233737
100
AcDbArc
 50
286.9395891794
 51
300.5220220711
  0
ARC
  5
36E
100
AcDbEntity
  8
0
100
AcDbCircle
 62
7
  6
CONTINUOUS
 10
209.3163972969
 20
81.1053351304
 40
5.0276068774
100
AcDbArc
 50
318.9289207715
 51
322.4851634035
  0
CIRCLE
  5
36F
100
AcDbEntity
  8
0
100
AcDbCircle
 62
7
  6
CONTINUOUS
 10
82.2123083891
 20
101.5436887643
 40
3.6
  0
ARC
  5
370
100
AcDbEntity
  8
0
100
AcDbCircle
 62
7
  6
CONTINUOUS
 10
210.86245628
 20
103.243779746
 40
2.999832423
100
AcDbArc
 50
25.6789308394
 51
44.999999892
  0
ARC
  5
371
100
AcDbEntity
  8
0
100
AcDbCircle
 62
7
  6
CONTINUOUS
 10
82.2123078899
 20
101.5430624153
 40
2.7737720668
100
AcDbArc
 50
359.9999633177
 51
180.0000368382
  0
ARC
  5
372
100
AcDbEntity
  8
0
100
AcDbCircle
 62
7
  6
CONTINUOUS
 10
224.118395474
 20
80.7571998101
 40
2.7136212051
100
AcDbArc
 50
269.4707659936
 51
291.5718864794
  0
ARC
  5
373
100
AcDbEntity
  8
0
100
AcDbCircle
 62
7
  6
CONTINUOUS
 10
212.5195350552
 20
74.3724934165
 40
2.00000644
100
AcDbArc
 50
60.0001798673
 51
134.9999688432
  0
ARC
  5
374
100
AcDbEntity
  8
0
100
AcDbCircle
 62
7
  6
CONTINUOUS
 10
210.7597337841
 20
79.8109671806
 40
1.6027523141
100
AcDbArc
 50
307.750384068
 51
359.1216626557
  0
ARC
  5
375
100
AcDbEntity
  8
0
100
AcDbCircle
 62
7
  6
CONTINUOUS
 10
210.8623113902
 20
103.2436943671
 40
1.5
100
AcDbArc
 50
0.0008707157
 51
45.0000000001
  0
ARC
  5
376
100
AcDbEntity
  8
0
100
AcDbCircle
 62
7
  6
CONTINUOUS
 10
202.4034867399
 20
65.2797795387
 40
1.284381526
100
AcDbArc
 50
141.3922753208
 51
234.2277368617
  0
ARC
  5
377
100
AcDbEntity
  8
0
100
AcDbCircle
 62
7
  6
CONTINUOUS
 10
239.6185784697
 20
131.5398697776
 40
1.0038253947
100
AcDbArc
 50
90.0725680827
 51
173.5260285245
  0
ARC
  5
378
100
AcDbEntity
  8
0
100
AcDbCircle
 62
7
  6
CONTINUOUS
 10
239.5821932538
 20
131.6484476559
 40
0.8957532411
100
AcDbArc
 50
88.0736346872
 51
166.1980788254
  0
ARC
  5
379
100
AcDbEntity
  8
0
100
AcDbCircle
 62
7
  6
CONTINUOUS
 10
203.2097085344
 20
62.1726507433
 40
0.8920560009
100
AcDbArc
 50
225.0
 51
289.3794871091
  0
ARC
  5
37A
100
AcDbEntity
  8
0
100
AcDbCircle
 62
7
  6
CONTINUOUS
 10
203.563261925
 20
61.8190973527
 40
0.8920560009
100
AcDbArc
 50
225.0
 51
289.3794871092
  0
ARC
  5
37B
100
AcDbEntity
  8
0
100
AcDbCircle
 62
7
  6
CONTINUOUS
 10
242.2490739237
 20
43.2292600753
 40
0.8920560009
100
AcDbArc
 50
225.0
 51
289.3794871092
  0
ARC
  5
37C
100
AcDbEntity
  8
0
100
AcDbCircle
 62
7
  6
CONTINUOUS
 10
236.3067743268
 20
42.2982944653
 40
0.5
100
AcDbArc
 50
89.9999999999
 51
135.0
  0
ARC
  5
37D
100
AcDbEntity
  8
0
100
AcDbCircle
 62
7
  6
CONTINUOUS
 10
214.6123083891
 20
106.043690314
 40
0.5
100
AcDbArc
 50
105.2070667218
 51
180.0
  0
ARC
  5
37E
100
AcDbEntity
  8
0
100
AcDbCircle
 62
7
  6
CONTINUOUS
 10
82.2123083556
 20
354.0959226975
 40
5.0052837656
100
AcDbArc
 50
52.9577586529
 51
56.5748086227
  0
ARC
  5
37F
100
AcDbEntity
  8
0
100
AcDbCircle
 62
7
  6
CONTINUOUS
 10
82.2123083556
 20
354.0959226975
 40
5.0052837656
100
AcDbArc
 50
123.4251913773
 51
126.993770227
  0
ARC
  5
380
100
AcDbEntity
  8
0
100
AcDbCircle
 62
7
  6
CONTINUOUS
 10
239.2123083891
 20
348.0436941287
 40
4.0
100
AcDbArc
 50
0.0
 51
90.0
  0
CIRCLE
  5
381
100
AcDbEntity
  8
0
100
AcDbCircle
 62
7
  6
CONTINUOUS
 10
82.2123083891
 20
359.5436887643
 40
3.455
  0
ARC
  5
382
100
AcDbEntity
  8
0
100
AcDbCircle
 62
7
  6
CONTINUOUS
 10
82.2123083556
 20
359.5363948933
 40
2.7579338185
100
AcDbArc
 50
0.0016431475
 51
179.9983486822
  0
ARC
  5
383
100
AcDbEntity
  8
0
100
AcDbCircle
 62
7
  6
CONTINUOUS
 10
190.7458377026
 20
417.8404278044
 40
2.4032609982
100
AcDbArc
 50
90.0000059399
 51
115.4143015431
  0
ARC
  5
384
100
AcDbEntity
  8
0
100
AcDbCircle
 62
7
  6
CONTINUOUS
 10
197.3023303273
 20
345.3436887643
 40
2.4
100
AcDbArc
 50
59.9999999992
 51
90.0000000003
  0
ARC
  5
385
100
AcDbEntity
  8
0
100
AcDbCircle
 62
7
  6
CONTINUOUS
 10
165.3454083891
 20
365.4933512808
 40
2.4
100
AcDbArc
 50
120.0
 51
180.0
  0
ARC
  5
386
100
AcDbEntity
  8
0
100
AcDbCircle
 62
7
  6
CONTINUOUS
 10
187.1454083891
 20
382.2365090873
 40
2.4
100
AcDbArc
 50
299.9999999999
 51
360.0
  0
ARC
  5
387
100
AcDbEntity
  8
0
100
AcDbCircle
 62
7
  6
CONTINUOUS
 10
192.9472800659
 20
421.4368288384
 40
2.393140806
100
AcDbArc
 50
270.0001298423
 51
331.2498879234
  0
ARC
  5
388
100
AcDbEntity
  8
0
100
AcDbCircle
 62
7
  6
CONTINUOUS
 10
164.9454083891
 20
348.5436887643
 40
2.0
100
AcDbArc
 50
180.0
 51
270.0
  0
ARC
  5
389
100
AcDbEntity
  8
0
100
AcDbCircle
 62
7
  6
CONTINUOUS
 10
187.1454083891
 20
382.2365090873
 40
1.2
100
AcDbArc
 50
299.9999999998
 51
359.9999999998
  0
ARC
  5
38A
100
AcDbEntity
  8
0
100
AcDbCircle
 62
7
  6
CONTINUOUS
 10
165.3454083891
 20
365.4933512808
 40
1.2
100
AcDbArc
 50
120.0000000008
 51
180.0
  0
ARC
  5
38B
100
AcDbEntity
  8
0
100
AcDbCircle
 62
7
  6
CONTINUOUS
 10
190.7454083891
 20
417.8436887643
 40
1.2
100
AcDbArc
 50
90.0
 51
180.0
  0
ARC
  5
38C
100
AcDbEntity
  8
0
100
AcDbCircle
 62
7
  6
CONTINUOUS
 10
192.9454083891
 20
421.4436887643
 40
1.2
100
AcDbArc
 50
270.0
 51
360.0
  0
ARC
  5
38D
100
AcDbEntity
  8
0
100
AcDbCircle
 62
7
  6
CONTINUOUS
 10
164.9454083891
 20
348.5436887643
 40
0.8
100
AcDbArc
 50
180.0
 51
270.0000000001
  0
ARC
  5
38E
100
AcDbEntity
  8
0
100
AcDbCircle
 62
7
  6
CONTINUOUS
 10
194.2075586432
 20
455.5550660098
 40
0.7425125
100
AcDbArc
 50
316.4256277463
 51
358.2921961528
  0
ARC
  5
38F
100
AcDbEntity
  8
0
100
AcDbCircle
 62
7
  6
CONTINUOUS
 10
194.2075725326
 20
462.5323172744
 40
0.7424984415
100
AcDbArc
 50
1.7073819825
 51
43.5747893483
  0
ARC
  5
390
100
AcDbEntity
  8
0
100
AcDbCircle
 62
7
  6
CONTINUOUS
 10
194.2128165591
 20
462.5368005608
 40
0.7356090326
100
AcDbArc
 50
43.6033498012
 51
85.7054277949
  0
ARC
  5
391
100
AcDbEntity
  8
0
100
AcDbCircle
 62
7
  6
CONTINUOUS
 10
194.2128198331
 20
455.5505701939
 40
0.7356020187
100
AcDbArc
 50
274.2943371534
 51
316.3968564741
  0
ARC
  5
392
100
AcDbEntity
  8
0
100
AcDbCircle
 62
7
  6
CONTINUOUS
 10
207.7103328495
 20
346.193274232
 40
0.7054177738
100
AcDbArc
 50
59.9544530987
 51
104.1502068073
  0
ARC
  5
393
100
AcDbEntity
  8
0
100
AcDbCircle
 62
7
  6
CONTINUOUS
 10
207.708799763
 20
346.2000087776
 40
0.6985127993
100
AcDbArc
 50
104.1633135966
 51
148.672055524
  0
ARC
  5
394
100
AcDbEntity
  8
0
100
AcDbCircle
 62
7
  6
CONTINUOUS
 10
196.6446936157
 20
451.1184567177
 40
0.3006576914
100
AcDbArc
 50
29.3465900237
 51
45.8925919988
  0
ARC
  5
395
100
AcDbEntity
  8
0
100
AcDbCircle
 62
7
  6
CONTINUOUS
 10
196.6469357539
 20
451.1206635799
 40
0.2975125525
100
AcDbArc
 50
45.9068331373
 51
58.5553877651
  0
ARC
  5
396
100
AcDbEntity
  8
0
100
AcDbCircle
 62
7
  6
CONTINUOUS
 10
186.6522211045
 20
463.1936887643
 40
0.2
100
AcDbArc
 50
90.0
 51
180.0
  0
ARC
  5
397
100
AcDbEntity
  8
0
100
AcDbCircle
 62
7
  6
CONTINUOUS
 10
186.6522211045
 20
454.8936887643
 40
0.2
100
AcDbArc
 50
180.0
 51
270.0
  0
ARC
  5
398
100
AcDbEntity
  8
0
100
AcDbCircle
 62
7
  6
CONTINUOUS
 10
264.0123083891
 20
134.0436887643
 40
8.4975289205
100
AcDbArc
 50
176.6267146131
 51
3.3732853869
  0
ARC
  5
399
100
AcDbEntity
  8
0
100
AcDbCircle
 62
7
  6
CONTINUOUS
 10
264.0123083891
 20
134.0436887643
 40
4.2695732975
100
AcDbArc
 50
173.2760641375
 51
6.7239358612
  0
ARC
  5
39A
100
AcDbEntity
  8
0
100
AcDbCircle
 62
7
  6
CONTINUOUS
 10
246.0622925912
 20
89.0397681593
 40
3.0000260977
100
AcDbArc
 50
290.000301194
 51
359.9999999889
  0
ARC
  5
39B
100
AcDbEntity
  8
0
100
AcDbCircle
 62
7
  6
CONTINUOUS
 10
245.7123087266
 20
135.0436930517
 40
2.499998923
100
AcDbArc
 50
269.9999922653
 51
304.7984870384
  0
ARC
  5
39C
100
AcDbEntity
  8
0
100
AcDbCircle
 62
7
  6
CONTINUOUS
 10
297.2711251794
 20
209.2914939239
 40
2.2921548879
100
AcDbArc
 50
1.6293835962
 51
25.6048612959
  0
ARC
  5
39D
100
AcDbEntity
  8
0
100
AcDbCircle
 62
7
  6
CONTINUOUS
 10
246.6452756214
 20
47.6254617729
 40
0.8920560009
100
AcDbArc
 50
340.620512891
 51
45.0
  0
ARC
  5
39E
100
AcDbEntity
  8
0
100
AcDbCircle
 62
7
  6
CONTINUOUS
 10
247.589974173
 20
53.5814943115
 40
0.5
100
AcDbArc
 50
135.0
 51
180.0
  0
ARC
  5
39F
100
AcDbEntity
  8
0
100
AcDbCircle
 62
7
  6
CONTINUOUS
 10
405.7964957613
 20
281.9145378076
 40
136.0736572417
100
AcDbArc
 50
150.682089664
 51
151.4459172252
  0
ARC
  5
3A0
100
AcDbEntity
  8
0
100
AcDbCircle
 62
7
  6
CONTINUOUS
 10
329.7862368915
 20
284.7081839054
 40
75.9481588565
100
AcDbArc
 50
124.9541346936
 51
125.6902583137
  0
ARC
  5
3A1
100
AcDbEntity
  8
0
100
AcDbCircle
 62
7
  6
CONTINUOUS
 10
280.5246497596
 20
260.8082766408
 40
28.6328777139
100
AcDbArc
 50
60.3940870393
 51
75.6109509704
  0
ARC
  5
3A2
100
AcDbEntity
  8
0
100
AcDbCircle
 62
7
  6
CONTINUOUS
 10
293.7347792389
 20
284.3288365484
 40
1.6622932491
100
AcDbArc
 50
21.4640641244
 51
55.775962646
  0
ARC
  5
3A3
100
AcDbEntity
  8
0
100
AcDbCircle
 62
7
  6
CONTINUOUS
 10
265.1742145488
 20
435.5661023314
 40
0.8621396743
100
AcDbArc
 50
352.8679169061
 51
87.6629828472
  0
ARC
  5
3A4
100
AcDbEntity
  8
0
100
AcDbCircle
 62
7
  6
CONTINUOUS
 10
244.2454083891
 20
450.0986887643
 40
0.8
100
AcDbArc
 50
0.0
 51
90.0
  0
ARC
  5
3A5
100
AcDbEntity
  8
0
100
AcDbCircle
 62
7
  6
CONTINUOUS
 10
270.045408389
 20
427.9677769078
 40
0.8000000001
100
AcDbArc
 50
0.0000000017
 51
89.6999999853
  0
ARC
  5
3A6
100
AcDbEntity
  8
0
100
AcDbCircle
 62
7
  6
CONTINUOUS
 10
270.0454083891
 20
384.6986887643
 40
0.8
100
AcDbArc
 50
270.0000000003
 51
360.0
  0
ARC
  5
3A7
100
AcDbEntity
  8
0
100
AcDbCircle
 62
7
  6
CONTINUOUS
 10
265.0454083891
 20
376.6417377328
 40
0.8
100
AcDbArc
 50
270.5000000001
 51
360.0
  0
ARC
  5
3A8
100
AcDbEntity
  8
0
100
AcDbCircle
 62
7
  6
CONTINUOUS
 10
244.2454083891
 20
362.6986887643
 40
0.8
100
AcDbArc
 50
270.0000000001
 51
360.0
  0
ARC
  5
3A9
100
AcDbEntity
  8
0
100
AcDbCircle
 62
7
  6
CONTINUOUS
 10
275.8018083891
 20
399.8986883297
 40
0.5
100
AcDbArc
 50
270.0
 51
360.0
  0
ARC
  5
3AA
100
AcDbEntity
  8
0
100
AcDbCircle
 62
7
  6
CONTINUOUS
 10
275.8018083891
 20
427.2986891989
 40
0.5
100
AcDbArc
 50
0.0
 51
90.0
  0
ARC
  5
3AB
100
AcDbEntity
  8
0
100
AcDbCircle
 62
7
  6
CONTINUOUS
 10
287.9090783177
 20
288.9690123612
 40
0.4973825444
100
AcDbArc
 50
177.1633487981
 51
220.6439683938
  0
ARC
  5
3AC
100
AcDbEntity
  8
0
100
AcDbCircle
 62
7
  6
CONTINUOUS
 10
294.4610841573
 20
281.7537674587
 40
0.199983311
100
AcDbArc
 50
8.0711468384
 51
87.0028571173
  0
ARC
  5
3AD
100
AcDbEntity
  8
0
100
AcDbCircle
 62
7
  6
CONTINUOUS
 10
294.4610841573
 20
259.3336100699
 40
0.199983311
100
AcDbArc
 50
272.9971428827
 51
351.9288531616
  0
SPLINE
  5
3AE
100
AcDbEntity
  8
0
100
AcDbSpline
 62
7
  6
CONTINUOUS
 70
0
 71
3
 72
11
 73
7
 74
0
 42
0.0000001
 43
0.0000001
 44
0.0000000001
 40
0.0
 40
0.0
 40
0.0
 40
0.0
 40
0.2500545405
 40
0.5000967903
 40
0.7501170106
 40
1.0
 40
1.0
 40
1.0
 40
1.0
 10
242.8819509087
 20
42.5095170047
 30
0.0
 10
243.1463209999
 20
42.5901324273
 30
0.0
 10
243.6669446241
 20
42.7793766504
 30
0.0
 10
244.4132124974
 20
43.1443753547
 30
0.0
 10
245.1152900233
 20
43.5873073194
 30
0.0
 10
245.5463906273
 20
43.9375414046
 30
0.0
 10
245.7416924597
 20
44.1328432369
 30
0.0
  0
SPLINE
  5
3AF
100
AcDbEntity
  8
0
100
AcDbSpline
 62
7
  6
CONTINUOUS
 70
0
 71
3
 72
11
 73
7
 74
0
 42
0.0000001
 43
0.0000001
 44
0.0000000001
 40
0.0
 40
0.0
 40
0.0
 40
0.0
 40
0.2498829893
 40
0.4999032097
 40
0.7499454595
 40
1.0
 40
1.0
 40
1.0
 40
1.0
 10
245.7416924597
 20
44.1328432369
 30
0.0
 10
245.936994292
 20
44.3281450693
 30
0.0
 10
246.2872283772
 20
44.7592456732
 30
0.0
 10
246.7301603419
 20
45.4613231991
 30
0.0
 10
247.0951590462
 20
46.2075910725
 30
0.0
 10
247.2844032694
 20
46.7282146967
 30
0.0
 10
247.3650186919
 20
46.992584788
 30
0.0
  0
SPLINE
  5
3B0
100
AcDbEntity
  8
0
100
AcDbSpline
 62
7
  6
CONTINUOUS
 70
0
 71
3
 72
8
 73
4
 74
0
 42
0.0000001
 43
0.0000001
 44
0.0000000001
 40
0.0
 40
0.0
 40
0.0
 40
0.0
 40
1.0
 40
1.0
 40
1.0
 40
1.0
 10
196.6527182972
 20
451.41851164
 30
0.0
 10
196.704629133
 20
451.4173243052
 30
0.0
 10
196.757818845
 20
451.4015357601
 30
0.0
 10
196.8021403394
 20
451.3744848863
 30
0.0
  0
SPLINE
  5
3B1
100
AcDbEntity
  8
0
100
AcDbSpline
 62
7
  6
CONTINUOUS
 70
0
 71
3
 72
8
 73
4
 74
0
 42
0.0000001
 43
0.0000001
 44
0.0000000001
 40
0.0
 40
0.0
 40
0.0
 40
0.0
 40
1.0
 40
1.0
 40
1.0
 40
1.0
 10
196.9067682191
 20
451.2658064704
 30
0.0
 10
196.9320202912
 20
451.2207754518
 30
0.0
 10
196.9459788893
 20
451.1675957768
 30
0.0
 10
196.9459788893
 20
451.1159676858
 30
0.0
  0
SPLINE
  5
3B2
100
AcDbEntity
  8
0
100
AcDbSpline
 62
7
  6
CONTINUOUS
 70
0
 71
3
 72
9
 73
5
 74
0
 42
0.0000001
 43
0.0000001
 44
0.0000000001
 40
0.0
 40
0.0
 40
0.0
 40
0.0
 40
0.4416893467
 40
1.0
 40
1.0
 40
1.0
 40
1.0
 10
285.4778433861
 20
346.3920559637
 30
0.0
 10
285.3289854707
 20
346.3393076902
 30
0.0
 10
284.9753096168
 20
346.2700054176
 30
0.0
 10
284.6181780342
 20
346.2458002497
 30
0.0
 10
284.4185633533
 20
346.2437034162
 30
0.0
  0
ENDSEC
  0
SECTION
  2
OBJECTS
  0
DICTIONARY
  5
C
100
AcDbDictionary
280
0
281
1
  3
ACAD_GROUP
350
D
  3
ACAD_MLINESTYLE
350
17
  3
ACAD_LAYOUT
350
1A
  3
ACAD_PLOTSETTINGS
350
19
  3
ACAD_PLOTSTYLENAME
350
E
  0
DICTIONARY
  5
D
102
{ACAD_REACTORS
330
C
102
}
100
AcDbDictionary
280
0
281
1
  0
ACDBDICTIONARYWDFLT
  5
E
102
{ACAD_REACTORS
330
C
102
}
100
AcDbDictionary
281
1
  3
Normal
350
F
100
AcDbDictionaryWithDefault
340
F
  0
DICTIONARY
  5
17
102
{ACAD_REACTORS
330
C
102
}
100
AcDbDictionary
280
0
281
1
  3
Standard
350
18
  0
DICTIONARY
  5
19
102
{ACAD_REACTORS
330
C
102
}
100
AcDbDictionary
281
1
  0
DICTIONARY
  5
1A
102
{ACAD_REACTORS
330
C
102
}
100
AcDbDictionary
281
1
  3
Model
350
3B3
  3
Layout1
350
3B4
  0
ACDBPLACEHOLDER
  5
F
102
{ACAD_REACTORS
330
E
102
}
  0
MLINESTYLE
  5
18
102
{ACAD_REACTORS
330
17
102
}
100
AcDbMlineStyle
  2
STANDARD
 70
0
  3

 62
256
 51
90.0
 52
90.0
 71
2
 49
0.5
 62
256
  6
BYLAYER
 49
-0.5
 62
256
  6
BYLAYER
  0
LAYOUT
  5
3B3
102
{ACAD_REACTORS
330
1A
102
}
100
AcDbPlotSettings
  1

  2
none_device
  4

  6

 40
0.0
 41
0.0
 42
0.0
 43
0.0
 44
210.0
 45
297.0
 46
0.0
 47
0.0
 48
0.0
 49
0.0
140
0.0
141
0.0
142
1.0
143
1.0
 70
1024
 72
1
 73
0
 74
0
  7

 75
0
147
1.0
148
0.0
149
0.0
100
AcDbLayout
  1
Model
 70
0
 71
0
 10
0.0
 20
0.0
 11
210.0
 21
297.0
 12
0.0
 22
0.0
 32
0.0
 14
0.0
 24
0.0
 34
0.0
 15
0.0
 25
0.0
 35
0.0
146
0.0
 13
0.0
 23
0.0
 33
0.0
 16
1.0
 26
0.0
 36
0.0
 17
0.0
 27
1.0
 37
0.0
 76
0
330
210
345
0
346
0
  0
LAYOUT
  5
3B4
102
{ACAD_REACTORS
330
1A
102
}
100
AcDbPlotSettings
  1

  2
none_device
  4

  6

 40
0.0
 41
0.0
 42
0.0
 43
0.0
 44
210.0
 45
297.0
 46
0.0
 47
0.0
 48
0.0
 49
0.0
140
0.0
141
0.0
142
1.0
143
1.0
 70
0
 72
1
 73
0
 74
0
  7

 75
0
147
1.0
148
0.0
149
0.0
100
AcDbLayout
  1
Layout1
 70
0
 71
1
 10
0.0
 20
0.0
 11
210.0
 21
297.0
 12
0.0
 22
0.0
 32
0.0
 14
0.0
 24
0.0
 34
0.0
 15
0.0
 25
0.0
 35
0.0
146
0.0
 13
0.0
 23
0.0
 33
0.0
 16
1.0
 26
0.0
 36
0.0
 17
0.0
 27
1.0
 37
0.0
 76
0
330
211
345
0
346
0
  0
ENDSEC
  0
EOF
