  0
SECTION
  2
HEADER
  9
$ACADVER
  1
AC1009
  9
$DWGCODEPAGE
  3
ansi_1250
  9
$INSBASE
 10
0.0
 20
0.0
 30
0.0
  9
$EXTMIN
 10
-0.470472
 20
-0.401575
 30
0.0
  9
$EXTMAX
 10
0.470472
 20
1.15748
 30
0.0
  9
$LIMMIN
 10
0.0
 20
0.0
  9
$LIMMAX
 10
0.0
 20
0.0
  9
$ORTHOMODE
 70
     0
  9
$REGENMODE
 70
     1
  9
$FILLMODE
 70
     1
  9
$QTEXTMODE
 70
     0
  9
$MIRRTEXT
 70
     1
  9
$DRAGMODE
 70
     2
  9
$LTSCALE
 40
1.0
  9
$OSMODE
 70
     0
  9
$ATTMODE
 70
     1
  9
$TEXTSIZE
 40
0.2
  9
$TRACEWID
 40
0.05
  9
$TEXTSTYLE
  7
STANDARD
  9
$CLAYER
  8
0
  9
$CELTYPE
  6
CONTINUOUS
  9
$CECOLOR
 62
   256
  9
$DIMSCALE
 40
1.0
  9
$DIMASZ
 40
0.18
  9
$DIMEXO
 40
0.0625
  9
$DIMDLI
 40
0.38
  9
$DIMRND
 40
0.0
  9
$DIMDLE
 40
0.0
  9
$DIMEXE
 40
0.18
  9
$DIMTP
 40
0.0
  9
$DIMTM
 40
0.0
  9
$DIMTXT
 40
0.18
  9
$DIMCEN
 40
0.09
  9
$DIMTSZ
 40
0.0
  9
$DIMTOL
 70
     0
  9
$DIMLIM
 70
     0
  9
$DIMTIH
 70
     1
  9
$DIMTOH
 70
     1
  9
$DIMSE1
 70
     0
  9
$DIMSE2
 70
     0
  9
$DIMTAD
 70
     0
  9
$DIMZIN
 70
     0
  9
$DIMBLK
  1

  9
$DIMASO
 70
     1
  9
$DIMSHO
 70
     1
  9
$DIMPOST
  1

  9
$DIMAPOST
  1

  9
$DIMALT
 70
     0
  9
$DIMALTD
 70
     2
  9
$DIMALTF
 40
25.4
  9
$DIMLFAC
 40
1.0
  9
$DIMTOFL
 70
     0
  9
$DIMTVP
 40
0.0
  9
$DIMTIX
 70
     0
  9
$DIMSOXD
 70
     0
  9
$DIMSAH
 70
     0
  9
$DIMBLK1
  1

  9
$DIMBLK2
  1

  9
$DIMSTYLE
  2
STANDARD
  9
$DIMCLRD
 70
     0
  9
$DIMCLRE
 70
     0
  9
$DIMCLRT
 70
     0
  9
$DIMTFAC
 40
1.0
  9
$DIMGAP
 40
0.09
  9
$LUNITS
 70
     2
  9
$LUPREC
 70
     4
  9
$AXISMODE
 70
     0
  9
$AXISUNIT
 10
0.0
 20
0.0
  9
$SKETCHINC
 40
0.1
  9
$FILLETRAD
 40
0.0
  9
$AUNITS
 70
     0
  9
$AUPREC
 70
     0
  9
$MENU
  1
acad
  9
$ELEVATION
 40
0.0
  9
$PELEVATION
 40
0.0
  9
$THICKNESS
 40
0.0
  9
$LIMCHECK
 70
     0
  9
$BLIPMODE
 70
     1
  9
$CHAMFERA
 40
0.0
  9
$CHAMFERB
 40
0.0
  9
$SKPOLY
 70
     0
  9
$TDCREATE
 40
0.000000000
  9
$TDUPDATE
 40
0.000000000
  9
$TDINDWG
 40
0.0000000000
  9
$TDUSRTIMER
 40
0.0000000000
  9
$USRTIMER
 70
     1
  9
$ANGBASE
 50
0.0
  9
$ANGDIR
 70
     0
  9
$PDMODE
 70
     0
  9
$PDSIZE
 40
0.0
  9
$PLINEWID
 40
0.0
  9
$COORDS
 70
     0
  9
$SPLFRAME
 70
     0
  9
$SPLINETYPE
 70
     6
  9
$SPLINESEGS
 70
     8
  9
$ATTDIA
 70
     0
  9
$ATTREQ
 70
     1
  9
$HANDLING
 70
     1
  9
$HANDSEED
  5
48C
  9
$SURFTAB1
 70
     6
  9
$SURFTAB2
 70
     6
  9
$SURFTYPE
 70
     6
  9
$SURFU
 70
     6
  9
$SURFV
 70
     6
  9
$UCSNAME
  2

  9
$UCSORG
 10
0.0
 20
0.0
 30
0.0
  9
$UCSXDIR
 10
1.0
 20
0.0
 30
0.0
  9
$UCSYDIR
 10
0.0
 20
1.0
 30
0.0
  9
$PUCSNAME
  2

  9
$PUCSORG
 10
0.0
 20
0.0
 30
0.0
  9
$PUCSXDIR
 10
1.0
 20
0.0
 30
0.0
  9
$PUCSYDIR
 10
0.0
 20
1.0
 30
0.0
  9
$USERI1
 70
     0
  9
$USERI2
 70
     0
  9
$USERI3
 70
     0
  9
$USERI4
 70
     0
  9
$USERI5
 70
     0
  9
$USERR1
 40
0.0
  9
$USERR2
 40
0.0
  9
$USERR3
 40
0.0
  9
$USERR4
 40
0.0
  9
$USERR5
 40
0.0
  9
$WORLDVIEW
 70
     1
  9
$SHADEDGE
 70
     3
  9
$SHADEDIF
 70
    70
  9
$TILEMODE
 70
     1
  9
$MAXACTVP
 70
    16
  9
$PINSBASE
 10
0.0
 20
0.0
 30
0.0
  9
$PLIMCHECK
 70
     0
  9
$PEXTMIN
 10
1.000000E+20
 20
1.000000E+20
 30
1.000000E+20
  9
$PEXTMAX
 10
-1.000000E+20
 20
-1.000000E+20
 30
-1.000000E+20
  9
$PLIMMIN
 10
0.0
 20
0.0
  9
$PLIMMAX
 10
12.0
 20
9.0
  9
$UNITMODE
 70
     0
  9
$VISRETAIN
 70
     0
  9
$PLINEGEN
 70
     1
  9
$PSLTSCALE
 70
     0
  9
$TREEDEPTH
 70
  3020
  0
ENDSEC
  0
SECTION
  2
TABLES
  0
TABLE
  2
VPORT
 70
     1
  0
VPORT
  2
*ACTIVE
 70
     0
 10
0.0
 20
0.0
 11
1.0
 21
1.0
 12
6.591288
 22
4.579184
 13
0.0
 23
0.0
 14
1.0
 24
1.0
 15
0.0
 25
0.0
 16
0.0
 26
0.0
 36
1.0
 17
0.0
 27
0.0
 37
0.0
 40
9.158369
 41
0.688564
 42
50.0
 43
0.0
 44
0.0
 50
0.0
 51
0.0
 71
     0
 72
   100
 73
     1
 74
     1
 75
     0
 76
     0
 77
     0
 78
     0
  0
ENDTAB
  0
TABLE
  2
LTYPE
 70
     5
  0
LTYPE
  2
CONTINUOUS
 70
    64
  3
Solid line
 72
    65
 73
     0
 40
0.0
  0
LTYPE
  2
CENTER
 70
    64
  3
Center ____ _ ____ _ ____ _ ____ _ ____ _ ____
 72
    65
 73
     4
 40
50.8
 49
31.75
 49
-6.35
 49
6.35
 49
-6.35
  0
LTYPE
  2
HIDDEN
 70
    64
  3
Hidden __ __ __ __ __ __ __ __ __ __ __ __ __ __
 72
    65
 73
     2
 40
9.525
 49
6.35
 49
-3.175
  0
LTYPE
  2
CENTER2
 70
    64
  3
Center (.5x) ___ _ ___ _ ___ _ ___ _ ___ _ ___
 72
    65
 73
     4
 40
28.575
 49
19.05
 49
-3.175
 49
3.175
 49
-3.175
  0
LTYPE
  2
HIDDEN2
 70
    64
  3
Hidden (.5x) _ _ _ _ _ _ _ _ _ _ _ _ _ _ _ _ _
 72
    65
 73
     2
 40
4.7625
 49
3.175
 49
-1.5875
  0
ENDTAB
  0
TABLE
  2
LAYER
 70
     1
  0
LAYER
  2
0
 70
     0
 62
     7
  6
CONTINUOUS
  0
ENDTAB
  0
TABLE
  2
STYLE
 70
     1
  0
STYLE
  2
STANDARD
 70
     0
 40
0.0
 41
1.0
 50
0.0
 71
     0
 42
0.0
  3
txt
  4

  0
ENDTAB
  0
TABLE
  2
VIEW
 70
     0
  0
ENDTAB
  0
TABLE
  2
UCS
 70
     0
  0
ENDTAB
  0
TABLE
  2
APPID
 70
     1
  0
APPID
  2
ACAD
 70
     0
  0
ENDTAB
  0
TABLE
  2
DIMSTYLE
 70
     1
  0
DIMSTYLE
  2
STANDARD
 70
     0
  3

  4

  5

  6

  7

 40
1.0
 41
0.18
 42
0.0625
 43
0.38
 44
0.18
 45
0.0
 46
0.0
 47
0.0
 48
0.0
 71
     0
 72
     0
 73
     1
 74
     1
 75
     0
 76
     0
 77
     0
 78
     0
140
0.18
141
0.09
142
0.0
143
25.4
144
1.0
145
0.0
146
1.0
147
0.09
170
     0
171
     2
172
     0
173
     0
174
     0
175
     0
176
     0
177
     0
178
     0
  0
ENDTAB
  0
ENDSEC
  0
SECTION
  2
BLOCKS
  0
ENDSEC
  0
SECTION
  2
ENTITIES
  0
LINE
  8
0
  6
CONTINUOUS
 62
     7
  5
286
 10
-0.34252
 20
0.0
 30
0.0
 11
0.34252
 21
0.0
 31
0.0
  0
LINE
  8
0
  6
CONTINUOUS
 62
     7
  5
287
 10
0.462598
 20
-0.110236
 30
0.0
 11
-0.462598
 21
-0.110236
 31
0.0
  0
LINE
  8
0
  6
CONTINUOUS
 62
     7
  5
288
 10
-0.462598
 20
-0.110236
 30
0.0
 11
-0.462598
 21
-0.358268
 31
0.0
  0
LINE
  8
0
  6
CONTINUOUS
 62
     7
  5
289
 10
0.462598
 20
-0.358268
 30
0.0
 11
-0.462598
 21
-0.358268
 31
0.0
  0
LINE
  8
0
  6
CONTINUOUS
 62
     7
  5
28A
 10
0.462598
 20
-0.358268
 30
0.0
 11
0.462598
 21
-0.110236
 31
0.0
  0
LINE
  8
0
  6
CONTINUOUS
 62
     7
  5
28B
 10
-0.462598
 20
-0.358268
 30
0.0
 11
-0.462598
 21
-0.401575
 31
0.0
  0
LINE
  8
0
  6
CONTINUOUS
 62
     7
  5
28C
 10
0.462598
 20
-0.401575
 30
0.0
 11
0.462598
 21
-0.358268
 31
0.0
  0
LINE
  8
0
  6
CONTINUOUS
 62
     7
  5
28D
 10
-0.07874
 20
-0.102362
 30
0.0
 11
-0.470472
 21
-0.102362
 31
0.0
  0
LINE
  8
0
  6
CONTINUOUS
 62
     7
  5
28E
 10
-0.07874
 20
-0.102362
 30
0.0
 11
-0.07874
 21
-0.062992
 31
0.0
  0
LINE
  8
0
  6
CONTINUOUS
 62
     7
  5
28F
 10
-0.07874
 20
-0.062992
 30
0.0
 11
0.07874
 21
-0.062992
 31
0.0
  0
LINE
  8
0
  6
CONTINUOUS
 62
     7
  5
290
 10
0.07874
 20
-0.062992
 30
0.0
 11
0.07874
 21
-0.102362
 31
0.0
  0
LINE
  8
0
  6
CONTINUOUS
 62
     7
  5
291
 10
0.470472
 20
-0.023622
 30
0.0
 11
-0.470472
 21
-0.023622
 31
0.0
  0
LINE
  8
0
  6
CONTINUOUS
 62
     7
  5
292
 10
-0.470472
 20
-0.102362
 30
0.0
 11
-0.470472
 21
-0.023622
 31
0.0
  0
LINE
  8
0
  6
CONTINUOUS
 62
     7
  5
293
 10
0.470472
 20
-0.023622
 30
0.0
 11
0.470472
 21
-0.102362
 31
0.0
  0
LINE
  8
0
  6
CONTINUOUS
 62
     7
  5
294
 10
0.470472
 20
-0.102362
 30
0.0
 11
0.07874
 21
-0.102362
 31
0.0
  0
LINE
  8
0
  6
CONTINUOUS
 62
     7
  5
295
 10
-0.03937
 20
0.0
 30
0.0
 11
-0.03937
 21
0.125984
 31
0.0
  0
LINE
  8
0
  6
CONTINUOUS
 62
     7
  5
296
 10
-0.03937
 20
0.437008
 30
0.0
 11
-0.03937
 21
0.446864
 31
0.0
  0
LINE
  8
0
  6
CONTINUOUS
 62
     7
  5
297
 10
-0.03937
 20
0.275591
 30
0.0
 11
-0.03937
 21
0.437008
 31
0.0
  0
LINE
  8
0
  6
CONTINUOUS
 62
     7
  5
298
 10
-0.291339
 20
0.114481
 30
0.0
 11
-0.291339
 21
0.0
 31
0.0
  0
LINE
  8
0
  6
CONTINUOUS
 62
     7
  5
299
 10
0.03937
 20
0.437008
 30
0.0
 11
0.03937
 21
0.275591
 31
0.0
  0
LINE
  8
0
  6
CONTINUOUS
 62
     7
  5
29A
 10
0.03937
 20
0.446864
 30
0.0
 11
0.03937
 21
0.437008
 31
0.0
  0
LINE
  8
0
  6
CONTINUOUS
 62
     7
  5
29B
 10
0.03937
 20
0.125984
 30
0.0
 11
0.03937
 21
0.0
 31
0.0
  0
LINE
  8
0
  6
CONTINUOUS
 62
     7
  5
29C
 10
0.291339
 20
0.0
 30
0.0
 11
0.291339
 21
0.114481
 31
0.0
  0
LINE
  8
0
  6
CONTINUOUS
 62
     7
  5
29D
 10
0.291339
 20
0.322835
 30
0.0
 11
0.291339
 21
0.437008
 31
0.0
  0
LINE
  8
0
  6
CONTINUOUS
 62
     7
  5
29E
 10
0.291339
 20
0.437008
 30
0.0
 11
0.03937
 21
0.437008
 31
0.0
  0
LINE
  8
0
  6
CONTINUOUS
 62
     7
  5
29F
 10
0.291339
 20
0.437008
 30
0.0
 11
0.291339
 21
0.448819
 31
0.0
  0
LINE
  8
0
  6
CONTINUOUS
 62
     7
  5
2A0
 10
0.291339
 20
0.448819
 30
0.0
 11
-0.291339
 21
0.448819
 31
0.0
  0
LINE
  8
0
  6
CONTINUOUS
 62
     7
  5
2A1
 10
-0.03937
 20
0.446864
 30
0.0
 11
-0.037102
 21
0.447033
 31
0.0
  0
LINE
  8
0
  6
CONTINUOUS
 62
     7
  5
2A2
 10
-0.037102
 20
0.447033
 30
0.0
 11
-0.034837
 21
0.447191
 31
0.0
  0
LINE
  8
0
  6
CONTINUOUS
 62
     7
  5
2A3
 10
-0.034837
 20
0.447191
 30
0.0
 11
-0.032576
 21
0.447339
 31
0.0
  0
LINE
  8
0
  6
CONTINUOUS
 62
     7
  5
2A4
 10
-0.032576
 20
0.447339
 30
0.0
 11
-0.030317
 21
0.447477
 31
0.0
  0
LINE
  8
0
  6
CONTINUOUS
 62
     7
  5
2A5
 10
-0.030317
 20
0.447477
 30
0.0
 11
-0.028061
 21
0.447605
 31
0.0
  0
LINE
  8
0
  6
CONTINUOUS
 62
     7
  5
2A6
 10
-0.028061
 20
0.447605
 30
0.0
 11
-0.025807
 21
0.447723
 31
0.0
  0
LINE
  8
0
  6
CONTINUOUS
 62
     7
  5
2A7
 10
-0.025807
 20
0.447723
 30
0.0
 11
-0.023555
 21
0.447831
 31
0.0
  0
LINE
  8
0
  6
CONTINUOUS
 62
     7
  5
2A8
 10
-0.023555
 20
0.447831
 30
0.0
 11
-0.021306
 21
0.44793
 31
0.0
  0
LINE
  8
0
  6
CONTINUOUS
 62
     7
  5
2A9
 10
-0.021306
 20
0.44793
 30
0.0
 11
-0.019058
 21
0.448018
 31
0.0
  0
LINE
  8
0
  6
CONTINUOUS
 62
     7
  5
2AA
 10
-0.019058
 20
0.448018
 30
0.0
 11
-0.016812
 21
0.448097
 31
0.0
  0
LINE
  8
0
  6
CONTINUOUS
 62
     7
  5
2AB
 10
-0.016812
 20
0.448097
 30
0.0
 11
-0.014568
 21
0.448166
 31
0.0
  0
LINE
  8
0
  6
CONTINUOUS
 62
     7
  5
2AC
 10
-0.014568
 20
0.448166
 30
0.0
 11
-0.012324
 21
0.448225
 31
0.0
  0
LINE
  8
0
  6
CONTINUOUS
 62
     7
  5
2AD
 10
-0.012324
 20
0.448225
 30
0.0
 11
-0.010082
 21
0.448274
 31
0.0
  0
LINE
  8
0
  6
CONTINUOUS
 62
     7
  5
2AE
 10
-0.010082
 20
0.448274
 30
0.0
 11
-0.007841
 21
0.448313
 31
0.0
  0
LINE
  8
0
  6
CONTINUOUS
 62
     7
  5
2AF
 10
-0.007841
 20
0.448313
 30
0.0
 11
-0.0056
 21
0.448342
 31
0.0
  0
LINE
  8
0
  6
CONTINUOUS
 62
     7
  5
2B0
 10
-0.0056
 20
0.448342
 30
0.0
 11
-0.00336
 21
0.448362
 31
0.0
  0
LINE
  8
0
  6
CONTINUOUS
 62
     7
  5
2B1
 10
-0.00336
 20
0.448362
 30
0.0
 11
-0.00112
 21
0.448372
 31
0.0
  0
LINE
  8
0
  6
CONTINUOUS
 62
     7
  5
2B2
 10
-0.00112
 20
0.448372
 30
0.0
 11
0.00112
 21
0.448372
 31
0.0
  0
LINE
  8
0
  6
CONTINUOUS
 62
     7
  5
2B3
 10
0.00112
 20
0.448372
 30
0.0
 11
0.00336
 21
0.448362
 31
0.0
  0
LINE
  8
0
  6
CONTINUOUS
 62
     7
  5
2B4
 10
0.00336
 20
0.448362
 30
0.0
 11
0.0056
 21
0.448342
 31
0.0
  0
LINE
  8
0
  6
CONTINUOUS
 62
     7
  5
2B5
 10
0.0056
 20
0.448342
 30
0.0
 11
0.007841
 21
0.448313
 31
0.0
  0
LINE
  8
0
  6
CONTINUOUS
 62
     7
  5
2B6
 10
0.007841
 20
0.448313
 30
0.0
 11
0.010082
 21
0.448274
 31
0.0
  0
LINE
  8
0
  6
CONTINUOUS
 62
     7
  5
2B7
 10
0.010082
 20
0.448274
 30
0.0
 11
0.012324
 21
0.448225
 31
0.0
  0
LINE
  8
0
  6
CONTINUOUS
 62
     7
  5
2B8
 10
0.012324
 20
0.448225
 30
0.0
 11
0.014568
 21
0.448166
 31
0.0
  0
LINE
  8
0
  6
CONTINUOUS
 62
     7
  5
2B9
 10
0.014568
 20
0.448166
 30
0.0
 11
0.016812
 21
0.448097
 31
0.0
  0
LINE
  8
0
  6
CONTINUOUS
 62
     7
  5
2BA
 10
0.016812
 20
0.448097
 30
0.0
 11
0.019058
 21
0.448018
 31
0.0
  0
LINE
  8
0
  6
CONTINUOUS
 62
     7
  5
2BB
 10
0.019058
 20
0.448018
 30
0.0
 11
0.021306
 21
0.44793
 31
0.0
  0
LINE
  8
0
  6
CONTINUOUS
 62
     7
  5
2BC
 10
0.021306
 20
0.44793
 30
0.0
 11
0.023555
 21
0.447831
 31
0.0
  0
LINE
  8
0
  6
CONTINUOUS
 62
     7
  5
2BD
 10
0.023555
 20
0.447831
 30
0.0
 11
0.025807
 21
0.447723
 31
0.0
  0
LINE
  8
0
  6
CONTINUOUS
 62
     7
  5
2BE
 10
0.025807
 20
0.447723
 30
0.0
 11
0.028061
 21
0.447605
 31
0.0
  0
LINE
  8
0
  6
CONTINUOUS
 62
     7
  5
2BF
 10
0.028061
 20
0.447605
 30
0.0
 11
0.030317
 21
0.447477
 31
0.0
  0
LINE
  8
0
  6
CONTINUOUS
 62
     7
  5
2C0
 10
0.030317
 20
0.447477
 30
0.0
 11
0.032576
 21
0.447339
 31
0.0
  0
LINE
  8
0
  6
CONTINUOUS
 62
     7
  5
2C1
 10
0.032576
 20
0.447339
 30
0.0
 11
0.034837
 21
0.447191
 31
0.0
  0
LINE
  8
0
  6
CONTINUOUS
 62
     7
  5
2C2
 10
0.034837
 20
0.447191
 30
0.0
 11
0.037102
 21
0.447033
 31
0.0
  0
LINE
  8
0
  6
CONTINUOUS
 62
     7
  5
2C3
 10
0.037102
 20
0.447033
 30
0.0
 11
0.03937
 21
0.446864
 31
0.0
  0
LINE
  8
0
  6
CONTINUOUS
 62
     7
  5
2C4
 10
-0.03937
 20
0.437008
 30
0.0
 11
-0.291339
 21
0.437008
 31
0.0
  0
LINE
  8
0
  6
CONTINUOUS
 62
     7
  5
2C5
 10
-0.291339
 20
0.437008
 30
0.0
 11
-0.291339
 21
0.322835
 31
0.0
  0
LINE
  8
0
  6
CONTINUOUS
 62
     7
  5
2C6
 10
-0.291339
 20
0.448819
 30
0.0
 11
-0.291339
 21
0.437008
 31
0.0
  0
LINE
  8
0
  6
CONTINUOUS
 62
     7
  5
2C7
 10
-0.11811
 20
0.275591
 30
0.0
 11
-0.11811
 21
0.322835
 31
0.0
  0
LINE
  8
0
  6
CONTINUOUS
 62
     7
  5
2C8
 10
-0.331978
 20
0.322835
 30
0.0
 11
-0.331978
 21
0.275591
 31
0.0
  0
LINE
  8
0
  6
CONTINUOUS
 62
     7
  5
2C9
 10
-0.331978
 20
0.275591
 30
0.0
 11
-0.352362
 21
0.275591
 31
0.0
  0
LINE
  8
0
  6
CONTINUOUS
 62
     7
  5
2CA
 10
0.11811
 20
0.275591
 30
0.0
 11
-0.11811
 21
0.275591
 31
0.0
  0
LINE
  8
0
  6
CONTINUOUS
 62
     7
  5
2CB
 10
0.11811
 20
0.322835
 30
0.0
 11
0.11811
 21
0.275591
 31
0.0
  0
LINE
  8
0
  6
CONTINUOUS
 62
     7
  5
2CC
 10
0.11811
 20
0.322835
 30
0.0
 11
0.331978
 21
0.322835
 31
0.0
  0
LINE
  8
0
  6
CONTINUOUS
 62
     7
  5
2CD
 10
-0.331978
 20
0.322835
 30
0.0
 11
-0.11811
 21
0.322835
 31
0.0
  0
LINE
  8
0
  6
CONTINUOUS
 62
     7
  5
2CE
 10
0.352362
 20
0.275591
 30
0.0
 11
0.331978
 21
0.275591
 31
0.0
  0
LINE
  8
0
  6
CONTINUOUS
 62
     7
  5
2CF
 10
0.331978
 20
0.275591
 30
0.0
 11
0.331978
 21
0.322835
 31
0.0
  0
LINE
  8
0
  6
CONTINUOUS
 62
     7
  5
2D0
 10
-0.350929
 20
0.165354
 30
0.0
 11
-0.350929
 21
0.244094
 31
0.0
  0
LINE
  8
0
  6
CONTINUOUS
 62
     7
  5
2D1
 10
-0.350929
 20
0.244094
 30
0.0
 11
-0.343563
 21
0.244094
 31
0.0
  0
LINE
  8
0
  6
CONTINUOUS
 62
     7
  5
2D2
 10
-0.343563
 20
0.244094
 30
0.0
 11
-0.343563
 21
0.165354
 31
0.0
  0
LINE
  8
0
  6
CONTINUOUS
 62
     7
  5
2D3
 10
-0.323944
 20
0.165354
 30
0.0
 11
-0.323944
 21
0.244094
 31
0.0
  0
LINE
  8
0
  6
CONTINUOUS
 62
     7
  5
2D4
 10
-0.323944
 20
0.244094
 30
0.0
 11
-0.302567
 21
0.244094
 31
0.0
  0
LINE
  8
0
  6
CONTINUOUS
 62
     7
  5
2D5
 10
-0.302567
 20
0.244094
 30
0.0
 11
-0.302567
 21
0.165354
 31
0.0
  0
LINE
  8
0
  6
CONTINUOUS
 62
     7
  5
2D6
 10
-0.265248
 20
0.165354
 30
0.0
 11
-0.265248
 21
0.244094
 31
0.0
  0
LINE
  8
0
  6
CONTINUOUS
 62
     7
  5
2D7
 10
-0.265248
 20
0.244094
 30
0.0
 11
-0.231953
 21
0.244094
 31
0.0
  0
LINE
  8
0
  6
CONTINUOUS
 62
     7
  5
2D8
 10
-0.231953
 20
0.244094
 30
0.0
 11
-0.231953
 21
0.165354
 31
0.0
  0
LINE
  8
0
  6
CONTINUOUS
 62
     7
  5
2D9
 10
-0.180589
 20
0.165354
 30
0.0
 11
-0.180589
 21
0.244094
 31
0.0
  0
LINE
  8
0
  6
CONTINUOUS
 62
     7
  5
2DA
 10
-0.180589
 20
0.244094
 30
0.0
 11
-0.138634
 21
0.244094
 31
0.0
  0
LINE
  8
0
  6
CONTINUOUS
 62
     7
  5
2DB
 10
-0.138634
 20
0.244094
 30
0.0
 11
-0.138634
 21
0.165354
 31
0.0
  0
LINE
  8
0
  6
CONTINUOUS
 62
     7
  5
2DC
 10
-0.078252
 20
0.165354
 30
0.0
 11
-0.078252
 21
0.244094
 31
0.0
  0
LINE
  8
0
  6
CONTINUOUS
 62
     7
  5
2DD
 10
-0.078252
 20
0.244094
 30
0.0
 11
-0.031745
 21
0.244094
 31
0.0
  0
LINE
  8
0
  6
CONTINUOUS
 62
     7
  5
2DE
 10
-0.031745
 20
0.244094
 30
0.0
 11
-0.031745
 21
0.165354
 31
0.0
  0
LINE
  8
0
  6
CONTINUOUS
 62
     7
  5
2DF
 10
0.031745
 20
0.165354
 30
0.0
 11
0.031745
 21
0.244094
 31
0.0
  0
LINE
  8
0
  6
CONTINUOUS
 62
     7
  5
2E0
 10
0.031745
 20
0.244094
 30
0.0
 11
0.078252
 21
0.244094
 31
0.0
  0
LINE
  8
0
  6
CONTINUOUS
 62
     7
  5
2E1
 10
0.078252
 20
0.244094
 30
0.0
 11
0.078252
 21
0.165354
 31
0.0
  0
LINE
  8
0
  6
CONTINUOUS
 62
     7
  5
2E2
 10
0.138634
 20
0.165354
 30
0.0
 11
0.138634
 21
0.244094
 31
0.0
  0
LINE
  8
0
  6
CONTINUOUS
 62
     7
  5
2E3
 10
0.138634
 20
0.244094
 30
0.0
 11
0.180589
 21
0.244094
 31
0.0
  0
LINE
  8
0
  6
CONTINUOUS
 62
     7
  5
2E4
 10
0.180589
 20
0.244094
 30
0.0
 11
0.180589
 21
0.165354
 31
0.0
  0
LINE
  8
0
  6
CONTINUOUS
 62
     7
  5
2E5
 10
0.231953
 20
0.165354
 30
0.0
 11
0.231953
 21
0.244094
 31
0.0
  0
LINE
  8
0
  6
CONTINUOUS
 62
     7
  5
2E6
 10
0.231953
 20
0.244094
 30
0.0
 11
0.265248
 21
0.244094
 31
0.0
  0
LINE
  8
0
  6
CONTINUOUS
 62
     7
  5
2E7
 10
0.265248
 20
0.244094
 30
0.0
 11
0.265248
 21
0.165354
 31
0.0
  0
LINE
  8
0
  6
CONTINUOUS
 62
     7
  5
2E8
 10
0.302567
 20
0.165354
 30
0.0
 11
0.302567
 21
0.244094
 31
0.0
  0
LINE
  8
0
  6
CONTINUOUS
 62
     7
  5
2E9
 10
0.302567
 20
0.244094
 30
0.0
 11
0.323944
 21
0.244094
 31
0.0
  0
LINE
  8
0
  6
CONTINUOUS
 62
     7
  5
2EA
 10
0.323944
 20
0.244094
 30
0.0
 11
0.323944
 21
0.165354
 31
0.0
  0
LINE
  8
0
  6
CONTINUOUS
 62
     7
  5
2EB
 10
0.343563
 20
0.165354
 30
0.0
 11
0.343563
 21
0.244094
 31
0.0
  0
LINE
  8
0
  6
CONTINUOUS
 62
     7
  5
2EC
 10
0.343563
 20
0.244094
 30
0.0
 11
0.350929
 21
0.244094
 31
0.0
  0
LINE
  8
0
  6
CONTINUOUS
 62
     7
  5
2ED
 10
0.350929
 20
0.244094
 30
0.0
 11
0.350929
 21
0.165354
 31
0.0
  0
LINE
  8
0
  6
CONTINUOUS
 62
     7
  5
2EE
 10
-0.244094
 20
0.125984
 30
0.0
 11
0.244094
 21
0.125984
 31
0.0
  0
LINE
  8
0
  6
CONTINUOUS
 62
     7
  5
2EF
 10
0.354331
 20
0.165354
 30
0.0
 11
0.354331
 21
0.138514
 31
0.0
  0
LINE
  8
0
  6
CONTINUOUS
 62
     7
  5
2F0
 10
0.354331
 20
0.099144
 30
0.0
 11
0.354331
 21
0.138514
 31
0.0
  0
LINE
  8
0
  6
CONTINUOUS
 62
     7
  5
2F1
 10
-0.354331
 20
0.099144
 30
0.0
 11
-0.354331
 21
0.138514
 31
0.0
  0
LINE
  8
0
  6
CONTINUOUS
 62
     7
  5
2F2
 10
-0.354331
 20
0.138514
 30
0.0
 11
-0.354331
 21
0.165354
 31
0.0
  0
LINE
  8
0
  6
CONTINUOUS
 62
     7
  5
2F3
 10
-0.354331
 20
0.099144
 30
0.0
 11
-0.244094
 21
0.125984
 31
0.0
  0
LINE
  8
0
  6
CONTINUOUS
 62
     7
  5
2F4
 10
0.244094
 20
0.125984
 30
0.0
 11
0.354331
 21
0.099144
 31
0.0
  0
LINE
  8
0
  6
CONTINUOUS
 62
     7
  5
2F5
 10
0.354331
 20
0.138514
 30
0.0
 11
0.244094
 21
0.165354
 31
0.0
  0
LINE
  8
0
  6
CONTINUOUS
 62
     7
  5
2F6
 10
-0.244094
 20
0.165354
 30
0.0
 11
0.244094
 21
0.165354
 31
0.0
  0
LINE
  8
0
  6
CONTINUOUS
 62
     7
  5
2F7
 10
-0.244094
 20
0.165354
 30
0.0
 11
-0.354331
 21
0.138514
 31
0.0
  0
LINE
  8
0
  6
CONTINUOUS
 62
     7
  5
2F8
 10
-0.354331
 20
0.165354
 30
0.0
 11
-0.244094
 21
0.165354
 31
0.0
  0
LINE
  8
0
  6
CONTINUOUS
 62
     7
  5
2F9
 10
0.244094
 20
0.165354
 30
0.0
 11
0.354331
 21
0.165354
 31
0.0
  0
LINE
  8
0
  6
CONTINUOUS
 62
     7
  5
2FA
 10
0.23832
 20
1.137981
 30
0.0
 11
0.238052
 21
1.141045
 31
0.0
  0
LINE
  8
0
  6
CONTINUOUS
 62
     7
  5
2FB
 10
0.246063
 20
1.04948
 30
0.0
 11
0.23832
 21
1.137981
 31
0.0
  0
LINE
  8
0
  6
CONTINUOUS
 62
     7
  5
2FC
 10
0.242126
 20
1.09448
 30
0.0
 11
0.244928
 21
1.062451
 31
0.0
  0
LINE
  8
0
  6
CONTINUOUS
 62
     7
  5
2FD
 10
0.246063
 20
1.04948
 30
0.0
 11
0.244928
 21
1.062451
 31
0.0
  0
LINE
  8
0
  6
CONTINUOUS
 62
     7
  5
2FE
 10
0.230315
 20
1.157123
 30
0.0
 11
0.230315
 21
1.144772
 31
0.0
  0
LINE
  8
0
  6
CONTINUOUS
 62
     7
  5
2FF
 10
0.226378
 20
1.144772
 30
0.0
 11
0.226378
 21
1.157352
 31
0.0
  0
LINE
  8
0
  6
CONTINUOUS
 62
     7
  5
300
 10
0.226378
 20
0.84252
 30
0.0
 11
0.226378
 21
1.144772
 31
0.0
  0
LINE
  8
0
  6
CONTINUOUS
 62
     7
  5
301
 10
0.226378
 20
1.144772
 30
0.0
 11
0.226378
 21
1.157352
 31
0.0
  0
LINE
  8
0
  6
CONTINUOUS
 62
     7
  5
302
 10
0.246063
 20
0.84252
 30
0.0
 11
0.246063
 21
1.04948
 31
0.0
  0
LINE
  8
0
  6
CONTINUOUS
 62
     7
  5
303
 10
0.246063
 20
0.84252
 30
0.0
 11
0.246063
 21
1.04948
 31
0.0
  0
LINE
  8
0
  6
CONTINUOUS
 62
     7
  5
304
 10
0.235181
 20
1.15748
 30
0.0
 11
0.235177
 21
1.15748
 31
0.0
  0
LINE
  8
0
  6
CONTINUOUS
 62
     7
  5
305
 10
0.235177
 20
1.15748
 30
0.0
 11
0.235165
 21
1.157479
 31
0.0
  0
LINE
  8
0
  6
CONTINUOUS
 62
     7
  5
306
 10
0.235165
 20
1.157479
 30
0.0
 11
0.235144
 21
1.157477
 31
0.0
  0
LINE
  8
0
  6
CONTINUOUS
 62
     7
  5
307
 10
0.235144
 20
1.157477
 30
0.0
 11
0.235114
 21
1.157474
 31
0.0
  0
LINE
  8
0
  6
CONTINUOUS
 62
     7
  5
308
 10
0.235114
 20
1.157474
 30
0.0
 11
0.235075
 21
1.15747
 31
0.0
  0
LINE
  8
0
  6
CONTINUOUS
 62
     7
  5
309
 10
0.235075
 20
1.15747
 30
0.0
 11
0.235028
 21
1.157465
 31
0.0
  0
LINE
  8
0
  6
CONTINUOUS
 62
     7
  5
30A
 10
0.235028
 20
1.157465
 30
0.0
 11
0.234971
 21
1.157459
 31
0.0
  0
LINE
  8
0
  6
CONTINUOUS
 62
     7
  5
30B
 10
0.234971
 20
1.157459
 30
0.0
 11
0.234905
 21
1.157453
 31
0.0
  0
LINE
  8
0
  6
CONTINUOUS
 62
     7
  5
30C
 10
0.234905
 20
1.157453
 30
0.0
 11
0.23483
 21
1.157446
 31
0.0
  0
LINE
  8
0
  6
CONTINUOUS
 62
     7
  5
30D
 10
0.23483
 20
1.157446
 30
0.0
 11
0.234747
 21
1.157437
 31
0.0
  0
LINE
  8
0
  6
CONTINUOUS
 62
     7
  5
30E
 10
0.234747
 20
1.157437
 30
0.0
 11
0.234655
 21
1.157429
 31
0.0
  0
LINE
  8
0
  6
CONTINUOUS
 62
     7
  5
30F
 10
0.234655
 20
1.157429
 30
0.0
 11
0.234553
 21
1.157419
 31
0.0
  0
LINE
  8
0
  6
CONTINUOUS
 62
     7
  5
310
 10
0.234553
 20
1.157419
 30
0.0
 11
0.234444
 21
1.157409
 31
0.0
  0
LINE
  8
0
  6
CONTINUOUS
 62
     7
  5
311
 10
0.234444
 20
1.157409
 30
0.0
 11
0.234326
 21
1.157398
 31
0.0
  0
LINE
  8
0
  6
CONTINUOUS
 62
     7
  5
312
 10
0.234326
 20
1.157398
 30
0.0
 11
0.2342
 21
1.157386
 31
0.0
  0
LINE
  8
0
  6
CONTINUOUS
 62
     7
  5
313
 10
0.2342
 20
1.157386
 30
0.0
 11
0.234066
 21
1.157375
 31
0.0
  0
LINE
  8
0
  6
CONTINUOUS
 62
     7
  5
314
 10
0.234066
 20
1.157375
 30
0.0
 11
0.233924
 21
1.157362
 31
0.0
  0
LINE
  8
0
  6
CONTINUOUS
 62
     7
  5
315
 10
0.233924
 20
1.157362
 30
0.0
 11
0.233776
 21
1.157349
 31
0.0
  0
LINE
  8
0
  6
CONTINUOUS
 62
     7
  5
316
 10
0.233776
 20
1.157349
 30
0.0
 11
0.23362
 21
1.157336
 31
0.0
  0
LINE
  8
0
  6
CONTINUOUS
 62
     7
  5
317
 10
0.23362
 20
1.157336
 30
0.0
 11
0.233458
 21
1.157323
 31
0.0
  0
LINE
  8
0
  6
CONTINUOUS
 62
     7
  5
318
 10
0.233458
 20
1.157323
 30
0.0
 11
0.233289
 21
1.157309
 31
0.0
  0
LINE
  8
0
  6
CONTINUOUS
 62
     7
  5
319
 10
0.233289
 20
1.157309
 30
0.0
 11
0.233115
 21
1.157296
 31
0.0
  0
LINE
  8
0
  6
CONTINUOUS
 62
     7
  5
31A
 10
0.233115
 20
1.157296
 30
0.0
 11
0.232936
 21
1.157282
 31
0.0
  0
LINE
  8
0
  6
CONTINUOUS
 62
     7
  5
31B
 10
0.232936
 20
1.157282
 30
0.0
 11
0.232752
 21
1.157268
 31
0.0
  0
LINE
  8
0
  6
CONTINUOUS
 62
     7
  5
31C
 10
0.232752
 20
1.157268
 30
0.0
 11
0.232564
 21
1.157255
 31
0.0
  0
LINE
  8
0
  6
CONTINUOUS
 62
     7
  5
31D
 10
0.232564
 20
1.157255
 30
0.0
 11
0.23237
 21
1.157241
 31
0.0
  0
LINE
  8
0
  6
CONTINUOUS
 62
     7
  5
31E
 10
0.23237
 20
1.157241
 30
0.0
 11
0.232168
 21
1.157227
 31
0.0
  0
LINE
  8
0
  6
CONTINUOUS
 62
     7
  5
31F
 10
0.232168
 20
1.157227
 30
0.0
 11
0.231959
 21
1.157214
 31
0.0
  0
LINE
  8
0
  6
CONTINUOUS
 62
     7
  5
320
 10
0.231959
 20
1.157214
 30
0.0
 11
0.231742
 21
1.1572
 31
0.0
  0
LINE
  8
0
  6
CONTINUOUS
 62
     7
  5
321
 10
0.231742
 20
1.1572
 30
0.0
 11
0.231519
 21
1.157186
 31
0.0
  0
LINE
  8
0
  6
CONTINUOUS
 62
     7
  5
322
 10
0.231519
 20
1.157186
 30
0.0
 11
0.23129
 21
1.157173
 31
0.0
  0
LINE
  8
0
  6
CONTINUOUS
 62
     7
  5
323
 10
0.23129
 20
1.157173
 30
0.0
 11
0.231054
 21
1.15716
 31
0.0
  0
LINE
  8
0
  6
CONTINUOUS
 62
     7
  5
324
 10
0.231054
 20
1.15716
 30
0.0
 11
0.230813
 21
1.157147
 31
0.0
  0
LINE
  8
0
  6
CONTINUOUS
 62
     7
  5
325
 10
0.230813
 20
1.157147
 30
0.0
 11
0.230566
 21
1.157135
 31
0.0
  0
LINE
  8
0
  6
CONTINUOUS
 62
     7
  5
326
 10
0.230566
 20
1.157135
 30
0.0
 11
0.230315
 21
1.157123
 31
0.0
  0
LINE
  8
0
  6
CONTINUOUS
 62
     7
  5
327
 10
0.230315
 20
1.144772
 30
0.0
 11
0.230322
 21
1.144597
 31
0.0
  0
LINE
  8
0
  6
CONTINUOUS
 62
     7
  5
328
 10
0.230322
 20
1.144597
 30
0.0
 11
0.230343
 21
1.144418
 31
0.0
  0
LINE
  8
0
  6
CONTINUOUS
 62
     7
  5
329
 10
0.230343
 20
1.144418
 30
0.0
 11
0.230379
 21
1.144237
 31
0.0
  0
LINE
  8
0
  6
CONTINUOUS
 62
     7
  5
32A
 10
0.230379
 20
1.144237
 30
0.0
 11
0.23043
 21
1.144053
 31
0.0
  0
LINE
  8
0
  6
CONTINUOUS
 62
     7
  5
32B
 10
0.23043
 20
1.144053
 30
0.0
 11
0.230496
 21
1.143869
 31
0.0
  0
LINE
  8
0
  6
CONTINUOUS
 62
     7
  5
32C
 10
0.230496
 20
1.143869
 30
0.0
 11
0.230577
 21
1.143684
 31
0.0
  0
LINE
  8
0
  6
CONTINUOUS
 62
     7
  5
32D
 10
0.230577
 20
1.143684
 30
0.0
 11
0.230673
 21
1.143499
 31
0.0
  0
LINE
  8
0
  6
CONTINUOUS
 62
     7
  5
32E
 10
0.230673
 20
1.143499
 30
0.0
 11
0.230785
 21
1.143315
 31
0.0
  0
LINE
  8
0
  6
CONTINUOUS
 62
     7
  5
32F
 10
0.230785
 20
1.143315
 30
0.0
 11
0.230911
 21
1.143134
 31
0.0
  0
LINE
  8
0
  6
CONTINUOUS
 62
     7
  5
330
 10
0.230911
 20
1.143134
 30
0.0
 11
0.231051
 21
1.142955
 31
0.0
  0
LINE
  8
0
  6
CONTINUOUS
 62
     7
  5
331
 10
0.231051
 20
1.142955
 30
0.0
 11
0.231206
 21
1.142779
 31
0.0
  0
LINE
  8
0
  6
CONTINUOUS
 62
     7
  5
332
 10
0.231206
 20
1.142779
 30
0.0
 11
0.231374
 21
1.142608
 31
0.0
  0
LINE
  8
0
  6
CONTINUOUS
 62
     7
  5
333
 10
0.231374
 20
1.142608
 30
0.0
 11
0.231554
 21
1.142441
 31
0.0
  0
LINE
  8
0
  6
CONTINUOUS
 62
     7
  5
334
 10
0.231554
 20
1.142441
 30
0.0
 11
0.231747
 21
1.142281
 31
0.0
  0
LINE
  8
0
  6
CONTINUOUS
 62
     7
  5
335
 10
0.231747
 20
1.142281
 30
0.0
 11
0.231951
 21
1.142126
 31
0.0
  0
LINE
  8
0
  6
CONTINUOUS
 62
     7
  5
336
 10
0.231951
 20
1.142126
 30
0.0
 11
0.232165
 21
1.14198
 31
0.0
  0
LINE
  8
0
  6
CONTINUOUS
 62
     7
  5
337
 10
0.232165
 20
1.14198
 30
0.0
 11
0.232391
 21
1.141838
 31
0.0
  0
LINE
  8
0
  6
CONTINUOUS
 62
     7
  5
338
 10
0.232391
 20
1.141838
 30
0.0
 11
0.232634
 21
1.141701
 31
0.0
  0
LINE
  8
0
  6
CONTINUOUS
 62
     7
  5
339
 10
0.232634
 20
1.141701
 30
0.0
 11
0.232893
 21
1.14157
 31
0.0
  0
LINE
  8
0
  6
CONTINUOUS
 62
     7
  5
33A
 10
0.232893
 20
1.14157
 30
0.0
 11
0.233167
 21
1.141445
 31
0.0
  0
LINE
  8
0
  6
CONTINUOUS
 62
     7
  5
33B
 10
0.233167
 20
1.141445
 30
0.0
 11
0.233454
 21
1.141329
 31
0.0
  0
LINE
  8
0
  6
CONTINUOUS
 62
     7
  5
33C
 10
0.233454
 20
1.141329
 30
0.0
 11
0.233754
 21
1.141223
 31
0.0
  0
LINE
  8
0
  6
CONTINUOUS
 62
     7
  5
33D
 10
0.233754
 20
1.141223
 30
0.0
 11
0.234065
 21
1.141129
 31
0.0
  0
LINE
  8
0
  6
CONTINUOUS
 62
     7
  5
33E
 10
0.234065
 20
1.141129
 30
0.0
 11
0.234385
 21
1.141046
 31
0.0
  0
LINE
  8
0
  6
CONTINUOUS
 62
     7
  5
33F
 10
0.234385
 20
1.141046
 30
0.0
 11
0.234713
 21
1.140976
 31
0.0
  0
LINE
  8
0
  6
CONTINUOUS
 62
     7
  5
340
 10
0.234713
 20
1.140976
 30
0.0
 11
0.235046
 21
1.14092
 31
0.0
  0
LINE
  8
0
  6
CONTINUOUS
 62
     7
  5
341
 10
0.235046
 20
1.14092
 30
0.0
 11
0.235382
 21
1.140877
 31
0.0
  0
LINE
  8
0
  6
CONTINUOUS
 62
     7
  5
342
 10
0.235382
 20
1.140877
 30
0.0
 11
0.235719
 21
1.14085
 31
0.0
  0
LINE
  8
0
  6
CONTINUOUS
 62
     7
  5
343
 10
0.235719
 20
1.14085
 30
0.0
 11
0.236055
 21
1.140836
 31
0.0
  0
LINE
  8
0
  6
CONTINUOUS
 62
     7
  5
344
 10
0.236055
 20
1.140836
 30
0.0
 11
0.236389
 21
1.140836
 31
0.0
  0
LINE
  8
0
  6
CONTINUOUS
 62
     7
  5
345
 10
0.236389
 20
1.140836
 30
0.0
 11
0.236724
 21
1.14085
 31
0.0
  0
LINE
  8
0
  6
CONTINUOUS
 62
     7
  5
346
 10
0.236724
 20
1.14085
 30
0.0
 11
0.23706
 21
1.140878
 31
0.0
  0
LINE
  8
0
  6
CONTINUOUS
 62
     7
  5
347
 10
0.23706
 20
1.140878
 30
0.0
 11
0.237395
 21
1.14092
 31
0.0
  0
LINE
  8
0
  6
CONTINUOUS
 62
     7
  5
348
 10
0.237395
 20
1.14092
 30
0.0
 11
0.237726
 21
1.140976
 31
0.0
  0
LINE
  8
0
  6
CONTINUOUS
 62
     7
  5
349
 10
0.237726
 20
1.140976
 30
0.0
 11
0.238052
 21
1.141045
 31
0.0
  0
LINE
  8
0
  6
CONTINUOUS
 62
     7
  5
34A
 10
0.231103
 20
1.15748
 30
0.0
 11
0.231099
 21
1.15748
 31
0.0
  0
LINE
  8
0
  6
CONTINUOUS
 62
     7
  5
34B
 10
0.231099
 20
1.15748
 30
0.0
 11
0.231085
 21
1.157479
 31
0.0
  0
LINE
  8
0
  6
CONTINUOUS
 62
     7
  5
34C
 10
0.231085
 20
1.157479
 30
0.0
 11
0.231062
 21
1.157478
 31
0.0
  0
LINE
  8
0
  6
CONTINUOUS
 62
     7
  5
34D
 10
0.231062
 20
1.157478
 30
0.0
 11
0.23103
 21
1.157476
 31
0.0
  0
LINE
  8
0
  6
CONTINUOUS
 62
     7
  5
34E
 10
0.23103
 20
1.157476
 30
0.0
 11
0.230988
 21
1.157474
 31
0.0
  0
LINE
  8
0
  6
CONTINUOUS
 62
     7
  5
34F
 10
0.230988
 20
1.157474
 30
0.0
 11
0.230936
 21
1.157471
 31
0.0
  0
LINE
  8
0
  6
CONTINUOUS
 62
     7
  5
350
 10
0.230936
 20
1.157471
 30
0.0
 11
0.230874
 21
1.157468
 31
0.0
  0
LINE
  8
0
  6
CONTINUOUS
 62
     7
  5
351
 10
0.230874
 20
1.157468
 30
0.0
 11
0.230803
 21
1.157465
 31
0.0
  0
LINE
  8
0
  6
CONTINUOUS
 62
     7
  5
352
 10
0.230803
 20
1.157465
 30
0.0
 11
0.230723
 21
1.15746
 31
0.0
  0
LINE
  8
0
  6
CONTINUOUS
 62
     7
  5
353
 10
0.230723
 20
1.15746
 30
0.0
 11
0.230633
 21
1.157456
 31
0.0
  0
LINE
  8
0
  6
CONTINUOUS
 62
     7
  5
354
 10
0.230633
 20
1.157456
 30
0.0
 11
0.230535
 21
1.157451
 31
0.0
  0
LINE
  8
0
  6
CONTINUOUS
 62
     7
  5
355
 10
0.230535
 20
1.157451
 30
0.0
 11
0.230429
 21
1.157446
 31
0.0
  0
LINE
  8
0
  6
CONTINUOUS
 62
     7
  5
356
 10
0.230429
 20
1.157446
 30
0.0
 11
0.230314
 21
1.157441
 31
0.0
  0
LINE
  8
0
  6
CONTINUOUS
 62
     7
  5
357
 10
0.230314
 20
1.157441
 30
0.0
 11
0.230193
 21
1.157436
 31
0.0
  0
LINE
  8
0
  6
CONTINUOUS
 62
     7
  5
358
 10
0.230193
 20
1.157436
 30
0.0
 11
0.230065
 21
1.15743
 31
0.0
  0
LINE
  8
0
  6
CONTINUOUS
 62
     7
  5
359
 10
0.230065
 20
1.15743
 30
0.0
 11
0.22993
 21
1.157425
 31
0.0
  0
LINE
  8
0
  6
CONTINUOUS
 62
     7
  5
35A
 10
0.22993
 20
1.157425
 30
0.0
 11
0.229791
 21
1.157419
 31
0.0
  0
LINE
  8
0
  6
CONTINUOUS
 62
     7
  5
35B
 10
0.229791
 20
1.157419
 30
0.0
 11
0.229647
 21
1.157413
 31
0.0
  0
LINE
  8
0
  6
CONTINUOUS
 62
     7
  5
35C
 10
0.229647
 20
1.157413
 30
0.0
 11
0.229495
 21
1.157408
 31
0.0
  0
LINE
  8
0
  6
CONTINUOUS
 62
     7
  5
35D
 10
0.229495
 20
1.157408
 30
0.0
 11
0.229335
 21
1.157402
 31
0.0
  0
LINE
  8
0
  6
CONTINUOUS
 62
     7
  5
35E
 10
0.229335
 20
1.157402
 30
0.0
 11
0.229167
 21
1.157397
 31
0.0
  0
LINE
  8
0
  6
CONTINUOUS
 62
     7
  5
35F
 10
0.229167
 20
1.157397
 30
0.0
 11
0.228993
 21
1.157391
 31
0.0
  0
LINE
  8
0
  6
CONTINUOUS
 62
     7
  5
360
 10
0.228993
 20
1.157391
 30
0.0
 11
0.228812
 21
1.157386
 31
0.0
  0
LINE
  8
0
  6
CONTINUOUS
 62
     7
  5
361
 10
0.228812
 20
1.157386
 30
0.0
 11
0.228625
 21
1.157381
 31
0.0
  0
LINE
  8
0
  6
CONTINUOUS
 62
     7
  5
362
 10
0.228625
 20
1.157381
 30
0.0
 11
0.228433
 21
1.157376
 31
0.0
  0
LINE
  8
0
  6
CONTINUOUS
 62
     7
  5
363
 10
0.228433
 20
1.157376
 30
0.0
 11
0.228237
 21
1.157372
 31
0.0
  0
LINE
  8
0
  6
CONTINUOUS
 62
     7
  5
364
 10
0.228237
 20
1.157372
 30
0.0
 11
0.228036
 21
1.157368
 31
0.0
  0
LINE
  8
0
  6
CONTINUOUS
 62
     7
  5
365
 10
0.228036
 20
1.157368
 30
0.0
 11
0.227833
 21
1.157364
 31
0.0
  0
LINE
  8
0
  6
CONTINUOUS
 62
     7
  5
366
 10
0.227833
 20
1.157364
 30
0.0
 11
0.227626
 21
1.157361
 31
0.0
  0
LINE
  8
0
  6
CONTINUOUS
 62
     7
  5
367
 10
0.227626
 20
1.157361
 30
0.0
 11
0.227418
 21
1.157358
 31
0.0
  0
LINE
  8
0
  6
CONTINUOUS
 62
     7
  5
368
 10
0.227418
 20
1.157358
 30
0.0
 11
0.227208
 21
1.157356
 31
0.0
  0
LINE
  8
0
  6
CONTINUOUS
 62
     7
  5
369
 10
0.227208
 20
1.157356
 30
0.0
 11
0.226999
 21
1.157354
 31
0.0
  0
LINE
  8
0
  6
CONTINUOUS
 62
     7
  5
36A
 10
0.226999
 20
1.157354
 30
0.0
 11
0.22679
 21
1.157353
 31
0.0
  0
LINE
  8
0
  6
CONTINUOUS
 62
     7
  5
36B
 10
0.22679
 20
1.157353
 30
0.0
 11
0.226583
 21
1.157352
 31
0.0
  0
LINE
  8
0
  6
CONTINUOUS
 62
     7
  5
36C
 10
0.226583
 20
1.157352
 30
0.0
 11
0.226378
 21
1.157352
 31
0.0
  0
LINE
  8
0
  6
CONTINUOUS
 62
     7
  5
36D
 10
0.226378
 20
1.157352
 30
0.0
 11
0.226583
 21
1.157352
 31
0.0
  0
LINE
  8
0
  6
CONTINUOUS
 62
     7
  5
36E
 10
0.226583
 20
1.157352
 30
0.0
 11
0.22679
 21
1.157353
 31
0.0
  0
LINE
  8
0
  6
CONTINUOUS
 62
     7
  5
36F
 10
0.22679
 20
1.157353
 30
0.0
 11
0.226999
 21
1.157354
 31
0.0
  0
LINE
  8
0
  6
CONTINUOUS
 62
     7
  5
370
 10
0.226999
 20
1.157354
 30
0.0
 11
0.227208
 21
1.157356
 31
0.0
  0
LINE
  8
0
  6
CONTINUOUS
 62
     7
  5
371
 10
0.227208
 20
1.157356
 30
0.0
 11
0.227418
 21
1.157358
 31
0.0
  0
LINE
  8
0
  6
CONTINUOUS
 62
     7
  5
372
 10
0.227418
 20
1.157358
 30
0.0
 11
0.227626
 21
1.157361
 31
0.0
  0
LINE
  8
0
  6
CONTINUOUS
 62
     7
  5
373
 10
0.227626
 20
1.157361
 30
0.0
 11
0.227833
 21
1.157364
 31
0.0
  0
LINE
  8
0
  6
CONTINUOUS
 62
     7
  5
374
 10
0.227833
 20
1.157364
 30
0.0
 11
0.228036
 21
1.157368
 31
0.0
  0
LINE
  8
0
  6
CONTINUOUS
 62
     7
  5
375
 10
0.228036
 20
1.157368
 30
0.0
 11
0.228237
 21
1.157372
 31
0.0
  0
LINE
  8
0
  6
CONTINUOUS
 62
     7
  5
376
 10
0.228237
 20
1.157372
 30
0.0
 11
0.228433
 21
1.157376
 31
0.0
  0
LINE
  8
0
  6
CONTINUOUS
 62
     7
  5
377
 10
0.228433
 20
1.157376
 30
0.0
 11
0.228625
 21
1.157381
 31
0.0
  0
LINE
  8
0
  6
CONTINUOUS
 62
     7
  5
378
 10
0.228625
 20
1.157381
 30
0.0
 11
0.228812
 21
1.157386
 31
0.0
  0
LINE
  8
0
  6
CONTINUOUS
 62
     7
  5
379
 10
0.228812
 20
1.157386
 30
0.0
 11
0.228993
 21
1.157391
 31
0.0
  0
LINE
  8
0
  6
CONTINUOUS
 62
     7
  5
37A
 10
0.228993
 20
1.157391
 30
0.0
 11
0.229167
 21
1.157397
 31
0.0
  0
LINE
  8
0
  6
CONTINUOUS
 62
     7
  5
37B
 10
0.229167
 20
1.157397
 30
0.0
 11
0.229335
 21
1.157402
 31
0.0
  0
LINE
  8
0
  6
CONTINUOUS
 62
     7
  5
37C
 10
0.229335
 20
1.157402
 30
0.0
 11
0.229495
 21
1.157408
 31
0.0
  0
LINE
  8
0
  6
CONTINUOUS
 62
     7
  5
37D
 10
0.229495
 20
1.157408
 30
0.0
 11
0.229647
 21
1.157413
 31
0.0
  0
LINE
  8
0
  6
CONTINUOUS
 62
     7
  5
37E
 10
0.229647
 20
1.157413
 30
0.0
 11
0.229791
 21
1.157419
 31
0.0
  0
LINE
  8
0
  6
CONTINUOUS
 62
     7
  5
37F
 10
0.229791
 20
1.157419
 30
0.0
 11
0.22993
 21
1.157425
 31
0.0
  0
LINE
  8
0
  6
CONTINUOUS
 62
     7
  5
380
 10
0.22993
 20
1.157425
 30
0.0
 11
0.230065
 21
1.15743
 31
0.0
  0
LINE
  8
0
  6
CONTINUOUS
 62
     7
  5
381
 10
0.230065
 20
1.15743
 30
0.0
 11
0.230193
 21
1.157436
 31
0.0
  0
LINE
  8
0
  6
CONTINUOUS
 62
     7
  5
382
 10
0.230193
 20
1.157436
 30
0.0
 11
0.230314
 21
1.157441
 31
0.0
  0
LINE
  8
0
  6
CONTINUOUS
 62
     7
  5
383
 10
0.230314
 20
1.157441
 30
0.0
 11
0.230429
 21
1.157446
 31
0.0
  0
LINE
  8
0
  6
CONTINUOUS
 62
     7
  5
384
 10
0.230429
 20
1.157446
 30
0.0
 11
0.230535
 21
1.157451
 31
0.0
  0
LINE
  8
0
  6
CONTINUOUS
 62
     7
  5
385
 10
0.230535
 20
1.157451
 30
0.0
 11
0.230633
 21
1.157456
 31
0.0
  0
LINE
  8
0
  6
CONTINUOUS
 62
     7
  5
386
 10
0.230633
 20
1.157456
 30
0.0
 11
0.230723
 21
1.15746
 31
0.0
  0
LINE
  8
0
  6
CONTINUOUS
 62
     7
  5
387
 10
0.230723
 20
1.15746
 30
0.0
 11
0.230803
 21
1.157465
 31
0.0
  0
LINE
  8
0
  6
CONTINUOUS
 62
     7
  5
388
 10
0.230803
 20
1.157465
 30
0.0
 11
0.230874
 21
1.157468
 31
0.0
  0
LINE
  8
0
  6
CONTINUOUS
 62
     7
  5
389
 10
0.230874
 20
1.157468
 30
0.0
 11
0.230936
 21
1.157471
 31
0.0
  0
LINE
  8
0
  6
CONTINUOUS
 62
     7
  5
38A
 10
0.230936
 20
1.157471
 30
0.0
 11
0.230988
 21
1.157474
 31
0.0
  0
LINE
  8
0
  6
CONTINUOUS
 62
     7
  5
38B
 10
0.230988
 20
1.157474
 30
0.0
 11
0.23103
 21
1.157476
 31
0.0
  0
LINE
  8
0
  6
CONTINUOUS
 62
     7
  5
38C
 10
0.23103
 20
1.157476
 30
0.0
 11
0.231062
 21
1.157478
 31
0.0
  0
LINE
  8
0
  6
CONTINUOUS
 62
     7
  5
38D
 10
0.231062
 20
1.157478
 30
0.0
 11
0.231085
 21
1.157479
 31
0.0
  0
LINE
  8
0
  6
CONTINUOUS
 62
     7
  5
38E
 10
0.231085
 20
1.157479
 30
0.0
 11
0.231099
 21
1.15748
 31
0.0
  0
LINE
  8
0
  6
CONTINUOUS
 62
     7
  5
38F
 10
0.231099
 20
1.15748
 30
0.0
 11
0.231103
 21
1.15748
 31
0.0
  0
LINE
  8
0
  6
CONTINUOUS
 62
     7
  5
390
 10
0.23832
 20
1.137981
 30
0.0
 11
0.237789
 21
1.137899
 31
0.0
  0
LINE
  8
0
  6
CONTINUOUS
 62
     7
  5
391
 10
0.237789
 20
1.137899
 30
0.0
 11
0.237255
 21
1.137841
 31
0.0
  0
LINE
  8
0
  6
CONTINUOUS
 62
     7
  5
392
 10
0.237255
 20
1.137841
 30
0.0
 11
0.236719
 21
1.137807
 31
0.0
  0
LINE
  8
0
  6
CONTINUOUS
 62
     7
  5
393
 10
0.236719
 20
1.137807
 30
0.0
 11
0.236186
 21
1.137796
 31
0.0
  0
LINE
  8
0
  6
CONTINUOUS
 62
     7
  5
394
 10
0.236186
 20
1.137796
 30
0.0
 11
0.235652
 21
1.13781
 31
0.0
  0
LINE
  8
0
  6
CONTINUOUS
 62
     7
  5
395
 10
0.235652
 20
1.13781
 30
0.0
 11
0.235115
 21
1.137847
 31
0.0
  0
LINE
  8
0
  6
CONTINUOUS
 62
     7
  5
396
 10
0.235115
 20
1.137847
 30
0.0
 11
0.234578
 21
1.137909
 31
0.0
  0
LINE
  8
0
  6
CONTINUOUS
 62
     7
  5
397
 10
0.234578
 20
1.137909
 30
0.0
 11
0.234045
 21
1.137995
 31
0.0
  0
LINE
  8
0
  6
CONTINUOUS
 62
     7
  5
398
 10
0.234045
 20
1.137995
 30
0.0
 11
0.233519
 21
1.138104
 31
0.0
  0
LINE
  8
0
  6
CONTINUOUS
 62
     7
  5
399
 10
0.233519
 20
1.138104
 30
0.0
 11
0.233003
 21
1.138236
 31
0.0
  0
LINE
  8
0
  6
CONTINUOUS
 62
     7
  5
39A
 10
0.233003
 20
1.138236
 30
0.0
 11
0.2325
 21
1.138388
 31
0.0
  0
LINE
  8
0
  6
CONTINUOUS
 62
     7
  5
39B
 10
0.2325
 20
1.138388
 30
0.0
 11
0.232011
 21
1.138559
 31
0.0
  0
LINE
  8
0
  6
CONTINUOUS
 62
     7
  5
39C
 10
0.232011
 20
1.138559
 30
0.0
 11
0.23154
 21
1.138748
 31
0.0
  0
LINE
  8
0
  6
CONTINUOUS
 62
     7
  5
39D
 10
0.23154
 20
1.138748
 30
0.0
 11
0.231089
 21
1.138953
 31
0.0
  0
LINE
  8
0
  6
CONTINUOUS
 62
     7
  5
39E
 10
0.231089
 20
1.138953
 30
0.0
 11
0.230658
 21
1.13917
 31
0.0
  0
LINE
  8
0
  6
CONTINUOUS
 62
     7
  5
39F
 10
0.230658
 20
1.13917
 30
0.0
 11
0.230251
 21
1.139399
 31
0.0
  0
LINE
  8
0
  6
CONTINUOUS
 62
     7
  5
3A0
 10
0.230251
 20
1.139399
 30
0.0
 11
0.229867
 21
1.139635
 31
0.0
  0
LINE
  8
0
  6
CONTINUOUS
 62
     7
  5
3A1
 10
0.229867
 20
1.139635
 30
0.0
 11
0.22951
 21
1.139876
 31
0.0
  0
LINE
  8
0
  6
CONTINUOUS
 62
     7
  5
3A2
 10
0.22951
 20
1.139876
 30
0.0
 11
0.229171
 21
1.140125
 31
0.0
  0
LINE
  8
0
  6
CONTINUOUS
 62
     7
  5
3A3
 10
0.229171
 20
1.140125
 30
0.0
 11
0.228846
 21
1.140385
 31
0.0
  0
LINE
  8
0
  6
CONTINUOUS
 62
     7
  5
3A4
 10
0.228846
 20
1.140385
 30
0.0
 11
0.228538
 21
1.140655
 31
0.0
  0
LINE
  8
0
  6
CONTINUOUS
 62
     7
  5
3A5
 10
0.228538
 20
1.140655
 30
0.0
 11
0.228248
 21
1.140933
 31
0.0
  0
LINE
  8
0
  6
CONTINUOUS
 62
     7
  5
3A6
 10
0.228248
 20
1.140933
 30
0.0
 11
0.227975
 21
1.141219
 31
0.0
  0
LINE
  8
0
  6
CONTINUOUS
 62
     7
  5
3A7
 10
0.227975
 20
1.141219
 30
0.0
 11
0.227722
 21
1.14151
 31
0.0
  0
LINE
  8
0
  6
CONTINUOUS
 62
     7
  5
3A8
 10
0.227722
 20
1.14151
 30
0.0
 11
0.22749
 21
1.141806
 31
0.0
  0
LINE
  8
0
  6
CONTINUOUS
 62
     7
  5
3A9
 10
0.22749
 20
1.141806
 30
0.0
 11
0.227278
 21
1.142106
 31
0.0
  0
LINE
  8
0
  6
CONTINUOUS
 62
     7
  5
3AA
 10
0.227278
 20
1.142106
 30
0.0
 11
0.227088
 21
1.142408
 31
0.0
  0
LINE
  8
0
  6
CONTINUOUS
 62
     7
  5
3AB
 10
0.227088
 20
1.142408
 30
0.0
 11
0.226921
 21
1.142711
 31
0.0
  0
LINE
  8
0
  6
CONTINUOUS
 62
     7
  5
3AC
 10
0.226921
 20
1.142711
 30
0.0
 11
0.226775
 21
1.143014
 31
0.0
  0
LINE
  8
0
  6
CONTINUOUS
 62
     7
  5
3AD
 10
0.226775
 20
1.143014
 30
0.0
 11
0.226652
 21
1.143317
 31
0.0
  0
LINE
  8
0
  6
CONTINUOUS
 62
     7
  5
3AE
 10
0.226652
 20
1.143317
 30
0.0
 11
0.226553
 21
1.143617
 31
0.0
  0
LINE
  8
0
  6
CONTINUOUS
 62
     7
  5
3AF
 10
0.226553
 20
1.143617
 30
0.0
 11
0.226475
 21
1.143914
 31
0.0
  0
LINE
  8
0
  6
CONTINUOUS
 62
     7
  5
3B0
 10
0.226475
 20
1.143914
 30
0.0
 11
0.226421
 21
1.144206
 31
0.0
  0
LINE
  8
0
  6
CONTINUOUS
 62
     7
  5
3B1
 10
0.226421
 20
1.144206
 30
0.0
 11
0.226389
 21
1.144492
 31
0.0
  0
LINE
  8
0
  6
CONTINUOUS
 62
     7
  5
3B2
 10
0.226389
 20
1.144492
 30
0.0
 11
0.226378
 21
1.144772
 31
0.0
  0
LINE
  8
0
  6
CONTINUOUS
 62
     7
  5
3B3
 10
-0.238052
 20
1.141045
 30
0.0
 11
-0.240992
 21
1.107438
 31
0.0
  0
LINE
  8
0
  6
CONTINUOUS
 62
     7
  5
3B4
 10
-0.23832
 20
1.137981
 30
0.0
 11
-0.246063
 21
1.04948
 31
0.0
  0
LINE
  8
0
  6
CONTINUOUS
 62
     7
  5
3B5
 10
-0.238052
 20
1.141045
 30
0.0
 11
-0.23832
 21
1.137981
 31
0.0
  0
LINE
  8
0
  6
CONTINUOUS
 62
     7
  5
3B6
 10
-0.226378
 20
1.088583
 30
0.0
 11
-0.226378
 21
1.03937
 31
0.0
  0
LINE
  8
0
  6
CONTINUOUS
 62
     7
  5
3B7
 10
-0.226378
 20
1.111727
 30
0.0
 11
-0.226378
 21
1.088583
 31
0.0
  0
LINE
  8
0
  6
CONTINUOUS
 62
     7
  5
3B8
 10
-0.226378
 20
1.157352
 30
0.0
 11
-0.226378
 21
1.144772
 31
0.0
  0
LINE
  8
0
  6
CONTINUOUS
 62
     7
  5
3B9
 10
-0.226378
 20
0.84252
 30
0.0
 11
-0.226378
 21
1.144772
 31
0.0
  0
LINE
  8
0
  6
CONTINUOUS
 62
     7
  5
3BA
 10
-0.226378
 20
1.03937
 30
0.0
 11
-0.226378
 21
1.016225
 31
0.0
  0
LINE
  8
0
  6
CONTINUOUS
 62
     7
  5
3BB
 10
-0.226378
 20
1.111727
 30
0.0
 11
-0.226378
 21
1.157352
 31
0.0
  0
LINE
  8
0
  6
CONTINUOUS
 62
     7
  5
3BC
 10
-0.246063
 20
0.84252
 30
0.0
 11
-0.246063
 21
1.04948
 31
0.0
  0
LINE
  8
0
  6
CONTINUOUS
 62
     7
  5
3BD
 10
-0.230315
 20
1.144772
 30
0.0
 11
-0.230315
 21
1.157123
 31
0.0
  0
LINE
  8
0
  6
CONTINUOUS
 62
     7
  5
3BE
 10
-0.246063
 20
0.84252
 30
0.0
 11
-0.246063
 21
1.04948
 31
0.0
  0
LINE
  8
0
  6
CONTINUOUS
 62
     7
  5
3BF
 10
-0.230315
 20
1.157123
 30
0.0
 11
-0.230566
 21
1.157135
 31
0.0
  0
LINE
  8
0
  6
CONTINUOUS
 62
     7
  5
3C0
 10
-0.230566
 20
1.157135
 30
0.0
 11
-0.230813
 21
1.157147
 31
0.0
  0
LINE
  8
0
  6
CONTINUOUS
 62
     7
  5
3C1
 10
-0.230813
 20
1.157147
 30
0.0
 11
-0.231054
 21
1.15716
 31
0.0
  0
LINE
  8
0
  6
CONTINUOUS
 62
     7
  5
3C2
 10
-0.231054
 20
1.15716
 30
0.0
 11
-0.23129
 21
1.157173
 31
0.0
  0
LINE
  8
0
  6
CONTINUOUS
 62
     7
  5
3C3
 10
-0.23129
 20
1.157173
 30
0.0
 11
-0.231519
 21
1.157186
 31
0.0
  0
LINE
  8
0
  6
CONTINUOUS
 62
     7
  5
3C4
 10
-0.231519
 20
1.157186
 30
0.0
 11
-0.231742
 21
1.1572
 31
0.0
  0
LINE
  8
0
  6
CONTINUOUS
 62
     7
  5
3C5
 10
-0.231742
 20
1.1572
 30
0.0
 11
-0.231959
 21
1.157214
 31
0.0
  0
LINE
  8
0
  6
CONTINUOUS
 62
     7
  5
3C6
 10
-0.231959
 20
1.157214
 30
0.0
 11
-0.232168
 21
1.157227
 31
0.0
  0
LINE
  8
0
  6
CONTINUOUS
 62
     7
  5
3C7
 10
-0.232168
 20
1.157227
 30
0.0
 11
-0.23237
 21
1.157241
 31
0.0
  0
LINE
  8
0
  6
CONTINUOUS
 62
     7
  5
3C8
 10
-0.23237
 20
1.157241
 30
0.0
 11
-0.232564
 21
1.157255
 31
0.0
  0
LINE
  8
0
  6
CONTINUOUS
 62
     7
  5
3C9
 10
-0.232564
 20
1.157255
 30
0.0
 11
-0.232752
 21
1.157268
 31
0.0
  0
LINE
  8
0
  6
CONTINUOUS
 62
     7
  5
3CA
 10
-0.232752
 20
1.157268
 30
0.0
 11
-0.232936
 21
1.157282
 31
0.0
  0
LINE
  8
0
  6
CONTINUOUS
 62
     7
  5
3CB
 10
-0.232936
 20
1.157282
 30
0.0
 11
-0.233115
 21
1.157296
 31
0.0
  0
LINE
  8
0
  6
CONTINUOUS
 62
     7
  5
3CC
 10
-0.233115
 20
1.157296
 30
0.0
 11
-0.233289
 21
1.157309
 31
0.0
  0
LINE
  8
0
  6
CONTINUOUS
 62
     7
  5
3CD
 10
-0.233289
 20
1.157309
 30
0.0
 11
-0.233458
 21
1.157323
 31
0.0
  0
LINE
  8
0
  6
CONTINUOUS
 62
     7
  5
3CE
 10
-0.233458
 20
1.157323
 30
0.0
 11
-0.23362
 21
1.157336
 31
0.0
  0
LINE
  8
0
  6
CONTINUOUS
 62
     7
  5
3CF
 10
-0.23362
 20
1.157336
 30
0.0
 11
-0.233776
 21
1.157349
 31
0.0
  0
LINE
  8
0
  6
CONTINUOUS
 62
     7
  5
3D0
 10
-0.233776
 20
1.157349
 30
0.0
 11
-0.233924
 21
1.157362
 31
0.0
  0
LINE
  8
0
  6
CONTINUOUS
 62
     7
  5
3D1
 10
-0.233924
 20
1.157362
 30
0.0
 11
-0.234066
 21
1.157375
 31
0.0
  0
LINE
  8
0
  6
CONTINUOUS
 62
     7
  5
3D2
 10
-0.234066
 20
1.157375
 30
0.0
 11
-0.2342
 21
1.157386
 31
0.0
  0
LINE
  8
0
  6
CONTINUOUS
 62
     7
  5
3D3
 10
-0.2342
 20
1.157386
 30
0.0
 11
-0.234326
 21
1.157398
 31
0.0
  0
LINE
  8
0
  6
CONTINUOUS
 62
     7
  5
3D4
 10
-0.234326
 20
1.157398
 30
0.0
 11
-0.234444
 21
1.157409
 31
0.0
  0
LINE
  8
0
  6
CONTINUOUS
 62
     7
  5
3D5
 10
-0.234444
 20
1.157409
 30
0.0
 11
-0.234553
 21
1.157419
 31
0.0
  0
LINE
  8
0
  6
CONTINUOUS
 62
     7
  5
3D6
 10
-0.234553
 20
1.157419
 30
0.0
 11
-0.234655
 21
1.157429
 31
0.0
  0
LINE
  8
0
  6
CONTINUOUS
 62
     7
  5
3D7
 10
-0.234655
 20
1.157429
 30
0.0
 11
-0.234747
 21
1.157437
 31
0.0
  0
LINE
  8
0
  6
CONTINUOUS
 62
     7
  5
3D8
 10
-0.234747
 20
1.157437
 30
0.0
 11
-0.23483
 21
1.157446
 31
0.0
  0
LINE
  8
0
  6
CONTINUOUS
 62
     7
  5
3D9
 10
-0.23483
 20
1.157446
 30
0.0
 11
-0.234905
 21
1.157453
 31
0.0
  0
LINE
  8
0
  6
CONTINUOUS
 62
     7
  5
3DA
 10
-0.234905
 20
1.157453
 30
0.0
 11
-0.234971
 21
1.157459
 31
0.0
  0
LINE
  8
0
  6
CONTINUOUS
 62
     7
  5
3DB
 10
-0.234971
 20
1.157459
 30
0.0
 11
-0.235028
 21
1.157465
 31
0.0
  0
LINE
  8
0
  6
CONTINUOUS
 62
     7
  5
3DC
 10
-0.235028
 20
1.157465
 30
0.0
 11
-0.235075
 21
1.15747
 31
0.0
  0
LINE
  8
0
  6
CONTINUOUS
 62
     7
  5
3DD
 10
-0.235075
 20
1.15747
 30
0.0
 11
-0.235114
 21
1.157474
 31
0.0
  0
LINE
  8
0
  6
CONTINUOUS
 62
     7
  5
3DE
 10
-0.235114
 20
1.157474
 30
0.0
 11
-0.235144
 21
1.157477
 31
0.0
  0
LINE
  8
0
  6
CONTINUOUS
 62
     7
  5
3DF
 10
-0.235144
 20
1.157477
 30
0.0
 11
-0.235165
 21
1.157479
 31
0.0
  0
LINE
  8
0
  6
CONTINUOUS
 62
     7
  5
3E0
 10
-0.235165
 20
1.157479
 30
0.0
 11
-0.235177
 21
1.15748
 31
0.0
  0
LINE
  8
0
  6
CONTINUOUS
 62
     7
  5
3E1
 10
-0.235177
 20
1.15748
 30
0.0
 11
-0.235181
 21
1.15748
 31
0.0
  0
LINE
  8
0
  6
CONTINUOUS
 62
     7
  5
3E2
 10
-0.238052
 20
1.141045
 30
0.0
 11
-0.237726
 21
1.140976
 31
0.0
  0
LINE
  8
0
  6
CONTINUOUS
 62
     7
  5
3E3
 10
-0.237726
 20
1.140976
 30
0.0
 11
-0.237395
 21
1.14092
 31
0.0
  0
LINE
  8
0
  6
CONTINUOUS
 62
     7
  5
3E4
 10
-0.237395
 20
1.14092
 30
0.0
 11
-0.23706
 21
1.140878
 31
0.0
  0
LINE
  8
0
  6
CONTINUOUS
 62
     7
  5
3E5
 10
-0.23706
 20
1.140878
 30
0.0
 11
-0.236724
 21
1.14085
 31
0.0
  0
LINE
  8
0
  6
CONTINUOUS
 62
     7
  5
3E6
 10
-0.236724
 20
1.14085
 30
0.0
 11
-0.236388
 21
1.140836
 31
0.0
  0
LINE
  8
0
  6
CONTINUOUS
 62
     7
  5
3E7
 10
-0.236388
 20
1.140836
 30
0.0
 11
-0.236055
 21
1.140836
 31
0.0
  0
LINE
  8
0
  6
CONTINUOUS
 62
     7
  5
3E8
 10
-0.236055
 20
1.140836
 30
0.0
 11
-0.235719
 21
1.14085
 31
0.0
  0
LINE
  8
0
  6
CONTINUOUS
 62
     7
  5
3E9
 10
-0.235719
 20
1.14085
 30
0.0
 11
-0.235382
 21
1.140878
 31
0.0
  0
LINE
  8
0
  6
CONTINUOUS
 62
     7
  5
3EA
 10
-0.235382
 20
1.140878
 30
0.0
 11
-0.235045
 21
1.14092
 31
0.0
  0
LINE
  8
0
  6
CONTINUOUS
 62
     7
  5
3EB
 10
-0.235045
 20
1.14092
 30
0.0
 11
-0.234712
 21
1.140976
 31
0.0
  0
LINE
  8
0
  6
CONTINUOUS
 62
     7
  5
3EC
 10
-0.234712
 20
1.140976
 30
0.0
 11
-0.234385
 21
1.141046
 31
0.0
  0
LINE
  8
0
  6
CONTINUOUS
 62
     7
  5
3ED
 10
-0.234385
 20
1.141046
 30
0.0
 11
-0.234065
 21
1.141129
 31
0.0
  0
LINE
  8
0
  6
CONTINUOUS
 62
     7
  5
3EE
 10
-0.234065
 20
1.141129
 30
0.0
 11
-0.233754
 21
1.141224
 31
0.0
  0
LINE
  8
0
  6
CONTINUOUS
 62
     7
  5
3EF
 10
-0.233754
 20
1.141224
 30
0.0
 11
-0.233454
 21
1.141329
 31
0.0
  0
LINE
  8
0
  6
CONTINUOUS
 62
     7
  5
3F0
 10
-0.233454
 20
1.141329
 30
0.0
 11
-0.233166
 21
1.141445
 31
0.0
  0
LINE
  8
0
  6
CONTINUOUS
 62
     7
  5
3F1
 10
-0.233166
 20
1.141445
 30
0.0
 11
-0.232892
 21
1.14157
 31
0.0
  0
LINE
  8
0
  6
CONTINUOUS
 62
     7
  5
3F2
 10
-0.232892
 20
1.14157
 30
0.0
 11
-0.232633
 21
1.141702
 31
0.0
  0
LINE
  8
0
  6
CONTINUOUS
 62
     7
  5
3F3
 10
-0.232633
 20
1.141702
 30
0.0
 11
-0.23239
 21
1.141839
 31
0.0
  0
LINE
  8
0
  6
CONTINUOUS
 62
     7
  5
3F4
 10
-0.23239
 20
1.141839
 30
0.0
 11
-0.232164
 21
1.14198
 31
0.0
  0
LINE
  8
0
  6
CONTINUOUS
 62
     7
  5
3F5
 10
-0.232164
 20
1.14198
 30
0.0
 11
-0.23195
 21
1.142127
 31
0.0
  0
LINE
  8
0
  6
CONTINUOUS
 62
     7
  5
3F6
 10
-0.23195
 20
1.142127
 30
0.0
 11
-0.231747
 21
1.142281
 31
0.0
  0
LINE
  8
0
  6
CONTINUOUS
 62
     7
  5
3F7
 10
-0.231747
 20
1.142281
 30
0.0
 11
-0.231554
 21
1.142442
 31
0.0
  0
LINE
  8
0
  6
CONTINUOUS
 62
     7
  5
3F8
 10
-0.231554
 20
1.142442
 30
0.0
 11
-0.231373
 21
1.142608
 31
0.0
  0
LINE
  8
0
  6
CONTINUOUS
 62
     7
  5
3F9
 10
-0.231373
 20
1.142608
 30
0.0
 11
-0.231205
 21
1.142779
 31
0.0
  0
LINE
  8
0
  6
CONTINUOUS
 62
     7
  5
3FA
 10
-0.231205
 20
1.142779
 30
0.0
 11
-0.231051
 21
1.142955
 31
0.0
  0
LINE
  8
0
  6
CONTINUOUS
 62
     7
  5
3FB
 10
-0.231051
 20
1.142955
 30
0.0
 11
-0.23091
 21
1.143134
 31
0.0
  0
LINE
  8
0
  6
CONTINUOUS
 62
     7
  5
3FC
 10
-0.23091
 20
1.143134
 30
0.0
 11
-0.230784
 21
1.143316
 31
0.0
  0
LINE
  8
0
  6
CONTINUOUS
 62
     7
  5
3FD
 10
-0.230784
 20
1.143316
 30
0.0
 11
-0.230673
 21
1.143499
 31
0.0
  0
LINE
  8
0
  6
CONTINUOUS
 62
     7
  5
3FE
 10
-0.230673
 20
1.143499
 30
0.0
 11
-0.230577
 21
1.143684
 31
0.0
  0
LINE
  8
0
  6
CONTINUOUS
 62
     7
  5
3FF
 10
-0.230577
 20
1.143684
 30
0.0
 11
-0.230495
 21
1.143869
 31
0.0
  0
LINE
  8
0
  6
CONTINUOUS
 62
     7
  5
400
 10
-0.230495
 20
1.143869
 30
0.0
 11
-0.230429
 21
1.144054
 31
0.0
  0
LINE
  8
0
  6
CONTINUOUS
 62
     7
  5
401
 10
-0.230429
 20
1.144054
 30
0.0
 11
-0.230379
 21
1.144238
 31
0.0
  0
LINE
  8
0
  6
CONTINUOUS
 62
     7
  5
402
 10
-0.230379
 20
1.144238
 30
0.0
 11
-0.230343
 21
1.144419
 31
0.0
  0
LINE
  8
0
  6
CONTINUOUS
 62
     7
  5
403
 10
-0.230343
 20
1.144419
 30
0.0
 11
-0.230322
 21
1.144597
 31
0.0
  0
LINE
  8
0
  6
CONTINUOUS
 62
     7
  5
404
 10
-0.230322
 20
1.144597
 30
0.0
 11
-0.230315
 21
1.144772
 31
0.0
  0
LINE
  8
0
  6
CONTINUOUS
 62
     7
  5
405
 10
-0.226378
 20
1.144772
 30
0.0
 11
-0.226389
 21
1.144492
 31
0.0
  0
LINE
  8
0
  6
CONTINUOUS
 62
     7
  5
406
 10
-0.226389
 20
1.144492
 30
0.0
 11
-0.226421
 21
1.144206
 31
0.0
  0
LINE
  8
0
  6
CONTINUOUS
 62
     7
  5
407
 10
-0.226421
 20
1.144206
 30
0.0
 11
-0.226475
 21
1.143914
 31
0.0
  0
LINE
  8
0
  6
CONTINUOUS
 62
     7
  5
408
 10
-0.226475
 20
1.143914
 30
0.0
 11
-0.226553
 21
1.143617
 31
0.0
  0
LINE
  8
0
  6
CONTINUOUS
 62
     7
  5
409
 10
-0.226553
 20
1.143617
 30
0.0
 11
-0.226652
 21
1.143317
 31
0.0
  0
LINE
  8
0
  6
CONTINUOUS
 62
     7
  5
40A
 10
-0.226652
 20
1.143317
 30
0.0
 11
-0.226775
 21
1.143014
 31
0.0
  0
LINE
  8
0
  6
CONTINUOUS
 62
     7
  5
40B
 10
-0.226775
 20
1.143014
 30
0.0
 11
-0.226921
 21
1.142711
 31
0.0
  0
LINE
  8
0
  6
CONTINUOUS
 62
     7
  5
40C
 10
-0.226921
 20
1.142711
 30
0.0
 11
-0.227088
 21
1.142408
 31
0.0
  0
LINE
  8
0
  6
CONTINUOUS
 62
     7
  5
40D
 10
-0.227088
 20
1.142408
 30
0.0
 11
-0.227278
 21
1.142106
 31
0.0
  0
LINE
  8
0
  6
CONTINUOUS
 62
     7
  5
40E
 10
-0.227278
 20
1.142106
 30
0.0
 11
-0.22749
 21
1.141806
 31
0.0
  0
LINE
  8
0
  6
CONTINUOUS
 62
     7
  5
40F
 10
-0.22749
 20
1.141806
 30
0.0
 11
-0.227722
 21
1.14151
 31
0.0
  0
LINE
  8
0
  6
CONTINUOUS
 62
     7
  5
410
 10
-0.227722
 20
1.14151
 30
0.0
 11
-0.227975
 21
1.141219
 31
0.0
  0
LINE
  8
0
  6
CONTINUOUS
 62
     7
  5
411
 10
-0.227975
 20
1.141219
 30
0.0
 11
-0.228248
 21
1.140933
 31
0.0
  0
LINE
  8
0
  6
CONTINUOUS
 62
     7
  5
412
 10
-0.228248
 20
1.140933
 30
0.0
 11
-0.228538
 21
1.140655
 31
0.0
  0
LINE
  8
0
  6
CONTINUOUS
 62
     7
  5
413
 10
-0.228538
 20
1.140655
 30
0.0
 11
-0.228846
 21
1.140385
 31
0.0
  0
LINE
  8
0
  6
CONTINUOUS
 62
     7
  5
414
 10
-0.228846
 20
1.140385
 30
0.0
 11
-0.229171
 21
1.140125
 31
0.0
  0
LINE
  8
0
  6
CONTINUOUS
 62
     7
  5
415
 10
-0.229171
 20
1.140125
 30
0.0
 11
-0.22951
 21
1.139876
 31
0.0
  0
LINE
  8
0
  6
CONTINUOUS
 62
     7
  5
416
 10
-0.22951
 20
1.139876
 30
0.0
 11
-0.229867
 21
1.139635
 31
0.0
  0
LINE
  8
0
  6
CONTINUOUS
 62
     7
  5
417
 10
-0.229867
 20
1.139635
 30
0.0
 11
-0.230251
 21
1.139399
 31
0.0
  0
LINE
  8
0
  6
CONTINUOUS
 62
     7
  5
418
 10
-0.230251
 20
1.139399
 30
0.0
 11
-0.230658
 21
1.13917
 31
0.0
  0
LINE
  8
0
  6
CONTINUOUS
 62
     7
  5
419
 10
-0.230658
 20
1.13917
 30
0.0
 11
-0.231089
 21
1.138953
 31
0.0
  0
LINE
  8
0
  6
CONTINUOUS
 62
     7
  5
41A
 10
-0.231089
 20
1.138953
 30
0.0
 11
-0.23154
 21
1.138748
 31
0.0
  0
LINE
  8
0
  6
CONTINUOUS
 62
     7
  5
41B
 10
-0.23154
 20
1.138748
 30
0.0
 11
-0.232011
 21
1.138559
 31
0.0
  0
LINE
  8
0
  6
CONTINUOUS
 62
     7
  5
41C
 10
-0.232011
 20
1.138559
 30
0.0
 11
-0.2325
 21
1.138388
 31
0.0
  0
LINE
  8
0
  6
CONTINUOUS
 62
     7
  5
41D
 10
-0.2325
 20
1.138388
 30
0.0
 11
-0.233003
 21
1.138236
 31
0.0
  0
LINE
  8
0
  6
CONTINUOUS
 62
     7
  5
41E
 10
-0.233003
 20
1.138236
 30
0.0
 11
-0.233519
 21
1.138104
 31
0.0
  0
LINE
  8
0
  6
CONTINUOUS
 62
     7
  5
41F
 10
-0.233519
 20
1.138104
 30
0.0
 11
-0.234045
 21
1.137995
 31
0.0
  0
LINE
  8
0
  6
CONTINUOUS
 62
     7
  5
420
 10
-0.234045
 20
1.137995
 30
0.0
 11
-0.234578
 21
1.137909
 31
0.0
  0
LINE
  8
0
  6
CONTINUOUS
 62
     7
  5
421
 10
-0.234578
 20
1.137909
 30
0.0
 11
-0.235115
 21
1.137847
 31
0.0
  0
LINE
  8
0
  6
CONTINUOUS
 62
     7
  5
422
 10
-0.235115
 20
1.137847
 30
0.0
 11
-0.235652
 21
1.13781
 31
0.0
  0
LINE
  8
0
  6
CONTINUOUS
 62
     7
  5
423
 10
-0.235652
 20
1.13781
 30
0.0
 11
-0.236186
 21
1.137796
 31
0.0
  0
LINE
  8
0
  6
CONTINUOUS
 62
     7
  5
424
 10
-0.236186
 20
1.137796
 30
0.0
 11
-0.236719
 21
1.137807
 31
0.0
  0
LINE
  8
0
  6
CONTINUOUS
 62
     7
  5
425
 10
-0.236719
 20
1.137807
 30
0.0
 11
-0.237255
 21
1.137841
 31
0.0
  0
LINE
  8
0
  6
CONTINUOUS
 62
     7
  5
426
 10
-0.237255
 20
1.137841
 30
0.0
 11
-0.237789
 21
1.137899
 31
0.0
  0
LINE
  8
0
  6
CONTINUOUS
 62
     7
  5
427
 10
-0.237789
 20
1.137899
 30
0.0
 11
-0.23832
 21
1.137981
 31
0.0
  0
LINE
  8
0
  6
CONTINUOUS
 62
     7
  5
428
 10
-0.231103
 20
1.15748
 30
0.0
 11
-0.231099
 21
1.15748
 31
0.0
  0
LINE
  8
0
  6
CONTINUOUS
 62
     7
  5
429
 10
-0.231099
 20
1.15748
 30
0.0
 11
-0.231085
 21
1.157479
 31
0.0
  0
LINE
  8
0
  6
CONTINUOUS
 62
     7
  5
42A
 10
-0.231085
 20
1.157479
 30
0.0
 11
-0.231062
 21
1.157478
 31
0.0
  0
LINE
  8
0
  6
CONTINUOUS
 62
     7
  5
42B
 10
-0.231062
 20
1.157478
 30
0.0
 11
-0.23103
 21
1.157476
 31
0.0
  0
LINE
  8
0
  6
CONTINUOUS
 62
     7
  5
42C
 10
-0.23103
 20
1.157476
 30
0.0
 11
-0.230988
 21
1.157474
 31
0.0
  0
LINE
  8
0
  6
CONTINUOUS
 62
     7
  5
42D
 10
-0.230988
 20
1.157474
 30
0.0
 11
-0.230936
 21
1.157471
 31
0.0
  0
LINE
  8
0
  6
CONTINUOUS
 62
     7
  5
42E
 10
-0.230936
 20
1.157471
 30
0.0
 11
-0.230874
 21
1.157468
 31
0.0
  0
LINE
  8
0
  6
CONTINUOUS
 62
     7
  5
42F
 10
-0.230874
 20
1.157468
 30
0.0
 11
-0.230803
 21
1.157465
 31
0.0
  0
LINE
  8
0
  6
CONTINUOUS
 62
     7
  5
430
 10
-0.230803
 20
1.157465
 30
0.0
 11
-0.230723
 21
1.15746
 31
0.0
  0
LINE
  8
0
  6
CONTINUOUS
 62
     7
  5
431
 10
-0.230723
 20
1.15746
 30
0.0
 11
-0.230633
 21
1.157456
 31
0.0
  0
LINE
  8
0
  6
CONTINUOUS
 62
     7
  5
432
 10
-0.230633
 20
1.157456
 30
0.0
 11
-0.230535
 21
1.157451
 31
0.0
  0
LINE
  8
0
  6
CONTINUOUS
 62
     7
  5
433
 10
-0.230535
 20
1.157451
 30
0.0
 11
-0.230429
 21
1.157446
 31
0.0
  0
LINE
  8
0
  6
CONTINUOUS
 62
     7
  5
434
 10
-0.230429
 20
1.157446
 30
0.0
 11
-0.230314
 21
1.157441
 31
0.0
  0
LINE
  8
0
  6
CONTINUOUS
 62
     7
  5
435
 10
-0.230314
 20
1.157441
 30
0.0
 11
-0.230193
 21
1.157436
 31
0.0
  0
LINE
  8
0
  6
CONTINUOUS
 62
     7
  5
436
 10
-0.230193
 20
1.157436
 30
0.0
 11
-0.230065
 21
1.15743
 31
0.0
  0
LINE
  8
0
  6
CONTINUOUS
 62
     7
  5
437
 10
-0.230065
 20
1.15743
 30
0.0
 11
-0.22993
 21
1.157425
 31
0.0
  0
LINE
  8
0
  6
CONTINUOUS
 62
     7
  5
438
 10
-0.22993
 20
1.157425
 30
0.0
 11
-0.229791
 21
1.157419
 31
0.0
  0
LINE
  8
0
  6
CONTINUOUS
 62
     7
  5
439
 10
-0.229791
 20
1.157419
 30
0.0
 11
-0.229647
 21
1.157413
 31
0.0
  0
LINE
  8
0
  6
CONTINUOUS
 62
     7
  5
43A
 10
-0.229647
 20
1.157413
 30
0.0
 11
-0.229495
 21
1.157408
 31
0.0
  0
LINE
  8
0
  6
CONTINUOUS
 62
     7
  5
43B
 10
-0.229495
 20
1.157408
 30
0.0
 11
-0.229335
 21
1.157402
 31
0.0
  0
LINE
  8
0
  6
CONTINUOUS
 62
     7
  5
43C
 10
-0.229335
 20
1.157402
 30
0.0
 11
-0.229167
 21
1.157397
 31
0.0
  0
LINE
  8
0
  6
CONTINUOUS
 62
     7
  5
43D
 10
-0.229167
 20
1.157397
 30
0.0
 11
-0.228993
 21
1.157391
 31
0.0
  0
LINE
  8
0
  6
CONTINUOUS
 62
     7
  5
43E
 10
-0.228993
 20
1.157391
 30
0.0
 11
-0.228812
 21
1.157386
 31
0.0
  0
LINE
  8
0
  6
CONTINUOUS
 62
     7
  5
43F
 10
-0.228812
 20
1.157386
 30
0.0
 11
-0.228625
 21
1.157381
 31
0.0
  0
LINE
  8
0
  6
CONTINUOUS
 62
     7
  5
440
 10
-0.228625
 20
1.157381
 30
0.0
 11
-0.228433
 21
1.157376
 31
0.0
  0
LINE
  8
0
  6
CONTINUOUS
 62
     7
  5
441
 10
-0.228433
 20
1.157376
 30
0.0
 11
-0.228237
 21
1.157372
 31
0.0
  0
LINE
  8
0
  6
CONTINUOUS
 62
     7
  5
442
 10
-0.228237
 20
1.157372
 30
0.0
 11
-0.228036
 21
1.157368
 31
0.0
  0
LINE
  8
0
  6
CONTINUOUS
 62
     7
  5
443
 10
-0.228036
 20
1.157368
 30
0.0
 11
-0.227833
 21
1.157364
 31
0.0
  0
LINE
  8
0
  6
CONTINUOUS
 62
     7
  5
444
 10
-0.227833
 20
1.157364
 30
0.0
 11
-0.227626
 21
1.157361
 31
0.0
  0
LINE
  8
0
  6
CONTINUOUS
 62
     7
  5
445
 10
-0.227626
 20
1.157361
 30
0.0
 11
-0.227418
 21
1.157358
 31
0.0
  0
LINE
  8
0
  6
CONTINUOUS
 62
     7
  5
446
 10
-0.227418
 20
1.157358
 30
0.0
 11
-0.227208
 21
1.157356
 31
0.0
  0
LINE
  8
0
  6
CONTINUOUS
 62
     7
  5
447
 10
-0.227208
 20
1.157356
 30
0.0
 11
-0.226999
 21
1.157354
 31
0.0
  0
LINE
  8
0
  6
CONTINUOUS
 62
     7
  5
448
 10
-0.226999
 20
1.157354
 30
0.0
 11
-0.22679
 21
1.157353
 31
0.0
  0
LINE
  8
0
  6
CONTINUOUS
 62
     7
  5
449
 10
-0.22679
 20
1.157353
 30
0.0
 11
-0.226583
 21
1.157352
 31
0.0
  0
LINE
  8
0
  6
CONTINUOUS
 62
     7
  5
44A
 10
-0.226583
 20
1.157352
 30
0.0
 11
-0.226378
 21
1.157352
 31
0.0
  0
LINE
  8
0
  6
CONTINUOUS
 62
     7
  5
44B
 10
-0.226378
 20
1.157352
 30
0.0
 11
-0.226583
 21
1.157352
 31
0.0
  0
LINE
  8
0
  6
CONTINUOUS
 62
     7
  5
44C
 10
-0.226583
 20
1.157352
 30
0.0
 11
-0.22679
 21
1.157353
 31
0.0
  0
LINE
  8
0
  6
CONTINUOUS
 62
     7
  5
44D
 10
-0.22679
 20
1.157353
 30
0.0
 11
-0.226999
 21
1.157354
 31
0.0
  0
LINE
  8
0
  6
CONTINUOUS
 62
     7
  5
44E
 10
-0.226999
 20
1.157354
 30
0.0
 11
-0.227208
 21
1.157356
 31
0.0
  0
LINE
  8
0
  6
CONTINUOUS
 62
     7
  5
44F
 10
-0.227208
 20
1.157356
 30
0.0
 11
-0.227418
 21
1.157358
 31
0.0
  0
LINE
  8
0
  6
CONTINUOUS
 62
     7
  5
450
 10
-0.227418
 20
1.157358
 30
0.0
 11
-0.227626
 21
1.157361
 31
0.0
  0
LINE
  8
0
  6
CONTINUOUS
 62
     7
  5
451
 10
-0.227626
 20
1.157361
 30
0.0
 11
-0.227833
 21
1.157364
 31
0.0
  0
LINE
  8
0
  6
CONTINUOUS
 62
     7
  5
452
 10
-0.227833
 20
1.157364
 30
0.0
 11
-0.228036
 21
1.157368
 31
0.0
  0
LINE
  8
0
  6
CONTINUOUS
 62
     7
  5
453
 10
-0.228036
 20
1.157368
 30
0.0
 11
-0.228237
 21
1.157372
 31
0.0
  0
LINE
  8
0
  6
CONTINUOUS
 62
     7
  5
454
 10
-0.228237
 20
1.157372
 30
0.0
 11
-0.228433
 21
1.157376
 31
0.0
  0
LINE
  8
0
  6
CONTINUOUS
 62
     7
  5
455
 10
-0.228433
 20
1.157376
 30
0.0
 11
-0.228625
 21
1.157381
 31
0.0
  0
LINE
  8
0
  6
CONTINUOUS
 62
     7
  5
456
 10
-0.228625
 20
1.157381
 30
0.0
 11
-0.228812
 21
1.157386
 31
0.0
  0
LINE
  8
0
  6
CONTINUOUS
 62
     7
  5
457
 10
-0.228812
 20
1.157386
 30
0.0
 11
-0.228993
 21
1.157391
 31
0.0
  0
LINE
  8
0
  6
CONTINUOUS
 62
     7
  5
458
 10
-0.228993
 20
1.157391
 30
0.0
 11
-0.229167
 21
1.157397
 31
0.0
  0
LINE
  8
0
  6
CONTINUOUS
 62
     7
  5
459
 10
-0.229167
 20
1.157397
 30
0.0
 11
-0.229335
 21
1.157402
 31
0.0
  0
LINE
  8
0
  6
CONTINUOUS
 62
     7
  5
45A
 10
-0.229335
 20
1.157402
 30
0.0
 11
-0.229495
 21
1.157408
 31
0.0
  0
LINE
  8
0
  6
CONTINUOUS
 62
     7
  5
45B
 10
-0.229495
 20
1.157408
 30
0.0
 11
-0.229647
 21
1.157413
 31
0.0
  0
LINE
  8
0
  6
CONTINUOUS
 62
     7
  5
45C
 10
-0.229647
 20
1.157413
 30
0.0
 11
-0.229791
 21
1.157419
 31
0.0
  0
LINE
  8
0
  6
CONTINUOUS
 62
     7
  5
45D
 10
-0.229791
 20
1.157419
 30
0.0
 11
-0.22993
 21
1.157425
 31
0.0
  0
LINE
  8
0
  6
CONTINUOUS
 62
     7
  5
45E
 10
-0.22993
 20
1.157425
 30
0.0
 11
-0.230065
 21
1.15743
 31
0.0
  0
LINE
  8
0
  6
CONTINUOUS
 62
     7
  5
45F
 10
-0.230065
 20
1.15743
 30
0.0
 11
-0.230193
 21
1.157436
 31
0.0
  0
LINE
  8
0
  6
CONTINUOUS
 62
     7
  5
460
 10
-0.230193
 20
1.157436
 30
0.0
 11
-0.230314
 21
1.157441
 31
0.0
  0
LINE
  8
0
  6
CONTINUOUS
 62
     7
  5
461
 10
-0.230314
 20
1.157441
 30
0.0
 11
-0.230429
 21
1.157446
 31
0.0
  0
LINE
  8
0
  6
CONTINUOUS
 62
     7
  5
462
 10
-0.230429
 20
1.157446
 30
0.0
 11
-0.230535
 21
1.157451
 31
0.0
  0
LINE
  8
0
  6
CONTINUOUS
 62
     7
  5
463
 10
-0.230535
 20
1.157451
 30
0.0
 11
-0.230633
 21
1.157456
 31
0.0
  0
LINE
  8
0
  6
CONTINUOUS
 62
     7
  5
464
 10
-0.230633
 20
1.157456
 30
0.0
 11
-0.230723
 21
1.15746
 31
0.0
  0
LINE
  8
0
  6
CONTINUOUS
 62
     7
  5
465
 10
-0.230723
 20
1.15746
 30
0.0
 11
-0.230803
 21
1.157465
 31
0.0
  0
LINE
  8
0
  6
CONTINUOUS
 62
     7
  5
466
 10
-0.230803
 20
1.157465
 30
0.0
 11
-0.230874
 21
1.157468
 31
0.0
  0
LINE
  8
0
  6
CONTINUOUS
 62
     7
  5
467
 10
-0.230874
 20
1.157468
 30
0.0
 11
-0.230936
 21
1.157471
 31
0.0
  0
LINE
  8
0
  6
CONTINUOUS
 62
     7
  5
468
 10
-0.230936
 20
1.157471
 30
0.0
 11
-0.230988
 21
1.157474
 31
0.0
  0
LINE
  8
0
  6
CONTINUOUS
 62
     7
  5
469
 10
-0.230988
 20
1.157474
 30
0.0
 11
-0.23103
 21
1.157476
 31
0.0
  0
LINE
  8
0
  6
CONTINUOUS
 62
     7
  5
46A
 10
-0.23103
 20
1.157476
 30
0.0
 11
-0.231062
 21
1.157478
 31
0.0
  0
LINE
  8
0
  6
CONTINUOUS
 62
     7
  5
46B
 10
-0.231062
 20
1.157478
 30
0.0
 11
-0.231085
 21
1.157479
 31
0.0
  0
LINE
  8
0
  6
CONTINUOUS
 62
     7
  5
46C
 10
-0.231085
 20
1.157479
 30
0.0
 11
-0.231099
 21
1.15748
 31
0.0
  0
LINE
  8
0
  6
CONTINUOUS
 62
     7
  5
46D
 10
-0.231099
 20
1.15748
 30
0.0
 11
-0.231103
 21
1.15748
 31
0.0
  0
LINE
  8
0
  6
CONTINUOUS
 62
     7
  5
46E
 10
-0.290839
 20
0.84252
 30
0.0
 11
-0.274209
 21
0.84252
 31
0.0
  0
LINE
  8
0
  6
CONTINUOUS
 62
     7
  5
46F
 10
0.274209
 20
0.84252
 30
0.0
 11
0.290839
 21
0.84252
 31
0.0
  0
LINE
  8
0
  6
CONTINUOUS
 62
     7
  5
470
 10
-0.274209
 20
0.645669
 30
0.0
 11
-0.291339
 21
0.645669
 31
0.0
  0
LINE
  8
0
  6
CONTINUOUS
 62
     7
  5
471
 10
0.291339
 20
0.645669
 30
0.0
 11
0.274209
 21
0.645669
 31
0.0
  0
LINE
  8
0
  6
CONTINUOUS
 62
     7
  5
472
 10
-0.274209
 20
0.84252
 30
0.0
 11
-0.274209
 21
0.645669
 31
0.0
  0
LINE
  8
0
  6
CONTINUOUS
 62
     7
  5
473
 10
0.274209
 20
0.645669
 30
0.0
 11
0.274209
 21
0.84252
 31
0.0
  0
LINE
  8
0
  6
CONTINUOUS
 62
     7
  5
474
 10
-0.274209
 20
0.84252
 30
0.0
 11
0.274209
 21
0.84252
 31
0.0
  0
LINE
  8
0
  6
CONTINUOUS
 62
     7
  5
475
 10
-0.462598
 20
-0.401575
 30
0.0
 11
0.462598
 21
-0.401575
 31
0.0
  0
LINE
  8
0
  6
CONTINUOUS
 62
     7
  5
476
 10
0.311024
 20
-0.110236
 30
0.0
 11
0.311024
 21
-0.102362
 31
0.0
  0
LINE
  8
0
  6
CONTINUOUS
 62
     7
  5
477
 10
-0.311024
 20
-0.102362
 30
0.0
 11
-0.311024
 21
-0.110236
 31
0.0
  0
LINE
  8
0
  6
CONTINUOUS
 62
     7
  5
478
 10
0.34252
 20
-0.023622
 30
0.0
 11
0.34252
 21
0.0
 31
0.0
  0
LINE
  8
0
  6
CONTINUOUS
 62
     7
  5
479
 10
-0.34252
 20
0.0
 30
0.0
 11
-0.34252
 21
-0.023622
 31
0.0
  0
LINE
  8
0
  6
CONTINUOUS
 62
     7
  5
47A
 10
-0.352362
 20
0.275591
 30
0.0
 11
-0.352362
 21
0.165354
 31
0.0
  0
LINE
  8
0
  6
CONTINUOUS
 62
     7
  5
47B
 10
0.352362
 20
0.165354
 30
0.0
 11
0.352362
 21
0.275591
 31
0.0
  0
LINE
  8
0
  6
CONTINUOUS
 62
     7
  5
47C
 10
0.235181
 20
1.140902
 30
0.0
 11
0.235181
 21
1.15748
 31
0.0
  0
LINE
  8
0
  6
CONTINUOUS
 62
     7
  5
47D
 10
0.235181
 20
1.15748
 30
0.0
 11
0.231103
 21
1.15748
 31
0.0
  0
LINE
  8
0
  6
CONTINUOUS
 62
     7
  5
47E
 10
-0.235181
 20
1.15748
 30
0.0
 11
-0.235181
 21
1.140902
 31
0.0
  0
LINE
  8
0
  6
CONTINUOUS
 62
     7
  5
47F
 10
-0.231103
 20
1.15748
 30
0.0
 11
-0.235181
 21
1.15748
 31
0.0
  0
LINE
  8
0
  6
CONTINUOUS
 62
     7
  5
480
 10
-0.290839
 20
0.84252
 30
0.0
 11
-0.290839
 21
0.645669
 31
0.0
  0
LINE
  8
0
  6
CONTINUOUS
 62
     7
  5
481
 10
0.290839
 20
0.645669
 30
0.0
 11
0.290839
 21
0.84252
 31
0.0
  0
LINE
  8
0
  6
CONTINUOUS
 62
     7
  5
482
 10
-0.291339
 20
0.645669
 30
0.0
 11
-0.291339
 21
0.448819
 31
0.0
  0
LINE
  8
0
  6
CONTINUOUS
 62
     7
  5
483
 10
0.291339
 20
0.448819
 30
0.0
 11
0.291339
 21
0.645669
 31
0.0
  0
LINE
  8
0
  6
CONTINUOUS
 62
     3
  5
484
 10
0.0
 20
-0.401339
 30
0.0
 11
0.0
 21
0.84252
 31
0.0
  0
LINE
  8
0
  6
CONTINUOUS
 62
     3
  5
485
 10
0.470472
 20
-0.043307
 30
0.0
 11
-0.470472
 21
-0.043307
 31
0.0
  0
LINE
  8
0
  6
CONTINUOUS
 62
     3
  5
486
 10
0.226378
 20
1.03937
 30
0.0
 11
0.246063
 21
1.03937
 31
0.0
  0
LINE
  8
0
  6
CONTINUOUS
 62
     3
  5
487
 10
0.226378
 20
1.088583
 30
0.0
 11
0.246063
 21
1.088583
 31
0.0
  0
LINE
  8
0
  6
CONTINUOUS
 62
     3
  5
488
 10
-0.246063
 20
1.03937
 30
0.0
 11
-0.226378
 21
1.03937
 31
0.0
  0
LINE
  8
0
  6
CONTINUOUS
 62
     3
  5
489
 10
-0.246063
 20
1.088583
 30
0.0
 11
-0.226378
 21
1.088583
 31
0.0
  0
ENDSEC
  0
EOF
