999
DXF file: C:\Users\sesa63760\Dev\_Creo\CAD\MCADPD0003826_3D-CAD\drw0001_1.dxf
999
Pro/ENGINEER 2019471 by Parametric Technology Corporation
  0
SECTION
  2
HEADER
  9
$ACADVER
  1
AC1024
  9
$DWGCODEPAGE
  3
ANSI_1252
  9
$EXTMAX
 10
184.2878828188
 20
260.6357199866
 30
0.0
  9
$EXTMIN
 10
0.0
 20
0.0
 30
0.0
  9
$LIMMIN
 10
0.0
 20
0.0
  9
$LIMMAX
 10
184.2878828188
 20
260.6357199866
  9
$VIEWCTR
 10
92.1439414094
 20
130.3178599933
  9
$VIEWSIZE
 40
260.6357199866
  9
$CLAYER
  8
0
  9
$LTSCALE
 40
16.9895876732
  9
$CELTYPE
  6
BYLAYER
  9
$DIMSCALE
 40
1.0
  9
$DIMASZ
 40
2.1939033669
  9
$DIMEXO
 40
1.0
  9
$DIMDLI
 40
11.7382605742
  9
$DIMEXE
 40
1.0
  9
$DIMCEN
 40
2.7801143465
  9
$DIMLFAC
 40
1.0
  9
$DIMBLK
  1
_FILLED
  9
$DIMALT
 70
0
  9
$DIMALTF
 40
0.0393700787
  9
$DIMTXT
 40
3.0714647136
  9
$DIMTOL
 70
1
  9
$DIMLIM
 70
0
  9
$DIMTFAC
 40
1.0
  9
$DIMTP
 40
0.01
  9
$DIMTM
 40
0.01
  9
$DIMGAP
 40
0.625
  9
$DIMDSEP
 70
46
  9
$AUNITS
 70
0
  9
$PDMODE
 70
3
  9
$PDSIZE
 40
0.3125
  9
$HANDSEED
  5
310
  9
$TILEMODE
 70
1
  9
$MEASUREMENT
 70
1
  9
$INSUNITS
 70
4
  0
ENDSEC
  0
SECTION
  2
CLASSES
  0
CLASS
  1
ACDBDICTIONARYWDFLT
  2
AcDbDictionaryWithDefault
  3
AutoCAD 2000
 90
0
 91
1
280
0
281
0
  0
CLASS
  1
ACDBPLACEHOLDER
  2
AcDbPlaceHolder
  3
AutoCAD 2000
 90
0
 91
1
280
0
281
0
  0
CLASS
  1
LAYOUT
  2
AcDbLayout
  3
AutoCAD 2000
 90
0
 91
0
280
0
281
0
  0
ENDSEC
  0
SECTION
  2
TABLES
  0
TABLE
  2
VPORT
  5
8
100
AcDbSymbolTable
 70
2
  0
VPORT
  5
1F4
100
AcDbSymbolTableRecord
100
AcDbViewportTableRecord
  2
*ACTIVE
 70
0
 10
0.0
 20
0.0
 11
1.0
 21
1.0
 12
92.1439414094
 22
130.3178599933
 13
0.0
 23
0.0
 14
1.0
 24
1.0
 15
0.0
 25
0.0
 16
0.0
 26
0.0
 36
1.0
 17
0.0
 27
0.0
 37
0.0
 40
260.6357199866
 41
0.7070707071
 42
50.0
 43
0.0
 44
0.0
 50
0.0
 51
0.0
 71
0
 72
100
 73
1
 74
1
 75
0
 76
0
 77
0
 78
0
  0
ENDTAB
  0
TABLE
  2
LTYPE
  5
5
100
AcDbSymbolTable
 70
6
  0
LTYPE
  5
14
100
AcDbSymbolTableRecord
100
AcDbLinetypeTableRecord
  2
BYBLOCK
 70
0
  3

 72
65
 73
0
 40
0.0
  0
LTYPE
  5
15
100
AcDbSymbolTableRecord
100
AcDbLinetypeTableRecord
  2
BYLAYER
 70
0
  3

 72
65
 73
0
 40
0.0
  0
LTYPE
  5
16
100
AcDbSymbolTableRecord
100
AcDbLinetypeTableRecord
  2
CONTINUOUS
 70
64
  3
Solid line
 72
65
 73
0
 40
0.0
  0
LTYPE
  5
1F5
100
AcDbSymbolTableRecord
100
AcDbLinetypeTableRecord
  2
CENTER
 70
64
  3
____ _ ____ _ ____ _ ____ _ ____ _ ____ _ ____
 72
65
 73
4
 40
0.6
 49
0.375
 74
0
 49
-0.075
 74
0
 49
0.075
 74
0
 49
-0.075
 74
0
  0
LTYPE
  5
1F6
100
AcDbSymbolTableRecord
100
AcDbLinetypeTableRecord
  2
HIDDEN
 70
64
  3
- - - - - - - - - - - - - - - - - - - -
 72
65
 73
2
 40
0.2
 49
0.1
 74
0
 49
-0.1
 74
0
  0
LTYPE
  5
1F7
100
AcDbSymbolTableRecord
100
AcDbLinetypeTableRecord
  2
PHANTOM
 70
64
  3
_____ _ _ _____ _ _ _____ _ _ _____
 72
65
 73
6
 40
0.8
 49
0.45
 74
0
 49
-0.05
 74
0
 49
0.1
 74
0
 49
-0.05
 74
0
 49
0.1
 74
0
 49
-0.05
 74
0
  0
LTYPE
  5
1F8
100
AcDbSymbolTableRecord
100
AcDbLinetypeTableRecord
  2
DOT
 70
64
  3
. . . . . . . . . . . . . . . . . . . .
 72
65
 73
2
 40
0.2
 49
0.1
 74
0
 49
-0.1
 74
0
  0
LTYPE
  5
1F9
100
AcDbSymbolTableRecord
100
AcDbLinetypeTableRecord
  2
DASHED
 70
64
  3
- - - - - - - - - - - - - - - - - - - -
 72
65
 73
2
 40
0.2
 49
0.1
 74
0
 49
-0.1
 74
0
  0
ENDTAB
  0
TABLE
  2
LAYER
  5
2
100
AcDbSymbolTable
 70
36
  0
LAYER
  5
10
100
AcDbSymbolTableRecord
100
AcDbLayerTableRecord
  2
0
 70
0
 62
7
  6
CONTINUOUS
370
-3
390
F
  0
LAYER
  5
1FA
100
AcDbSymbolTableRecord
100
AcDbLayerTableRecord
  2
DEFAULT_1
 70
0
 62
7
  6
CENTER
370
-3
390
F
  0
LAYER
  5
1FB
100
AcDbSymbolTableRecord
100
AcDbLayerTableRecord
  2
DEFAULT_2
 70
0
 62
7
  6
HIDDEN
370
-3
390
F
  0
LAYER
  5
1FC
100
AcDbSymbolTableRecord
100
AcDbLayerTableRecord
  2
DEFAULT_3
 70
0
 62
7
  6
PHANTOM
370
-3
390
F
  0
LAYER
  5
1FD
100
AcDbSymbolTableRecord
100
AcDbLayerTableRecord
  2
00_COMPONENTS
 70
0
 62
7
  6
CONTINUOUS
370
-3
390
F
  0
LAYER
  5
1FE
100
AcDbSymbolTableRecord
100
AcDbLayerTableRecord
  2
01_1_DEFAULT_DATUMS
 70
0
 62
7
  6
CONTINUOUS
370
-3
390
F
  0
LAYER
  5
1FF
100
AcDbSymbolTableRecord
100
AcDbLayerTableRecord
  2
01_PLANES
 70
0
 62
7
  6
CONTINUOUS
370
-3
390
F
  0
LAYER
  5
200
100
AcDbSymbolTableRecord
100
AcDbLayerTableRecord
  2
02_COORD_SYS
 70
0
 62
7
  6
CONTINUOUS
370
-3
390
F
  0
LAYER
  5
201
100
AcDbSymbolTableRecord
100
AcDbLayerTableRecord
  2
03_AXES
 70
0
 62
7
  6
CONTINUOUS
370
-3
390
F
  0
LAYER
  5
202
100
AcDbSymbolTableRecord
100
AcDbLayerTableRecord
  2
04_POINTS
 70
0
 62
7
  6
CONTINUOUS
370
-3
390
F
  0
LAYER
  5
203
100
AcDbSymbolTableRecord
100
AcDbLayerTableRecord
  2
05_CURVES
 70
0
 62
7
  6
CONTINUOUS
370
-3
390
F
  0
LAYER
  5
204
100
AcDbSymbolTableRecord
100
AcDbLayerTableRecord
  2
06_SURFS
 70
0
 62
7
  6
CONTINUOUS
370
-3
390
F
  0
LAYER
  5
205
100
AcDbSymbolTableRecord
100
AcDbLayerTableRecord
  2
07_COSMETICS
 70
0
 62
7
  6
CONTINUOUS
370
-3
390
F
  0
LAYER
  5
206
100
AcDbSymbolTableRecord
100
AcDbLayerTableRecord
  2
10_NOTES
 70
0
 62
7
  6
CONTINUOUS
370
-3
390
F
  0
LAYER
  5
207
100
AcDbSymbolTableRecord
100
AcDbLayerTableRecord
  2
11_NOTES_PUB
 70
0
 62
7
  6
CONTINUOUS
370
-3
390
F
  0
LAYER
  5
208
100
AcDbSymbolTableRecord
100
AcDbLayerTableRecord
  2
13_REF_GTOL
 70
0
 62
7
  6
CONTINUOUS
370
-3
390
F
  0
LAYER
  5
209
100
AcDbSymbolTableRecord
100
AcDbLayerTableRecord
  2
16_MISC
 70
0
 62
7
  6
CONTINUOUS
370
-3
390
F
  0
LAYER
  5
20A
100
AcDbSymbolTableRecord
100
AcDbLayerTableRecord
  2
17_NO_PRINT
 70
0
 62
7
  6
CONTINUOUS
370
-3
390
F
  0
LAYER
  5
20B
100
AcDbSymbolTableRecord
100
AcDbLayerTableRecord
  2
18_DATUM_CAMS_JOINTS
 70
0
 62
7
  6
CONTINUOUS
370
-3
390
F
  0
LAYER
  5
20C
100
AcDbSymbolTableRecord
100
AcDbLayerTableRecord
  2
19_DATUM_FUNCTIONAL
 70
0
 62
7
  6
CONTINUOUS
370
-3
390
F
  0
LAYER
  5
20D
100
AcDbSymbolTableRecord
100
AcDbLayerTableRecord
  2
20_DATUM_KINEMATIC_SCHEME
 70
0
 62
7
  6
CONTINUOUS
370
-3
390
F
  0
ENDTAB
  0
TABLE
  2
STYLE
  5
3
100
AcDbSymbolTable
 70
1
  0
STYLE
  5
11
100
AcDbSymbolTableRecord
100
AcDbTextStyleTableRecord
  2
STANDARD
 70
0
 40
0.0
 41
1.0
 50
0.0
 71
0
 42
0.2
  3
ARIAL.TTF
  4

  0
STYLE
  5
20E
100
AcDbSymbolTableRecord
100
AcDbTextStyleTableRecord
  2
TEXTSTYLE_1
 70
0
 40
0.0
 41
0.8
 50
0.0
 71
0
 42
0.2
  3
gdt
  4

  0
ENDTAB
  0
TABLE
  2
VIEW
  5
6
100
AcDbSymbolTable
 70
0
  0
ENDTAB
  0
TABLE
  2
UCS
  5
7
100
AcDbSymbolTable
 70
0
  0
ENDTAB
  0
TABLE
  2
APPID
  5
9
100
AcDbSymbolTable
 70
1
  0
APPID
  5
20F
100
AcDbSymbolTableRecord
100
AcDbRegAppTableRecord
  2
ACAD
 70
0
  0
ENDTAB
  0
TABLE
  2
BLOCK_RECORD
  5
1
100
AcDbSymbolTable
 70
0
  0
BLOCK_RECORD
  5
210
100
AcDbSymbolTableRecord
100
AcDbBlockTableRecord
  2
*Model_Space
  0
BLOCK_RECORD
  5
211
100
AcDbSymbolTableRecord
100
AcDbBlockTableRecord
  2
*Paper_Space
  0
BLOCK_RECORD
  5
212
100
AcDbSymbolTableRecord
100
AcDbBlockTableRecord
  2
_FILLED
  0
ENDTAB
  0
TABLE
  2
DIMSTYLE
  5
A
100
AcDbSymbolTable
 70
1
100
AcDbDimStyleTable
 71
0
  0
DIMSTYLE
105
213
100
AcDbSymbolTableRecord
100
AcDbDimStyleTableRecord
  2
STANDARD
 70
0
  3

  4

 40
1.0
 41
2.1939033669
 42
1.0
 43
0.38
 44
1.0
 45
0.0
 46
0.0
 47
0.01
 48
0.01
140
3.0714647136
141
0.09
142
0.0
143
25.4
144
1.0
145
0.0
146
1.0
147
0.625
 71
1
 72
0
 73
0
 74
0
 75
0
 76
0
 77
1
 78
8
 79
2
170
0
171
1
172
0
173
0
174
0
175
0
176
0
177
0
178
0
270
2
179
2
271
2
272
2
273
2
274
2
275
0
280
0
281
0
282
0
283
1
284
8
285
0
286
0
287
3
288
0
340
11
278
46
341
212
342
212
343
212
344
212
  0
ENDTAB
  0
ENDSEC
  0
SECTION
  2
BLOCKS
  0
BLOCK
  5
20
100
AcDbEntity
  8
0
100
AcDbBlockBegin
  2
*Model_Space
 70
0
 10
0.0
 20
0.0
 30
0.0
  3
*Model_Space
  1

  0
ENDBLK
  5
21
100
AcDbEntity
  8
0
100
AcDbBlockEnd
  0
BLOCK
  5
1C
100
AcDbEntity
  8
0
100
AcDbBlockBegin
  2
*Paper_Space
 70
0
 10
0.0
 20
0.0
 30
0.0
  3
*Paper_Space
  1

  0
ENDBLK
  5
1D
100
AcDbEntity
  8
0
100
AcDbBlockEnd
  0
BLOCK
  5
214
100
AcDbEntity
  8
0
100
AcDbBlockBegin
  2
_FILLED
 70
64
 10
0.0
 20
0.0
  3
_FILLED
  1

  0
SOLID
  5
215
100
AcDbEntity
  8
0
  6
BYBLOCK
 62
0
100
AcDbTrace
 10
0.0
 20
0.0
 11
-1.0
 21
0.25
 12
-1.0
 22
-0.25
 13
-1.0
 23
-0.25
  0
ENDBLK
  5
216
100
AcDbEntity
  8
0
  6
BYBLOCK
 62
0
100
AcDbBlockEnd
  0
ENDSEC
  0
SECTION
  2
ENTITIES
  0
LINE
  5
217
100
AcDbEntity
  8
0
100
AcDbLine
 62
7
  6
BYLAYER
 10
21.3795146894
 20
113.5298384655
 11
21.3795146894
 21
137.7799602543
  0
LINE
  5
218
100
AcDbEntity
  8
0
100
AcDbLine
 62
7
  6
BYLAYER
 10
21.6624080381
 20
171.6241366993
 11
21.6624080381
 21
133.5751240611
  0
LINE
  5
219
100
AcDbEntity
  8
0
100
AcDbLine
 62
7
  6
BYLAYER
 10
68.1293720277
 20
200.0202262803
 11
32.774180167
 21
179.6080185867
  0
LINE
  5
21A
100
AcDbEntity
  8
0
100
AcDbLine
 62
7
  6
BYLAYER
 10
21.6624080381
 20
171.6241366993
 11
25.3393479916
 21
173.7470062994
  0
LINE
  5
21B
100
AcDbEntity
  8
0
100
AcDbLine
 62
7
  6
BYLAYER
 10
77.6650319455
 20
203.9570736859
 11
81.341971899
 21
206.079943286
  0
LINE
  5
21C
100
AcDbEntity
  8
0
100
AcDbLine
 62
7
  6
BYLAYER
 10
77.6650319455
 20
202.2424186099
 11
71.7732343809
 21
198.8408080049
  0
LINE
  5
21D
100
AcDbEntity
  8
0
100
AcDbLine
 62
7
  6
BYLAYER
 10
33.8245940382
 20
176.9312810699
 11
26.8243040749
 21
172.8896859002
  0
LINE
  5
21E
100
AcDbEntity
  8
0
100
AcDbLine
 62
7
  6
BYLAYER
 10
99.9393839567
 20
56.5390681627
 11
102.0607043002
 21
56.5390732618
  0
LINE
  5
21F
100
AcDbEntity
  8
0
100
AcDbLine
 62
7
  6
BYLAYER
 10
102.0607043002
 20
57.1922751955
 11
99.9393839567
 21
57.1922700965
  0
LINE
  5
220
100
AcDbEntity
  8
0
100
AcDbLine
 62
7
  6
BYLAYER
 10
27.6020802707
 20
95.36275168
 11
27.6020802707
 21
109.9373198257
  0
LINE
  5
221
100
AcDbEntity
  8
0
100
AcDbLine
 62
7
  6
BYLAYER
 10
66.8980033836
 20
192.8638719028
 11
63.2210634301
 21
190.7410023027
  0
LINE
  5
222
100
AcDbEntity
  8
0
100
AcDbLine
 62
7
  6
BYLAYER
 10
48.2304620812
 20
182.0862262406
 11
44.5535221277
 21
179.9633566405
  0
LINE
  5
223
100
AcDbEntity
  8
0
100
AcDbLine
 62
7
  6
BYLAYER
 10
74.093476873
 20
194.5066321351
 11
69.0730776538
 21
191.6081205963
  0
LINE
  5
224
100
AcDbEntity
  8
0
100
AcDbLine
 62
7
  6
BYLAYER
 10
63.9111816171
 20
188.6279163194
 11
50.4055363514
 21
180.8304749341
  0
LINE
  5
225
100
AcDbEntity
  8
0
100
AcDbLine
 62
7
  6
BYLAYER
 10
45.2436403147
 20
177.8502706572
 11
38.7382850123
 21
174.0944244416
  0
LINE
  5
226
100
AcDbEntity
  8
0
100
AcDbLine
 62
7
  6
BYLAYER
 10
97.1816772252
 20
55.1918614352
 11
75.1198538006
 21
67.9289729762
  0
LINE
  5
227
100
AcDbEntity
  8
0
100
AcDbLine
 62
7
  6
BYLAYER
 10
27.6020802707
 20
95.36275168
 11
51.4316780082
 21
81.6050382526
  0
LINE
  5
228
100
AcDbEntity
  8
0
100
AcDbLine
 62
7
  6
BYLAYER
 10
99.7272510392
 20
56.6615403891
 11
99.9393839567
 21
56.5390681627
  0
LINE
  5
229
100
AcDbEntity
  8
0
100
AcDbLine
 62
7
  6
BYLAYER
 10
99.7272510392
 20
57.3147423228
 11
99.9393839567
 21
57.1922700965
  0
LINE
  5
22A
100
AcDbEntity
  8
0
100
AcDbLine
 62
7
  6
BYLAYER
 10
49.6639036953
 20
86.6265019829
 11
51.4316780082
 21
85.6059000966
  0
LINE
  5
22B
100
AcDbEntity
  8
0
100
AcDbLine
 62
7
  6
BYLAYER
 10
75.1198538006
 20
73.0729382041
 11
49.6639036953
 21
87.7696053668
  0
LINE
  5
22C
100
AcDbEntity
  8
0
100
AcDbLine
 62
7
  6
BYLAYER
 10
103.4042428065
 20
66.1739109411
 11
97.1816772252
 21
69.7664295809
  0
LINE
  5
22D
100
AcDbEntity
  8
0
100
AcDbLine
 62
7
  6
BYLAYER
 10
21.3795146894
 20
113.5298384655
 11
27.6020802707
 21
109.9373198257
  0
LINE
  5
22E
100
AcDbEntity
  8
0
100
AcDbLine
 62
7
  6
BYLAYER
 10
107.3639489293
 20
64.9897188182
 11
110.4045207475
 21
63.2342835737
  0
LINE
  5
22F
100
AcDbEntity
  8
0
100
AcDbLine
 62
7
  6
BYLAYER
 10
49.6639036953
 20
87.7696053668
 11
49.6639036953
 21
86.6265019829
  0
LINE
  5
230
100
AcDbEntity
  8
0
100
AcDbLine
 62
7
  6
BYLAYER
 10
51.4316780082
 20
85.6059000966
 11
51.4316780082
 21
81.6050382526
  0
LINE
  5
231
100
AcDbEntity
  8
0
100
AcDbLine
 62
7
  6
BYLAYER
 10
21.3795146894
 20
137.7799602543
 11
21.6624080381
 21
137.9432878303
  0
LINE
  5
232
100
AcDbEntity
  8
0
100
AcDbLine
 62
7
  6
BYLAYER
 10
69.9932023105
 20
165.2760827094
 11
73.670142264
 21
167.3989523095
  0
LINE
  5
233
100
AcDbEntity
  8
0
100
AcDbLine
 62
7
  6
BYLAYER
 10
88.6607436129
 20
176.0537283716
 11
92.3376835665
 21
178.1765979717
  0
LINE
  5
234
100
AcDbEntity
  8
0
100
AcDbLine
 62
7
  6
BYLAYER
 10
152.9721717477
 20
87.1573797031
 11
155.0934920913
 21
87.1573848021
  0
LINE
  5
235
100
AcDbEntity
  8
0
100
AcDbLine
 62
7
  6
BYLAYER
 10
155.0934920913
 20
87.8105867358
 11
152.9721717477
 21
87.8105816368
  0
LINE
  5
236
100
AcDbEntity
  8
0
100
AcDbLine
 62
7
  6
BYLAYER
 10
111.6065955044
 20
68.4189312286
 11
115.8492185276
 21
65.9695070974
  0
LINE
  5
237
100
AcDbEntity
  8
0
100
AcDbLine
 62
7
  6
BYLAYER
 10
52.8458856826
 20
85.9325287702
 11
52.8458856826
 21
82.4215265604
  0
LINE
  5
238
100
AcDbEntity
  8
0
100
AcDbLine
 62
7
  6
BYLAYER
 10
69.9932023105
 20
163.5614276334
 11
73.670142264
 21
165.6842972335
  0
LINE
  5
239
100
AcDbEntity
  8
0
100
AcDbLine
 62
7
  6
BYLAYER
 10
88.6607436129
 20
174.3390732956
 11
92.3376835665
 21
176.4619428957
  0
LINE
  5
23A
100
AcDbEntity
  8
0
100
AcDbLine
 62
7
  6
BYLAYER
 10
120.8696557719
 20
68.8680405899
 11
127.0922213531
 21
65.2755219501
  0
LINE
  5
23B
100
AcDbEntity
  8
0
100
AcDbLine
 62
7
  6
BYLAYER
 10
116.6977949461
 20
73.8489010339
 11
110.4752293648
 21
77.4414196737
  0
LINE
  5
23C
100
AcDbEntity
  8
0
100
AcDbLine
 62
7
  6
BYLAYER
 10
120.8696557719
 20
72.3790009835
 11
127.0922213531
 21
68.7864823437
  0
LINE
  5
23D
100
AcDbEntity
  8
0
100
AcDbLine
 62
7
  6
BYLAYER
 10
104.9597970604
 20
82.7894989993
 11
107.646814016
 21
81.2381841321
  0
LINE
  5
23E
100
AcDbEntity
  8
0
100
AcDbLine
 62
7
  6
BYLAYER
 10
102.5907745811
 20
172.2571070312
 11
98.9138346276
 21
170.134237431
  0
LINE
  5
23F
100
AcDbEntity
  8
0
100
AcDbLine
 62
7
  6
BYLAYER
 10
83.9232332786
 20
161.479461369
 11
80.2462933251
 21
159.3565917688
  0
LINE
  5
240
100
AcDbEntity
  8
0
100
AcDbLine
 62
7
  6
BYLAYER
 10
91.2420049926
 20
93.4042338163
 11
21.6624080381
 21
133.5751240611
  0
LINE
  5
241
100
AcDbEntity
  8
0
100
AcDbLine
 62
7
  6
BYLAYER
 10
122.0717841089
 20
76.9515566034
 11
117.8291610856
 21
79.4009807345
  0
LINE
  5
242
100
AcDbEntity
  8
0
100
AcDbLine
 62
7
  6
BYLAYER
 10
132.3955001323
 20
71.8483134978
 11
123.6980711207
 21
76.8696628807
  0
LINE
  5
243
100
AcDbEntity
  8
0
100
AcDbLine
 62
7
  6
BYLAYER
 10
123.6980711207
 20
77.6860544852
 11
136.1431504695
 21
70.5010471196
  0
LINE
  5
244
100
AcDbEntity
  8
0
100
AcDbLine
 62
7
  6
BYLAYER
 10
103.4042428065
 20
90.4240327299
 11
97.1816772252
 21
94.0165513697
  0
LINE
  5
245
100
AcDbEntity
  8
0
100
AcDbLine
 62
7
  6
BYLAYER
 10
21.3795146894
 20
137.7799602543
 11
21.6624080381
 21
137.6166353981
  0
LINE
  5
246
100
AcDbEntity
  8
0
100
AcDbLine
 62
7
  6
BYLAYER
 10
104.535608946
 20
91.0772233761
 11
98.3130433647
 21
94.6697420159
  0
LINE
  5
247
100
AcDbEntity
  8
0
100
AcDbLine
 62
7
  6
BYLAYER
 10
123.6980711207
 20
81.1970148788
 11
136.1431504695
 21
74.0120075133
  0
LINE
  5
248
100
AcDbEntity
  8
0
100
AcDbLine
 62
7
  6
BYLAYER
 10
69.9932023105
 20
163.5614276334
 11
69.9932023105
 21
165.2760827094
  0
LINE
  5
249
100
AcDbEntity
  8
0
100
AcDbLine
 62
7
  6
BYLAYER
 10
123.6980711207
 20
83.4015149533
 11
131.8297652487
 21
78.7067853685
  0
LINE
  5
24A
100
AcDbEntity
  8
0
100
AcDbLine
 62
7
  6
BYLAYER
 10
131.554046566
 20
82.4261107068
 11
125.3314809847
 21
86.0186293466
  0
LINE
  5
24B
100
AcDbEntity
  8
0
100
AcDbLine
 62
7
  6
BYLAYER
 10
141.4464292486
 20
77.0738386673
 11
135.2238636673
 21
80.6663573071
  0
LINE
  5
24C
100
AcDbEntity
  8
0
100
AcDbLine
 62
7
  6
BYLAYER
 10
73.670142264
 20
165.6842972335
 11
73.670142264
 21
167.3989523095
  0
LINE
  5
24D
100
AcDbEntity
  8
0
100
AcDbLine
 62
7
  6
BYLAYER
 10
75.1198538006
 20
67.9289729762
 11
75.1198538006
 21
73.0729382041
  0
LINE
  5
24E
100
AcDbEntity
  8
0
100
AcDbLine
 62
7
  6
BYLAYER
 10
77.6650319455
 20
202.2424186099
 11
77.6650319455
 21
203.9570736859
  0
LINE
  5
24F
100
AcDbEntity
  8
0
100
AcDbLine
 62
7
  6
BYLAYER
 10
80.2462933251
 20
157.6419366929
 11
80.2462933251
 21
159.3565917688
  0
LINE
  5
250
100
AcDbEntity
  8
0
100
AcDbLine
 62
7
  6
BYLAYER
 10
132.6854127055
 20
86.0839533063
 11
135.2875548265
 21
84.5816398392
  0
LINE
  5
251
100
AcDbEntity
  8
0
100
AcDbLine
 62
7
  6
BYLAYER
 10
116.6977949461
 20
99.5687271735
 11
110.4752293648
 21
103.1612458133
  0
LINE
  5
252
100
AcDbEntity
  8
0
100
AcDbLine
 62
7
  6
BYLAYER
 10
117.8291610856
 20
100.2219178197
 11
111.6065955044
 21
103.8144364595
  0
LINE
  5
253
100
AcDbEntity
  8
0
100
AcDbLine
 62
7
  6
BYLAYER
 10
99.4546272483
 20
141.1109154355
 11
134.809819109
 21
161.523123129
  0
LINE
  5
254
100
AcDbEntity
  8
0
100
AcDbLine
 62
7
  6
BYLAYER
 10
143.772800873
 20
89.4805696857
 11
137.5502352917
 21
93.0730883255
  0
LINE
  5
255
100
AcDbEntity
  8
0
100
AcDbLine
 62
7
  6
BYLAYER
 10
122.0717841089
 20
102.6713827429
 11
115.8492185276
 21
106.2639013827
  0
LINE
  5
256
100
AcDbEntity
  8
0
100
AcDbLine
 62
7
  6
BYLAYER
 10
123.2031502485
 20
103.3245733891
 11
116.9805846672
 21
106.9170920289
  0
LINE
  5
257
100
AcDbEntity
  8
0
100
AcDbLine
 62
7
  6
BYLAYER
 10
152.7600388302
 20
87.2798519295
 11
152.9721717477
 21
87.1573797031
  0
LINE
  5
258
100
AcDbEntity
  8
0
100
AcDbLine
 62
7
  6
BYLAYER
 10
152.7600388302
 20
87.9330538632
 11
152.9721717477
 21
87.8105816368
  0
LINE
  5
259
100
AcDbEntity
  8
0
100
AcDbLine
 62
7
  6
BYLAYER
 10
136.418920966
 20
98.919199616
 11
137.3451751789
 21
98.3844385947
  0
LINE
  5
25A
100
AcDbEntity
  8
0
100
AcDbLine
 62
7
  6
BYLAYER
 10
88.6607436129
 20
174.3390732956
 11
88.6607436129
 21
176.0537283716
  0
LINE
  5
25B
100
AcDbEntity
  8
0
100
AcDbLine
 62
7
  6
BYLAYER
 10
91.2420049926
 20
131.4532464545
 11
91.2420049926
 21
93.4042338163
  0
LINE
  5
25C
100
AcDbEntity
  8
0
100
AcDbLine
 62
7
  6
BYLAYER
 10
92.3376835665
 20
176.4619428957
 11
92.3376835665
 21
178.1765979717
  0
LINE
  5
25D
100
AcDbEntity
  8
0
100
AcDbLine
 62
7
  6
BYLAYER
 10
150.9215688534
 20
165.9090530412
 11
147.2446288999
 21
163.7861834411
  0
LINE
  5
25E
100
AcDbEntity
  8
0
100
AcDbLine
 62
7
  6
BYLAYER
 10
94.9189449461
 20
133.5761160546
 11
91.2420049926
 21
131.4532464545
  0
LINE
  5
25F
100
AcDbEntity
  8
0
100
AcDbLine
 62
7
  6
BYLAYER
 10
147.2446288999
 20
162.0715283651
 11
140.0911300032
 21
157.9414785045
  0
LINE
  5
260
100
AcDbEntity
  8
0
100
AcDbLine
 62
7
  6
BYLAYER
 10
103.4041909927
 20
136.7603908251
 11
94.9189449461
 21
131.8614609787
  0
LINE
  5
261
100
AcDbEntity
  8
0
100
AcDbLine
 62
7
  6
BYLAYER
 10
104.4544628743
 20
132.4508944797
 11
103.4041909927
 21
132.22028824
  0
LINE
  5
262
100
AcDbEntity
  8
0
100
AcDbLine
 62
7
  6
BYLAYER
 10
148.4396861986
 20
92.1749811012
 11
144.9041670126
 21
94.2161678772
  0
LINE
  5
263
100
AcDbEntity
  8
0
100
AcDbLine
 62
7
  6
BYLAYER
 10
131.554046566
 20
108.1459368464
 11
125.3314809847
 21
111.7384554861
  0
LINE
  5
264
100
AcDbEntity
  8
0
100
AcDbLine
 62
7
  6
BYLAYER
 10
91.2420049926
 20
131.4532464545
 11
21.6624080381
 21
171.6241366993
  0
LINE
  5
265
100
AcDbEntity
  8
0
100
AcDbLine
 62
7
  6
BYLAYER
 10
132.6854127055
 20
108.7991274925
 11
126.4628471242
 21
112.3916461323
  0
LINE
  5
266
100
AcDbEntity
  8
0
100
AcDbLine
 62
7
  6
BYLAYER
 10
94.9189449461
 20
131.8614609787
 11
94.9189449461
 21
133.5761160546
  0
LINE
  5
267
100
AcDbEntity
  8
0
100
AcDbLine
 62
7
  6
BYLAYER
 10
97.1816772252
 20
96.8334847088
 11
97.1816772252
 21
94.0165513697
  0
LINE
  5
268
100
AcDbEntity
  8
0
100
AcDbLine
 62
7
  6
BYLAYER
 10
97.1816772252
 20
69.7664295809
 11
97.1816772252
 21
55.1918614352
  0
LINE
  5
269
100
AcDbEntity
  8
0
100
AcDbLine
 62
7
  6
BYLAYER
 10
98.9138346276
 20
168.4195823551
 11
98.9138346276
 21
170.134237431
  0
LINE
  5
26A
100
AcDbEntity
  8
0
100
AcDbLine
 62
7
  6
BYLAYER
 10
99.7272510392
 20
56.6615403891
 11
99.7272510392
 21
61.3972544085
  0
LINE
  5
26B
100
AcDbEntity
  8
0
100
AcDbLine
 62
7
  6
BYLAYER
 10
99.9393839567
 20
57.1922700965
 11
99.9393839567
 21
56.5390681627
  0
LINE
  5
26C
100
AcDbEntity
  8
0
100
AcDbLine
 62
7
  6
BYLAYER
 10
136.42595756
 20
152.600259914
 11
109.9095636644
 21
137.2911041438
  0
LINE
  5
26D
100
AcDbEntity
  8
0
100
AcDbLine
 62
7
  6
BYLAYER
 10
104.4546048639
 20
132.450648474
 11
108.8740038465
 21
135.0021744357
  0
LINE
  5
26E
100
AcDbEntity
  8
0
100
AcDbLine
 62
7
  6
BYLAYER
 10
135.390397742
 20
150.3113302059
 11
139.8097967246
 21
152.8628561676
  0
LINE
  5
26F
100
AcDbEntity
  8
0
100
AcDbLine
 62
7
  6
BYLAYER
 10
160.3967367204
 20
95.6080303585
 11
163.4373085385
 21
93.8525951141
  0
LINE
  5
270
100
AcDbEntity
  8
0
100
AcDbLine
 62
7
  6
BYLAYER
 10
25.3393479916
 20
173.7470062994
 11
94.9189449461
 21
133.5761160546
  0
LINE
  5
271
100
AcDbEntity
  8
0
100
AcDbLine
 62
7
  6
BYLAYER
 10
135.2875548265
 20
110.3014659788
 11
129.0649892452
 21
113.8939846186
  0
LINE
  5
272
100
AcDbEntity
  8
0
100
AcDbLine
 62
7
  6
BYLAYER
 10
136.418920966
 20
110.954656625
 11
130.1963553847
 21
114.5471752648
  0
LINE
  5
273
100
AcDbEntity
  8
0
100
AcDbLine
 62
7
  6
BYLAYER
 10
149.5710523382
 20
105.524598252
 11
149.6417109081
 21
105.4838044306
  0
LINE
  5
274
100
AcDbEntity
  8
0
100
AcDbLine
 62
7
  6
BYLAYER
 10
102.0607043002
 20
57.1922751955
 11
102.0607043002
 21
56.5390732618
  0
LINE
  5
275
100
AcDbEntity
  8
0
100
AcDbLine
 62
7
  6
BYLAYER
 10
103.4041909927
 20
132.22028824
 11
103.4041909927
 21
136.7603908251
  0
LINE
  5
276
100
AcDbEntity
  8
0
100
AcDbLine
 62
7
  6
BYLAYER
 10
103.4042428065
 20
66.1739109411
 11
103.4042428065
 21
90.4240327299
  0
LINE
  5
277
100
AcDbEntity
  8
0
100
AcDbLine
 62
7
  6
BYLAYER
 10
104.535608946
 20
91.0772233761
 11
104.535608946
 21
66.8271015873
  0
LINE
  5
278
100
AcDbEntity
  8
0
100
AcDbLine
 62
7
  6
BYLAYER
 10
104.9597970604
 20
86.0555622834
 11
104.9597970604
 21
82.7894989993
  0
LINE
  5
279
100
AcDbEntity
  8
0
100
AcDbLine
 62
7
  6
BYLAYER
 10
107.3639489293
 20
65.8062776727
 11
107.3639489293
 21
64.9897188182
  0
LINE
  5
27A
100
AcDbEntity
  8
0
100
AcDbLine
 62
7
  6
BYLAYER
 10
107.646814016
 20
87.6069029857
 11
107.646814016
 21
81.2381841321
  0
LINE
  5
27B
100
AcDbEntity
  8
0
100
AcDbLine
 62
7
  6
BYLAYER
 10
107.8235899753
 20
134.3957213244
 11
107.8235899753
 21
105.0188152674
  0
LINE
  5
27C
100
AcDbEntity
  8
0
100
AcDbLine
 62
7
  6
BYLAYER
 10
135.3902557524
 20
150.3115762116
 11
134.3399838708
 21
150.0809699719
  0
LINE
  5
27D
100
AcDbEntity
  8
0
100
AcDbLine
 62
7
  6
BYLAYER
 10
38.7382850123
 20
174.0944244416
 11
33.8245940382
 21
176.9312810699
  0
LINE
  5
27E
100
AcDbEntity
  8
0
100
AcDbLine
 62
7
  6
BYLAYER
 10
98.4905000186
 20
139.5972474534
 11
103.4041909927
 21
136.7603908251
  0
LINE
  5
27F
100
AcDbEntity
  8
0
100
AcDbLine
 62
7
  6
BYLAYER
 10
133.2086083105
 20
120.9811562448
 11
134.3399838708
 21
120.3279710375
  0
LINE
  5
280
100
AcDbEntity
  8
0
100
AcDbLine
 62
7
  6
BYLAYER
 10
143.772800873
 20
115.2003958253
 11
137.5502352917
 21
118.792914465
  0
LINE
  5
281
100
AcDbEntity
  8
0
100
AcDbLine
 62
7
  6
BYLAYER
 10
144.9041670126
 20
115.8535864714
 11
138.6816014313
 21
119.4461051112
  0
LINE
  5
282
100
AcDbEntity
  8
0
100
AcDbLine
 62
7
  6
BYLAYER
 10
156.8541476735
 20
110.1377297171
 11
159.5411646291
 21
108.58641485
  0
LINE
  5
283
100
AcDbEntity
  8
0
100
AcDbLine
 62
7
  6
BYLAYER
 10
110.1923878299
 20
67.4392678858
 11
110.1923878299
 21
63.3567558001
  0
LINE
  5
284
100
AcDbEntity
  8
0
100
AcDbLine
 62
7
  6
BYLAYER
 10
110.4045207475
 20
63.2342835737
 11
110.4045295794
 21
61.3563542775
  0
LINE
  5
285
100
AcDbEntity
  8
0
100
AcDbLine
 62
7
  6
BYLAYER
 10
110.4752293648
 20
77.4414196737
 11
110.4752293648
 21
103.1612458133
  0
LINE
  5
286
100
AcDbEntity
  8
0
100
AcDbLine
 62
7
  6
BYLAYER
 10
111.6065955044
 20
105.1616654478
 11
111.6065955044
 21
103.8144364595
  0
LINE
  5
287
100
AcDbEntity
  8
0
100
AcDbLine
 62
7
  6
BYLAYER
 10
111.6065955044
 20
76.7882399054
 11
111.6065955044
 21
63.5200421741
  0
LINE
  5
288
100
AcDbEntity
  8
0
100
AcDbLine
 62
7
  6
BYLAYER
 10
49.6639036953
 20
86.6265019829
 11
50.6538744175
 21
87.198058434
  0
LINE
  5
289
100
AcDbEntity
  8
0
100
AcDbLine
 62
7
  6
BYLAYER
 10
51.4316780082
 20
85.6059000966
 11
52.4216487303
 21
86.1774565477
  0
LINE
  5
28A
100
AcDbEntity
  8
0
100
AcDbLine
 62
7
  6
BYLAYER
 10
54.1187719449
 20
85.1976441693
 11
52.8458856826
 21
84.4627473298
  0
LINE
  5
28B
100
AcDbEntity
  8
0
100
AcDbLine
 62
7
  6
BYLAYER
 10
51.4316780082
 20
81.6050382526
 11
52.8458856826
 21
82.4215265604
  0
LINE
  5
28C
100
AcDbEntity
  8
0
100
AcDbLine
 62
7
  6
BYLAYER
 10
148.4396861986
 20
116.42510289
 11
142.2171206173
 21
120.0176215298
  0
LINE
  5
28D
100
AcDbEntity
  8
0
100
AcDbLine
 62
7
  6
BYLAYER
 10
149.5710523382
 20
117.0782935362
 11
143.3484867569
 21
120.6708121759
  0
LINE
  5
28E
100
AcDbEntity
  8
0
100
AcDbLine
 62
7
  6
BYLAYER
 10
45.2436403147
 20
177.8502706572
 11
69.9932023105
 21
163.5614276334
  0
LINE
  5
28F
100
AcDbEntity
  8
0
100
AcDbLine
 62
7
  6
BYLAYER
 10
80.2462933251
 20
157.6419366929
 11
104.1670292842
 21
143.8316057791
  0
LINE
  5
290
100
AcDbEntity
  8
0
100
AcDbLine
 62
7
  6
BYLAYER
 10
69.9932023105
 20
165.2760827094
 11
44.5535221277
 21
179.9633566405
  0
LINE
  5
291
100
AcDbEntity
  8
0
100
AcDbLine
 62
7
  6
BYLAYER
 10
80.2462933251
 20
159.3565917688
 11
105.6519853674
 21
144.6889404559
  0
LINE
  5
292
100
AcDbEntity
  8
0
100
AcDbLine
 62
7
  6
BYLAYER
 10
115.8492185276
 20
107.611130371
 11
115.8492185276
 21
106.2639013827
  0
LINE
  5
293
100
AcDbEntity
  8
0
100
AcDbLine
 62
7
  6
BYLAYER
 10
115.8492185276
 20
74.3388157742
 11
115.8492185276
 21
65.9695070974
  0
LINE
  5
294
100
AcDbEntity
  8
0
100
AcDbLine
 62
7
  6
BYLAYER
 10
116.6977949461
 20
73.8489010339
 11
116.6977949461
 21
99.5687271735
  0
LINE
  5
295
100
AcDbEntity
  8
0
100
AcDbLine
 62
7
  6
BYLAYER
 10
117.8291610856
 20
100.2219178197
 11
117.8291610856
 21
74.5020916801
  0
LINE
  5
296
100
AcDbEntity
  8
0
100
AcDbLine
 62
7
  6
BYLAYER
 10
120.8696557719
 20
72.3790009835
 11
120.8696557719
 21
68.8680405899
  0
LINE
  5
297
100
AcDbEntity
  8
0
100
AcDbLine
 62
7
  6
BYLAYER
 10
122.0717841089
 20
76.9515566034
 11
122.0717841089
 21
102.6713827429
  0
LINE
  5
298
100
AcDbEntity
  8
0
100
AcDbLine
 62
7
  6
BYLAYER
 10
107.8235899753
 20
106.3251965598
 11
133.2086083105
 21
120.9811562448
  0
LINE
  5
299
100
AcDbEntity
  8
0
100
AcDbLine
 62
7
  6
BYLAYER
 10
73.670142264
 20
167.3989523095
 11
48.2304620812
 21
182.0862262406
  0
LINE
  5
29A
100
AcDbEntity
  8
0
100
AcDbLine
 62
7
  6
BYLAYER
 10
83.9232332786
 20
161.479461369
 11
109.3289253209
 21
146.811810056
  0
LINE
  5
29B
100
AcDbEntity
  8
0
100
AcDbLine
 62
7
  6
BYLAYER
 10
123.2031502485
 20
103.3245733891
 11
123.2031502485
 21
77.6047472496
  0
LINE
  5
29C
100
AcDbEntity
  8
0
100
AcDbLine
 62
7
  6
BYLAYER
 10
123.6980711207
 20
74.011977599
 11
123.6980711207
 21
85.0755853511
  0
LINE
  5
29D
100
AcDbEntity
  8
0
100
AcDbLine
 62
7
  6
BYLAYER
 10
125.3314809847
 20
86.0186293466
 11
125.3314809847
 21
111.7384554861
  0
LINE
  5
29E
100
AcDbEntity
  8
0
100
AcDbLine
 62
7
  6
BYLAYER
 10
126.4628471242
 20
112.3916461323
 11
126.4628471242
 21
113.7388751206
  0
LINE
  5
29F
100
AcDbEntity
  8
0
100
AcDbLine
 62
7
  6
BYLAYER
 10
127.0922213531
 20
68.7864823437
 11
127.0922213531
 21
65.2755219501
  0
LINE
  5
2A0
100
AcDbEntity
  8
0
100
AcDbLine
 62
7
  6
BYLAYER
 10
129.0649892452
 20
115.2412136068
 11
129.0649892452
 21
113.8939846186
  0
LINE
  5
2A1
100
AcDbEntity
  8
0
100
AcDbLine
 62
7
  6
BYLAYER
 10
107.8235899753
 20
105.0188152674
 11
134.3399838708
 21
120.3279710375
  0
LINE
  5
2A2
100
AcDbEntity
  8
0
100
AcDbLine
 62
7
  6
BYLAYER
 10
165.7707494349
 20
136.4331676343
 11
150.9215688534
 21
127.860040403
  0
LINE
  5
2A3
100
AcDbEntity
  8
0
100
AcDbLine
 62
7
  6
BYLAYER
 10
129.0649892452
 20
115.2412136068
 11
126.4628471242
 21
113.7388751206
  0
LINE
  5
2A4
100
AcDbEntity
  8
0
100
AcDbLine
 62
7
  6
BYLAYER
 10
115.8492185276
 20
107.611130371
 11
111.6065955044
 21
105.1616654478
  0
LINE
  5
2A5
100
AcDbEntity
  8
0
100
AcDbLine
 62
7
  6
BYLAYER
 10
97.1816772252
 20
96.8334847088
 11
91.2420049926
 21
93.4042338163
  0
LINE
  5
2A6
100
AcDbEntity
  8
0
100
AcDbLine
 62
7
  6
BYLAYER
 10
110.4752293648
 20
103.1612458133
 11
111.6065955044
 21
103.8144364595
  0
LINE
  5
2A7
100
AcDbEntity
  8
0
100
AcDbLine
 62
7
  6
BYLAYER
 10
115.8492185276
 20
106.2639013827
 11
116.9805846672
 21
106.9170920289
  0
LINE
  5
2A8
100
AcDbEntity
  8
0
100
AcDbLine
 62
7
  6
BYLAYER
 10
125.3314809847
 20
111.7384554861
 11
126.4628471242
 21
112.3916461323
  0
LINE
  5
2A9
100
AcDbEntity
  8
0
100
AcDbLine
 62
7
  6
BYLAYER
 10
129.0649892452
 20
113.8939846186
 11
130.1963553847
 21
114.5471752648
  0
LINE
  5
2AA
100
AcDbEntity
  8
0
100
AcDbLine
 62
7
  6
BYLAYER
 10
137.5502352917
 20
118.792914465
 11
138.6816014313
 21
119.4461051112
  0
LINE
  5
2AB
100
AcDbEntity
  8
0
100
AcDbLine
 62
7
  6
BYLAYER
 10
98.3130433647
 20
94.6697420159
 11
97.1816772252
 21
94.0165513697
  0
LINE
  5
2AC
100
AcDbEntity
  8
0
100
AcDbLine
 62
7
  6
BYLAYER
 10
142.2171206173
 20
120.0176215298
 11
143.3484867569
 21
120.6708121759
  0
LINE
  5
2AD
100
AcDbEntity
  8
0
100
AcDbLine
 62
7
  6
BYLAYER
 10
63.9111816171
 20
188.6279163194
 11
88.6607436129
 21
174.3390732956
  0
LINE
  5
2AE
100
AcDbEntity
  8
0
100
AcDbLine
 62
7
  6
BYLAYER
 10
98.9138346276
 20
168.4195823551
 11
122.8345705867
 21
154.6092514413
  0
LINE
  5
2AF
100
AcDbEntity
  8
0
100
AcDbLine
 62
7
  6
BYLAYER
 10
131.554046566
 20
82.4261107068
 11
131.554046566
 21
108.1459368464
  0
LINE
  5
2B0
100
AcDbEntity
  8
0
100
AcDbLine
 62
7
  6
BYLAYER
 10
131.8297652487
 20
82.5852960122
 11
131.8297652487
 21
78.7067853685
  0
LINE
  5
2B1
100
AcDbEntity
  8
0
100
AcDbLine
 62
7
  6
BYLAYER
 10
132.3955001323
 20
71.8483134978
 11
132.3955001323
 21
68.3373531041
  0
LINE
  5
2B2
100
AcDbEntity
  8
0
100
AcDbLine
 62
7
  6
BYLAYER
 10
132.6854127055
 20
108.7991274925
 11
132.6854127055
 21
83.079301353
  0
LINE
  5
2B3
100
AcDbEntity
  8
0
100
AcDbLine
 62
7
  6
BYLAYER
 10
133.2086083105
 20
120.9811562448
 11
133.2086083105
 21
150.7427335467
  0
LINE
  5
2B4
100
AcDbEntity
  8
0
100
AcDbLine
 62
7
  6
BYLAYER
 10
134.3399838708
 20
120.3279710375
 11
134.3399838708
 21
150.0809699719
  0
LINE
  5
2B5
100
AcDbEntity
  8
0
100
AcDbLine
 62
7
  6
BYLAYER
 10
135.2875548265
 20
84.5816398392
 11
135.2875548265
 21
110.3014659788
  0
LINE
  5
2B6
100
AcDbEntity
  8
0
100
AcDbLine
 62
7
  6
BYLAYER
 10
136.1431504695
 20
74.0120075133
 11
136.1431504695
 21
70.5010471196
  0
LINE
  5
2B7
100
AcDbEntity
  8
0
100
AcDbLine
 62
7
  6
BYLAYER
 10
116.6977949461
 20
99.5687271735
 11
117.8291610856
 21
100.2219178197
  0
LINE
  5
2B8
100
AcDbEntity
  8
0
100
AcDbLine
 62
7
  6
BYLAYER
 10
122.0717841089
 20
102.6713827429
 11
123.2031502485
 21
103.3245733891
  0
LINE
  5
2B9
100
AcDbEntity
  8
0
100
AcDbLine
 62
7
  6
BYLAYER
 10
131.554046566
 20
108.1459368464
 11
132.6854127055
 21
108.7991274925
  0
LINE
  5
2BA
100
AcDbEntity
  8
0
100
AcDbLine
 62
7
  6
BYLAYER
 10
135.2875548265
 20
110.3014659788
 11
136.418920966
 21
110.954656625
  0
LINE
  5
2BB
100
AcDbEntity
  8
0
100
AcDbLine
 62
7
  6
BYLAYER
 10
143.772800873
 20
115.2003958253
 11
144.9041670126
 21
115.8535864714
  0
LINE
  5
2BC
100
AcDbEntity
  8
0
100
AcDbLine
 62
7
  6
BYLAYER
 10
103.4042428065
 20
90.4240327299
 11
104.535608946
 21
91.0772233761
  0
LINE
  5
2BD
100
AcDbEntity
  8
0
100
AcDbLine
 62
7
  6
BYLAYER
 10
148.4396861986
 20
116.42510289
 11
149.5710523382
 21
117.0782935362
  0
LINE
  5
2BE
100
AcDbEntity
  8
0
100
AcDbLine
 62
7
  6
BYLAYER
 10
155.2985416058
 20
117.8129344917
 11
159.5411646291
 21
120.2623994149
  0
LINE
  5
2BF
100
AcDbEntity
  8
0
100
AcDbLine
 62
7
  6
BYLAYER
 10
88.6607436129
 20
176.0537283716
 11
63.2210634301
 21
190.7410023027
  0
LINE
  5
2C0
100
AcDbEntity
  8
0
100
AcDbLine
 62
7
  6
BYLAYER
 10
98.9138346276
 20
170.134237431
 11
124.3195266699
 21
155.4665861181
  0
LINE
  5
2C1
100
AcDbEntity
  8
0
100
AcDbLine
 62
7
  6
BYLAYER
 10
92.3376835665
 20
178.1765979717
 11
66.8980033836
 21
192.8638719028
  0
LINE
  5
2C2
100
AcDbEntity
  8
0
100
AcDbLine
 62
7
  6
BYLAYER
 10
102.5907745811
 20
172.2571070312
 11
127.9964666234
 21
157.5894557182
  0
LINE
  5
2C3
100
AcDbEntity
  8
0
100
AcDbLine
 62
7
  6
BYLAYER
 10
165.7707494349
 20
136.4331676343
 11
150.9215688534
 21
145.0061520935
  0
LINE
  5
2C4
100
AcDbEntity
  8
0
100
AcDbLine
 62
7
  6
BYLAYER
 10
136.418920966
 20
110.954656625
 11
136.418920966
 21
85.2348304854
  0
LINE
  5
2C5
100
AcDbEntity
  8
0
100
AcDbLine
 62
7
  6
BYLAYER
 10
137.3451751789
 20
104.7531574484
 11
137.3451751789
 21
98.3844385947
  0
LINE
  5
2C6
100
AcDbEntity
  8
0
100
AcDbLine
 62
7
  6
BYLAYER
 10
137.5502352917
 20
93.0730883255
 11
137.5502352917
 21
118.792914465
  0
LINE
  5
2C7
100
AcDbEntity
  8
0
100
AcDbLine
 62
7
  6
BYLAYER
 10
141.4464292486
 20
77.0738386673
 11
141.4464292486
 21
73.5628782737
  0
LINE
  5
2C8
100
AcDbEntity
  8
0
100
AcDbLine
 62
7
  6
BYLAYER
 10
142.2171206173
 20
117.4049183352
 11
142.2171206173
 21
120.0176215298
  0
LINE
  5
2C9
100
AcDbEntity
  8
0
100
AcDbLine
 62
7
  6
BYLAYER
 10
104.535608946
 20
85.8106586233
 11
107.646814016
 21
87.6069029857
  0
LINE
  5
2CA
100
AcDbEntity
  8
0
100
AcDbLine
 62
7
  6
BYLAYER
 10
136.418920966
 20
104.2183875213
 11
137.3451751789
 21
104.7531574484
  0
LINE
  5
2CB
100
AcDbEntity
  8
0
100
AcDbLine
 62
7
  6
BYLAYER
 10
149.5710523382
 20
111.8117287833
 11
149.6417109081
 21
111.8525232842
  0
LINE
  5
2CC
100
AcDbEntity
  8
0
100
AcDbLine
 62
7
  6
BYLAYER
 10
104.9597970604
 20
82.7894989993
 11
104.535608946
 21
82.5445953392
  0
LINE
  5
2CD
100
AcDbEntity
  8
0
100
AcDbLine
 62
7
  6
BYLAYER
 10
156.8541476735
 20
110.1377297171
 11
155.2985416058
 21
109.2396054963
  0
LINE
  5
2CE
100
AcDbEntity
  8
0
100
AcDbLine
 62
7
  6
BYLAYER
 10
143.772800873
 20
89.4805696857
 11
143.772800873
 21
115.2003958253
  0
LINE
  5
2CF
100
AcDbEntity
  8
0
100
AcDbLine
 62
7
  6
BYLAYER
 10
144.9041670126
 20
115.8535864714
 11
144.9041670126
 21
90.1337603319
  0
LINE
  5
2D0
100
AcDbEntity
  8
0
100
AcDbLine
 62
7
  6
BYLAYER
 10
147.2446288999
 20
162.0715283651
 11
147.2446288999
 21
163.7861834411
  0
LINE
  5
2D1
100
AcDbEntity
  8
0
100
AcDbLine
 62
7
  6
BYLAYER
 10
148.4396861986
 20
92.1749811012
 11
148.4396861986
 21
116.42510289
  0
LINE
  5
2D2
100
AcDbEntity
  8
0
100
AcDbLine
 62
7
  6
BYLAYER
 10
149.5710523382
 20
117.0782935362
 11
149.5710523382
 21
92.8281717474
  0
LINE
  5
2D3
100
AcDbEntity
  8
0
100
AcDbLine
 62
7
  6
BYLAYER
 10
149.6417109081
 20
111.8525232842
 11
149.6417109081
 21
105.4838044306
  0
LINE
  5
2D4
100
AcDbEntity
  8
0
100
AcDbLine
 62
7
  6
BYLAYER
 10
149.6417109081
 20
105.4838044306
 11
149.5710523382
 21
105.4430099297
  0
LINE
  5
2D5
100
AcDbEntity
  8
0
100
AcDbLine
 62
7
  6
BYLAYER
 10
137.3451751789
 20
98.3844385947
 11
136.418920966
 21
97.8496686677
  0
LINE
  5
2D6
100
AcDbEntity
  8
0
100
AcDbLine
 62
7
  6
BYLAYER
 10
107.646814016
 20
81.2381841321
 11
104.535608946
 21
79.4419397696
  0
LINE
  5
2D7
100
AcDbEntity
  8
0
100
AcDbLine
 62
7
  6
BYLAYER
 10
159.5411646291
 20
108.58641485
 11
155.2985416058
 21
106.1369499267
  0
LINE
  5
2D8
100
AcDbEntity
  8
0
100
AcDbLine
 62
7
  6
BYLAYER
 10
123.6980711207
 20
85.0755853511
 11
125.3314809847
 21
86.0186293466
  0
LINE
  5
2D9
100
AcDbEntity
  8
0
100
AcDbLine
 62
7
  6
BYLAYER
 10
77.6650319455
 20
202.2424186099
 11
147.2446288999
 21
162.0715283651
  0
LINE
  5
2DA
100
AcDbEntity
  8
0
100
AcDbLine
 62
7
  6
BYLAYER
 10
147.2446288999
 20
163.7861834411
 11
77.6650319455
 21
203.9570736859
  0
LINE
  5
2DB
100
AcDbEntity
  8
0
100
AcDbLine
 62
7
  6
BYLAYER
 10
150.9215688534
 20
165.9090530412
 11
150.9215688534
 21
127.860040403
  0
LINE
  5
2DC
100
AcDbEntity
  8
0
100
AcDbLine
 62
7
  6
BYLAYER
 10
152.7600388302
 20
87.2798519295
 11
152.7600388302
 21
92.0155659488
  0
LINE
  5
2DD
100
AcDbEntity
  8
0
100
AcDbLine
 62
7
  6
BYLAYER
 10
152.9721717477
 20
87.8105816368
 11
152.9721717477
 21
87.1573797031
  0
LINE
  5
2DE
100
AcDbEntity
  8
0
100
AcDbLine
 62
7
  6
BYLAYER
 10
155.0934920913
 20
87.8105867358
 11
155.0934920913
 21
87.1573848021
  0
LINE
  5
2DF
100
AcDbEntity
  8
0
100
AcDbLine
 62
7
  6
BYLAYER
 10
155.2985416058
 20
106.1369499267
 11
155.2985416058
 21
117.8129344917
  0
LINE
  5
2E0
100
AcDbEntity
  8
0
100
AcDbLine
 62
7
  6
BYLAYER
 10
156.8541476735
 20
118.7110587126
 11
156.8541476735
 21
110.1377297171
  0
LINE
  5
2E1
100
AcDbEntity
  8
0
100
AcDbLine
 62
7
  6
BYLAYER
 10
149.5710523382
 20
92.8281717474
 11
148.4396861986
 21
92.1749811012
  0
LINE
  5
2E2
100
AcDbEntity
  8
0
100
AcDbLine
 62
7
  6
BYLAYER
 10
144.9041670126
 20
90.1337603319
 11
143.772800873
 21
89.4805696857
  0
LINE
  5
2E3
100
AcDbEntity
  8
0
100
AcDbLine
 62
7
  6
BYLAYER
 10
136.418920966
 20
85.2348304854
 11
135.2875548265
 21
84.5816398392
  0
LINE
  5
2E4
100
AcDbEntity
  8
0
100
AcDbLine
 62
7
  6
BYLAYER
 10
132.6854127055
 20
83.079301353
 11
131.554046566
 21
82.4261107068
  0
LINE
  5
2E5
100
AcDbEntity
  8
0
100
AcDbLine
 62
7
  6
BYLAYER
 10
123.2031502485
 20
77.6047472496
 11
122.0717841089
 21
76.9515566034
  0
LINE
  5
2E6
100
AcDbEntity
  8
0
100
AcDbLine
 62
7
  6
BYLAYER
 10
117.8291610856
 20
74.5020916801
 11
116.6977949461
 21
73.8489010339
  0
LINE
  5
2E7
100
AcDbEntity
  8
0
100
AcDbLine
 62
7
  6
BYLAYER
 10
104.535608946
 20
66.8271015873
 11
103.4042428065
 21
66.1739109411
  0
LINE
  5
2E8
100
AcDbEntity
  8
0
100
AcDbLine
 62
7
  6
BYLAYER
 10
99.7272510392
 20
61.3972544085
 11
110.1923878299
 21
67.4392678858
  0
LINE
  5
2E9
100
AcDbEntity
  8
0
100
AcDbLine
 62
7
  6
BYLAYER
 10
152.7600388302
 20
92.0155659488
 11
163.225175621
 21
98.0575794261
  0
LINE
  5
2EA
100
AcDbEntity
  8
0
100
AcDbLine
 62
7
  6
BYLAYER
 10
81.341971899
 20
206.079943286
 11
150.9215688534
 21
165.9090530412
  0
LINE
  5
2EB
100
AcDbEntity
  8
0
100
AcDbLine
 62
7
  6
BYLAYER
 10
159.5411646291
 20
120.2623994149
 11
159.5411646291
 21
108.58641485
  0
LINE
  5
2EC
100
AcDbEntity
  8
0
100
AcDbLine
 62
7
  6
BYLAYER
 10
160.3967367204
 20
96.4245892131
 11
160.3967367204
 21
95.6080303585
  0
LINE
  5
2ED
100
AcDbEntity
  8
0
100
AcDbLine
 62
7
  6
BYLAYER
 10
163.225175621
 20
98.0575794261
 11
163.225175621
 21
93.9750673405
  0
LINE
  5
2EE
100
AcDbEntity
  8
0
100
AcDbLine
 62
7
  6
BYLAYER
 10
163.4373085385
 20
93.8525951141
 11
163.4373173704
 21
91.9746658178
  0
LINE
  5
2EF
100
AcDbEntity
  8
0
100
AcDbLine
 62
7
  6
BYLAYER
 10
160.3967367204
 20
95.6080303585
 11
152.7600388302
 21
91.1990070943
  0
LINE
  5
2F0
100
AcDbEntity
  8
0
100
AcDbLine
 62
7
  6
BYLAYER
 10
107.3639489293
 20
64.9897188182
 11
99.7272510392
 21
60.5806955539
  0
LINE
  5
2F1
100
AcDbEntity
  8
0
100
AcDbLine
 62
7
  6
BYLAYER
 10
135.2238636673
 20
80.6663573071
 11
131.8297652487
 21
78.7067853685
  0
LINE
  5
2F2
100
AcDbEntity
  8
0
100
AcDbLine
 62
7
  6
BYLAYER
 10
123.6980711207
 20
74.011977599
 11
120.8696557719
 21
72.3790009835
  0
LINE
  5
2F3
100
AcDbEntity
  8
0
100
AcDbLine
 62
7
  6
BYLAYER
 10
165.7707494349
 20
94.7915443607
 11
163.4373114826
 21
93.4443413725
  0
LINE
  5
2F4
100
AcDbEntity
  8
0
100
AcDbLine
 62
7
  6
BYLAYER
 10
152.7600388302
 20
87.2798519295
 11
138.2644880281
 21
78.9108917278
  0
LINE
  5
2F5
100
AcDbEntity
  8
0
100
AcDbLine
 62
7
  6
BYLAYER
 10
97.1816772252
 20
55.1918614352
 11
99.7272510392
 21
56.6615403891
  0
LINE
  5
2F6
100
AcDbEntity
  8
0
100
AcDbLine
 62
7
  6
BYLAYER
 10
110.4045236915
 20
62.8260298321
 11
111.6065955044
 21
63.5200421741
  0
LINE
  5
2F7
100
AcDbEntity
  8
0
100
AcDbLine
 62
7
  6
BYLAYER
 10
115.8492185276
 20
65.9695070974
 11
120.8696557719
 21
68.8680405899
  0
LINE
  5
2F8
100
AcDbEntity
  8
0
100
AcDbLine
 62
7
  6
BYLAYER
 10
102.0607043002
 20
57.1922751955
 11
110.4045295794
 21
62.0095562112
  0
LINE
  5
2F9
100
AcDbEntity
  8
0
100
AcDbLine
 62
7
  6
BYLAYER
 10
155.0934920913
 20
87.8105867358
 11
163.4373173704
 21
92.6278677515
  0
LINE
  5
2FA
100
AcDbEntity
  8
0
100
AcDbLine
 62
7
  6
BYLAYER
 10
102.0607043002
 20
56.5390732618
 11
110.4045295794
 21
61.3563542775
  0
LINE
  5
2FB
100
AcDbEntity
  8
0
100
AcDbLine
 62
7
  6
BYLAYER
 10
155.0934920913
 20
87.1573848021
 11
163.4373173704
 21
91.9746658178
  0
LINE
  5
2FC
100
AcDbEntity
  8
0
100
AcDbLine
 62
7
  6
BYLAYER
 10
127.0922213531
 20
68.7864823437
 11
132.3955001323
 21
71.8483134978
  0
LINE
  5
2FD
100
AcDbEntity
  8
0
100
AcDbLine
 62
7
  6
BYLAYER
 10
136.1431504695
 20
74.0120075133
 11
141.4464292486
 21
77.0738386673
  0
LINE
  5
2FE
100
AcDbEntity
  8
0
100
AcDbLine
 62
7
  6
BYLAYER
 10
165.7707494349
 20
94.7915443607
 11
165.7707494349
 21
136.4331676343
  0
LINE
  5
2FF
100
AcDbEntity
  8
0
100
AcDbLine
 62
7
  6
BYLAYER
 10
127.0922213531
 20
65.2755219501
 11
132.3955001323
 21
68.3373531041
  0
LINE
  5
300
100
AcDbEntity
  8
0
100
AcDbLine
 62
7
  6
BYLAYER
 10
136.1431504695
 20
70.5010471196
 11
141.4464292486
 21
73.5628782737
  0
SPLINE
  5
301
100
AcDbEntity
  8
0
100
AcDbSpline
 62
7
  6
BYLAYER
 70
0
 71
3
 72
11
 73
7
 74
0
 42
0.0000001
 43
0.0000001
 44
0.0000000001
 40
0.0
 40
0.0
 40
0.0
 40
0.0
 40
0.2177602703
 40
0.450921312
 40
0.7102279696
 40
1.0
 40
1.0
 40
1.0
 40
1.0
 10
139.8097938351
 20
152.8628612441
 30
0.0
 10
139.9747095674
 20
152.9580765034
 30
0.0
 10
140.2832824607
 20
153.217530027
 30
0.0
 10
140.611792955
 20
153.7546113093
 30
0.0
 10
140.8070227765
 20
154.4165782727
 30
0.0
 10
140.8453565425
 20
154.8983835793
 30
0.0
 10
140.8453565425
 20
155.1517858757
 30
0.0
  0
SPLINE
  5
302
100
AcDbEntity
  8
0
100
AcDbSpline
 62
7
  6
BYLAYER
 70
0
 71
3
 72
11
 73
7
 74
0
 42
0.0000001
 43
0.0000001
 44
0.0000000001
 40
0.0
 40
0.0
 40
0.0
 40
0.0
 40
0.2177602703
 40
0.450921312
 40
0.7102279696
 40
1.0
 40
1.0
 40
1.0
 40
1.0
 10
108.874000957
 20
135.0021795122
 30
0.0
 10
109.0389166893
 20
135.0973947715
 30
0.0
 10
109.3474895826
 20
135.3568482952
 30
0.0
 10
109.6760000769
 20
135.8939295774
 30
0.0
 10
109.8712298984
 20
136.5558965408
 30
0.0
 10
109.9095636644
 20
137.0377018474
 30
0.0
 10
109.9095636644
 20
137.2911041438
 30
0.0
  0
SPLINE
  5
303
100
AcDbEntity
  8
0
100
AcDbSpline
 62
7
  6
BYLAYER
 70
0
 71
3
 72
16
 73
12
 74
0
 42
0.0000001
 43
0.0000001
 44
0.0000000001
 40
0.0
 40
0.0
 40
0.0
 40
0.0
 40
0.1379379868
 40
0.2838643464
 40
0.4309938098
 40
0.5723192664
 40
0.7017505791
 40
0.8153109973
 40
0.9127585689
 40
0.957124877
 40
1.0
 40
1.0
 40
1.0
 40
1.0
 10
74.093476873
 20
194.5066321351
 30
0.0
 10
74.0271948844
 20
194.9198478611
 30
0.0
 10
73.8052432885
 20
195.7576076179
 30
0.0
 10
73.2682310161
 20
196.9551763195
 30
0.0
 10
72.549703249
 20
198.0662944827
 30
0.0
 10
71.6990845023
 20
199.0141686139
 30
0.0
 10
70.7725259428
 20
199.734532508
 30
0.0
 10
69.8294253528
 20
200.1798606403
 30
0.0
 10
69.0435548503
 20
200.2902136619
 30
0.0
 10
68.4878910133
 20
200.1907153201
 30
0.0
 10
68.2420521397
 20
200.0852209954
 30
0.0
 10
68.1293860231
 20
200.020201858
 30
0.0
  0
SPLINE
  5
304
100
AcDbEntity
  8
0
100
AcDbSpline
 62
7
  6
BYLAYER
 70
0
 71
3
 72
11
 73
7
 74
0
 42
0.0000001
 43
0.0000001
 44
0.0000000001
 40
0.0
 40
0.0
 40
0.0
 40
0.0
 40
0.2897388857
 40
0.5490798204
 40
0.7822185262
 40
1.0
 40
1.0
 40
1.0
 40
1.0
 10
31.738620349
 20
177.3190888786
 30
0.0
 10
31.738620349
 20
177.5724615273
 30
0.0
 10
31.7769822985
 20
178.0542608241
 30
0.0
 10
31.9721609899
 20
178.7162235685
 30
0.0
 10
32.3006784251
 20
179.2533263345
 30
0.0
 10
32.6092441426
 20
179.5128022121
 30
0.0
 10
32.7741941621
 20
179.6079941649
 30
0.0
  0
SPLINE
  5
305
100
AcDbEntity
  8
0
100
AcDbSpline
 62
7
  6
BYLAYER
 70
0
 71
3
 72
9
 73
5
 74
0
 42
0.0000001
 43
0.0000001
 44
0.0000000001
 40
0.0
 40
0.0
 40
0.0
 40
0.0
 40
0.2624092188
 40
1.0
 40
1.0
 40
1.0
 40
1.0
 10
31.9281337752
 20
175.8910169613
 30
0.0
 10
31.8972419909
 20
176.0133579449
 30
0.0
 10
31.7921416735
 20
176.4825224092
 30
0.0
 10
31.738620349
 20
176.9644143504
 30
0.0
 10
31.738620349
 20
177.3190888786
 30
0.0
  0
SPLINE
  5
306
100
AcDbEntity
  8
0
100
AcDbSpline
 62
7
  6
BYLAYER
 70
0
 71
3
 72
17
 73
13
 74
0
 42
0.0000001
 43
0.0000001
 44
0.0000000001
 40
0.0
 40
0.0
 40
0.0
 40
0.0
 40
0.1286922455
 40
0.270274869
 40
0.4174329179
 40
0.5617773135
 40
0.695446775
 40
0.8127097285
 40
0.8646748994
 40
0.9125073155
 40
0.9571383743
 40
1.0
 40
1.0
 40
1.0
 40
1.0
 10
140.8453565425
 20
155.1517858757
 30
0.0
 10
140.8453565425
 20
155.5791733958
 30
0.0
 10
140.7258062649
 20
156.4777851601
 30
0.0
 10
140.2795145511
 20
157.7971987463
 30
0.0
 10
139.5918894929
 20
159.0682303681
 30
0.0
 10
138.7181315141
 20
160.1866476634
 30
0.0
 10
137.7296659066
 20
161.0621155529
 30
0.0
 10
136.8349549636
 20
161.5512748876
 30
0.0
 10
136.135086915
 20
161.7375221799
 30
0.0
 10
135.6534000562
 20
161.7728825793
 30
0.0
 10
135.2048263379
 20
161.7072776038
 30
0.0
 10
134.9331388919
 20
161.5942140365
 30
0.0
 10
134.8098552922
 20
161.5230601986
 30
0.0
  0
SPLINE
  5
307
100
AcDbEntity
  8
0
100
AcDbSpline
 62
7
  6
BYLAYER
 70
0
 71
3
 72
11
 73
7
 74
0
 42
0.0000001
 43
0.0000001
 44
0.0000000001
 40
0.0
 40
0.0
 40
0.0
 40
0.0
 40
0.2769564856
 40
0.5324802292
 40
0.770902368
 40
1.0
 40
1.0
 40
1.0
 40
1.0
 10
98.4905000186
 20
139.5972474534
 30
0.0
 10
98.5234490496
 20
139.764613174
 30
0.0
 10
98.6112615751
 20
140.0824756805
 30
0.0
 10
98.8209162539
 20
140.5119978257
 30
0.0
 10
99.1006942397
 20
140.8634305737
 30
0.0
 10
99.3324553874
 20
141.0403194239
 30
0.0
 10
99.4546634266
 20
141.1108525137
 30
0.0
  0
SPLINE
  5
308
100
AcDbEntity
  8
0
100
AcDbSpline
 62
7
  6
BYLAYER
 70
0
 71
3
 72
11
 73
7
 74
0
 42
0.0000001
 43
0.0000001
 44
0.0000000001
 40
0.0
 40
0.0
 40
0.0
 40
0.0
 40
0.2897720541
 40
0.5490787513
 40
0.7822397626
 40
1.0
 40
1.0
 40
1.0
 40
1.0
 10
105.4901646819
 20
134.7395781821
 30
0.0
 10
105.4901646819
 20
134.4861758656
 30
0.0
 10
105.4518308684
 20
134.0043705105
 30
0.0
 10
105.2566010575
 20
133.3424035121
 30
0.0
 10
104.9280905266
 20
132.805322281
 30
0.0
 10
104.6195176867
 20
132.5458687864
 30
0.0
 10
104.4546019767
 20
132.4506535473
 30
0.0
  0
SPLINE
  5
309
100
AcDbEntity
  8
0
100
AcDbSpline
 62
7
  6
BYLAYER
 70
0
 71
3
 72
9
 73
5
 74
0
 42
0.0000001
 43
0.0000001
 44
0.0000000001
 40
0.0
 40
0.0
 40
0.0
 40
0.0
 40
0.2390967669
 40
1.0
 40
1.0
 40
1.0
 40
1.0
 10
63.9111816171
 20
188.6279163194
 30
0.0
 10
63.883063619
 20
188.8032097776
 30
0.0
 10
63.7337873838
 20
189.5311378518
 30
0.0
 10
63.4698839194
 20
190.2337568914
 30
0.0
 10
63.2210634301
 20
190.7410023027
 30
0.0
  0
SPLINE
  5
30A
100
AcDbEntity
  8
0
100
AcDbSpline
 62
7
  6
BYLAYER
 70
0
 71
3
 72
17
 73
13
 74
0
 42
0.0000001
 43
0.0000001
 44
0.0000000001
 40
0.0
 40
0.0
 40
0.0
 40
0.0
 40
0.0428616187
 40
0.0874926709
 40
0.1353250809
 40
0.1872902436
 40
0.3045531855
 40
0.4382226405
 40
0.5825670363
 40
0.7297250952
 40
0.871307735
 40
1.0
 40
1.0
 40
1.0
 40
1.0
 10
99.4546634266
 20
141.1108525137
 30
0.0
 10
99.5779469986
 20
141.1820063536
 30
0.0
 10
99.8496344051
 20
141.2950698983
 30
0.0
 10
100.2982080519
 20
141.3606749053
 30
0.0
 10
100.7798948392
 20
141.325314498
 30
0.0
 10
101.4797628359
 20
141.1390673573
 30
0.0
 10
102.3744737226
 20
140.6499080717
 30
0.0
 10
103.3629393325
 20
139.7744402869
 30
0.0
 10
104.236697389
 20
138.656023032
 30
0.0
 10
104.9243225524
 20
137.3849913653
 30
0.0
 10
105.3706143714
 20
136.0655776516
 30
0.0
 10
105.4901646819
 20
135.1669657672
 30
0.0
 10
105.4901646819
 20
134.7395781821
 30
0.0
  0
SPLINE
  5
30B
100
AcDbEntity
  8
0
100
AcDbSpline
 62
7
  6
BYLAYER
 70
0
 71
3
 72
9
 73
5
 74
0
 42
0.0000001
 43
0.0000001
 44
0.0000000001
 40
0.0
 40
0.0
 40
0.0
 40
0.0
 40
0.2390967669
 40
1.0
 40
1.0
 40
1.0
 40
1.0
 10
45.2436403147
 20
177.8502706572
 30
0.0
 10
45.2155223166
 20
178.0255641153
 30
0.0
 10
45.0662460813
 20
178.7534921896
 30
0.0
 10
44.8023426169
 20
179.4561112292
 30
0.0
 10
44.5535221276
 20
179.9633566405
 30
0.0
  0
SPLINE
  5
30C
100
AcDbEntity
  8
0
100
AcDbSpline
 62
7
  6
BYLAYER
 70
0
 71
3
 72
16
 73
12
 74
0
 42
0.0000001
 43
0.0000001
 44
0.0000000001
 40
0.0
 40
0.0
 40
0.0
 40
0.0
 40
0.0428751164
 40
0.0872414195
 40
0.184688979
 40
0.2982493863
 40
0.4276806923
 40
0.5690061488
 40
0.7161356197
 40
0.8620619959
 40
1.0
 40
1.0
 40
1.0
 40
1.0
 10
32.7741941621
 20
179.6079941649
 30
0.0
 10
32.8868602622
 20
179.6730132908
 30
0.0
 10
33.1326990824
 20
179.7785076521
 30
0.0
 10
33.6883628629
 20
179.8780059264
 30
0.0
 10
34.4742332742
 20
179.767653016
 30
0.0
 10
35.4173338179
 20
179.3223249699
 30
0.0
 10
36.3438923765
 20
178.6019611682
 30
0.0
 10
37.1945111717
 20
177.6540870744
 30
0.0
 10
37.9130390265
 20
176.5429688796
 30
0.0
 10
38.4500513772
 20
175.3454000737
 30
0.0
 10
38.6720030154
 20
174.5076402197
 30
0.0
 10
38.7382850123
 20
174.0944244416
 30
0.0
  0
SPLINE
  5
30D
100
AcDbEntity
  8
0
100
AcDbSpline
 62
7
  6
BYLAYER
 70
0
 71
3
 72
11
 73
7
 74
0
 42
0.0000001
 43
0.0000001
 44
0.0000000001
 40
0.0
 40
0.0
 40
0.0
 40
0.0
 40
0.2897720541
 40
0.5490787513
 40
0.7822397626
 40
1.0
 40
1.0
 40
1.0
 40
1.0
 10
136.42595756
 20
152.600259914
 30
0.0
 10
136.42595756
 20
152.3468575975
 30
0.0
 10
136.3876237465
 20
151.8650522424
 30
0.0
 10
136.1923939356
 20
151.203085244
 30
0.0
 10
135.8638834047
 20
150.6660040129
 30
0.0
 10
135.5553105649
 20
150.4065505183
 30
0.0
 10
135.3903948548
 20
150.3113352792
 30
0.0
  0
ENDSEC
  0
SECTION
  2
OBJECTS
  0
DICTIONARY
  5
C
100
AcDbDictionary
280
0
281
1
  3
ACAD_GROUP
350
D
  3
ACAD_MLINESTYLE
350
17
  3
ACAD_LAYOUT
350
1A
  3
ACAD_PLOTSETTINGS
350
19
  3
ACAD_PLOTSTYLENAME
350
E
  0
DICTIONARY
  5
D
102
{ACAD_REACTORS
330
C
102
}
100
AcDbDictionary
280
0
281
1
  0
ACDBDICTIONARYWDFLT
  5
E
102
{ACAD_REACTORS
330
C
102
}
100
AcDbDictionary
281
1
  3
Normal
350
F
100
AcDbDictionaryWithDefault
340
F
  0
DICTIONARY
  5
17
102
{ACAD_REACTORS
330
C
102
}
100
AcDbDictionary
280
0
281
1
  3
Standard
350
18
  0
DICTIONARY
  5
19
102
{ACAD_REACTORS
330
C
102
}
100
AcDbDictionary
281
1
  0
DICTIONARY
  5
1A
102
{ACAD_REACTORS
330
C
102
}
100
AcDbDictionary
281
1
  3
Model
350
30E
  3
Layout1
350
30F
  0
ACDBPLACEHOLDER
  5
F
102
{ACAD_REACTORS
330
E
102
}
  0
MLINESTYLE
  5
18
102
{ACAD_REACTORS
330
17
102
}
100
AcDbMlineStyle
  2
STANDARD
 70
0
  3

 62
256
 51
90.0
 52
90.0
 71
2
 49
0.5
 62
256
  6
BYLAYER
 49
-0.5
 62
256
  6
BYLAYER
  0
LAYOUT
  5
30E
102
{ACAD_REACTORS
330
1A
102
}
100
AcDbPlotSettings
  1

  2
none_device
  4

  6

 40
0.0
 41
0.0
 42
0.0
 43
0.0
 44
210.0
 45
297.0
 46
0.0
 47
0.0
 48
0.0
 49
0.0
140
0.0
141
0.0
142
1.0
143
1.0
 70
1024
 72
1
 73
0
 74
0
  7

 75
0
147
1.0
148
0.0
149
0.0
100
AcDbLayout
  1
Model
 70
0
 71
0
 10
0.0
 20
0.0
 11
210.0
 21
297.0
 12
0.0
 22
0.0
 32
0.0
 14
0.0
 24
0.0
 34
0.0
 15
0.0
 25
0.0
 35
0.0
146
0.0
 13
0.0
 23
0.0
 33
0.0
 16
1.0
 26
0.0
 36
0.0
 17
0.0
 27
1.0
 37
0.0
 76
0
330
210
345
0
346
0
  0
LAYOUT
  5
30F
102
{ACAD_REACTORS
330
1A
102
}
100
AcDbPlotSettings
  1

  2
none_device
  4

  6

 40
0.0
 41
0.0
 42
0.0
 43
0.0
 44
210.0
 45
297.0
 46
0.0
 47
0.0
 48
0.0
 49
0.0
140
0.0
141
0.0
142
1.0
143
1.0
 70
0
 72
1
 73
0
 74
0
  7

 75
0
147
1.0
148
0.0
149
0.0
100
AcDbLayout
  1
Layout1
 70
0
 71
1
 10
0.0
 20
0.0
 11
210.0
 21
297.0
 12
0.0
 22
0.0
 32
0.0
 14
0.0
 24
0.0
 34
0.0
 15
0.0
 25
0.0
 35
0.0
146
0.0
 13
0.0
 23
0.0
 33
0.0
 16
1.0
 26
0.0
 36
0.0
 17
0.0
 27
1.0
 37
0.0
 76
0
330
211
345
0
346
0
  0
ENDSEC
  0
EOF
