999
DXF file: C:\Users\sesa63760\Dev\_Creo\CAD\MCADPD0004526_3D-CAD\drw0001_5.dxf
999
Pro/ENGINEER 2019471 by Parametric Technology Corporation
  0
SECTION
  2
HEADER
  9
$ACADVER
  1
AC1024
  9
$DWGCODEPAGE
  3
ANSI_1252
  9
$EXTMAX
 10
245.3301357805
 20
346.9669063181
 30
0.0
  9
$EXTMIN
 10
0.0
 20
0.0
 30
0.0
  9
$LIMMIN
 10
0.0
 20
0.0
  9
$LIMMAX
 10
245.3301357805
 20
346.9669063181
  9
$VIEWCTR
 10
122.6650678902
 20
173.483453159
  9
$VIEWSIZE
 40
346.9669063181
  9
$CLAYER
  8
0
  9
$LTSCALE
 40
22.6171020415
  9
$CELTYPE
  6
BYLAYER
  9
$DIMSCALE
 40
1.0
  9
$DIMASZ
 40
2.9205968545
  9
$DIMEXO
 40
1.0
  9
$DIMDLI
 40
15.6263614105
  9
$DIMEXE
 40
1.0
  9
$DIMCEN
 40
3.7009803341
  9
$DIMLFAC
 40
1.0
  9
$DIMBLK
  1
_FILLED
  9
$DIMALT
 70
0
  9
$DIMALTF
 40
0.0393700787
  9
$DIMTXT
 40
4.0888355963
  9
$DIMTOL
 70
1
  9
$DIMLIM
 70
0
  9
$DIMTFAC
 40
1.0
  9
$DIMTP
 40
0.01
  9
$DIMTM
 40
0.01
  9
$DIMGAP
 40
0.625
  9
$DIMDSEP
 70
46
  9
$AUNITS
 70
0
  9
$PDMODE
 70
3
  9
$PDSIZE
 40
0.3125
  9
$HANDSEED
  5
357
  9
$TILEMODE
 70
1
  9
$MEASUREMENT
 70
1
  9
$INSUNITS
 70
4
  0
ENDSEC
  0
SECTION
  2
CLASSES
  0
CLASS
  1
ACDBDICTIONARYWDFLT
  2
AcDbDictionaryWithDefault
  3
AutoCAD 2000
 90
0
 91
1
280
0
281
0
  0
CLASS
  1
ACDBPLACEHOLDER
  2
AcDbPlaceHolder
  3
AutoCAD 2000
 90
0
 91
1
280
0
281
0
  0
CLASS
  1
LAYOUT
  2
AcDbLayout
  3
AutoCAD 2000
 90
0
 91
0
280
0
281
0
  0
ENDSEC
  0
SECTION
  2
TABLES
  0
TABLE
  2
VPORT
  5
8
100
AcDbSymbolTable
 70
2
  0
VPORT
  5
1F4
100
AcDbSymbolTableRecord
100
AcDbViewportTableRecord
  2
*ACTIVE
 70
0
 10
0.0
 20
0.0
 11
1.0
 21
1.0
 12
122.6650678902
 22
173.483453159
 13
0.0
 23
0.0
 14
1.0
 24
1.0
 15
0.0
 25
0.0
 16
0.0
 26
0.0
 36
1.0
 17
0.0
 27
0.0
 37
0.0
 40
346.9669063181
 41
0.7070707071
 42
50.0
 43
0.0
 44
0.0
 50
0.0
 51
0.0
 71
0
 72
100
 73
1
 74
1
 75
0
 76
0
 77
0
 78
0
  0
ENDTAB
  0
TABLE
  2
LTYPE
  5
5
100
AcDbSymbolTable
 70
6
  0
LTYPE
  5
14
100
AcDbSymbolTableRecord
100
AcDbLinetypeTableRecord
  2
BYBLOCK
 70
0
  3

 72
65
 73
0
 40
0.0
  0
LTYPE
  5
15
100
AcDbSymbolTableRecord
100
AcDbLinetypeTableRecord
  2
BYLAYER
 70
0
  3

 72
65
 73
0
 40
0.0
  0
LTYPE
  5
16
100
AcDbSymbolTableRecord
100
AcDbLinetypeTableRecord
  2
CONTINUOUS
 70
64
  3
Solid line
 72
65
 73
0
 40
0.0
  0
LTYPE
  5
1F5
100
AcDbSymbolTableRecord
100
AcDbLinetypeTableRecord
  2
CENTER
 70
64
  3
____ _ ____ _ ____ _ ____ _ ____ _ ____ _ ____
 72
65
 73
4
 40
0.6
 49
0.375
 74
0
 49
-0.075
 74
0
 49
0.075
 74
0
 49
-0.075
 74
0
  0
LTYPE
  5
1F6
100
AcDbSymbolTableRecord
100
AcDbLinetypeTableRecord
  2
HIDDEN
 70
64
  3
- - - - - - - - - - - - - - - - - - - -
 72
65
 73
2
 40
0.2
 49
0.1
 74
0
 49
-0.1
 74
0
  0
LTYPE
  5
1F7
100
AcDbSymbolTableRecord
100
AcDbLinetypeTableRecord
  2
PHANTOM
 70
64
  3
_____ _ _ _____ _ _ _____ _ _ _____
 72
65
 73
6
 40
0.8
 49
0.45
 74
0
 49
-0.05
 74
0
 49
0.1
 74
0
 49
-0.05
 74
0
 49
0.1
 74
0
 49
-0.05
 74
0
  0
LTYPE
  5
1F8
100
AcDbSymbolTableRecord
100
AcDbLinetypeTableRecord
  2
DOT
 70
64
  3
. . . . . . . . . . . . . . . . . . . .
 72
65
 73
2
 40
0.2
 49
0.1
 74
0
 49
-0.1
 74
0
  0
LTYPE
  5
1F9
100
AcDbSymbolTableRecord
100
AcDbLinetypeTableRecord
  2
DASHED
 70
64
  3
- - - - - - - - - - - - - - - - - - - -
 72
65
 73
2
 40
0.2
 49
0.1
 74
0
 49
-0.1
 74
0
  0
ENDTAB
  0
TABLE
  2
LAYER
  5
2
100
AcDbSymbolTable
 70
36
  0
LAYER
  5
10
100
AcDbSymbolTableRecord
100
AcDbLayerTableRecord
  2
0
 70
0
 62
7
  6
CONTINUOUS
370
-3
390
F
  0
LAYER
  5
1FA
100
AcDbSymbolTableRecord
100
AcDbLayerTableRecord
  2
DEFAULT_1
 70
0
 62
7
  6
CENTER
370
-3
390
F
  0
LAYER
  5
1FB
100
AcDbSymbolTableRecord
100
AcDbLayerTableRecord
  2
DEFAULT_2
 70
0
 62
7
  6
HIDDEN
370
-3
390
F
  0
LAYER
  5
1FC
100
AcDbSymbolTableRecord
100
AcDbLayerTableRecord
  2
DEFAULT_3
 70
0
 62
7
  6
PHANTOM
370
-3
390
F
  0
LAYER
  5
1FD
100
AcDbSymbolTableRecord
100
AcDbLayerTableRecord
  2
00_COMPONENTS
 70
0
 62
7
  6
CONTINUOUS
370
-3
390
F
  0
LAYER
  5
1FE
100
AcDbSymbolTableRecord
100
AcDbLayerTableRecord
  2
01_1_DEFAULT_DATUMS
 70
0
 62
7
  6
CONTINUOUS
370
-3
390
F
  0
LAYER
  5
1FF
100
AcDbSymbolTableRecord
100
AcDbLayerTableRecord
  2
01_PLANES
 70
0
 62
7
  6
CONTINUOUS
370
-3
390
F
  0
LAYER
  5
200
100
AcDbSymbolTableRecord
100
AcDbLayerTableRecord
  2
02_COORD_SYS
 70
0
 62
7
  6
CONTINUOUS
370
-3
390
F
  0
LAYER
  5
201
100
AcDbSymbolTableRecord
100
AcDbLayerTableRecord
  2
03_AXES
 70
0
 62
7
  6
CONTINUOUS
370
-3
390
F
  0
LAYER
  5
202
100
AcDbSymbolTableRecord
100
AcDbLayerTableRecord
  2
04_POINTS
 70
0
 62
7
  6
CONTINUOUS
370
-3
390
F
  0
LAYER
  5
203
100
AcDbSymbolTableRecord
100
AcDbLayerTableRecord
  2
05_CURVES
 70
0
 62
7
  6
CONTINUOUS
370
-3
390
F
  0
LAYER
  5
204
100
AcDbSymbolTableRecord
100
AcDbLayerTableRecord
  2
06_SURFS
 70
0
 62
7
  6
CONTINUOUS
370
-3
390
F
  0
LAYER
  5
205
100
AcDbSymbolTableRecord
100
AcDbLayerTableRecord
  2
07_COSMETICS
 70
0
 62
7
  6
CONTINUOUS
370
-3
390
F
  0
LAYER
  5
206
100
AcDbSymbolTableRecord
100
AcDbLayerTableRecord
  2
10_NOTES
 70
0
 62
7
  6
CONTINUOUS
370
-3
390
F
  0
LAYER
  5
207
100
AcDbSymbolTableRecord
100
AcDbLayerTableRecord
  2
11_NOTES_PUB
 70
0
 62
7
  6
CONTINUOUS
370
-3
390
F
  0
LAYER
  5
208
100
AcDbSymbolTableRecord
100
AcDbLayerTableRecord
  2
13_REF_GTOL
 70
0
 62
7
  6
CONTINUOUS
370
-3
390
F
  0
LAYER
  5
209
100
AcDbSymbolTableRecord
100
AcDbLayerTableRecord
  2
16_MISC
 70
0
 62
7
  6
CONTINUOUS
370
-3
390
F
  0
LAYER
  5
20A
100
AcDbSymbolTableRecord
100
AcDbLayerTableRecord
  2
17_NO_PRINT
 70
0
 62
7
  6
CONTINUOUS
370
-3
390
F
  0
LAYER
  5
20B
100
AcDbSymbolTableRecord
100
AcDbLayerTableRecord
  2
18_DATUM_CAMS_JOINTS
 70
0
 62
7
  6
CONTINUOUS
370
-3
390
F
  0
LAYER
  5
20C
100
AcDbSymbolTableRecord
100
AcDbLayerTableRecord
  2
19_DATUM_FUNCTIONAL
 70
0
 62
7
  6
CONTINUOUS
370
-3
390
F
  0
LAYER
  5
20D
100
AcDbSymbolTableRecord
100
AcDbLayerTableRecord
  2
20_DATUM_KINEMATIC_SCHEME
 70
0
 62
7
  6
CONTINUOUS
370
-3
390
F
  0
ENDTAB
  0
TABLE
  2
STYLE
  5
3
100
AcDbSymbolTable
 70
1
  0
STYLE
  5
11
100
AcDbSymbolTableRecord
100
AcDbTextStyleTableRecord
  2
STANDARD
 70
0
 40
0.0
 41
1.0
 50
0.0
 71
0
 42
0.2
  3
ARIAL.TTF
  4

  0
STYLE
  5
20E
100
AcDbSymbolTableRecord
100
AcDbTextStyleTableRecord
  2
TEXTSTYLE_1
 70
0
 40
0.0
 41
0.8
 50
0.0
 71
0
 42
0.2
  3
gdt
  4

  0
ENDTAB
  0
TABLE
  2
VIEW
  5
6
100
AcDbSymbolTable
 70
0
  0
ENDTAB
  0
TABLE
  2
UCS
  5
7
100
AcDbSymbolTable
 70
0
  0
ENDTAB
  0
TABLE
  2
APPID
  5
9
100
AcDbSymbolTable
 70
1
  0
APPID
  5
20F
100
AcDbSymbolTableRecord
100
AcDbRegAppTableRecord
  2
ACAD
 70
0
  0
ENDTAB
  0
TABLE
  2
BLOCK_RECORD
  5
1
100
AcDbSymbolTable
 70
0
  0
BLOCK_RECORD
  5
210
100
AcDbSymbolTableRecord
100
AcDbBlockTableRecord
  2
*Model_Space
  0
BLOCK_RECORD
  5
211
100
AcDbSymbolTableRecord
100
AcDbBlockTableRecord
  2
*Paper_Space
  0
BLOCK_RECORD
  5
212
100
AcDbSymbolTableRecord
100
AcDbBlockTableRecord
  2
_FILLED
  0
ENDTAB
  0
TABLE
  2
DIMSTYLE
  5
A
100
AcDbSymbolTable
 70
1
100
AcDbDimStyleTable
 71
0
  0
DIMSTYLE
105
213
100
AcDbSymbolTableRecord
100
AcDbDimStyleTableRecord
  2
STANDARD
 70
0
  3

  4

 40
1.0
 41
2.9205968545
 42
1.0
 43
0.38
 44
1.0
 45
0.0
 46
0.0
 47
0.01
 48
0.01
140
4.0888355963
141
0.09
142
0.0
143
25.4
144
1.0
145
0.0
146
1.0
147
0.625
 71
1
 72
0
 73
0
 74
0
 75
0
 76
0
 77
1
 78
8
 79
2
170
0
171
1
172
0
173
0
174
0
175
0
176
0
177
0
178
0
270
2
179
2
271
2
272
2
273
2
274
2
275
0
280
0
281
0
282
0
283
1
284
8
285
0
286
0
287
3
288
0
340
11
278
46
341
212
342
212
343
212
344
212
  0
ENDTAB
  0
ENDSEC
  0
SECTION
  2
BLOCKS
  0
BLOCK
  5
20
100
AcDbEntity
  8
0
100
AcDbBlockBegin
  2
*Model_Space
 70
0
 10
0.0
 20
0.0
 30
0.0
  3
*Model_Space
  1

  0
ENDBLK
  5
21
100
AcDbEntity
  8
0
100
AcDbBlockEnd
  0
BLOCK
  5
1C
100
AcDbEntity
  8
0
100
AcDbBlockBegin
  2
*Paper_Space
 70
0
 10
0.0
 20
0.0
 30
0.0
  3
*Paper_Space
  1

  0
ENDBLK
  5
1D
100
AcDbEntity
  8
0
100
AcDbBlockEnd
  0
BLOCK
  5
214
100
AcDbEntity
  8
0
100
AcDbBlockBegin
  2
_FILLED
 70
64
 10
0.0
 20
0.0
  3
_FILLED
  1

  0
SOLID
  5
215
100
AcDbEntity
  8
0
  6
BYBLOCK
 62
0
100
AcDbTrace
 10
0.0
 20
0.0
 11
-1.0
 21
0.25
 12
-1.0
 22
-0.25
 13
-1.0
 23
-0.25
  0
ENDBLK
  5
216
100
AcDbEntity
  8
0
  6
BYBLOCK
 62
0
100
AcDbBlockEnd
  0
ENDSEC
  0
SECTION
  2
ENTITIES
  0
LINE
  5
217
100
AcDbEntity
  8
0
100
AcDbLine
 62
7
  6
BYLAYER
 10
28.5975406571
 20
259.1081372549
 11
28.8975406571
 21
259.4081372549
  0
LINE
  5
218
100
AcDbEntity
  8
0
100
AcDbLine
 62
7
  6
BYLAYER
 10
29.4975406571
 20
259.1081372549
 11
29.7975406571
 21
259.4081372549
  0
LINE
  5
219
100
AcDbEntity
  8
0
100
AcDbLine
 62
7
  6
BYLAYER
 10
38.5975406571
 20
46.5581372549
 11
123.6975406571
 21
46.5581372549
  0
LINE
  5
21A
100
AcDbEntity
  8
0
100
AcDbLine
 62
7
  6
BYLAYER
 10
38.5975406571
 20
46.8581372549
 11
123.9975406571
 21
46.8581372549
  0
LINE
  5
21B
100
AcDbEntity
  8
0
100
AcDbLine
 62
7
  6
BYLAYER
 10
28.5975406571
 20
88.7081372549
 11
28.8975406571
 21
88.4081372549
  0
LINE
  5
21C
100
AcDbEntity
  8
0
100
AcDbLine
 62
7
  6
BYLAYER
 10
38.5975406571
 20
50.0581372549
 11
36.5975406571
 21
50.0581372549
  0
LINE
  5
21D
100
AcDbEntity
  8
0
100
AcDbLine
 62
7
  6
BYLAYER
 10
115.6975406573
 20
55.2081372536
 11
123.9975406571
 21
55.2081372549
  0
LINE
  5
21E
100
AcDbEntity
  8
0
100
AcDbLine
 62
7
  6
BYLAYER
 10
33.5975406571
 20
55.7081372549
 11
123.6975406571
 21
55.7081372549
  0
LINE
  5
21F
100
AcDbEntity
  8
0
100
AcDbLine
 62
7
  6
BYLAYER
 10
28.5975406571
 20
259.1081372549
 11
28.5975406571
 21
254.7081372549
  0
LINE
  5
220
100
AcDbEntity
  8
0
100
AcDbLine
 62
7
  6
BYLAYER
 10
28.5975406571
 20
93.1081372549
 11
28.5975406571
 21
88.7081372549
  0
LINE
  5
221
100
AcDbEntity
  8
0
100
AcDbLine
 62
7
  6
BYLAYER
 10
28.8975406571
 20
259.4081372549
 11
28.8975406571
 21
254.4081372549
  0
LINE
  5
222
100
AcDbEntity
  8
0
100
AcDbLine
 62
7
  6
BYLAYER
 10
28.8975406571
 20
93.4081372549
 11
28.8975406571
 21
88.4081372549
  0
LINE
  5
223
100
AcDbEntity
  8
0
100
AcDbLine
 62
7
  6
BYLAYER
 10
29.4975406571
 20
259.1081372549
 11
29.4975406571
 21
254.7081372549
  0
LINE
  5
224
100
AcDbEntity
  8
0
100
AcDbLine
 62
7
  6
BYLAYER
 10
29.7975406571
 20
259.4081372549
 11
29.7975406571
 21
254.4081372549
  0
LINE
  5
225
100
AcDbEntity
  8
0
100
AcDbLine
 62
7
  6
BYLAYER
 10
127.6975406571
 20
75.1831372549
 11
124.2975406571
 21
75.1831372549
  0
LINE
  5
226
100
AcDbEntity
  8
0
100
AcDbLine
 62
7
  6
BYLAYER
 10
124.2975406571
 20
75.4831372549
 11
127.9975406571
 21
75.4831372549
  0
LINE
  5
227
100
AcDbEntity
  8
0
100
AcDbLine
 62
7
  6
BYLAYER
 10
33.5975406571
 20
55.7081372549
 11
33.5975406571
 21
86.2581372549
  0
LINE
  5
228
100
AcDbEntity
  8
0
100
AcDbLine
 62
7
  6
BYLAYER
 10
33.5975406571
 20
86.497500092
 11
33.5975406571
 21
261.3187744179
  0
LINE
  5
229
100
AcDbEntity
  8
0
100
AcDbLine
 62
7
  6
BYLAYER
 10
33.5975406571
 20
261.5581372549
 11
33.5975406571
 21
292.1081372549
  0
LINE
  5
22A
100
AcDbEntity
  8
0
100
AcDbLine
 62
7
  6
BYLAYER
 10
34.5975406571
 20
292.1081372549
 11
34.5975406571
 21
261.5581372549
  0
LINE
  5
22B
100
AcDbEntity
  8
0
100
AcDbLine
 62
7
  6
BYLAYER
 10
34.5975406571
 20
260.7581372549
 11
34.5975406571
 21
87.0581372549
  0
LINE
  5
22C
100
AcDbEntity
  8
0
100
AcDbLine
 62
7
  6
BYLAYER
 10
34.5975406571
 20
86.2581372549
 11
34.5975406571
 21
55.7081372549
  0
LINE
  5
22D
100
AcDbEntity
  8
0
100
AcDbLine
 62
7
  6
BYLAYER
 10
36.0975406571
 20
297.2581372549
 11
36.0975406571
 21
292.1081372549
  0
LINE
  5
22E
100
AcDbEntity
  8
0
100
AcDbLine
 62
7
  6
BYLAYER
 10
36.0975406571
 20
261.5581372549
 11
36.0975406571
 21
261.2581372549
  0
LINE
  5
22F
100
AcDbEntity
  8
0
100
AcDbLine
 62
7
  6
BYLAYER
 10
36.0975406571
 20
50.5581372549
 11
36.0975406571
 21
55.7081372549
  0
LINE
  5
230
100
AcDbEntity
  8
0
100
AcDbLine
 62
7
  6
BYLAYER
 10
36.0975406571
 20
86.2581372549
 11
36.0975406571
 21
86.5581372549
  0
LINE
  5
231
100
AcDbEntity
  8
0
100
AcDbLine
 62
7
  6
BYLAYER
 10
38.5975406571
 20
301.2581372549
 11
38.5975406571
 21
301.1397896369
  0
LINE
  5
232
100
AcDbEntity
  8
0
100
AcDbLine
 62
7
  6
BYLAYER
 10
38.5975406571
 20
50.0581372549
 11
38.5975406571
 21
46.8581372549
  0
LINE
  5
233
100
AcDbEntity
  8
0
100
AcDbLine
 62
7
  6
BYLAYER
 10
38.5975406571
 20
46.8020387703
 11
38.5975406571
 21
46.5581372549
  0
LINE
  5
234
100
AcDbEntity
  8
0
100
AcDbLine
 62
7
  6
BYLAYER
 10
38.5975406571
 20
297.7581372549
 11
38.5975406571
 21
300.9581372549
  0
LINE
  5
235
100
AcDbEntity
  8
0
100
AcDbLine
 62
7
  6
BYLAYER
 10
116.4975406571
 20
292.6081372549
 11
115.9975406571
 21
292.1081372549
  0
LINE
  5
236
100
AcDbEntity
  8
0
100
AcDbLine
 62
7
  6
BYLAYER
 10
36.0975406571
 20
86.2581372549
 11
33.5975406571
 21
86.2581372549
  0
LINE
  5
237
100
AcDbEntity
  8
0
100
AcDbLine
 62
7
  6
BYLAYER
 10
33.5975406571
 20
86.5581372549
 11
123.6975406571
 21
86.5581372549
  0
LINE
  5
238
100
AcDbEntity
  8
0
100
AcDbLine
 62
7
  6
BYLAYER
 10
123.9975406571
 20
87.0581372549
 11
34.5975406571
 21
87.0581372549
  0
LINE
  5
239
100
AcDbEntity
  8
0
100
AcDbLine
 62
7
  6
BYLAYER
 10
33.5975406571
 20
88.4081372549
 11
28.8975406571
 21
88.4081372549
  0
LINE
  5
23A
100
AcDbEntity
  8
0
100
AcDbLine
 62
7
  6
BYLAYER
 10
33.5975406571
 20
93.4081372549
 11
28.8975406571
 21
93.4081372549
  0
LINE
  5
23B
100
AcDbEntity
  8
0
100
AcDbLine
 62
7
  6
BYLAYER
 10
120.9975406571
 20
105.1331372549
 11
127.6975406571
 21
105.1331372549
  0
LINE
  5
23C
100
AcDbEntity
  8
0
100
AcDbLine
 62
7
  6
BYLAYER
 10
172.8975406571
 20
105.9080996194
 11
120.9975406571
 21
105.9080996194
  0
LINE
  5
23D
100
AcDbEntity
  8
0
100
AcDbLine
 62
7
  6
BYLAYER
 10
120.9975406571
 20
106.2080999932
 11
173.1975406571
 21
106.2080996194
  0
LINE
  5
23E
100
AcDbEntity
  8
0
100
AcDbLine
 62
7
  6
BYLAYER
 10
209.4975406572
 20
106.5062470222
 11
173.1975406571
 21
106.506247021
  0
LINE
  5
23F
100
AcDbEntity
  8
0
100
AcDbLine
 62
7
  6
BYLAYER
 10
173.1975406571
 20
112.9815125586
 11
209.497540657
 21
112.9815125598
  0
LINE
  5
240
100
AcDbEntity
  8
0
100
AcDbLine
 62
7
  6
BYLAYER
 10
100.9399477156
 20
120.4616586914
 11
121.4975406571
 21
120.1028245705
  0
LINE
  5
241
100
AcDbEntity
  8
0
100
AcDbLine
 62
7
  6
BYLAYER
 10
120.6975406571
 20
120.9168647858
 11
100.9539095101
 21
121.2614911532
  0
LINE
  5
242
100
AcDbEntity
  8
0
100
AcDbLine
 62
7
  6
BYLAYER
 10
120.1975406571
 20
121.4256684824
 11
100.9626356878
 21
121.7614150014
  0
LINE
  5
243
100
AcDbEntity
  8
0
100
AcDbLine
 62
7
  6
BYLAYER
 10
135.9675406571
 20
244.1928336747
 11
137.0251496846
 21
245.2511684049
  0
LINE
  5
244
100
AcDbEntity
  8
0
100
AcDbLine
 62
7
  6
BYLAYER
 10
137.0251496846
 20
245.6711933751
 11
135.9675406571
 21
244.6143090558
  0
LINE
  5
245
100
AcDbEntity
  8
0
100
AcDbLine
 62
7
  6
BYLAYER
 10
98.4975406632
 20
123.7611102938
 11
98.9975406636
 21
123.7611102877
  0
LINE
  5
246
100
AcDbEntity
  8
0
100
AcDbLine
 62
7
  6
BYLAYER
 10
173.1975406571
 20
124.020460139
 11
172.8975406571
 21
124.0204605128
  0
LINE
  5
247
100
AcDbEntity
  8
0
100
AcDbLine
 62
7
  6
BYLAYER
 10
120.1975406571
 20
226.3906060245
 11
120.6975406571
 21
226.899409721
  0
LINE
  5
248
100
AcDbEntity
  8
0
100
AcDbLine
 62
7
  6
BYLAYER
 10
155.5891273075
 20
249.1897945321
 11
151.65050118
 21
245.2511684049
  0
LINE
  5
249
100
AcDbEntity
  8
0
100
AcDbLine
 62
7
  6
BYLAYER
 10
155.5891273076
 20
249.6044217521
 11
151.65050118
 21
245.6711933751
  0
LINE
  5
24A
100
AcDbEntity
  8
0
100
AcDbLine
 62
7
  6
BYLAYER
 10
192.1884553147
 20
136.9030884459
 11
153.3942301383
 21
136.2259184119
  0
LINE
  5
24B
100
AcDbEntity
  8
0
100
AcDbLine
 62
7
  6
BYLAYER
 10
192.1858402159
 20
137.4029898725
 11
160.4114107492
 21
136.848306368
  0
LINE
  5
24C
100
AcDbEntity
  8
0
100
AcDbLine
 62
7
  6
BYLAYER
 10
150.9561158735
 20
134.6023230206
 11
151.2561158735
 21
134.6023226468
  0
LINE
  5
24D
100
AcDbEntity
  8
0
100
AcDbLine
 62
7
  6
BYLAYER
 10
152.4688414495
 20
136.8069485216
 11
160.4201407936
 21
136.8070782055
  0
LINE
  5
24E
100
AcDbEntity
  8
0
100
AcDbLine
 62
7
  6
BYLAYER
 10
152.7959099753
 20
137.2257439495
 11
152.3769273522
 21
137.2257439654
  0
LINE
  5
24F
100
AcDbEntity
  8
0
100
AcDbLine
 62
7
  6
BYLAYER
 10
160.4114107492
 20
137.3068035617
 11
152.876890037
 21
137.3066808292
  0
LINE
  5
250
100
AcDbEntity
  8
0
100
AcDbLine
 62
7
  6
BYLAYER
 10
140.2975406582
 20
140.3581372548
 11
121.4975406571
 21
140.3581372548
  0
LINE
  5
251
100
AcDbEntity
  8
0
100
AcDbLine
 62
7
  6
BYLAYER
 10
140.2975407985
 20
141.1581372617
 11
120.6975406571
 21
141.1581372562
  0
LINE
  5
252
100
AcDbEntity
  8
0
100
AcDbLine
 62
7
  6
BYLAYER
 10
140.2975406939
 20
141.6581372614
 11
120.1975406571
 21
141.6581372562
  0
LINE
  5
253
100
AcDbEntity
  8
0
100
AcDbLine
 62
7
  6
BYLAYER
 10
141.7975406615
 20
143.158137278
 11
142.2975406615
 21
143.158137278
  0
LINE
  5
254
100
AcDbEntity
  8
0
100
AcDbLine
 62
7
  6
BYLAYER
 10
201.2954112064
 20
143.2081372618
 11
209.4975406561
 21
143.2081372632
  0
LINE
  5
255
100
AcDbEntity
  8
0
100
AcDbLine
 62
7
  6
BYLAYER
 10
155.3368667002
 20
129.3824501349
 11
170.6663907367
 21
126.6794414459
  0
LINE
  5
256
100
AcDbEntity
  8
0
100
AcDbLine
 62
7
  6
BYLAYER
 10
155.388788943
 20
129.6779224524
 11
170.7184851937
 21
126.9748833973
  0
LINE
  5
257
100
AcDbEntity
  8
0
100
AcDbLine
 62
7
  6
BYLAYER
 10
120.1975406571
 20
121.4256684824
 11
120.6975406571
 21
120.9168647858
  0
LINE
  5
258
100
AcDbEntity
  8
0
100
AcDbLine
 62
7
  6
BYLAYER
 10
100.9539095721
 20
226.5547833545
 11
100.9626357707
 21
226.0548595065
  0
LINE
  5
259
100
AcDbEntity
  8
0
100
AcDbLine
 62
7
  6
BYLAYER
 10
97.6975406583
 20
123.7610677305
 11
97.6975406583
 21
224.0552067804
  0
LINE
  5
25A
100
AcDbEntity
  8
0
100
AcDbLine
 62
7
  6
BYLAYER
 10
98.4975406632
 20
123.7611102938
 11
98.4975406596
 21
224.0551642542
  0
LINE
  5
25B
100
AcDbEntity
  8
0
100
AcDbLine
 62
7
  6
BYLAYER
 10
98.9975406636
 20
123.7611103449
 11
98.9975406598
 21
224.0551642799
  0
LINE
  5
25C
100
AcDbEntity
  8
0
100
AcDbLine
 62
7
  6
BYLAYER
 10
100.9539095101
 20
121.2614911532
 11
100.9626357047
 21
121.7614150011
  0
LINE
  5
25D
100
AcDbEntity
  8
0
100
AcDbLine
 62
7
  6
BYLAYER
 10
120.1975406571
 20
206.1581372506
 11
120.6975406571
 21
206.6581372506
  0
LINE
  5
25E
100
AcDbEntity
  8
0
100
AcDbLine
 62
7
  6
BYLAYER
 10
201.4093295449
 20
143.5081372604
 11
209.497540656
 21
143.5081289049
  0
LINE
  5
25F
100
AcDbEntity
  8
0
100
AcDbLine
 62
7
  6
BYLAYER
 10
202.0132226431
 20
146.9015780415
 11
201.5193311435
 21
146.9015780558
  0
LINE
  5
260
100
AcDbEntity
  8
0
100
AcDbLine
 62
7
  6
BYLAYER
 10
120.1975406571
 20
141.6581372562
 11
120.6975406571
 21
141.1581372562
  0
LINE
  5
261
100
AcDbEntity
  8
0
100
AcDbLine
 62
7
  6
BYLAYER
 10
115.6975406571
 20
46.5581372549
 11
115.6975406576
 21
55.2081323758
  0
LINE
  5
262
100
AcDbEntity
  8
0
100
AcDbLine
 62
7
  6
BYLAYER
 10
115.6975406571
 20
292.1081372549
 11
115.6975406571
 21
301.2581372549
  0
LINE
  5
263
100
AcDbEntity
  8
0
100
AcDbLine
 62
7
  6
BYLAYER
 10
115.9975406571
 20
300.9581372549
 11
115.9975406571
 21
292.1081372549
  0
LINE
  5
264
100
AcDbEntity
  8
0
100
AcDbLine
 62
7
  6
BYLAYER
 10
115.9975406571
 20
55.2081372538
 11
115.9975406571
 21
46.8581372549
  0
LINE
  5
265
100
AcDbEntity
  8
0
100
AcDbLine
 62
7
  6
BYLAYER
 10
116.4975406571
 20
301.2581372549
 11
116.4975406571
 21
292.6081372549
  0
LINE
  5
266
100
AcDbEntity
  8
0
100
AcDbLine
 62
7
  6
BYLAYER
 10
116.4975406571
 20
55.5616906455
 11
116.4975406571
 21
46.5581372549
  0
LINE
  5
267
100
AcDbEntity
  8
0
100
AcDbLine
 62
7
  6
BYLAYER
 10
131.4975406571
 20
202.7081360093
 11
130.9975406571
 21
202.2081353863
  0
LINE
  5
268
100
AcDbEntity
  8
0
100
AcDbLine
 62
7
  6
BYLAYER
 10
122.9975406571
 20
188.3581360093
 11
123.4975406571
 21
188.8581353863
  0
LINE
  5
269
100
AcDbEntity
  8
0
100
AcDbLine
 62
7
  6
BYLAYER
 10
28.5975406571
 20
93.1081372549
 11
28.8975406571
 21
93.4081372549
  0
LINE
  5
26A
100
AcDbEntity
  8
0
100
AcDbLine
 62
7
  6
BYLAYER
 10
28.5975406571
 20
254.7081372549
 11
28.8975406571
 21
254.4081372549
  0
LINE
  5
26B
100
AcDbEntity
  8
0
100
AcDbLine
 62
7
  6
BYLAYER
 10
29.4975406571
 20
254.7081372549
 11
29.7975406571
 21
254.4081372549
  0
LINE
  5
26C
100
AcDbEntity
  8
0
100
AcDbLine
 62
7
  6
BYLAYER
 10
120.1975406571
 20
226.3906060245
 11
120.1975406571
 21
206.1581372507
  0
LINE
  5
26D
100
AcDbEntity
  8
0
100
AcDbLine
 62
7
  6
BYLAYER
 10
120.1975406571
 20
141.6581372562
 11
120.1975406571
 21
121.4256684824
  0
LINE
  5
26E
100
AcDbEntity
  8
0
100
AcDbLine
 62
7
  6
BYLAYER
 10
120.6975406571
 20
226.899409721
 11
120.6975406571
 21
206.6581372506
  0
LINE
  5
26F
100
AcDbEntity
  8
0
100
AcDbLine
 62
7
  6
BYLAYER
 10
120.6975406571
 20
141.1581372562
 11
120.6975406571
 21
120.9168647858
  0
LINE
  5
270
100
AcDbEntity
  8
0
100
AcDbLine
 62
7
  6
BYLAYER
 10
120.9975406571
 20
105.1331372549
 11
120.9975406571
 21
120.111552103
  0
LINE
  5
271
100
AcDbEntity
  8
0
100
AcDbLine
 62
7
  6
BYLAYER
 10
120.9975406571
 20
227.7047224062
 11
120.9975406571
 21
242.6831372549
  0
LINE
  5
272
100
AcDbEntity
  8
0
100
AcDbLine
 62
7
  6
BYLAYER
 10
121.4975406571
 20
227.7134499386
 11
121.4975406571
 21
207.4581372543
  0
LINE
  5
273
100
AcDbEntity
  8
0
100
AcDbLine
 62
7
  6
BYLAYER
 10
121.4975406571
 20
140.3581372548
 11
121.4975406571
 21
120.1028245705
  0
LINE
  5
274
100
AcDbEntity
  8
0
100
AcDbLine
 62
7
  6
BYLAYER
 10
122.9975406571
 20
202.7081360093
 11
122.9975406571
 21
188.3581360093
  0
LINE
  5
275
100
AcDbEntity
  8
0
100
AcDbLine
 62
7
  6
BYLAYER
 10
122.9975406571
 20
300.9581372549
 11
122.9975406571
 21
301.2581372549
  0
LINE
  5
276
100
AcDbEntity
  8
0
100
AcDbLine
 62
7
  6
BYLAYER
 10
123.4975406571
 20
202.2081353863
 11
123.4975406571
 21
188.8581353863
  0
LINE
  5
277
100
AcDbEntity
  8
0
100
AcDbLine
 62
7
  6
BYLAYER
 10
123.6975406571
 20
46.5581372549
 11
123.6975406571
 21
55.6411499568
  0
LINE
  5
278
100
AcDbEntity
  8
0
100
AcDbLine
 62
7
  6
BYLAYER
 10
123.6975406571
 20
55.7081372549
 11
123.6975406571
 21
86.5581372549
  0
LINE
  5
279
100
AcDbEntity
  8
0
100
AcDbLine
 62
7
  6
BYLAYER
 10
123.6975406571
 20
261.2581372549
 11
123.6975406571
 21
300.2581372549
  0
LINE
  5
27A
100
AcDbEntity
  8
0
100
AcDbLine
 62
7
  6
BYLAYER
 10
123.9975406571
 20
46.8581372549
 11
123.9975406571
 21
105.1331372549
  0
LINE
  5
27B
100
AcDbEntity
  8
0
100
AcDbLine
 62
7
  6
BYLAYER
 10
123.9975406571
 20
242.6831372549
 11
123.9975406571
 21
300.2581372549
  0
LINE
  5
27C
100
AcDbEntity
  8
0
100
AcDbLine
 62
7
  6
BYLAYER
 10
124.2975406571
 20
75.4831372549
 11
124.2975406571
 21
75.1831372549
  0
LINE
  5
27D
100
AcDbEntity
  8
0
100
AcDbLine
 62
7
  6
BYLAYER
 10
127.4887993332
 20
180.2453073144
 11
124.660370909
 21
177.4168788902
  0
LINE
  5
27E
100
AcDbEntity
  8
0
100
AcDbLine
 62
7
  6
BYLAYER
 10
141.2975406571
 20
166.908139677
 11
137.2975406571
 21
166.908139677
  0
LINE
  5
27F
100
AcDbEntity
  8
0
100
AcDbLine
 62
7
  6
BYLAYER
 10
137.2975406571
 20
167.0581520536
 11
130.9975703307
 21
167.0581247627
  0
LINE
  5
280
100
AcDbEntity
  8
0
100
AcDbLine
 62
7
  6
BYLAYER
 10
142.7977130187
 20
168.5581396798
 11
141.2975406571
 21
168.5581396798
  0
LINE
  5
281
100
AcDbEntity
  8
0
100
AcDbLine
 62
7
  6
BYLAYER
 10
124.6603709089
 20
170.3994004639
 11
127.4887993332
 21
167.5709720397
  0
LINE
  5
282
100
AcDbEntity
  8
0
100
AcDbLine
 62
7
  6
BYLAYER
 10
127.6975406571
 20
75.1831372549
 11
127.6975406571
 21
105.1331372549
  0
LINE
  5
283
100
AcDbEntity
  8
0
100
AcDbLine
 62
7
  6
BYLAYER
 10
127.6975406571
 20
242.6831372549
 11
127.6975406571
 21
272.6331372549
  0
LINE
  5
284
100
AcDbEntity
  8
0
100
AcDbLine
 62
7
  6
BYLAYER
 10
127.9975406571
 20
272.3331372549
 11
127.9975406571
 21
242.9831372549
  0
LINE
  5
285
100
AcDbEntity
  8
0
100
AcDbLine
 62
7
  6
BYLAYER
 10
127.9975406571
 20
104.8331372549
 11
127.9975406571
 21
75.4831372549
  0
LINE
  5
286
100
AcDbEntity
  8
0
100
AcDbLine
 62
7
  6
BYLAYER
 10
130.9975406571
 20
188.8581353863
 11
130.9975406571
 21
202.2081353863
  0
LINE
  5
287
100
AcDbEntity
  8
0
100
AcDbLine
 62
7
  6
BYLAYER
 10
131.4975406571
 20
188.3581360093
 11
131.4975406571
 21
202.7081360093
  0
LINE
  5
288
100
AcDbEntity
  8
0
100
AcDbLine
 62
7
  6
BYLAYER
 10
135.9675406571
 20
241.9081372549
 11
135.9675406571
 21
244.6143090558
  0
LINE
  5
289
100
AcDbEntity
  8
0
100
AcDbLine
 62
7
  6
BYLAYER
 10
137.0251496846
 20
245.2511684049
 11
137.0251496846
 21
245.6711933751
  0
LINE
  5
28A
100
AcDbEntity
  8
0
100
AcDbLine
 62
7
  6
BYLAYER
 10
137.2975406571
 20
166.908139677
 11
137.2975406571
 21
167.0581520536
  0
LINE
  5
28B
100
AcDbEntity
  8
0
100
AcDbLine
 62
7
  6
BYLAYER
 10
137.2975406571
 20
180.7581273004
 11
137.2975406571
 21
180.908139677
  0
LINE
  5
28C
100
AcDbEntity
  8
0
100
AcDbLine
 62
7
  6
BYLAYER
 10
125.3217224931
 20
171.0607520481
 11
124.6603709089
 21
170.3994004639
  0
LINE
  5
28D
100
AcDbEntity
  8
0
100
AcDbLine
 62
7
  6
BYLAYER
 10
127.4887993332
 20
167.5709720397
 11
127.7791138202
 21
167.8612865267
  0
LINE
  5
28E
100
AcDbEntity
  8
0
100
AcDbLine
 62
7
  6
BYLAYER
 10
141.2975406571
 20
179.2581396742
 11
142.7977163556
 21
179.2581396742
  0
LINE
  5
28F
100
AcDbEntity
  8
0
100
AcDbLine
 62
7
  6
BYLAYER
 10
130.9975703308
 20
180.7581545914
 11
137.2975406571
 21
180.7581273004
  0
LINE
  5
290
100
AcDbEntity
  8
0
100
AcDbLine
 62
7
  6
BYLAYER
 10
137.2975406571
 20
180.908139677
 11
141.2975406571
 21
180.908139677
  0
LINE
  5
291
100
AcDbEntity
  8
0
100
AcDbLine
 62
7
  6
BYLAYER
 10
124.660370909
 20
177.4168788902
 11
125.3217224931
 21
176.7555273061
  0
LINE
  5
292
100
AcDbEntity
  8
0
100
AcDbLine
 62
7
  6
BYLAYER
 10
127.7791138201
 20
179.9549928275
 11
127.4887993332
 21
180.2453073144
  0
LINE
  5
293
100
AcDbEntity
  8
0
100
AcDbLine
 62
7
  6
BYLAYER
 10
140.2975407985
 20
141.1581372617
 11
140.2975407985
 21
141.6581372621
  0
LINE
  5
294
100
AcDbEntity
  8
0
100
AcDbLine
 62
7
  6
BYLAYER
 10
140.2975406349
 20
206.1581372517
 11
140.2975406349
 21
206.6581372523
  0
LINE
  5
295
100
AcDbEntity
  8
0
100
AcDbLine
 62
7
  6
BYLAYER
 10
141.2975406571
 20
180.908139677
 11
141.2975406571
 21
179.2581396742
  0
LINE
  5
296
100
AcDbEntity
  8
0
100
AcDbLine
 62
7
  6
BYLAYER
 10
141.2975406571
 20
168.5581396798
 11
141.2975406571
 21
166.908139677
  0
LINE
  5
297
100
AcDbEntity
  8
0
100
AcDbLine
 62
7
  6
BYLAYER
 10
141.7975406509
 20
204.6581369534
 11
141.7975349769
 21
180.3307751455
  0
LINE
  5
298
100
AcDbEntity
  8
0
100
AcDbLine
 62
7
  6
BYLAYER
 10
141.7975411031
 20
167.4855405709
 11
141.7975406615
 21
143.1581372524
  0
LINE
  5
299
100
AcDbEntity
  8
0
100
AcDbLine
 62
7
  6
BYLAYER
 10
142.2975289172
 20
166.9260368898
 11
142.2975406615
 21
143.158137278
  0
LINE
  5
29A
100
AcDbEntity
  8
0
100
AcDbLine
 62
7
  6
BYLAYER
 10
142.2975406504
 20
204.6581369423
 11
142.2975380238
 21
180.8902962145
  0
LINE
  5
29B
100
AcDbEntity
  8
0
100
AcDbLine
 62
7
  6
BYLAYER
 10
143.0975406582
 20
204.6581372543
 11
143.0975406582
 21
181.7002807335
  0
LINE
  5
29C
100
AcDbEntity
  8
0
100
AcDbLine
 62
7
  6
BYLAYER
 10
143.0975406582
 20
166.1159937754
 11
143.0975406582
 21
143.1581372548
  0
LINE
  5
29D
100
AcDbEntity
  8
0
100
AcDbLine
 62
7
  6
BYLAYER
 10
122.9975406571
 20
188.3581360093
 11
131.4975406571
 21
188.3581360093
  0
LINE
  5
29E
100
AcDbEntity
  8
0
100
AcDbLine
 62
7
  6
BYLAYER
 10
123.4975406571
 20
188.8581353863
 11
130.9975406571
 21
188.8581353863
  0
LINE
  5
29F
100
AcDbEntity
  8
0
100
AcDbLine
 62
7
  6
BYLAYER
 10
131.4975406571
 20
188.3581360093
 11
130.9975406571
 21
188.8581353863
  0
LINE
  5
2A0
100
AcDbEntity
  8
0
100
AcDbLine
 62
7
  6
BYLAYER
 10
122.9975406571
 20
202.7081360093
 11
123.4975406571
 21
202.2081353863
  0
LINE
  5
2A1
100
AcDbEntity
  8
0
100
AcDbLine
 62
7
  6
BYLAYER
 10
150.9561158735
 20
134.601985683
 11
150.9561158735
 21
213.2141520595
  0
LINE
  5
2A2
100
AcDbEntity
  8
0
100
AcDbLine
 62
7
  6
BYLAYER
 10
151.2561158735
 20
213.2139603743
 11
151.2561158735
 21
134.6023191106
  0
LINE
  5
2A3
100
AcDbEntity
  8
0
100
AcDbLine
 62
7
  6
BYLAYER
 10
151.65050118
 20
245.2511684049
 11
151.65050118
 21
245.6711933751
  0
LINE
  5
2A4
100
AcDbEntity
  8
0
100
AcDbLine
 62
7
  6
BYLAYER
 10
152.3769273521
 20
210.190528858
 11
152.3769273521
 21
137.2257439654
  0
LINE
  5
2A5
100
AcDbEntity
  8
0
100
AcDbLine
 62
7
  6
BYLAYER
 10
152.876890037
 20
210.1905288806
 11
152.876890037
 21
137.3066808292
  0
LINE
  5
2A6
100
AcDbEntity
  8
0
100
AcDbLine
 62
7
  6
BYLAYER
 10
155.5891273075
 20
249.1897945321
 11
155.5891273075
 21
249.6044217521
  0
LINE
  5
2A7
100
AcDbEntity
  8
0
100
AcDbLine
 62
7
  6
BYLAYER
 10
157.9894763904
 20
249.1897945321
 11
157.9894763904
 21
249.6044217521
  0
LINE
  5
2A8
100
AcDbEntity
  8
0
100
AcDbLine
 62
7
  6
BYLAYER
 10
159.1977683596
 20
249.4290125342
 11
159.1977683596
 21
249.8433119142
  0
LINE
  5
2A9
100
AcDbEntity
  8
0
100
AcDbLine
 62
7
  6
BYLAYER
 10
151.4341605047
 20
213.2139323098
 11
151.4343295049
 21
214.5369301263
  0
LINE
  5
2AA
100
AcDbEntity
  8
0
100
AcDbLine
 62
7
  6
BYLAYER
 10
202.0132226431
 20
200.5146940882
 11
201.5193311435
 21
200.5146940409
  0
LINE
  5
2AB
100
AcDbEntity
  8
0
100
AcDbLine
 62
7
  6
BYLAYER
 10
130.9975406571
 20
202.2081353863
 11
123.4975406571
 21
202.2081353863
  0
LINE
  5
2AC
100
AcDbEntity
  8
0
100
AcDbLine
 62
7
  6
BYLAYER
 10
131.4975406571
 20
202.7081360093
 11
122.9975406571
 21
202.7081360093
  0
LINE
  5
2AD
100
AcDbEntity
  8
0
100
AcDbLine
 62
7
  6
BYLAYER
 10
142.2975406504
 20
204.6581369423
 11
141.7975406499
 21
204.6581370554
  0
LINE
  5
2AE
100
AcDbEntity
  8
0
100
AcDbLine
 62
7
  6
BYLAYER
 10
120.1975406571
 20
206.1581372507
 11
140.2975410035
 21
206.1581372529
  0
LINE
  5
2AF
100
AcDbEntity
  8
0
100
AcDbLine
 62
7
  6
BYLAYER
 10
120.6975406571
 20
206.6581372506
 11
140.2975406349
 21
206.6581372523
  0
LINE
  5
2B0
100
AcDbEntity
  8
0
100
AcDbLine
 62
7
  6
BYLAYER
 10
160.4114107493
 20
136.848306368
 11
160.4201407949
 21
136.3484892311
  0
LINE
  5
2B1
100
AcDbEntity
  8
0
100
AcDbLine
 62
7
  6
BYLAYER
 10
160.4114107493
 20
137.3068035617
 11
160.4114107493
 21
136.848306368
  0
LINE
  5
2B2
100
AcDbEntity
  8
0
100
AcDbLine
 62
7
  6
BYLAYER
 10
166.5801974188
 20
249.4290125342
 11
166.5801974188
 21
249.8433119142
  0
LINE
  5
2B3
100
AcDbEntity
  8
0
100
AcDbLine
 62
7
  6
BYLAYER
 10
167.7884889931
 20
249.189575814
 11
167.7884889931
 21
249.6042033337
  0
LINE
  5
2B4
100
AcDbEntity
  8
0
100
AcDbLine
 62
7
  6
BYLAYER
 10
170.1609236836
 20
249.5322325794
 11
170.1609236836
 21
249.1175062909
  0
LINE
  5
2B5
100
AcDbEntity
  8
0
100
AcDbLine
 62
7
  6
BYLAYER
 10
155.3887889428
 20
129.6779224524
 11
155.3366944895
 21
129.3824805003
  0
LINE
  5
2B6
100
AcDbEntity
  8
0
100
AcDbLine
 62
7
  6
BYLAYER
 10
170.7184851962
 20
220.8413891068
 11
155.3887889425
 21
218.1383500512
  0
LINE
  5
2B7
100
AcDbEntity
  8
0
100
AcDbLine
 62
7
  6
BYLAYER
 10
170.6663907368
 20
221.1368318054
 11
155.3370246904
 21
218.4338509743
  0
LINE
  5
2B8
100
AcDbEntity
  8
0
100
AcDbLine
 62
7
  6
BYLAYER
 10
121.4975406571
 20
207.4581372543
 11
140.2975406582
 21
207.4581372543
  0
LINE
  5
2B9
100
AcDbEntity
  8
0
100
AcDbLine
 62
7
  6
BYLAYER
 10
152.876890037
 20
210.1905288806
 11
152.3769273522
 21
210.190528858
  0
LINE
  5
2BA
100
AcDbEntity
  8
0
100
AcDbLine
 62
7
  6
BYLAYER
 10
152.9901313502
 20
210.5095897787
 11
163.7655938381
 21
210.5094162885
  0
LINE
  5
2BB
100
AcDbEntity
  8
0
100
AcDbLine
 62
7
  6
BYLAYER
 10
160.4116454737
 20
211.0092094559
 11
152.8028107784
 21
211.0093210792
  0
LINE
  5
2BC
100
AcDbEntity
  8
0
100
AcDbLine
 62
7
  6
BYLAYER
 10
151.2561158735
 20
213.2139603745
 11
150.9561158735
 21
213.2139607483
  0
LINE
  5
2BD
100
AcDbEntity
  8
0
100
AcDbLine
 62
7
  6
BYLAYER
 10
151.4337734455
 20
211.0088211049
 11
151.2561653145
 21
211.0088230945
  0
LINE
  5
2BE
100
AcDbEntity
  8
0
100
AcDbLine
 62
7
  6
BYLAYER
 10
163.7655938381
 20
210.5094162885
 11
192.1858403606
 21
210.0132839776
  0
LINE
  5
2BF
100
AcDbEntity
  8
0
100
AcDbLine
 62
7
  6
BYLAYER
 10
153.3942987976
 20
211.1902407636
 11
192.1884554908
 21
210.5131902943
  0
LINE
  5
2C0
100
AcDbEntity
  8
0
100
AcDbLine
 62
7
  6
BYLAYER
 10
163.7655938365
 20
210.5094162885
 11
160.4121190002
 21
211.0282233068
  0
LINE
  5
2C1
100
AcDbEntity
  8
0
100
AcDbLine
 62
7
  6
BYLAYER
 10
155.3366978975
 20
218.4337933519
 11
155.3887923508
 21
218.1383506522
  0
LINE
  5
2C2
100
AcDbEntity
  8
0
100
AcDbLine
 62
7
  6
BYLAYER
 10
171.041380409
 20
241.9836342416
 11
170.8729808246
 21
248.4233804403
  0
LINE
  5
2C3
100
AcDbEntity
  8
0
100
AcDbLine
 62
7
  6
BYLAYER
 10
170.8729808246
 20
248.4233804403
 11
170.8729808246
 21
248.8390580041
  0
LINE
  5
2C4
100
AcDbEntity
  8
0
100
AcDbLine
 62
7
  6
BYLAYER
 10
171.041380409
 20
241.9081372549
 11
171.041380409
 21
241.9836342416
  0
LINE
  5
2C5
100
AcDbEntity
  8
0
100
AcDbLine
 62
7
  6
BYLAYER
 10
172.8975406571
 20
105.9080996194
 11
172.897540657
 21
124.0204605126
  0
LINE
  5
2C6
100
AcDbEntity
  8
0
100
AcDbLine
 62
7
  6
BYLAYER
 10
172.8975406571
 20
223.7958127389
 11
172.8975406571
 21
241.9081372549
  0
LINE
  5
2C7
100
AcDbEntity
  8
0
100
AcDbLine
 62
7
  6
BYLAYER
 10
173.1975406571
 20
106.2080996194
 11
173.1975406571
 21
136.5716883272
  0
LINE
  5
2C8
100
AcDbEntity
  8
0
100
AcDbLine
 62
7
  6
BYLAYER
 10
173.1975406571
 20
210.8445847766
 11
173.1975406571
 21
241.6081372549
  0
LINE
  5
2C9
100
AcDbEntity
  8
0
100
AcDbLine
 62
7
  6
BYLAYER
 10
172.6704970474
 20
242.2044721511
 11
172.6938755569
 21
244.1179339741
  0
LINE
  5
2CA
100
AcDbEntity
  8
0
100
AcDbLine
 62
7
  6
BYLAYER
 10
173.0001994132
 20
244.114191336
 11
172.9768209011
 21
242.2007295095
  0
LINE
  5
2CB
100
AcDbEntity
  8
0
100
AcDbLine
 62
7
  6
BYLAYER
 10
170.6663907367
 20
126.6794414459
 11
170.71848519
 21
126.974883398
  0
LINE
  5
2CC
100
AcDbEntity
  8
0
100
AcDbLine
 62
7
  6
BYLAYER
 10
152.876890037
 20
137.3066808292
 11
152.7959099753
 21
137.2257439495
  0
LINE
  5
2CD
100
AcDbEntity
  8
0
100
AcDbLine
 62
7
  6
BYLAYER
 10
100.9626358135
 20
226.0548595072
 11
120.1975406571
 21
226.3906060245
  0
LINE
  5
2CE
100
AcDbEntity
  8
0
100
AcDbLine
 62
7
  6
BYLAYER
 10
100.9539095721
 20
226.5547833545
 11
120.6975406571
 21
226.899409721
  0
LINE
  5
2CF
100
AcDbEntity
  8
0
100
AcDbLine
 62
7
  6
BYLAYER
 10
121.4975406571
 20
227.7134499387
 11
100.9399477163
 21
227.3546158196
  0
LINE
  5
2D0
100
AcDbEntity
  8
0
100
AcDbLine
 62
7
  6
BYLAYER
 10
223.5275406571
 20
219.0941372549
 11
209.4975406536
 21
219.0941372549
  0
LINE
  5
2D1
100
AcDbEntity
  8
0
100
AcDbLine
 62
7
  6
BYLAYER
 10
172.8975406571
 20
223.7958127385
 11
173.1975406571
 21
223.7958123647
  0
LINE
  5
2D2
100
AcDbEntity
  8
0
100
AcDbLine
 62
7
  6
BYLAYER
 10
98.4975406596
 20
224.0551642542
 11
98.9975406598
 21
224.055164263
  0
LINE
  5
2D3
100
AcDbEntity
  8
0
100
AcDbLine
 62
7
  6
BYLAYER
 10
216.0975406571
 20
226.2841372549
 11
209.4975406534
 21
226.2841372549
  0
LINE
  5
2D4
100
AcDbEntity
  8
0
100
AcDbLine
 62
7
  6
BYLAYER
 10
209.4975406533
 20
227.2841372549
 11
216.0975406571
 21
227.2841372549
  0
LINE
  5
2D5
100
AcDbEntity
  8
0
100
AcDbLine
 62
7
  6
BYLAYER
 10
170.71848519
 20
220.8413891057
 11
170.6663907367
 21
221.1368318054
  0
LINE
  5
2D6
100
AcDbEntity
  8
0
100
AcDbLine
 62
7
  6
BYLAYER
 10
216.0975406571
 20
233.0941372549
 11
209.4975406532
 21
233.0941372549
  0
LINE
  5
2D7
100
AcDbEntity
  8
0
100
AcDbLine
 62
7
  6
BYLAYER
 10
209.4975406531
 20
234.0941372549
 11
223.5275406571
 21
234.0941372549
  0
LINE
  5
2D8
100
AcDbEntity
  8
0
100
AcDbLine
 62
7
  6
BYLAYER
 10
209.4975406531
 20
234.7582749262
 11
173.1975406571
 21
234.758274925
  0
LINE
  5
2D9
100
AcDbEntity
  8
0
100
AcDbLine
 62
7
  6
BYLAYER
 10
192.1884553147
 20
136.9030884459
 11
192.1858404737
 21
137.402981185
  0
LINE
  5
2DA
100
AcDbEntity
  8
0
100
AcDbLine
 62
7
  6
BYLAYER
 10
201.5193311435
 20
200.5146940409
 11
201.5193311435
 21
146.9015780558
  0
LINE
  5
2DB
100
AcDbEntity
  8
0
100
AcDbLine
 62
7
  6
BYLAYER
 10
202.0132226431
 20
200.5146940882
 11
202.0132226431
 21
146.9015780415
  0
LINE
  5
2DC
100
AcDbEntity
  8
0
100
AcDbLine
 62
7
  6
BYLAYER
 10
192.1884554908
 20
210.5131902943
 11
192.1858406281
 21
210.0132929935
  0
LINE
  5
2DD
100
AcDbEntity
  8
0
100
AcDbLine
 62
7
  6
BYLAYER
 10
199.171183077
 20
241.6368245615
 11
199.1975406572
 21
243.7941145087
  0
LINE
  5
2DE
100
AcDbEntity
  8
0
100
AcDbLine
 62
7
  6
BYLAYER
 10
198.4799209871
 20
241.6332384961
 11
198.5067225394
 21
243.8025548641
  0
LINE
  5
2DF
100
AcDbEntity
  8
0
100
AcDbLine
 62
7
  6
BYLAYER
 10
157.9894763904
 20
249.1897945322
 11
159.1977683592
 21
249.4290125342
  0
LINE
  5
2E0
100
AcDbEntity
  8
0
100
AcDbLine
 62
7
  6
BYLAYER
 10
159.1977683595
 20
249.8433119142
 11
157.9894763904
 21
249.6044217521
  0
LINE
  5
2E1
100
AcDbEntity
  8
0
100
AcDbLine
 62
7
  6
BYLAYER
 10
199.1711842972
 20
241.636824627
 11
198.479921019
 21
241.6332384958
  0
LINE
  5
2E2
100
AcDbEntity
  8
0
100
AcDbLine
 62
7
  6
BYLAYER
 10
198.4799209871
 20
241.6332384961
 11
173.1975729568
 21
241.6206874194
  0
LINE
  5
2E3
100
AcDbEntity
  8
0
100
AcDbLine
 62
7
  6
BYLAYER
 10
173.1975406571
 20
241.3331599324
 11
209.4975406529
 21
241.3331599336
  0
LINE
  5
2E4
100
AcDbEntity
  8
0
100
AcDbLine
 62
7
  6
BYLAYER
 10
173.1975406571
 20
241.6081372549
 11
120.9975406571
 21
241.6081376287
  0
LINE
  5
2E5
100
AcDbEntity
  8
0
100
AcDbLine
 62
7
  6
BYLAYER
 10
120.9975406571
 20
241.9081372549
 11
172.8975406571
 21
241.9081372549
  0
LINE
  5
2E6
100
AcDbEntity
  8
0
100
AcDbLine
 62
7
  6
BYLAYER
 10
135.9675406571
 20
241.9836342416
 11
171.041380409
 21
241.9836342416
  0
LINE
  5
2E7
100
AcDbEntity
  8
0
100
AcDbLine
 62
7
  6
BYLAYER
 10
120.9975406571
 20
242.6831372549
 11
127.6975406571
 21
242.6831372549
  0
LINE
  5
2E8
100
AcDbEntity
  8
0
100
AcDbLine
 62
7
  6
BYLAYER
 10
151.65050118
 20
245.2511684049
 11
137.0251496846
 21
245.2511684049
  0
LINE
  5
2E9
100
AcDbEntity
  8
0
100
AcDbLine
 62
7
  6
BYLAYER
 10
151.65050118
 20
245.6711933751
 11
137.0251496846
 21
245.6711933751
  0
LINE
  5
2EA
100
AcDbEntity
  8
0
100
AcDbLine
 62
7
  6
BYLAYER
 10
157.9894763904
 20
249.1897945321
 11
155.5891273075
 21
249.1897945321
  0
LINE
  5
2EB
100
AcDbEntity
  8
0
100
AcDbLine
 62
7
  6
BYLAYER
 10
166.5801974188
 20
249.4290125342
 11
159.1977683596
 21
249.4290125342
  0
LINE
  5
2EC
100
AcDbEntity
  8
0
100
AcDbLine
 62
7
  6
BYLAYER
 10
157.9894763904
 20
249.6044217521
 11
155.5891273076
 21
249.6044217521
  0
LINE
  5
2ED
100
AcDbEntity
  8
0
100
AcDbLine
 62
7
  6
BYLAYER
 10
166.5801974188
 20
249.8433119142
 11
159.1977683595
 21
249.8433119142
  0
LINE
  5
2EE
100
AcDbEntity
  8
0
100
AcDbLine
 62
7
  6
BYLAYER
 10
172.6704970475
 20
242.2044721547
 11
172.9768209025
 21
242.2007295165
  0
LINE
  5
2EF
100
AcDbEntity
  8
0
100
AcDbLine
 62
7
  6
BYLAYER
 10
199.19754145
 20
243.794114499
 11
172.6938755569
 21
244.1179339742
  0
LINE
  5
2F0
100
AcDbEntity
  8
0
100
AcDbLine
 62
7
  6
BYLAYER
 10
198.9012289394
 20
244.0977572102
 11
172.997518268
 21
244.4142464848
  0
LINE
  5
2F1
100
AcDbEntity
  8
0
100
AcDbLine
 62
7
  6
BYLAYER
 10
206.6975406571
 20
143.5081304875
 11
206.6975406571
 21
143.2081372629
  0
LINE
  5
2F2
100
AcDbEntity
  8
0
100
AcDbLine
 62
7
  6
BYLAYER
 10
209.4975406572
 20
106.5062470222
 11
209.4975406561
 21
143.2081372632
  0
LINE
  5
2F3
100
AcDbEntity
  8
0
100
AcDbLine
 62
7
  6
BYLAYER
 10
209.497540656
 20
143.5081289049
 11
209.4975406529
 21
241.3331599336
  0
LINE
  5
2F4
100
AcDbEntity
  8
0
100
AcDbLine
 62
7
  6
BYLAYER
 10
28.8975406571
 20
254.4081372549
 11
33.5975406571
 21
254.4081372549
  0
LINE
  5
2F5
100
AcDbEntity
  8
0
100
AcDbLine
 62
7
  6
BYLAYER
 10
33.5975406571
 20
259.4081372549
 11
28.8975406571
 21
259.4081372549
  0
LINE
  5
2F6
100
AcDbEntity
  8
0
100
AcDbLine
 62
7
  6
BYLAYER
 10
123.9975406571
 20
260.7581372549
 11
34.5975406571
 21
260.7581372549
  0
LINE
  5
2F7
100
AcDbEntity
  8
0
100
AcDbLine
 62
7
  6
BYLAYER
 10
167.7884889928
 20
249.6042033338
 11
166.5801974188
 21
249.8433119142
  0
LINE
  5
2F8
100
AcDbEntity
  8
0
100
AcDbLine
 62
7
  6
BYLAYER
 10
166.5801974188
 20
249.4290125342
 11
167.7884889933
 21
249.189575814
  0
LINE
  5
2F9
100
AcDbEntity
  8
0
100
AcDbLine
 62
7
  6
BYLAYER
 10
170.8729808246
 20
248.8390580041
 11
170.1609236836
 21
249.5322325794
  0
LINE
  5
2FA
100
AcDbEntity
  8
0
100
AcDbLine
 62
7
  6
BYLAYER
 10
170.1609236836
 20
249.1175062909
 11
170.8729808246
 21
248.4233804402
  0
LINE
  5
2FB
100
AcDbEntity
  8
0
100
AcDbLine
 62
7
  6
BYLAYER
 10
216.0975406571
 20
226.2841372549
 11
216.0975406571
 21
234.0941372549
  0
LINE
  5
2FC
100
AcDbEntity
  8
0
100
AcDbLine
 62
7
  6
BYLAYER
 10
223.5275406571
 20
219.0941372549
 11
223.5275406571
 21
234.0941372549
  0
LINE
  5
2FD
100
AcDbEntity
  8
0
100
AcDbLine
 62
7
  6
BYLAYER
 10
33.5975406571
 20
261.2581372549
 11
123.6975406571
 21
261.2581372549
  0
LINE
  5
2FE
100
AcDbEntity
  8
0
100
AcDbLine
 62
7
  6
BYLAYER
 10
33.5975406571
 20
261.5581372549
 11
36.0975406571
 21
261.5581372549
  0
LINE
  5
2FF
100
AcDbEntity
  8
0
100
AcDbLine
 62
7
  6
BYLAYER
 10
123.9975406571
 20
272.6331372549
 11
127.6975406571
 21
272.6331372549
  0
LINE
  5
300
100
AcDbEntity
  8
0
100
AcDbLine
 62
7
  6
BYLAYER
 10
33.5975406571
 20
292.1081372549
 11
123.6975406571
 21
292.1081372549
  0
LINE
  5
301
100
AcDbEntity
  8
0
100
AcDbLine
 62
7
  6
BYLAYER
 10
116.4975406571
 20
292.6081372549
 11
123.9975406571
 21
292.6081372549
  0
LINE
  5
302
100
AcDbEntity
  8
0
100
AcDbLine
 62
7
  6
BYLAYER
 10
38.5975406571
 20
297.7581372549
 11
36.5975406571
 21
297.7581372549
  0
LINE
  5
303
100
AcDbEntity
  8
0
100
AcDbLine
 62
7
  6
BYLAYER
 10
123.9975406571
 20
300.2581372549
 11
123.6975406571
 21
300.2581372549
  0
LINE
  5
304
100
AcDbEntity
  8
0
100
AcDbLine
 62
7
  6
BYLAYER
 10
122.9975406571
 20
300.9581372549
 11
116.0645279552
 21
300.9581372549
  0
LINE
  5
305
100
AcDbEntity
  8
0
100
AcDbLine
 62
7
  6
BYLAYER
 10
115.9975406571
 20
300.9581372549
 11
38.5975406571
 21
300.9581372549
  0
LINE
  5
306
100
AcDbEntity
  8
0
100
AcDbLine
 62
7
  6
BYLAYER
 10
38.5975406571
 20
301.2581372549
 11
122.9975406571
 21
301.2581372549
  0
ARC
  5
307
100
AcDbEntity
  8
0
100
AcDbCircle
 62
7
  6
BYLAYER
 10
100.9975406571
 20
123.7611560854
 40
3.3
100
AcDbArc
 50
180.0015339967
 51
268.9999999959
  0
ARC
  5
308
100
AcDbEntity
  8
0
100
AcDbCircle
 62
7
  6
BYLAYER
 10
100.9975406571
 20
123.7611103863
 40
2.5
100
AcDbArc
 50
180.00000106
 51
268.9999984976
  0
ARC
  5
309
100
AcDbEntity
  8
0
100
AcDbCircle
 62
7
  6
BYLAYER
 10
100.9975406571
 20
123.7611103863
 40
2.0
100
AcDbArc
 50
180.0000011881
 51
268.9999955182
  0
ARC
  5
30A
100
AcDbEntity
  8
0
100
AcDbCircle
 62
7
  6
BYLAYER
 10
116.4975406571
 20
55.2081372549
 40
0.7999994483
100
AcDbArc
 50
141.317783538
 51
180.0003494381
  0
ARC
  5
30B
100
AcDbEntity
  8
0
100
AcDbCircle
 62
7
  6
BYLAYER
 10
36.5975406571
 20
50.5581372549
 40
0.5
100
AcDbArc
 50
179.9999999999
 51
269.9999999999
  0
ARC
  5
30C
100
AcDbEntity
  8
0
100
AcDbCircle
 62
7
  6
BYLAYER
 10
116.4975406571
 20
55.2081372549
 40
0.4999994483
100
AcDbArc
 50
90.0
 51
180.0
  0
ARC
  5
30D
100
AcDbEntity
  8
0
100
AcDbCircle
 62
7
  6
BYLAYER
 10
38.8975406571
 20
46.8581372549
 40
0.3
100
AcDbArc
 50
180.0
 51
270.0
  0
ARC
  5
30E
100
AcDbEntity
  8
0
100
AcDbCircle
 62
7
  6
BYLAYER
 10
115.6975406571
 20
46.8581372549
 40
0.3
100
AcDbArc
 50
270.0
 51
360.0
  0
ARC
  5
30F
100
AcDbEntity
  8
0
100
AcDbCircle
 62
7
  6
BYLAYER
 10
100.9975406571
 20
224.0551184255
 40
3.3
100
AcDbArc
 50
90.9999999929
 51
179.9984660031
  0
ARC
  5
310
100
AcDbEntity
  8
0
100
AcDbCircle
 62
7
  6
BYLAYER
 10
100.9975406571
 20
224.0551641223
 40
2.5
100
AcDbArc
 50
91.0000007901
 51
179.9999984886
  0
ARC
  5
311
100
AcDbEntity
  8
0
100
AcDbCircle
 62
7
  6
BYLAYER
 10
100.9975406571
 20
224.0551641223
 40
2.0
100
AcDbArc
 50
91.0000008826
 51
179.9999954852
  0
ARC
  5
312
100
AcDbEntity
  8
0
100
AcDbCircle
 62
7
  6
BYLAYER
 10
36.5975406571
 20
297.2581372549
 40
0.5
100
AcDbArc
 50
89.9999999999
 51
179.9999999999
  0
ARC
  5
313
100
AcDbEntity
  8
0
100
AcDbCircle
 62
7
  6
BYLAYER
 10
115.6975406571
 20
300.9581372549
 40
0.3
100
AcDbArc
 50
0.0
 51
90.0
  0
ARC
  5
314
100
AcDbEntity
  8
0
100
AcDbCircle
 62
7
  6
BYLAYER
 10
38.8975406571
 20
300.9581372549
 40
0.3
100
AcDbArc
 50
90.0
 51
180.0
  0
ARC
  5
315
100
AcDbEntity
  8
0
100
AcDbCircle
 62
7
  6
BYLAYER
 10
155.5336376557
 20
168.5588375631
 40
18.0903069608
100
AcDbArc
 50
137.0264155088
 51
139.4031544591
  0
ARC
  5
316
100
AcDbEntity
  8
0
100
AcDbCircle
 62
7
  6
BYLAYER
 10
192.0135549113
 20
146.9011885788
 40
9.9996426712
100
AcDbArc
 50
271.0023044001
 51
0.0022310481
  0
ARC
  5
317
100
AcDbEntity
  8
0
100
AcDbCircle
 62
7
  6
BYLAYER
 10
192.0194920888
 20
146.9013240233
 40
9.4998127203
100
AcDbArc
 50
271.0033413425
 51
0.0015321303
  0
ARC
  5
318
100
AcDbEntity
  8
0
100
AcDbCircle
 62
7
  6
BYLAYER
 10
156.2568088099
 20
134.6027451671
 40
5.3007222182
100
AcDbArc
 50
180.0082093485
 51
260.0057136225
  0
ARC
  5
319
100
AcDbEntity
  8
0
100
AcDbCircle
 62
7
  6
BYLAYER
 10
156.2567131251
 20
134.6026773241
 40
5.000614941
100
AcDbArc
 50
180.0041043757
 51
260.0049983121
  0
ARC
  5
31A
100
AcDbEntity
  8
0
100
AcDbCircle
 62
7
  6
BYLAYER
 10
170.197540657
 20
124.020460139
 40
3.0
100
AcDbArc
 50
0.0
 51
79.9999999643
  0
ARC
  5
31B
100
AcDbEntity
  8
0
100
AcDbCircle
 62
7
  6
BYLAYER
 10
140.2975406582
 20
143.1581372548
 40
2.8
100
AcDbArc
 50
269.9999999989
 51
360.0
  0
ARC
  5
31C
100
AcDbEntity
  8
0
100
AcDbCircle
 62
7
  6
BYLAYER
 10
170.197540657
 20
124.0204605128
 40
2.7
100
AcDbArc
 50
0.0
 51
79.9999999996
  0
ARC
  5
31D
100
AcDbEntity
  8
0
100
AcDbCircle
 62
7
  6
BYLAYER
 10
140.2975406598
 20
143.1581372564
 40
2.0000000034
100
AcDbArc
 50
270.0000019628
 51
359.9999999539
  0
ARC
  5
31E
100
AcDbEntity
  8
0
100
AcDbCircle
 62
7
  6
BYLAYER
 10
140.2975406598
 20
143.1581372564
 40
1.5000000022
100
AcDbArc
 50
270.000001301
 51
359.9999998477
  0
ARC
  5
31F
100
AcDbEntity
  8
0
100
AcDbCircle
 62
7
  6
BYLAYER
 10
153.3768686667
 20
137.2256629185
 40
0.999919265
100
AcDbArc
 50
180.0477555557
 51
270.9948932813
  0
ARC
  5
320
100
AcDbEntity
  8
0
100
AcDbCircle
 62
7
  6
BYLAYER
 10
124.2975406571
 20
74.8831372549
 40
0.6
100
AcDbArc
 50
90.0
 51
119.9999999997
  0
ARC
  5
321
100
AcDbEntity
  8
0
100
AcDbCircle
 62
7
  6
BYLAYER
 10
123.6975406571
 20
56.0081372549
 40
0.3
100
AcDbArc
 50
270.0
 51
360.0
  0
ARC
  5
322
100
AcDbEntity
  8
0
100
AcDbCircle
 62
7
  6
BYLAYER
 10
124.2975406571
 20
74.8831372549
 40
0.3
100
AcDbArc
 50
90.0
 51
150.0
  0
ARC
  5
323
100
AcDbEntity
  8
0
100
AcDbCircle
 62
7
  6
BYLAYER
 10
127.6975406571
 20
104.8331372549
 40
0.3
100
AcDbArc
 50
0.0
 51
90.0
  0
ARC
  5
324
100
AcDbEntity
  8
0
100
AcDbCircle
 62
7
  6
BYLAYER
 10
123.6975406571
 20
46.8581372549
 40
0.3
100
AcDbArc
 50
270.0
 51
360.0
  0
ARC
  5
325
100
AcDbEntity
  8
0
100
AcDbCircle
 62
7
  6
BYLAYER
 10
127.6975406571
 20
75.4831372549
 40
0.3
100
AcDbArc
 50
270.0
 51
360.0
  0
ARC
  5
326
100
AcDbEntity
  8
0
100
AcDbCircle
 62
7
  6
BYLAYER
 10
172.8975406571
 20
106.2080996194
 40
0.3
100
AcDbArc
 50
270.0
 51
360.0
  0
ARC
  5
327
100
AcDbEntity
  8
0
100
AcDbCircle
 62
7
  6
BYLAYER
 10
155.5332244594
 20
179.2571836895
 40
18.0897987242
100
AcDbArc
 50
220.5969969146
 51
222.9737342418
  0
ARC
  5
328
100
AcDbEntity
  8
0
100
AcDbCircle
 62
7
  6
BYLAYER
 10
142.7475406567
 20
173.9081372545
 40
7.8
100
AcDbArc
 50
272.5718280224
 51
87.4281719776
  0
ARC
  5
329
100
AcDbEntity
  8
0
100
AcDbCircle
 62
7
  6
BYLAYER
 10
142.7975272099
 20
173.9081582802
 40
7.0000163747
100
AcDbArc
 50
265.9040181102
 51
94.095967952
  0
ARC
  5
32A
100
AcDbEntity
  8
0
100
AcDbCircle
 62
7
  6
BYLAYER
 10
130.9975406571
 20
173.9081396771
 40
6.8500149144
100
AcDbArc
 50
241.975938919
 51
270.0002482072
  0
ARC
  5
32B
100
AcDbEntity
  8
0
100
AcDbCircle
 62
7
  6
BYLAYER
 10
130.9975406571
 20
173.9081396771
 40
6.8500149144
100
AcDbArc
 50
89.9997518032
 51
118.0240610812
  0
ARC
  5
32C
100
AcDbEntity
  8
0
100
AcDbCircle
 62
7
  6
BYLAYER
 10
142.7975272099
 20
173.9081582802
 40
6.4999991531
100
AcDbArc
 50
261.1502398343
 51
98.8498146683
  0
ARC
  5
32D
100
AcDbEntity
  8
0
100
AcDbCircle
 62
7
  6
BYLAYER
 10
130.9975406571
 20
173.9081396771
 40
6.3500022158
100
AcDbArc
 50
153.3584533657
 51
206.6415466344
  0
ARC
  5
32E
100
AcDbEntity
  8
0
100
AcDbCircle
 62
7
  6
BYLAYER
 10
142.7975406571
 20
173.9081396771
 40
5.35
100
AcDbArc
 50
270.0018458989
 51
89.9981183571
  0
ARC
  5
32F
100
AcDbEntity
  8
0
100
AcDbCircle
 62
7
  6
BYLAYER
 10
156.2567572931
 20
213.2135772279
 40
5.3006632772
100
AcDbArc
 50
99.9920960805
 51
179.9937865214
  0
ARC
  5
330
100
AcDbEntity
  8
0
100
AcDbCircle
 62
7
  6
BYLAYER
 10
156.2567221039
 20
213.2135854218
 40
5.0006255418
100
AcDbArc
 50
99.9950836016
 51
179.9957038374
  0
ARC
  5
331
100
AcDbEntity
  8
0
100
AcDbCircle
 62
7
  6
BYLAYER
 10
140.2975406582
 20
204.6581372543
 40
2.8
100
AcDbArc
 50
0.0
 51
90.0000000011
  0
ARC
  5
332
100
AcDbEntity
  8
0
100
AcDbCircle
 62
7
  6
BYLAYER
 10
140.2975406585
 20
204.658137254
 40
2.0000000034
100
AcDbArc
 50
0.0000000086
 51
90.0000003428
  0
ARC
  5
333
100
AcDbEntity
  8
0
100
AcDbCircle
 62
7
  6
BYLAYER
 10
140.2975406585
 20
204.658137254
 40
1.5000000001
100
AcDbArc
 50
359.9999885177
 51
89.9999868234
  0
ARC
  5
334
100
AcDbEntity
  8
0
100
AcDbCircle
 62
7
  6
BYLAYER
 10
122.9975406571
 20
300.2581372549
 40
1.0
100
AcDbArc
 50
0.0
 51
90.0
  0
ARC
  5
335
100
AcDbEntity
  8
0
100
AcDbCircle
 62
7
  6
BYLAYER
 10
122.9975406571
 20
300.2581372549
 40
0.7
100
AcDbArc
 50
0.0
 51
90.0
  0
ARC
  5
336
100
AcDbEntity
  8
0
100
AcDbCircle
 62
7
  6
BYLAYER
 10
123.6975406571
 20
291.8081372549
 40
0.3
100
AcDbArc
 50
0.0
 51
90.0
  0
ARC
  5
337
100
AcDbEntity
  8
0
100
AcDbCircle
 62
7
  6
BYLAYER
 10
127.6975406571
 20
272.3331372549
 40
0.3
100
AcDbArc
 50
0.0
 51
90.0
  0
ARC
  5
338
100
AcDbEntity
  8
0
100
AcDbCircle
 62
7
  6
BYLAYER
 10
127.6975406571
 20
242.9831372549
 40
0.3
100
AcDbArc
 50
270.0
 51
360.0
  0
ARC
  5
339
100
AcDbEntity
  8
0
100
AcDbCircle
 62
7
  6
BYLAYER
 10
192.0135799785
 20
200.5150582733
 40
9.9996426712
100
AcDbArc
 50
359.9979141467
 51
88.9978387865
  0
ARC
  5
33A
100
AcDbEntity
  8
0
100
AcDbCircle
 62
7
  6
BYLAYER
 10
192.0195071775
 20
200.5149162912
 40
9.4998239686
100
AcDbArc
 50
359.9986595539
 51
88.9967523161
  0
ARC
  5
33B
100
AcDbEntity
  8
0
100
AcDbCircle
 62
7
  6
BYLAYER
 10
170.197540657
 20
223.7958123647
 40
3.0
100
AcDbArc
 50
280.0000000604
 51
360.0
  0
ARC
  5
33C
100
AcDbEntity
  8
0
100
AcDbCircle
 62
7
  6
BYLAYER
 10
170.197540657
 20
223.7958127385
 40
2.7
100
AcDbArc
 50
280.0000000015
 51
360.0
  0
ARC
  5
33D
100
AcDbEntity
  8
0
100
AcDbCircle
 62
7
  6
BYLAYER
 10
199.4711606936
 20
241.6331599333
 40
0.3
100
AcDbArc
 50
179.300045087
 51
270.0000000018
  0
ARC
  5
33E
100
AcDbEntity
  8
0
100
AcDbCircle
 62
7
  6
BYLAYER
 10
172.3705194366
 20
242.2081372549
 40
0.3
100
AcDbArc
 50
299.7783719507
 51
359.2999996368
  0
ARC
  5
33F
100
AcDbEntity
  8
0
100
AcDbCircle
 62
7
  6
BYLAYER
 10
172.8975406571
 20
241.6081372549
 40
0.3
100
AcDbArc
 50
0.0
 51
90.0461037683
  0
ARC
  5
340
100
AcDbEntity
  8
0
100
AcDbCircle
 62
7
  6
BYLAYER
 10
198.8975630462
 20
243.797779609
 40
0.3
100
AcDbArc
 50
359.2999999931
 51
89.3
  0
ARC
  5
341
100
AcDbEntity
  8
0
100
AcDbCircle
 62
7
  6
BYLAYER
 10
172.9938531677
 20
244.1142688739
 40
0.3
100
AcDbArc
 50
89.3
 51
179.3000000094
  0
SPLINE
  5
342
100
AcDbEntity
  8
0
100
AcDbSpline
 62
7
  6
BYLAYER
 70
0
 71
3
 72
22
 73
18
 74
0
 42
0.0000001
 43
0.0000001
 44
0.0000000001
 40
0.0
 40
0.0
 40
0.0
 40
0.0
 40
0.0146258122
 40
0.0342538165
 40
0.050258988
 40
0.0643422334
 40
0.0927199019
 40
0.1238941127
 40
0.1563403679
 40
0.1884337551
 40
0.2507756241
 40
0.3126185442
 40
0.3750782628
 40
0.5003166282
 40
0.625160075
 40
0.7501021126
 40
1.0
 40
1.0
 40
1.0
 40
1.0
 10
170.1609236836
 20
249.5322325794
 30
0.0
 10
170.1609493215
 20
249.5438196195
 30
0.0
 10
170.1191134502
 20
249.5467512926
 30
0.0
 10
170.086350194
 20
249.5441381081
 30
0.0
 10
170.0453913101
 20
249.5481175135
 30
0.0
 10
170.0001505748
 20
249.5556572459
 30
0.0
 10
169.9420798727
 20
249.5636105354
 30
0.0
 10
169.8692908091
 20
249.5669535113
 30
0.0
 10
169.7934747741
 20
249.568730495
 30
0.0
 10
169.6929938324
 20
249.5714744675
 30
0.0
 10
169.5692897921
 20
249.5766622487
 30
0.0
 10
169.4215261801
 20
249.5822020363
 30
0.0
 10
169.223889002
 20
249.5871237328
 30
0.0
 10
168.9763274728
 20
249.5918045215
 30
0.0
 10
168.6792625985
 20
249.5968508435
 30
0.0
 10
168.2834214578
 20
249.6014190165
 30
0.0
 10
167.9864651516
 20
249.6034350445
 30
0.0
 10
167.7884889928
 20
249.6042033338
 30
0.0
  0
LINE
  5
343
100
AcDbEntity
  8
0
100
AcDbLine
 62
7
  6
BYLAYER
 10
160.4201407949
 20
211.0677852787
 11
160.4197220277
 21
211.0122659319
  0
SPLINE
  5
344
100
AcDbEntity
  8
0
100
AcDbSpline
 62
7
  6
BYLAYER
 70
0
 71
3
 72
8
 73
4
 74
0
 42
0.0000001
 43
0.0000001
 44
0.0000000001
 40
0.0
 40
0.0
 40
0.0
 40
0.0
 40
1.0
 40
1.0
 40
1.0
 40
1.0
 10
153.3943011496
 20
211.1903755206
 30
0.0
 10
153.1844116439
 20
211.1940388735
 30
0.0
 10
152.9738720645
 20
211.1294931637
 30
0.0
 10
152.8020947264
 20
211.0088211091
 30
0.0
  0
SPLINE
  5
345
100
AcDbEntity
  8
0
100
AcDbSpline
 62
7
  6
BYLAYER
 70
0
 71
3
 72
8
 73
4
 74
0
 42
0.0000001
 43
0.0000001
 44
0.0000000001
 40
0.0
 40
0.0
 40
0.0
 40
0.0
 40
1.0
 40
1.0
 40
1.0
 40
1.0
 10
152.802803372
 20
211.0093195999
 30
0.0
 10
152.5410005928
 20
210.8257438061
 30
0.0
 10
152.376927355
 20
210.5102960491
 30
0.0
 10
152.3769273522
 20
210.1905289367
 30
0.0
  0
SPLINE
  5
346
100
AcDbEntity
  8
0
100
AcDbSpline
 62
7
  6
BYLAYER
 70
0
 71
3
 72
14
 73
10
 74
0
 42
0.0000001
 43
0.0000001
 44
0.0000000001
 40
0.0
 40
0.0
 40
0.0
 40
0.0
 40
0.0198390527
 40
0.0768080995
 40
0.1690117218
 40
0.2932738529
 40
0.444705965
 40
0.6180861204
 40
1.0
 40
1.0
 40
1.0
 40
1.0
 10
172.997518268
 20
244.4142464848
 30
0.0
 10
172.999503453
 20
244.41422223
 30
0.0
 10
172.9974372014
 20
244.4021511903
 30
0.0
 10
173.0008907933
 20
244.3893803743
 30
0.0
 10
173.000109627
 20
244.3597613239
 30
0.0
 10
173.0011755479
 20
244.3238962462
 30
0.0
 10
173.0011644314
 20
244.2786144906
 30
0.0
 10
173.0011646203
 20
244.2080352216
 30
0.0
 10
173.0006663332
 20
244.1524073601
 30
0.0
 10
173.0001994131
 20
244.114191336
 30
0.0
  0
SPLINE
  5
347
100
AcDbEntity
  8
0
100
AcDbSpline
 62
7
  6
BYLAYER
 70
0
 71
3
 72
19
 73
15
 74
0
 42
0.0000001
 43
0.0000001
 44
0.0000000001
 40
0.0
 40
0.0
 40
0.0
 40
0.0
 40
0.2500229075
 40
0.3750344611
 40
0.5000459992
 40
0.6250575461
 40
0.7500673285
 40
0.8125730358
 40
0.8750783207
 40
0.9063333024
 40
0.9375786843
 40
0.9688154681
 40
0.9844873801
 40
1.0
 40
1.0
 40
1.0
 40
1.0
 10
167.7884889933
 20
249.189575814
 30
0.0
 10
167.9865765131
 20
249.1888060376
 30
0.0
 10
168.2837050008
 20
249.1867759845
 30
0.0
 10
168.6798590279
 20
249.1822212699
 30
0.0
 10
168.9769475589
 20
249.1770888814
 30
0.0
 10
169.2740381715
 20
249.1717404971
 30
0.0
 10
169.521529145
 20
249.1642005083
 30
0.0
 10
169.7194619608
 20
249.155546466
 30
0.0
 10
169.8431934227
 20
249.1533464396
 30
0.0
 10
169.9422832314
 20
249.1489751699
 30
0.0
 10
170.0157254139
 20
249.1392290767
 30
0.0
 10
170.0772420707
 20
249.1264106389
 30
0.0
 10
170.1266461557
 20
249.1349831819
 30
0.0
 10
170.1514710988
 20
249.1253613772
 30
0.0
 10
170.1609236836
 20
249.1175062909
 30
0.0
  0
SPLINE
  5
348
100
AcDbEntity
  8
0
100
AcDbSpline
 62
7
  6
BYLAYER
 70
0
 71
3
 72
14
 73
10
 74
0
 42
0.0000001
 43
0.0000001
 44
0.0000000001
 40
0.0
 40
0.0
 40
0.0
 40
0.0
 40
0.3700371195
 40
0.5487929676
 40
0.7066559067
 40
0.832986767
 40
0.9247265637
 40
0.9807265678
 40
1.0
 40
1.0
 40
1.0
 40
1.0
 10
198.5060773909
 20
243.8025627465
 30
0.0
 10
198.5065297777
 20
243.8395892726
 30
0.0
 10
198.5070030443
 20
243.8945646643
 30
0.0
 10
198.5070234582
 20
243.9651297469
 30
0.0
 10
198.5070838194
 20
244.0118212728
 30
0.0
 10
198.5059450266
 20
244.048452589
 30
0.0
 10
198.5067316658
 20
244.0781558048
 30
0.0
 10
198.5032213537
 20
244.0907556495
 30
0.0
 10
198.5053269255
 20
244.1025946009
 30
0.0
 10
198.5033983905
 20
244.1026178691
 30
0.0
  0
SPLINE
  5
349
100
AcDbEntity
  8
0
100
AcDbSpline
 62
7
  6
BYLAYER
 70
0
 71
3
 72
14
 73
10
 74
0
 42
0.0000001
 43
0.0000001
 44
0.0000000001
 40
0.0
 40
0.0
 40
0.0
 40
0.0
 40
0.0193685008
 40
0.0755879703
 40
0.167575787
 40
0.294087391
 40
0.4519853819
 40
0.630622547
 40
1.0
 40
1.0
 40
1.0
 40
1.0
 10
198.4859240938
 20
241.3331607261
 30
0.0
 10
198.4839854047
 20
241.3331610222
 30
0.0
 10
198.4859623746
 20
241.3450782196
 30
0.0
 10
198.4822827483
 20
241.3576801321
 30
0.0
 10
198.4827111971
 20
241.3874676347
 30
0.0
 10
198.4811233536
 20
241.4241379835
 30
0.0
 10
198.4806142039
 20
241.4708480404
 30
0.0
 10
198.4797748318
 20
241.541352393
 30
0.0
 10
198.4795774296
 20
241.5962655085
 30
0.0
 10
198.479577635
 20
241.6332383253
 30
0.0
  0
SPLINE
  5
34A
100
AcDbEntity
  8
0
100
AcDbSpline
 62
7
  6
BYLAYER
 70
0
 71
3
 72
8
 73
4
 74
0
 42
0.0000001
 43
0.0000001
 44
0.0000000001
 40
0.0
 40
0.0
 40
0.0
 40
0.0
 40
1.0
 40
1.0
 40
1.0
 40
1.0
 10
172.9768209011
 20
242.2007295095
 30
0.0
 10
172.9756901047
 20
242.1334053375
 30
0.0
 10
172.9635762081
 20
242.0652835852
 30
0.0
 10
172.9405384084
 20
242.0020136665
 30
0.0
  0
SPLINE
  5
34B
100
AcDbEntity
  8
0
100
AcDbSpline
 62
7
  6
BYLAYER
 70
0
 71
3
 72
8
 73
4
 74
0
 42
0.0000001
 43
0.0000001
 44
0.0000000001
 40
0.0
 40
0.0
 40
0.0
 40
0.0
 40
1.0
 40
1.0
 40
1.0
 40
1.0
 10
172.9405384084
 20
242.0020136665
 30
0.0
 10
172.9287453382
 20
241.9696257388
 30
0.0
 10
172.9140340158
 20
241.9381926764
 30
0.0
 10
172.8970566522
 20
241.9081956183
 30
0.0
  0
SPLINE
  5
34C
100
AcDbEntity
  8
0
100
AcDbSpline
 62
7
  6
BYLAYER
 70
0
 71
3
 72
9
 73
5
 74
0
 42
0.0000001
 43
0.0000001
 44
0.0000000001
 40
0.0
 40
0.0
 40
0.0
 40
0.0
 40
0.2550238103
 40
1.0
 40
1.0
 40
1.0
 40
1.0
 10
152.7959099757
 20
137.225743922
 30
0.0
 10
152.7750897328
 20
137.2049349195
 30
0.0
 10
152.695646004
 20
137.1211399858
 30
0.0
 10
152.6237292486
 20
137.0304429496
 30
0.0
 10
152.5733183429
 20
136.9607799914
 30
0.0
  0
SPLINE
  5
34D
100
AcDbEntity
  8
0
100
AcDbSpline
 62
7
  6
BYLAYER
 70
0
 71
3
 72
8
 73
4
 74
0
 42
0.0000001
 43
0.0000001
 44
0.0000000001
 40
0.0
 40
0.0
 40
0.0
 40
0.0
 40
1.0
 40
1.0
 40
1.0
 40
1.0
 10
152.5733183429
 20
136.9607799914
 30
0.0
 10
152.5370036525
 20
136.9105966288
 30
0.0
 10
152.5023200015
 20
136.8592144944
 30
0.0
 10
152.4688396501
 20
136.8070973889
 30
0.0
  0
LINE
  5
34E
100
AcDbEntity
  8
0
100
AcDbLine
 62
7
  6
BYLAYER
 10
151.4337734455
 20
211.0088211049
 11
151.4341605047
 21
213.2139323098
  0
SPLINE
  5
34F
100
AcDbEntity
  8
0
100
AcDbSpline
 62
7
  6
BYLAYER
 70
0
 71
3
 72
8
 73
4
 74
0
 42
0.0000001
 43
0.0000001
 44
0.0000000001
 40
0.0
 40
0.0
 40
0.0
 40
0.0
 40
1.0
 40
1.0
 40
1.0
 40
1.0
 10
152.876890037
 20
210.1905288806
 30
0.0
 10
152.8768816631
 20
210.3033824982
 30
0.0
 10
152.9189795444
 20
210.4219920641
 30
0.0
 10
152.9901313502
 20
210.5095897787
 30
0.0
  0
SPLINE
  5
350
100
AcDbEntity
  8
0
100
AcDbSpline
 62
7
  6
BYLAYER
 70
0
 71
3
 72
9
 73
5
 74
0
 42
0.0000001
 43
0.0000001
 44
0.0000000001
 40
0.0
 40
0.0
 40
0.0
 40
0.0
 40
0.5037650907
 40
1.0
 40
1.0
 40
1.0
 40
1.0
 10
152.9901313627
 20
210.5095907974
 30
0.0
 10
152.9515763612
 20
210.5904612422
 30
0.0
 10
152.8811649671
 20
210.754218814
 30
0.0
 10
152.8296431238
 20
210.9245911691
 30
0.0
 10
152.8028028708
 20
211.0086622915
 30
0.0
  0
ELLIPSE
  5
351
100
AcDbEntity
  8
0
100
AcDbEllipse
 62
7
  6
BYLAYER
 10
34.5975406571
 20
261.2581372549
 30
0.0
 11
1.0
 21
0.0
 31
0.0
 40
0.5
 41
3.1415926536
 42
4.7123889804
  0
ELLIPSE
  5
352
100
AcDbEntity
  8
0
100
AcDbEllipse
 62
7
  6
BYLAYER
 10
123.6975406571
 20
261.4081372549
 30
0.0
 11
0.3
 21
0.0
 31
0.0
 40
0.5
 41
-1.5707963268
 42
0.0000000001
  0
ELLIPSE
  5
353
100
AcDbEntity
  8
0
100
AcDbEllipse
 62
7
  6
BYLAYER
 10
34.5975406571
 20
86.5581372549
 30
0.0
 11
1.0
 21
-0.0
 31
0.0
 40
0.5
 41
1.5707963268
 42
3.1415926536
  0
ELLIPSE
  5
354
100
AcDbEntity
  8
0
100
AcDbEllipse
 62
7
  6
BYLAYER
 10
123.6975406571
 20
86.4081372549
 30
0.0
 11
0.3
 21
0.0
 31
0.0
 40
0.5
 41
-0.0
 42
1.5707963268
  0
ENDSEC
  0
SECTION
  2
OBJECTS
  0
DICTIONARY
  5
C
100
AcDbDictionary
280
0
281
1
  3
ACAD_GROUP
350
D
  3
ACAD_MLINESTYLE
350
17
  3
ACAD_LAYOUT
350
1A
  3
ACAD_PLOTSETTINGS
350
19
  3
ACAD_PLOTSTYLENAME
350
E
  0
DICTIONARY
  5
D
102
{ACAD_REACTORS
330
C
102
}
100
AcDbDictionary
280
0
281
1
  0
ACDBDICTIONARYWDFLT
  5
E
102
{ACAD_REACTORS
330
C
102
}
100
AcDbDictionary
281
1
  3
Normal
350
F
100
AcDbDictionaryWithDefault
340
F
  0
DICTIONARY
  5
17
102
{ACAD_REACTORS
330
C
102
}
100
AcDbDictionary
280
0
281
1
  3
Standard
350
18
  0
DICTIONARY
  5
19
102
{ACAD_REACTORS
330
C
102
}
100
AcDbDictionary
281
1
  0
DICTIONARY
  5
1A
102
{ACAD_REACTORS
330
C
102
}
100
AcDbDictionary
281
1
  3
Model
350
355
  3
Layout1
350
356
  0
ACDBPLACEHOLDER
  5
F
102
{ACAD_REACTORS
330
E
102
}
  0
MLINESTYLE
  5
18
102
{ACAD_REACTORS
330
17
102
}
100
AcDbMlineStyle
  2
STANDARD
 70
0
  3

 62
256
 51
90.0
 52
90.0
 71
2
 49
0.5
 62
256
  6
BYLAYER
 49
-0.5
 62
256
  6
BYLAYER
  0
LAYOUT
  5
355
102
{ACAD_REACTORS
330
1A
102
}
100
AcDbPlotSettings
  1

  2
none_device
  4

  6

 40
0.0
 41
0.0
 42
0.0
 43
0.0
 44
210.0
 45
297.0
 46
0.0
 47
0.0
 48
0.0
 49
0.0
140
0.0
141
0.0
142
1.0
143
1.0
 70
1024
 72
1
 73
0
 74
0
  7

 75
0
147
1.0
148
0.0
149
0.0
100
AcDbLayout
  1
Model
 70
0
 71
0
 10
0.0
 20
0.0
 11
210.0
 21
297.0
 12
0.0
 22
0.0
 32
0.0
 14
0.0
 24
0.0
 34
0.0
 15
0.0
 25
0.0
 35
0.0
146
0.0
 13
0.0
 23
0.0
 33
0.0
 16
1.0
 26
0.0
 36
0.0
 17
0.0
 27
1.0
 37
0.0
 76
0
330
210
345
0
346
0
  0
LAYOUT
  5
356
102
{ACAD_REACTORS
330
1A
102
}
100
AcDbPlotSettings
  1

  2
none_device
  4

  6

 40
0.0
 41
0.0
 42
0.0
 43
0.0
 44
210.0
 45
297.0
 46
0.0
 47
0.0
 48
0.0
 49
0.0
140
0.0
141
0.0
142
1.0
143
1.0
 70
0
 72
1
 73
0
 74
0
  7

 75
0
147
1.0
148
0.0
149
0.0
100
AcDbLayout
  1
Layout1
 70
0
 71
1
 10
0.0
 20
0.0
 11
210.0
 21
297.0
 12
0.0
 22
0.0
 32
0.0
 14
0.0
 24
0.0
 34
0.0
 15
0.0
 25
0.0
 35
0.0
146
0.0
 13
0.0
 23
0.0
 33
0.0
 16
1.0
 26
0.0
 36
0.0
 17
0.0
 27
1.0
 37
0.0
 76
0
330
211
345
0
346
0
  0
ENDSEC
  0
EOF
