999
DXF file: C:\Users\sesa63760\Dev\_Creo\CAD\MCADID0001810_3D-CAD\drw0001_1.dxf
999
Pro/ENGINEER 2019471 by Parametric Technology Corporation
  0
SECTION
  2
HEADER
  9
$ACADVER
  1
AC1024
  9
$DWGCODEPAGE
  3
ANSI_1252
  9
$EXTMAX
 10
52.7232998244
 20
74.5658097517
 30
0.0
  9
$EXTMIN
 10
0.0
 20
0.0
 30
0.0
  9
$LIMMIN
 10
0.0
 20
0.0
  9
$LIMMAX
 10
52.7232998244
 20
74.5658097517
  9
$VIEWCTR
 10
26.3616499122
 20
37.2829048758
  9
$VIEWSIZE
 40
74.5658097517
  9
$CLAYER
  8
0
  9
$LTSCALE
 40
4.8605861171
  9
$CELTYPE
  6
BYLAYER
  9
$DIMSCALE
 40
1.0
  9
$DIMASZ
 40
0.6276583312
  9
$DIMEXO
 40
1.0
  9
$DIMDLI
 40
3.3582231355
  9
$DIMEXE
 40
1.0
  9
$DIMCEN
 40
0.7953686374
  9
$DIMLFAC
 40
1.0
  9
$DIMBLK
  1
_FILLED
  9
$DIMALT
 70
0
  9
$DIMALTF
 40
0.0393700787
  9
$DIMTXT
 40
0.8787216637
  9
$DIMTOL
 70
1
  9
$DIMLIM
 70
0
  9
$DIMTFAC
 40
1.0
  9
$DIMTP
 40
0.01
  9
$DIMTM
 40
0.01
  9
$DIMGAP
 40
0.625
  9
$DIMDSEP
 70
46
  9
$AUNITS
 70
0
  9
$PDMODE
 70
3
  9
$PDSIZE
 40
0.3125
  9
$HANDSEED
  5
312
  9
$TILEMODE
 70
1
  9
$MEASUREMENT
 70
1
  9
$INSUNITS
 70
4
  0
ENDSEC
  0
SECTION
  2
CLASSES
  0
CLASS
  1
ACDBDICTIONARYWDFLT
  2
AcDbDictionaryWithDefault
  3
AutoCAD 2000
 90
0
 91
1
280
0
281
0
  0
CLASS
  1
ACDBPLACEHOLDER
  2
AcDbPlaceHolder
  3
AutoCAD 2000
 90
0
 91
1
280
0
281
0
  0
CLASS
  1
LAYOUT
  2
AcDbLayout
  3
AutoCAD 2000
 90
0
 91
0
280
0
281
0
  0
ENDSEC
  0
SECTION
  2
TABLES
  0
TABLE
  2
VPORT
  5
8
100
AcDbSymbolTable
 70
2
  0
VPORT
  5
1F4
100
AcDbSymbolTableRecord
100
AcDbViewportTableRecord
  2
*ACTIVE
 70
0
 10
0.0
 20
0.0
 11
1.0
 21
1.0
 12
26.3616499122
 22
37.2829048758
 13
0.0
 23
0.0
 14
1.0
 24
1.0
 15
0.0
 25
0.0
 16
0.0
 26
0.0
 36
1.0
 17
0.0
 27
0.0
 37
0.0
 40
74.5658097517
 41
0.7070707071
 42
50.0
 43
0.0
 44
0.0
 50
0.0
 51
0.0
 71
0
 72
100
 73
1
 74
1
 75
0
 76
0
 77
0
 78
0
  0
ENDTAB
  0
TABLE
  2
LTYPE
  5
5
100
AcDbSymbolTable
 70
6
  0
LTYPE
  5
14
100
AcDbSymbolTableRecord
100
AcDbLinetypeTableRecord
  2
BYBLOCK
 70
0
  3

 72
65
 73
0
 40
0.0
  0
LTYPE
  5
15
100
AcDbSymbolTableRecord
100
AcDbLinetypeTableRecord
  2
BYLAYER
 70
0
  3

 72
65
 73
0
 40
0.0
  0
LTYPE
  5
16
100
AcDbSymbolTableRecord
100
AcDbLinetypeTableRecord
  2
CONTINUOUS
 70
64
  3
Solid line
 72
65
 73
0
 40
0.0
  0
LTYPE
  5
1F5
100
AcDbSymbolTableRecord
100
AcDbLinetypeTableRecord
  2
CENTER
 70
64
  3
____ _ ____ _ ____ _ ____ _ ____ _ ____ _ ____
 72
65
 73
4
 40
0.6
 49
0.375
 74
0
 49
-0.075
 74
0
 49
0.075
 74
0
 49
-0.075
 74
0
  0
LTYPE
  5
1F6
100
AcDbSymbolTableRecord
100
AcDbLinetypeTableRecord
  2
HIDDEN
 70
64
  3
- - - - - - - - - - - - - - - - - - - -
 72
65
 73
2
 40
0.2
 49
0.1
 74
0
 49
-0.1
 74
0
  0
LTYPE
  5
1F7
100
AcDbSymbolTableRecord
100
AcDbLinetypeTableRecord
  2
PHANTOM
 70
64
  3
_____ _ _ _____ _ _ _____ _ _ _____
 72
65
 73
6
 40
0.8
 49
0.45
 74
0
 49
-0.05
 74
0
 49
0.1
 74
0
 49
-0.05
 74
0
 49
0.1
 74
0
 49
-0.05
 74
0
  0
LTYPE
  5
1F8
100
AcDbSymbolTableRecord
100
AcDbLinetypeTableRecord
  2
DOT
 70
64
  3
. . . . . . . . . . . . . . . . . . . .
 72
65
 73
2
 40
0.2
 49
0.1
 74
0
 49
-0.1
 74
0
  0
LTYPE
  5
1F9
100
AcDbSymbolTableRecord
100
AcDbLinetypeTableRecord
  2
DASHED
 70
64
  3
- - - - - - - - - - - - - - - - - - - -
 72
65
 73
2
 40
0.2
 49
0.1
 74
0
 49
-0.1
 74
0
  0
ENDTAB
  0
TABLE
  2
LAYER
  5
2
100
AcDbSymbolTable
 70
36
  0
LAYER
  5
10
100
AcDbSymbolTableRecord
100
AcDbLayerTableRecord
  2
0
 70
0
 62
7
  6
CONTINUOUS
370
-3
390
F
  0
LAYER
  5
1FA
100
AcDbSymbolTableRecord
100
AcDbLayerTableRecord
  2
DEFAULT_1
 70
0
 62
7
  6
CENTER
370
-3
390
F
  0
LAYER
  5
1FB
100
AcDbSymbolTableRecord
100
AcDbLayerTableRecord
  2
DEFAULT_2
 70
0
 62
8
  6
HIDDEN
370
-3
390
F
  0
LAYER
  5
1FC
100
AcDbSymbolTableRecord
100
AcDbLayerTableRecord
  2
DEFAULT_3
 70
0
 62
7
  6
PHANTOM
370
-3
390
F
  0
LAYER
  5
1FD
100
AcDbSymbolTableRecord
100
AcDbLayerTableRecord
  2
00_COMPONENTS
 70
0
 62
7
  6
CONTINUOUS
370
-3
390
F
  0
LAYER
  5
1FE
100
AcDbSymbolTableRecord
100
AcDbLayerTableRecord
  2
01_1_DEFAULT_DATUMS
 70
0
 62
7
  6
CONTINUOUS
370
-3
390
F
  0
LAYER
  5
1FF
100
AcDbSymbolTableRecord
100
AcDbLayerTableRecord
  2
01_PLANES
 70
0
 62
7
  6
CONTINUOUS
370
-3
390
F
  0
LAYER
  5
200
100
AcDbSymbolTableRecord
100
AcDbLayerTableRecord
  2
02_COORD_SYS
 70
0
 62
7
  6
CONTINUOUS
370
-3
390
F
  0
LAYER
  5
201
100
AcDbSymbolTableRecord
100
AcDbLayerTableRecord
  2
03_AXES
 70
0
 62
7
  6
CONTINUOUS
370
-3
390
F
  0
LAYER
  5
202
100
AcDbSymbolTableRecord
100
AcDbLayerTableRecord
  2
04_POINTS
 70
0
 62
7
  6
CONTINUOUS
370
-3
390
F
  0
LAYER
  5
203
100
AcDbSymbolTableRecord
100
AcDbLayerTableRecord
  2
05_CURVES
 70
0
 62
7
  6
CONTINUOUS
370
-3
390
F
  0
LAYER
  5
204
100
AcDbSymbolTableRecord
100
AcDbLayerTableRecord
  2
06_SURFS
 70
0
 62
7
  6
CONTINUOUS
370
-3
390
F
  0
LAYER
  5
205
100
AcDbSymbolTableRecord
100
AcDbLayerTableRecord
  2
07_COSMETICS
 70
0
 62
7
  6
CONTINUOUS
370
-3
390
F
  0
LAYER
  5
206
100
AcDbSymbolTableRecord
100
AcDbLayerTableRecord
  2
10_NOTES
 70
0
 62
7
  6
CONTINUOUS
370
-3
390
F
  0
LAYER
  5
207
100
AcDbSymbolTableRecord
100
AcDbLayerTableRecord
  2
11_NOTES_PUB
 70
0
 62
7
  6
CONTINUOUS
370
-3
390
F
  0
LAYER
  5
208
100
AcDbSymbolTableRecord
100
AcDbLayerTableRecord
  2
13_REF_GTOL
 70
0
 62
7
  6
CONTINUOUS
370
-3
390
F
  0
LAYER
  5
209
100
AcDbSymbolTableRecord
100
AcDbLayerTableRecord
  2
16_MISC
 70
0
 62
7
  6
CONTINUOUS
370
-3
390
F
  0
LAYER
  5
20A
100
AcDbSymbolTableRecord
100
AcDbLayerTableRecord
  2
17_NO_PRINT
 70
0
 62
7
  6
CONTINUOUS
370
-3
390
F
  0
LAYER
  5
20B
100
AcDbSymbolTableRecord
100
AcDbLayerTableRecord
  2
18_DATUM_CAMS_JOINTS
 70
0
 62
7
  6
CONTINUOUS
370
-3
390
F
  0
LAYER
  5
20C
100
AcDbSymbolTableRecord
100
AcDbLayerTableRecord
  2
19_DATUM_FUNCTIONAL
 70
0
 62
7
  6
CONTINUOUS
370
-3
390
F
  0
LAYER
  5
20D
100
AcDbSymbolTableRecord
100
AcDbLayerTableRecord
  2
20_DATUM_KINEMATIC_SCHEME
 70
0
 62
7
  6
CONTINUOUS
370
-3
390
F
  0
ENDTAB
  0
TABLE
  2
STYLE
  5
3
100
AcDbSymbolTable
 70
1
  0
STYLE
  5
11
100
AcDbSymbolTableRecord
100
AcDbTextStyleTableRecord
  2
STANDARD
 70
0
 40
0.0
 41
0.8
 50
0.0
 71
0
 42
0.2
  3
txt
  4

  0
STYLE
  5
20E
100
AcDbSymbolTableRecord
100
AcDbTextStyleTableRecord
  2
TEXTSTYLE_1
 70
0
 40
0.0
 41
0.8
 50
0.0
 71
0
 42
0.2
  3
gdt
  4

  0
ENDTAB
  0
TABLE
  2
VIEW
  5
6
100
AcDbSymbolTable
 70
0
  0
ENDTAB
  0
TABLE
  2
UCS
  5
7
100
AcDbSymbolTable
 70
0
  0
ENDTAB
  0
TABLE
  2
APPID
  5
9
100
AcDbSymbolTable
 70
1
  0
APPID
  5
20F
100
AcDbSymbolTableRecord
100
AcDbRegAppTableRecord
  2
ACAD
 70
0
  0
ENDTAB
  0
TABLE
  2
BLOCK_RECORD
  5
1
100
AcDbSymbolTable
 70
0
  0
BLOCK_RECORD
  5
210
100
AcDbSymbolTableRecord
100
AcDbBlockTableRecord
  2
*Model_Space
  0
BLOCK_RECORD
  5
211
100
AcDbSymbolTableRecord
100
AcDbBlockTableRecord
  2
*Paper_Space
  0
BLOCK_RECORD
  5
212
100
AcDbSymbolTableRecord
100
AcDbBlockTableRecord
  2
_FILLED
  0
ENDTAB
  0
TABLE
  2
DIMSTYLE
  5
A
100
AcDbSymbolTable
 70
1
100
AcDbDimStyleTable
 71
0
  0
DIMSTYLE
105
213
100
AcDbSymbolTableRecord
100
AcDbDimStyleTableRecord
  2
STANDARD
 70
0
  3

  4

 40
1.0
 41
0.6276583312
 42
1.0
 43
0.38
 44
1.0
 45
0.0
 46
0.0
 47
0.01
 48
0.01
140
0.8787216637
141
0.09
142
0.0
143
25.4
144
1.0
145
0.0
146
1.0
147
0.625
 71
1
 72
0
 73
0
 74
0
 75
0
 76
0
 77
1
 78
8
 79
2
170
0
171
1
172
0
173
0
174
0
175
0
176
0
177
0
178
0
270
2
179
2
271
2
272
2
273
2
274
2
275
0
280
0
281
0
282
0
283
1
284
8
285
0
286
0
287
3
288
0
340
11
278
46
341
212
342
212
343
212
344
212
  0
ENDTAB
  0
ENDSEC
  0
SECTION
  2
BLOCKS
  0
BLOCK
  5
20
100
AcDbEntity
  8
0
100
AcDbBlockBegin
  2
*Model_Space
 70
0
 10
0.0
 20
0.0
 30
0.0
  3
*Model_Space
  1

  0
ENDBLK
  5
21
100
AcDbEntity
  8
0
100
AcDbBlockEnd
  0
BLOCK
  5
1C
100
AcDbEntity
  8
0
100
AcDbBlockBegin
  2
*Paper_Space
 70
0
 10
0.0
 20
0.0
 30
0.0
  3
*Paper_Space
  1

  0
ENDBLK
  5
1D
100
AcDbEntity
  8
0
100
AcDbBlockEnd
  0
BLOCK
  5
214
100
AcDbEntity
  8
0
100
AcDbBlockBegin
  2
_FILLED
 70
64
 10
0.0
 20
0.0
  3
_FILLED
  1

  0
SOLID
  5
215
100
AcDbEntity
  8
0
  6
BYBLOCK
 62
0
100
AcDbTrace
 10
0.0
 20
0.0
 11
-1.0
 21
0.25
 12
-1.0
 22
-0.25
 13
-1.0
 23
-0.25
  0
ENDBLK
  5
216
100
AcDbEntity
  8
0
  6
BYBLOCK
 62
0
100
AcDbBlockEnd
  0
ENDSEC
  0
SECTION
  2
ENTITIES
  0
LINE
  5
217
100
AcDbEntity
  8
0
100
AcDbLine
 62
7
  6
CONTINUOUS
 10
10.7233790084
 20
58.4722366487
 11
11.4417994981
 21
58.8870216035
  0
LINE
  5
218
100
AcDbEntity
  8
0
100
AcDbLine
 62
7
  6
CONTINUOUS
 10
14.8542826165
 20
60.8572078901
 11
14.1358621268
 21
60.4424229353
  0
LINE
  5
219
100
AcDbEntity
  8
0
100
AcDbLine
 62
7
  6
CONTINUOUS
 10
18.9851832335
 20
63.242170237
 11
18.2667627438
 21
62.8273852822
  0
LINE
  5
21A
100
AcDbEntity
  8
0
100
AcDbLine
 62
7
  6
CONTINUOUS
 10
25.8460790941
 20
65.9900666878
 11
23.2058947867
 21
64.4657646661
  0
LINE
  5
21B
100
AcDbEntity
  8
0
100
AcDbLine
 62
7
  6
CONTINUOUS
 10
23.5651065271
 20
64.2583783628
 11
26.2052908345
 21
65.7826803845
  0
LINE
  5
21C
100
AcDbEntity
  8
0
100
AcDbLine
 62
7
  6
CONTINUOUS
 10
22.8466860374
 20
62.9102612616
 11
21.2033964262
 21
61.9615132254
  0
LINE
  5
21D
100
AcDbEntity
  8
0
100
AcDbLine
 62
7
  6
CONTINUOUS
 10
19.8230735755
 20
61.164588213
 11
19.3493669978
 21
60.8910952254
  0
LINE
  5
21E
100
AcDbEntity
  8
0
100
AcDbLine
 62
7
  6
CONTINUOUS
 10
18.2667627438
 20
60.2660570989
 11
17.0724958091
 21
59.5765508785
  0
LINE
  5
21F
100
AcDbEntity
  8
0
100
AcDbLine
 62
7
  6
CONTINUOUS
 10
15.6921729585
 20
58.7796258661
 11
15.2184663808
 21
58.5061328785
  0
LINE
  5
220
100
AcDbEntity
  8
0
100
AcDbLine
 62
7
  6
CONTINUOUS
 10
14.1358621268
 20
57.881094752
 11
13.6600126908
 21
57.6063645919
  0
LINE
  5
221
100
AcDbEntity
  8
0
100
AcDbLine
 62
7
  6
CONTINUOUS
 10
12.2796898401
 20
56.8094395795
 11
11.8059832624
 21
56.5359465919
  0
LINE
  5
222
100
AcDbEntity
  8
0
100
AcDbLine
 62
7
  6
CONTINUOUS
 10
10.7233790084
 20
55.9109084654
 11
6.1165093756
 21
53.2511469194
  0
LINE
  5
223
100
AcDbEntity
  8
0
100
AcDbLine
 62
7
  6
CONTINUOUS
 10
21.6253895252
 20
61.7178809078
 11
21.2661807759
 21
61.5104928776
  0
LINE
  5
224
100
AcDbEntity
  8
0
100
AcDbLine
 62
7
  6
CONTINUOUS
 10
17.4944889082
 20
59.3329185609
 11
17.1352801589
 21
59.1255305307
  0
LINE
  5
225
100
AcDbEntity
  8
0
100
AcDbLine
 62
7
  6
CONTINUOUS
 10
14.0820057899
 20
57.3627322743
 11
13.7227970405
 21
57.1553442441
  0
LINE
  5
226
100
AcDbEntity
  8
0
100
AcDbLine
 62
7
  6
CONTINUOUS
 10
18.6155599653
 20
13.162930587
 11
17.0720576701
 21
14.0540518928
  0
LINE
  5
227
100
AcDbEntity
  8
0
100
AcDbLine
 62
7
  6
CONTINUOUS
 10
9.7082169924
 20
18.3054711104
 11
6.6545096521
 21
20.0684899805
  0
LINE
  5
228
100
AcDbEntity
  8
0
100
AcDbLine
 62
7
  6
CONTINUOUS
 10
27.6692116142
 20
8.7577218552
 11
19.1308002018
 21
13.6872644615
  0
LINE
  5
229
100
AcDbEntity
  8
0
100
AcDbLine
 62
7
  6
CONTINUOUS
 10
17.0653326946
 20
14.8797357054
 11
9.7014920169
 21
19.131154923
  0
LINE
  5
22A
100
AcDbEntity
  8
0
100
AcDbLine
 62
7
  6
CONTINUOUS
 10
14.0820087809
 20
56.5331747129
 11
14.4412175302
 21
56.7405627431
  0
LINE
  5
22B
100
AcDbEntity
  8
0
100
AcDbLine
 62
7
  6
CONTINUOUS
 10
17.4944918993
 20
58.5033609995
 11
17.8537006486
 21
58.7107490297
  0
LINE
  5
22C
100
AcDbEntity
  8
0
100
AcDbLine
 62
7
  6
CONTINUOUS
 10
21.6253925163
 20
60.8883233464
 11
21.9846012656
 21
61.0957113766
  0
LINE
  5
22D
100
AcDbEntity
  8
0
100
AcDbLine
 62
7
  6
CONTINUOUS
 10
6.5906221193
 20
24.008930492
 11
27.6692118242
 21
11.8394763616
  0
LINE
  5
22E
100
AcDbEntity
  8
0
100
AcDbLine
 62
7
  6
CONTINUOUS
 10
6.6553247429
 20
24.0089306475
 11
27.6692115548
 21
11.8768319047
  0
LINE
  5
22F
100
AcDbEntity
  8
0
100
AcDbLine
 62
7
  6
CONTINUOUS
 10
27.6692118382
 20
12.044926662
 11
6.5872596176
 21
24.2163220979
  0
LINE
  5
230
100
AcDbEntity
  8
0
100
AcDbLine
 62
7
  6
CONTINUOUS
 10
6.6545096521
 20
20.0684899805
 11
6.5906221193
 21
24.008930492
  0
LINE
  5
231
100
AcDbEntity
  8
0
100
AcDbLine
 62
7
  6
CONTINUOUS
 10
6.5872596176
 20
24.2163220979
 11
6.2005719188
 21
48.0663567727
  0
LINE
  5
232
100
AcDbEntity
  8
0
100
AcDbLine
 62
7
  6
CONTINUOUS
 10
6.1972094171
 20
48.2737483786
 11
6.1165093756
 21
53.2511469194
  0
LINE
  5
233
100
AcDbEntity
  8
0
100
AcDbLine
 62
7
  6
CONTINUOUS
 10
6.296114498
 20
48.0663570024
 11
6.296114498
 21
48.2166467953
  0
LINE
  5
234
100
AcDbEntity
  8
0
100
AcDbLine
 62
7
  6
CONTINUOUS
 10
6.6553247429
 20
24.0089306475
 11
6.6553247429
 21
24.1770255685
  0
LINE
  5
235
100
AcDbEntity
  8
0
100
AcDbLine
 62
7
  6
CONTINUOUS
 10
23.2058977778
 20
58.6588083699
 11
26.5644995838
 21
60.597886452
  0
LINE
  5
236
100
AcDbEntity
  8
0
100
AcDbLine
 62
7
  6
CONTINUOUS
 10
6.296114498
 20
48.1215179773
 11
6.2005719188
 21
48.0663567727
  0
LINE
  5
237
100
AcDbEntity
  8
0
100
AcDbLine
 62
7
  6
CONTINUOUS
 10
18.4464284354
 20
54.8429886892
 11
17.7280079457
 21
54.4282037344
  0
LINE
  5
238
100
AcDbEntity
  8
0
100
AcDbLine
 62
7
  6
CONTINUOUS
 10
21.8589115538
 20
56.8131749758
 11
21.1404910641
 21
56.398390021
  0
LINE
  5
239
100
AcDbEntity
  8
0
100
AcDbLine
 62
7
  6
CONTINUOUS
 10
25.9898121708
 20
59.1981373227
 11
25.2713916811
 21
58.783352368
  0
LINE
  5
23A
100
AcDbEntity
  8
0
100
AcDbLine
 62
7
  6
CONTINUOUS
 10
14.0820087809
 20
51.5557759781
 11
14.4412175302
 21
51.7631640083
  0
LINE
  5
23B
100
AcDbEntity
  8
0
100
AcDbLine
 62
7
  6
CONTINUOUS
 10
17.4944918993
 20
53.5259622647
 11
17.7280079457
 21
53.6607820122
  0
LINE
  5
23C
100
AcDbEntity
  8
0
100
AcDbLine
 62
7
  6
CONTINUOUS
 10
9.7014920169
 20
19.131154923
 11
9.7082169924
 21
18.3054711104
  0
LINE
  5
23D
100
AcDbEntity
  8
0
100
AcDbLine
 62
7
  6
CONTINUOUS
 10
22.8466860374
 20
63.843593408
 11
23.2058947867
 21
64.4657646661
  0
LINE
  5
23E
100
AcDbEntity
  8
0
100
AcDbLine
 62
7
  6
CONTINUOUS
 10
23.5651065271
 20
64.2583783628
 11
23.2058977778
 21
63.6362071047
  0
LINE
  5
23F
100
AcDbEntity
  8
0
100
AcDbLine
 62
7
  6
CONTINUOUS
 10
28.6300184626
 20
57.6738479935
 11
28.2708097132
 21
57.4664599633
  0
LINE
  5
240
100
AcDbEntity
  8
0
100
AcDbLine
 62
7
  6
CONTINUOUS
 10
24.4991178456
 20
55.2888856466
 11
24.1399090962
 21
55.0814976164
  0
LINE
  5
241
100
AcDbEntity
  8
0
100
AcDbLine
 62
7
  6
CONTINUOUS
 10
21.0866347272
 20
53.31869936
 11
20.7274259779
 21
53.1113113298
  0
LINE
  5
242
100
AcDbEntity
  8
0
100
AcDbLine
 62
7
  6
CONTINUOUS
 10
34.0354287782
 20
12.4332371087
 11
34.7471396422
 21
12.0223399455
  0
LINE
  5
243
100
AcDbEntity
  8
0
100
AcDbLine
 62
7
  6
CONTINUOUS
 10
10.7233790084
 20
53.4948379139
 11
10.7233790084
 21
58.4722366487
  0
LINE
  5
244
100
AcDbEntity
  8
0
100
AcDbLine
 62
7
  6
CONTINUOUS
 10
21.0866377182
 20
52.4891417986
 11
21.4458464675
 21
52.6965298288
  0
LINE
  5
245
100
AcDbEntity
  8
0
100
AcDbLine
 62
7
  6
CONTINUOUS
 10
24.4991208366
 20
54.4593280852
 11
24.8583295859
 21
54.6667161154
  0
LINE
  5
246
100
AcDbEntity
  8
0
100
AcDbLine
 62
7
  6
CONTINUOUS
 10
28.6300214536
 20
56.8442904321
 11
28.9892302029
 21
57.0516784623
  0
LINE
  5
247
100
AcDbEntity
  8
0
100
AcDbLine
 62
7
  6
CONTINUOUS
 10
14.0820087809
 20
56.5331747129
 11
14.0820087809
 21
51.5557759781
  0
LINE
  5
248
100
AcDbEntity
  8
0
100
AcDbLine
 62
7
  6
CONTINUOUS
 10
14.1358621268
 20
57.2694508802
 11
14.1358621268
 21
60.4424229353
  0
LINE
  5
249
100
AcDbEntity
  8
0
100
AcDbLine
 62
7
  6
CONTINUOUS
 10
14.4412175302
 20
51.7631640083
 11
14.4412175302
 21
56.7405627431
  0
LINE
  5
24A
100
AcDbEntity
  8
0
100
AcDbLine
 62
7
  6
CONTINUOUS
 10
25.4510573727
 20
50.7989557749
 11
24.732636883
 21
50.3841708202
  0
LINE
  5
24B
100
AcDbEntity
  8
0
100
AcDbLine
 62
7
  6
CONTINUOUS
 10
28.8635404911
 20
52.7691420615
 11
28.1451200014
 21
52.3543571068
  0
LINE
  5
24C
100
AcDbEntity
  8
0
100
AcDbLine
 62
7
  6
CONTINUOUS
 10
32.9944411081
 20
55.1541044084
 11
32.2760206184
 21
54.7393194537
  0
LINE
  5
24D
100
AcDbEntity
  8
0
100
AcDbLine
 62
7
  6
CONTINUOUS
 10
21.0866377182
 20
47.5117430638
 11
21.4458464675
 21
47.719131094
  0
LINE
  5
24E
100
AcDbEntity
  8
0
100
AcDbLine
 62
7
  6
CONTINUOUS
 10
24.4991208366
 20
49.4819293504
 11
24.732636883
 21
49.6167490979
  0
LINE
  5
24F
100
AcDbEntity
  8
0
100
AcDbLine
 62
7
  6
CONTINUOUS
 10
34.2319038081
 20
12.546671343
 11
34.7471396422
 21
12.0223399455
  0
LINE
  5
250
100
AcDbEntity
  8
0
100
AcDbLine
 62
7
  6
CONTINUOUS
 10
17.0720576701
 20
14.0540518928
 11
17.0653326946
 21
14.8797357054
  0
LINE
  5
251
100
AcDbEntity
  8
0
100
AcDbLine
 62
7
  6
CONTINUOUS
 10
17.4944918993
 20
58.5033609995
 11
17.4944918993
 21
53.5259622647
  0
LINE
  5
252
100
AcDbEntity
  8
0
100
AcDbLine
 62
7
  6
CONTINUOUS
 10
40.0349428389
 20
57.7983077076
 11
37.3947585315
 21
56.2740056859
  0
LINE
  5
253
100
AcDbEntity
  8
0
100
AcDbLine
 62
7
  6
CONTINUOUS
 10
37.7539702719
 20
56.0666193826
 11
40.3941545793
 21
57.5909214043
  0
LINE
  5
254
100
AcDbEntity
  8
0
100
AcDbLine
 62
7
  6
CONTINUOUS
 10
35.6346473999
 20
53.6298150792
 11
35.2754386506
 21
53.422427049
  0
LINE
  5
255
100
AcDbEntity
  8
0
100
AcDbLine
 62
7
  6
CONTINUOUS
 10
31.5037467829
 20
51.2448527323
 11
31.1445380336
 21
51.0374647021
  0
LINE
  5
256
100
AcDbEntity
  8
0
100
AcDbLine
 62
7
  6
CONTINUOUS
 10
28.0912636645
 20
49.2746664457
 11
27.7320549152
 21
49.0672784155
  0
LINE
  5
257
100
AcDbEntity
  8
0
100
AcDbLine
 62
7
  6
CONTINUOUS
 10
17.7280079457
 20
49.4508049996
 11
17.7280079457
 21
54.4282037344
  0
LINE
  5
258
100
AcDbEntity
  8
0
100
AcDbLine
 62
7
  6
CONTINUOUS
 10
17.8537006486
 20
54.5007745251
 11
17.8537006486
 21
58.7107490297
  0
LINE
  5
259
100
AcDbEntity
  8
0
100
AcDbLine
 62
7
  6
CONTINUOUS
 10
18.2667627438
 20
57.8499865474
 11
18.2667627438
 21
62.8273852822
  0
LINE
  5
25A
100
AcDbEntity
  8
0
100
AcDbLine
 62
7
  6
CONTINUOUS
 10
28.0912666555
 20
48.4451088844
 11
28.4504754048
 21
48.6524969145
  0
LINE
  5
25B
100
AcDbEntity
  8
0
100
AcDbLine
 62
7
  6
CONTINUOUS
 10
31.5037497739
 20
50.4152951709
 11
31.8629585232
 21
50.6226832011
  0
LINE
  5
25C
100
AcDbEntity
  8
0
100
AcDbLine
 62
7
  6
CONTINUOUS
 10
35.6346503909
 20
52.8002575179
 11
35.9938591402
 21
53.007645548
  0
LINE
  5
25D
100
AcDbEntity
  8
0
100
AcDbLine
 62
7
  6
CONTINUOUS
 10
21.0866377182
 20
52.4891417986
 11
21.0866377182
 21
47.5117430638
  0
LINE
  5
25E
100
AcDbEntity
  8
0
100
AcDbLine
 62
7
  6
CONTINUOUS
 10
21.1404910641
 20
53.2254179659
 11
21.1404910641
 21
56.398390021
  0
LINE
  5
25F
100
AcDbEntity
  8
0
100
AcDbLine
 62
7
  6
CONTINUOUS
 10
21.4458464675
 20
47.719131094
 11
21.4458464675
 21
52.6965298288
  0
LINE
  5
260
100
AcDbEntity
  8
0
100
AcDbLine
 62
7
  6
CONTINUOUS
 10
21.6253925163
 20
60.8883233464
 11
21.6253925163
 21
56.6783535014
  0
LINE
  5
261
100
AcDbEntity
  8
0
100
AcDbLine
 62
7
  6
CONTINUOUS
 10
21.9846012656
 20
56.7406096285
 11
21.9846012656
 21
61.0957113766
  0
LINE
  5
262
100
AcDbEntity
  8
0
100
AcDbLine
 62
7
  6
CONTINUOUS
 10
37.3947615226
 20
50.4670493897
 11
40.7533633286
 21
52.4061274717
  0
LINE
  5
263
100
AcDbEntity
  8
0
100
AcDbLine
 62
7
  6
CONTINUOUS
 10
28.0912666555
 20
43.4677101495
 11
28.4504754048
 21
43.6750981797
  0
LINE
  5
264
100
AcDbEntity
  8
0
100
AcDbLine
 62
7
  6
CONTINUOUS
 10
31.5037497739
 20
45.4378964361
 11
31.8629585232
 21
45.6452844663
  0
LINE
  5
265
100
AcDbEntity
  8
0
100
AcDbLine
 62
7
  6
CONTINUOUS
 10
35.6346503909
 20
47.822858783
 11
35.9938591402
 21
48.0302468132
  0
LINE
  5
266
100
AcDbEntity
  8
0
100
AcDbLine
 62
7
  6
CONTINUOUS
 10
22.8466860374
 20
63.843593408
 11
22.8466860374
 21
58.8661946732
  0
LINE
  5
267
100
AcDbEntity
  8
0
100
AcDbLine
 62
7
  6
CONTINUOUS
 10
23.2058977778
 20
58.6588083699
 11
23.2058977778
 21
63.6362071047
  0
LINE
  5
268
100
AcDbEntity
  8
0
100
AcDbLine
 62
7
  6
CONTINUOUS
 10
24.4991208366
 20
54.4593280852
 11
24.4991208366
 21
49.4819293504
  0
LINE
  5
269
100
AcDbEntity
  8
0
100
AcDbLine
 62
7
  6
CONTINUOUS
 10
24.732636883
 20
45.4067720853
 11
24.732636883
 21
50.3841708202
  0
LINE
  5
26A
100
AcDbEntity
  8
0
100
AcDbLine
 62
7
  6
CONTINUOUS
 10
27.6692137981
 20
40.8079687217
 11
47.4256950098
 21
52.2143103808
  0
LINE
  5
26B
100
AcDbEntity
  8
0
100
AcDbLine
 62
7
  6
CONTINUOUS
 10
46.9515822661
 20
22.9720916741
 11
46.8868796426
 21
23.0094469062
  0
LINE
  5
26C
100
AcDbEntity
  8
0
100
AcDbLine
 62
7
  6
CONTINUOUS
 10
24.8583295859
 20
50.4567416109
 11
24.8583295859
 21
54.6667161154
  0
LINE
  5
26D
100
AcDbEntity
  8
0
100
AcDbLine
 62
7
  6
CONTINUOUS
 10
25.2713916811
 20
53.8059536331
 11
25.2713916811
 21
58.783352368
  0
LINE
  5
26E
100
AcDbEntity
  8
0
100
AcDbLine
 62
7
  6
CONTINUOUS
 10
26.5644995838
 20
65.5752851868
 11
26.5644995838
 21
60.597886452
  0
LINE
  5
26F
100
AcDbEntity
  8
0
100
AcDbLine
 62
7
  6
CONTINUOUS
 10
37.0355497822
 20
55.6518344278
 11
37.3947585315
 21
56.2740056859
  0
LINE
  5
270
100
AcDbEntity
  8
0
100
AcDbLine
 62
7
  6
CONTINUOUS
 10
37.7539702719
 20
56.0666193826
 11
37.3947615226
 21
55.4444481245
  0
LINE
  5
271
100
AcDbEntity
  8
0
100
AcDbLine
 62
7
  6
CONTINUOUS
 10
6.2005719188
 20
48.0663567727
 11
27.6692134481
 21
35.671711211
  0
LINE
  5
272
100
AcDbEntity
  8
0
100
AcDbLine
 62
7
  6
CONTINUOUS
 10
6.296114498
 20
48.0663570024
 11
27.6692130503
 21
35.7268719563
  0
LINE
  5
273
100
AcDbEntity
  8
0
100
AcDbLine
 62
7
  6
CONTINUOUS
 10
27.6692134621
 20
35.8771615114
 11
6.1972094171
 21
48.2737483786
  0
LINE
  5
274
100
AcDbEntity
  8
0
100
AcDbLine
 62
7
  6
CONTINUOUS
 10
14.0820087809
 20
56.5331747129
 11
13.7227970405
 21
57.1553442441
  0
LINE
  5
275
100
AcDbEntity
  8
0
100
AcDbLine
 62
7
  6
CONTINUOUS
 10
14.0820057899
 20
57.3627322743
 11
14.4412175302
 21
56.7405627431
  0
LINE
  5
276
100
AcDbEntity
  8
0
100
AcDbLine
 62
7
  6
CONTINUOUS
 10
27.6692116142
 20
8.7577218552
 11
27.6692118242
 21
11.8394763616
  0
LINE
  5
277
100
AcDbEntity
  8
0
100
AcDbLine
 62
7
  6
CONTINUOUS
 10
27.6692115548
 20
11.8768319047
 11
27.6692134481
 21
35.671711211
  0
LINE
  5
278
100
AcDbEntity
  8
0
100
AcDbLine
 62
7
  6
CONTINUOUS
 10
27.6692130503
 20
35.7268719563
 11
27.6692137981
 21
40.8079687217
  0
LINE
  5
279
100
AcDbEntity
  8
0
100
AcDbLine
 62
7
  6
CONTINUOUS
 10
28.0912666555
 20
48.4451088844
 11
28.0912666555
 21
43.4677101495
  0
LINE
  5
27A
100
AcDbEntity
  8
0
100
AcDbLine
 62
7
  6
CONTINUOUS
 10
28.1451200014
 20
49.1813850516
 11
28.1451200014
 21
52.3543571068
  0
LINE
  5
27B
100
AcDbEntity
  8
0
100
AcDbLine
 62
7
  6
CONTINUOUS
 10
28.4504754048
 20
43.6750981797
 11
28.4504754048
 21
48.6524969145
  0
LINE
  5
27C
100
AcDbEntity
  8
0
100
AcDbLine
 62
7
  6
CONTINUOUS
 10
28.6300214536
 20
56.8442904321
 11
28.6300214536
 21
52.6343205872
  0
LINE
  5
27D
100
AcDbEntity
  8
0
100
AcDbLine
 62
7
  6
CONTINUOUS
 10
28.9892302029
 20
52.6965767142
 11
28.9892302029
 21
57.0516784623
  0
LINE
  5
27E
100
AcDbEntity
  8
0
100
AcDbLine
 62
7
  6
CONTINUOUS
 10
6.6553247429
 20
24.0462863461
 11
6.5906221193
 21
24.008930492
  0
LINE
  5
27F
100
AcDbEntity
  8
0
100
AcDbLine
 62
7
  6
CONTINUOUS
 10
47.3449949684
 20
47.236911452
 11
27.6692134621
 21
35.8771615114
  0
LINE
  5
280
100
AcDbEntity
  8
0
100
AcDbLine
 62
7
  6
CONTINUOUS
 10
27.6692130503
 20
35.7268719563
 11
47.2460898874
 21
47.0295196003
  0
LINE
  5
281
100
AcDbEntity
  8
0
100
AcDbLine
 62
7
  6
CONTINUOUS
 10
27.6692134481
 20
35.671711211
 11
47.3416324666
 21
47.02951983
  0
LINE
  5
282
100
AcDbEntity
  8
0
100
AcDbLine
 62
7
  6
CONTINUOUS
 10
17.4944918993
 20
58.5033609995
 11
17.1352801589
 21
59.1255305307
  0
LINE
  5
283
100
AcDbEntity
  8
0
100
AcDbLine
 62
7
  6
CONTINUOUS
 10
21.0866377182
 20
52.4891417986
 11
20.7274259779
 21
53.1113113298
  0
LINE
  5
284
100
AcDbEntity
  8
0
100
AcDbLine
 62
7
  6
CONTINUOUS
 10
31.5037497739
 20
50.4152951709
 11
31.5037497739
 21
45.4378964361
  0
LINE
  5
285
100
AcDbEntity
  8
0
100
AcDbLine
 62
7
  6
CONTINUOUS
 10
6.1165093756
 20
53.2511469194
 11
27.6692137981
 21
40.8079687217
  0
LINE
  5
286
100
AcDbEntity
  8
0
100
AcDbLine
 62
7
  6
CONTINUOUS
 10
17.4944889082
 20
59.3329185609
 11
17.8537006486
 21
58.7107490297
  0
LINE
  5
287
100
AcDbEntity
  8
0
100
AcDbLine
 62
7
  6
CONTINUOUS
 10
21.0866347272
 20
53.31869936
 11
21.4458464675
 21
52.6965298288
  0
LINE
  5
288
100
AcDbEntity
  8
0
100
AcDbLine
 62
7
  6
CONTINUOUS
 10
31.8629585232
 20
45.6452844663
 11
31.8629585232
 21
50.6226832011
  0
LINE
  5
289
100
AcDbEntity
  8
0
100
AcDbLine
 62
7
  6
CONTINUOUS
 10
32.2760206184
 20
49.7619207189
 11
32.2760206184
 21
54.7393194537
  0
LINE
  5
28A
100
AcDbEntity
  8
0
100
AcDbLine
 62
7
  6
CONTINUOUS
 10
10.7233790084
 20
53.4948379139
 11
14.0820087809
 21
51.5557759781
  0
LINE
  5
28B
100
AcDbEntity
  8
0
100
AcDbLine
 62
7
  6
CONTINUOUS
 10
17.7280079457
 20
49.4508049996
 11
21.0866377182
 21
47.5117430638
  0
LINE
  5
28C
100
AcDbEntity
  8
0
100
AcDbLine
 62
7
  6
CONTINUOUS
 10
24.732636883
 20
45.4067720853
 11
28.0912666555
 21
43.4677101495
  0
LINE
  5
28D
100
AcDbEntity
  8
0
100
AcDbLine
 62
7
  6
CONTINUOUS
 10
24.4991208366
 20
54.4593280852
 11
24.1399090962
 21
55.0814976164
  0
LINE
  5
28E
100
AcDbEntity
  8
0
100
AcDbLine
 62
7
  6
CONTINUOUS
 10
28.0912666555
 20
48.4451088844
 11
27.7320549152
 21
49.0672784155
  0
LINE
  5
28F
100
AcDbEntity
  8
0
100
AcDbLine
 62
7
  6
CONTINUOUS
 10
24.4991178456
 20
55.2888856466
 11
24.8583295859
 21
54.6667161154
  0
LINE
  5
290
100
AcDbEntity
  8
0
100
AcDbLine
 62
7
  6
CONTINUOUS
 10
28.0912636645
 20
49.2746664457
 11
28.4504754048
 21
48.6524969145
  0
LINE
  5
291
100
AcDbEntity
  8
0
100
AcDbLine
 62
7
  6
CONTINUOUS
 10
21.6253925163
 20
60.8883233464
 11
21.2661807759
 21
61.5104928776
  0
LINE
  5
292
100
AcDbEntity
  8
0
100
AcDbLine
 62
7
  6
CONTINUOUS
 10
35.6346503909
 20
52.8002575179
 11
35.6346503909
 21
47.822858783
  0
LINE
  5
293
100
AcDbEntity
  8
0
100
AcDbLine
 62
7
  6
CONTINUOUS
 10
35.9938591402
 20
48.0302468132
 11
35.9938591402
 21
53.007645548
  0
LINE
  5
294
100
AcDbEntity
  8
0
100
AcDbLine
 62
7
  6
CONTINUOUS
 10
9.7082169924
 20
18.3054711104
 11
10.4199279124
 21
18.7163751489
  0
LINE
  5
295
100
AcDbEntity
  8
0
100
AcDbLine
 62
7
  6
CONTINUOUS
 10
14.4412175302
 20
55.2887311644
 11
17.4944918993
 21
53.5259622647
  0
LINE
  5
296
100
AcDbEntity
  8
0
100
AcDbLine
 62
7
  6
CONTINUOUS
 10
21.4458464675
 20
51.2446982501
 11
24.4991208366
 21
49.4819293504
  0
LINE
  5
297
100
AcDbEntity
  8
0
100
AcDbLine
 62
7
  6
CONTINUOUS
 10
28.4504754048
 20
47.2006653359
 11
31.5037497739
 21
45.4378964361
  0
LINE
  5
298
100
AcDbEntity
  8
0
100
AcDbLine
 62
7
  6
CONTINUOUS
 10
21.6253895252
 20
61.7178809078
 11
21.9846012656
 21
61.0957113766
  0
LINE
  5
299
100
AcDbEntity
  8
0
100
AcDbLine
 62
7
  6
CONTINUOUS
 10
37.0355497822
 20
55.6518344278
 11
37.0355497822
 21
50.674435693
  0
LINE
  5
29A
100
AcDbEntity
  8
0
100
AcDbLine
 62
7
  6
CONTINUOUS
 10
37.3947615226
 20
50.4670493897
 11
37.3947615226
 21
55.4444481245
  0
LINE
  5
29B
100
AcDbEntity
  8
0
100
AcDbLine
 62
7
  6
CONTINUOUS
 10
18.6155599653
 20
13.162930587
 11
19.1308002018
 21
13.6872644615
  0
LINE
  5
29C
100
AcDbEntity
  8
0
100
AcDbLine
 62
7
  6
CONTINUOUS
 10
11.0825907488
 20
58.6796335733
 11
13.7227970405
 21
57.1553442441
  0
LINE
  5
29D
100
AcDbEntity
  8
0
100
AcDbLine
 62
7
  6
CONTINUOUS
 10
18.0872196861
 20
54.6356006591
 11
20.7274259779
 21
53.1113113298
  0
LINE
  5
29E
100
AcDbEntity
  8
0
100
AcDbLine
 62
7
  6
CONTINUOUS
 10
25.0918486234
 20
50.5915677448
 11
27.7320549152
 21
49.0672784155
  0
LINE
  5
29F
100
AcDbEntity
  8
0
100
AcDbLine
 62
7
  6
CONTINUOUS
 10
28.0912636645
 20
49.2746664457
 11
25.4510573727
 21
50.7989557749
  0
LINE
  5
2A0
100
AcDbEntity
  8
0
100
AcDbLine
 62
7
  6
CONTINUOUS
 10
21.0866347272
 20
53.31869936
 11
18.4464284354
 21
54.8429886892
  0
LINE
  5
2A1
100
AcDbEntity
  8
0
100
AcDbLine
 62
7
  6
CONTINUOUS
 10
14.0820057899
 20
57.3627322743
 11
11.4417994981
 21
58.8870216035
  0
LINE
  5
2A2
100
AcDbEntity
  8
0
100
AcDbLine
 62
7
  6
CONTINUOUS
 10
31.5037497739
 20
50.4152951709
 11
31.1445380336
 21
51.0374647021
  0
LINE
  5
2A3
100
AcDbEntity
  8
0
100
AcDbLine
 62
7
  6
CONTINUOUS
 10
31.5037467829
 20
51.2448527323
 11
31.8629585232
 21
50.6226832011
  0
LINE
  5
2A4
100
AcDbEntity
  8
0
100
AcDbLine
 62
7
  6
CONTINUOUS
 10
28.6300214536
 20
56.8442904321
 11
28.2708097132
 21
57.4664599633
  0
LINE
  5
2A5
100
AcDbEntity
  8
0
100
AcDbLine
 62
7
  6
CONTINUOUS
 10
28.6300184626
 20
57.6738479935
 11
28.9892302029
 21
57.0516784623
  0
LINE
  5
2A6
100
AcDbEntity
  8
0
100
AcDbLine
 62
7
  6
CONTINUOUS
 10
40.7533633286
 20
57.3835262066
 11
40.7533633286
 21
52.4061274717
  0
LINE
  5
2A7
100
AcDbEntity
  8
0
100
AcDbLine
 62
7
  6
CONTINUOUS
 10
18.2667627438
 20
57.8499865474
 11
21.1404910641
 21
56.1908762622
  0
LINE
  5
2A8
100
AcDbEntity
  8
0
100
AcDbLine
 62
7
  6
CONTINUOUS
 10
25.2713916811
 20
53.8059536331
 11
28.1451200014
 21
52.1468433479
  0
LINE
  5
2A9
100
AcDbEntity
  8
0
100
AcDbLine
 62
7
  6
CONTINUOUS
 10
32.2760206184
 20
49.7619207189
 11
35.6346503909
 21
47.822858783
  0
LINE
  5
2AA
100
AcDbEntity
  8
0
100
AcDbLine
 62
7
  6
CONTINUOUS
 10
14.4950738672
 20
60.6498198599
 11
17.1352801589
 21
59.1255305307
  0
LINE
  5
2AB
100
AcDbEntity
  8
0
100
AcDbLine
 62
7
  6
CONTINUOUS
 10
21.4997028045
 20
56.6057869456
 11
24.1399090962
 21
55.0814976164
  0
LINE
  5
2AC
100
AcDbEntity
  8
0
100
AcDbLine
 62
7
  6
CONTINUOUS
 10
28.5043317418
 20
52.5617540314
 11
31.1445380336
 21
51.0374647021
  0
LINE
  5
2AD
100
AcDbEntity
  8
0
100
AcDbLine
 62
7
  6
CONTINUOUS
 10
31.5037467829
 20
51.2448527323
 11
28.8635404911
 21
52.7691420615
  0
LINE
  5
2AE
100
AcDbEntity
  8
0
100
AcDbLine
 62
7
  6
CONTINUOUS
 10
24.4991178456
 20
55.2888856466
 11
21.8589115538
 21
56.8131749758
  0
LINE
  5
2AF
100
AcDbEntity
  8
0
100
AcDbLine
 62
7
  6
CONTINUOUS
 10
17.4944889082
 20
59.3329185609
 11
14.8542826165
 21
60.8572078901
  0
LINE
  5
2B0
100
AcDbEntity
  8
0
100
AcDbLine
 62
7
  6
CONTINUOUS
 10
22.8466860374
 20
58.8661946732
 11
23.2058977778
 21
58.6588083699
  0
LINE
  5
2B1
100
AcDbEntity
  8
0
100
AcDbLine
 62
7
  6
CONTINUOUS
 10
37.0355497822
 20
50.674435693
 11
37.3947615226
 21
50.4670493897
  0
LINE
  5
2B2
100
AcDbEntity
  8
0
100
AcDbLine
 62
7
  6
CONTINUOUS
 10
35.6346503909
 20
52.8002575179
 11
35.2754386506
 21
53.422427049
  0
LINE
  5
2B3
100
AcDbEntity
  8
0
100
AcDbLine
 62
7
  6
CONTINUOUS
 10
35.6346473999
 20
53.6298150792
 11
35.9938591402
 21
53.007645548
  0
LINE
  5
2B4
100
AcDbEntity
  8
0
100
AcDbLine
 62
7
  6
CONTINUOUS
 10
18.6155599653
 20
13.162930587
 11
19.3272708854
 21
13.5738346255
  0
LINE
  5
2B5
100
AcDbEntity
  8
0
100
AcDbLine
 62
7
  6
CONTINUOUS
 10
18.6259744842
 20
63.0347822068
 11
21.2661807759
 21
61.5104928776
  0
LINE
  5
2B6
100
AcDbEntity
  8
0
100
AcDbLine
 62
7
  6
CONTINUOUS
 10
25.6306034215
 20
58.9907492926
 11
28.2708097132
 21
57.4664599633
  0
LINE
  5
2B7
100
AcDbEntity
  8
0
100
AcDbLine
 62
7
  6
CONTINUOUS
 10
32.6352323588
 20
54.9467163783
 11
35.2754386506
 21
53.422427049
  0
LINE
  5
2B8
100
AcDbEntity
  8
0
100
AcDbLine
 62
7
  6
CONTINUOUS
 10
35.6346473999
 20
53.6298150792
 11
32.9944411081
 21
55.1541044084
  0
LINE
  5
2B9
100
AcDbEntity
  8
0
100
AcDbLine
 62
7
  6
CONTINUOUS
 10
28.6300184626
 20
57.6738479935
 11
25.9898121708
 21
59.1981373227
  0
LINE
  5
2BA
100
AcDbEntity
  8
0
100
AcDbLine
 62
7
  6
CONTINUOUS
 10
21.6253895252
 20
61.7178809078
 11
18.9851832335
 21
63.242170237
  0
LINE
  5
2BB
100
AcDbEntity
  8
0
100
AcDbLine
 62
7
  6
CONTINUOUS
 10
47.3416324666
 20
47.02951983
 11
47.2460898874
 21
47.0846801159
  0
LINE
  5
2BC
100
AcDbEntity
  8
0
100
AcDbLine
 62
7
  6
CONTINUOUS
 10
46.8868796426
 20
22.9720915186
 11
46.8868796426
 21
23.1401861123
  0
LINE
  5
2BD
100
AcDbEntity
  8
0
100
AcDbLine
 62
7
  6
CONTINUOUS
 10
47.2460898874
 20
47.0295196003
 11
47.2460898874
 21
47.1798089178
  0
LINE
  5
2BE
100
AcDbEntity
  8
0
100
AcDbLine
 62
7
  6
CONTINUOUS
 10
46.8876947333
 20
19.0316508555
 11
46.9515822661
 21
22.9720916741
  0
LINE
  5
2BF
100
AcDbEntity
  8
0
100
AcDbLine
 62
7
  6
CONTINUOUS
 10
46.9549447679
 20
23.1794832962
 11
47.3416324666
 21
47.02951983
  0
LINE
  5
2C0
100
AcDbEntity
  8
0
100
AcDbLine
 62
7
  6
CONTINUOUS
 10
47.3449949684
 20
47.236911452
 11
47.4256950098
 21
52.2143103808
  0
LINE
  5
2C1
100
AcDbEntity
  8
0
100
AcDbLine
 62
7
  6
CONTINUOUS
 10
22.8466860374
 20
63.843593408
 11
23.2058977778
 21
63.6362071047
  0
LINE
  5
2C2
100
AcDbEntity
  8
0
100
AcDbLine
 62
7
  6
CONTINUOUS
 10
37.0355497822
 20
55.6518344278
 11
37.3947615226
 21
55.4444481245
  0
LINE
  5
2C3
100
AcDbEntity
  8
0
100
AcDbLine
 62
7
  6
CONTINUOUS
 10
46.9549447679
 20
23.1794832962
 11
27.6692118382
 21
12.044926662
  0
LINE
  5
2C4
100
AcDbEntity
  8
0
100
AcDbLine
 62
7
  6
CONTINUOUS
 10
27.6692115548
 20
11.8768319047
 11
46.8868796426
 21
22.9720915186
  0
LINE
  5
2C5
100
AcDbEntity
  8
0
100
AcDbLine
 62
7
  6
CONTINUOUS
 10
27.6692118242
 20
11.8394763616
 11
46.9515822661
 21
22.9720916741
  0
LINE
  5
2C6
100
AcDbEntity
  8
0
100
AcDbLine
 62
7
  6
CONTINUOUS
 10
37.7539702719
 20
56.0666193826
 11
37.3947585315
 21
56.2740056859
  0
LINE
  5
2C7
100
AcDbEntity
  8
0
100
AcDbLine
 62
7
  6
CONTINUOUS
 10
23.5651065271
 20
64.2583783628
 11
23.2058947867
 21
64.4657646661
  0
LINE
  5
2C8
100
AcDbEntity
  8
0
100
AcDbLine
 62
7
  6
CONTINUOUS
 10
47.4256950098
 20
52.2143103808
 11
40.7533633286
 21
56.0664957251
  0
LINE
  5
2C9
100
AcDbEntity
  8
0
100
AcDbLine
 62
7
  6
CONTINUOUS
 10
38.8943354801
 20
57.1397816728
 11
26.5644995838
 21
64.2582547053
  0
LINE
  5
2CA
100
AcDbEntity
  8
0
100
AcDbLine
 62
7
  6
CONTINUOUS
 10
34.2319038081
 20
12.546671343
 11
27.6692116142
 21
8.7577218552
  0
LINE
  5
2CB
100
AcDbEntity
  8
0
100
AcDbLine
 62
7
  6
CONTINUOUS
 10
46.8876947333
 20
19.0316508555
 11
34.7471396422
 21
12.0223399455
  0
LINE
  5
2CC
100
AcDbEntity
  8
0
100
AcDbLine
 62
7
  6
CONTINUOUS
 10
25.8460790941
 20
65.9900666878
 11
26.5644995838
 21
65.5752851868
  0
LINE
  5
2CD
100
AcDbEntity
  8
0
100
AcDbLine
 62
7
  6
CONTINUOUS
 10
40.7533633286
 20
57.3835262066
 11
40.0349428389
 21
57.7983077076
  0
SPLINE
  5
2CE
100
AcDbEntity
  8
0
100
AcDbSpline
 62
7
  6
CONTINUOUS
 70
0
 71
3
 72
10
 73
6
 74
0
 42
0.0000001
 43
0.0000001
 44
0.0000000001
 40
0.0
 40
0.0
 40
0.0
 40
0.0
 40
0.4621721647
 40
0.7215757803
 40
1.0
 40
1.0
 40
1.0
 40
1.0
 10
38.2188554166
 20
53.4820481064
 30
0.0
 10
38.298603422
 20
53.4746123908
 30
0.0
 10
38.4261143718
 20
53.4900067566
 30
0.0
 10
38.5895791421
 20
53.5478642603
 30
0.0
 10
38.6730643778
 20
53.5900698747
 30
0.0
 10
38.7148506852
 20
53.6141950665
 30
0.0
  0
SPLINE
  5
2CF
100
AcDbEntity
  8
0
100
AcDbSpline
 62
7
  6
CONTINUOUS
 70
0
 71
3
 72
20
 73
16
 74
0
 42
0.0000001
 43
0.0000001
 44
0.0000000001
 40
0.0
 40
0.0
 40
0.0
 40
0.0
 40
0.0428327198
 40
0.0874313059
 40
0.1352362504
 40
0.1871663999
 40
0.2436365835
 40
0.3046197838
 40
0.4382035481
 40
0.5824569572
 40
0.7295308786
 40
0.8015435904
 40
0.8711868595
 40
0.9376187784
 40
1.0
 40
1.0
 40
1.0
 40
1.0
 10
38.3755766562
 20
53.3376224348
 30
0.0
 10
38.3411343533
 20
53.3575037776
 30
0.0
 10
38.2758669868
 20
53.4074942448
 30
0.0
 10
38.1972786266
 20
53.506820307
 30
0.0
 10
38.1385868923
 20
53.6283273833
 30
0.0
 10
38.1005643864
 20
53.7690017021
 30
0.0
 10
38.0836233083
 20
53.925906569
 30
0.0
 10
38.0896258363
 20
54.1594573815
 30
0.0
 10
38.15299746
 20
54.4701655141
 30
0.0
 10
38.3014824057
 20
54.8375611356
 30
0.0
 10
38.4790583413
 20
55.1265032089
 30
0.0
 10
38.6479530089
 20
55.3350535805
 30
0.0
 10
38.782954266
 20
55.4736965357
 30
0.0
 10
38.924210693
 20
55.5924813924
 30
0.0
 10
39.0239033417
 20
55.659157329
 30
0.0
 10
39.0740624256
 20
55.6881165167
 30
0.0
  0
SPLINE
  5
2D0
100
AcDbEntity
  8
0
100
AcDbSpline
 62
7
  6
CONTINUOUS
 70
0
 71
3
 72
18
 73
14
 74
0
 42
0.0000001
 43
0.0000001
 44
0.0000000001
 40
0.0
 40
0.0
 40
0.0
 40
0.0
 40
0.0599120408
 40
0.1233769678
 40
0.2582830244
 40
0.399477744
 40
0.5406371515
 40
0.6754524932
 40
0.7388033876
 40
0.7986968631
 40
0.8547817668
 40
0.9069410731
 40
1.0
 40
1.0
 40
1.0
 40
1.0
 10
24.5259869404
 20
61.8059540468
 30
0.0
 10
24.5704766327
 20
61.8316400293
 30
0.0
 10
24.6590437681
 20
61.8899421867
 30
0.0
 10
24.8312699681
 20
62.0296127918
 30
0.0
 10
25.0312277799
 20
62.2433570339
 30
0.0
 10
25.2331403831
 20
62.5402849366
 30
0.0
 10
25.3888457074
 20
62.8637686496
 30
0.0
 10
25.4734647947
 20
63.1437313961
 30
0.0
 10
25.5079372387
 20
63.3626172321
 30
0.0
 10
25.5166406256
 20
63.5164068734
 30
0.0
 10
25.5083663468
 20
63.6607850757
 30
0.0
 10
25.4764667649
 20
63.8305540433
 30
0.0
 10
25.4260654345
 20
63.9480683517
 30
0.0
 10
25.3798521753
 20
64.0131181039
 30
0.0
  0
SPLINE
  5
2D1
100
AcDbEntity
  8
0
100
AcDbSpline
 62
7
  6
CONTINUOUS
 70
0
 71
3
 72
18
 73
14
 74
0
 42
0.0000001
 43
0.0000001
 44
0.0000000001
 40
0.0
 40
0.0
 40
0.0
 40
0.0
 40
0.0931386988
 40
0.1453392415
 40
0.2014586624
 40
0.2613776126
 40
0.3247427191
 40
0.4595558115
 40
0.6006820805
 40
0.7418242252
 40
0.8766737708
 40
0.9401117905
 40
1.0
 40
1.0
 40
1.0
 40
1.0
 10
19.4502286416
 20
61.2635506085
 30
0.0
 10
19.4042559333
 20
61.1983241097
 30
0.0
 10
19.35420019
 20
61.0806835555
 30
0.0
 10
19.3226632071
 20
60.9108503732
 30
0.0
 10
19.3146356803
 20
60.7664884791
 30
0.0
 10
19.3235464238
 20
60.6127700919
 30
0.0
 10
19.3582409301
 20
60.3940656204
 30
0.0
 10
19.443013607
 20
60.1144156772
 30
0.0
 10
19.5987520166
 20
59.7913499441
 30
0.0
 10
19.8005602215
 20
59.4948449434
 30
0.0
 10
20.0003419948
 20
59.2814164095
 30
0.0
 10
20.1723847137
 20
59.1419445236
 30
0.0
 10
20.260849321
 20
59.0837191094
 30
0.0
 10
20.3052863794
 20
59.0580639422
 30
0.0
  0
SPLINE
  5
2D2
100
AcDbEntity
  8
0
100
AcDbSpline
 62
7
  6
CONTINUOUS
 70
0
 71
3
 72
12
 73
8
 74
0
 42
0.0000001
 43
0.0000001
 44
0.0000000001
 40
0.0
 40
0.0
 40
0.0
 40
0.0
 40
0.108169861
 40
0.2183744485
 40
0.4513322769
 40
0.7105272076
 40
1.0
 40
1.0
 40
1.0
 40
1.0
 10
19.2475839552
 20
61.2011635122
 30
0.0
 10
19.2704908475
 20
61.2143845597
 30
0.0
 10
19.3191393075
 20
61.2371268614
 30
0.0
 10
19.4259069036
 20
61.2667150225
 30
0.0
 10
19.5755103701
 20
61.2707064161
 30
0.0
 10
19.7628067634
 20
61.225362456
 30
0.0
 10
19.8847811978
 20
61.1673723765
 30
0.0
 10
19.9460776301
 20
61.1319836655
 30
0.0
  0
SPLINE
  5
2D3
100
AcDbEntity
  8
0
100
AcDbSpline
 62
7
  6
CONTINUOUS
 70
0
 71
3
 72
18
 73
14
 74
0
 42
0.0000001
 43
0.0000001
 44
0.0000000001
 40
0.0
 40
0.0
 40
0.0
 40
0.0
 40
0.0931386988
 40
0.1453392415
 40
0.2014586624
 40
0.2613776126
 40
0.3247427191
 40
0.4595558115
 40
0.6006820805
 40
0.7418242252
 40
0.8766737708
 40
0.9401117905
 40
1.0
 40
1.0
 40
1.0
 40
1.0
 10
26.4548575789
 20
57.2195176942
 30
0.0
 10
26.4088848706
 20
57.1542911954
 30
0.0
 10
26.3588291274
 20
57.0366506413
 30
0.0
 10
26.3272921444
 20
56.8668174589
 30
0.0
 10
26.3192646176
 20
56.7224555648
 30
0.0
 10
26.3281753611
 20
56.5687371777
 30
0.0
 10
26.3628698674
 20
56.3500327061
 30
0.0
 10
26.4476425443
 20
56.0703827629
 30
0.0
 10
26.6033809539
 20
55.7473170298
 30
0.0
 10
26.8051891588
 20
55.4508120291
 30
0.0
 10
27.0049709321
 20
55.2373834953
 30
0.0
 10
27.177013651
 20
55.0979116093
 30
0.0
 10
27.2654782583
 20
55.0396861951
 30
0.0
 10
27.3099153167
 20
55.0140310279
 30
0.0
  0
SPLINE
  5
2D4
100
AcDbEntity
  8
0
100
AcDbSpline
 62
7
  6
CONTINUOUS
 70
0
 71
3
 72
12
 73
8
 74
0
 42
0.0000001
 43
0.0000001
 44
0.0000000001
 40
0.0
 40
0.0
 40
0.0
 40
0.0
 40
0.108169861
 40
0.2183744485
 40
0.4513322769
 40
0.7105272076
 40
1.0
 40
1.0
 40
1.0
 40
1.0
 10
26.2522128925
 20
57.1571305979
 30
0.0
 10
26.2751197848
 20
57.1703516454
 30
0.0
 10
26.3237682448
 20
57.1930939471
 30
0.0
 10
26.4305358409
 20
57.2226821082
 30
0.0
 10
26.5801393074
 20
57.2266735018
 30
0.0
 10
26.7674357007
 20
57.1813295418
 30
0.0
 10
26.8894101351
 20
57.1233394623
 30
0.0
 10
26.9507065674
 20
57.0879507512
 30
0.0
  0
SPLINE
  5
2D5
100
AcDbEntity
  8
0
100
AcDbSpline
 62
7
  6
CONTINUOUS
 70
0
 71
3
 72
18
 73
14
 74
0
 42
0.0000001
 43
0.0000001
 44
0.0000000001
 40
0.0
 40
0.0
 40
0.0
 40
0.0
 40
0.0931386988
 40
0.1453392415
 40
0.2014586624
 40
0.2613776126
 40
0.3247427191
 40
0.4595558115
 40
0.6006820805
 40
0.7418242252
 40
0.8766737708
 40
0.9401117905
 40
1.0
 40
1.0
 40
1.0
 40
1.0
 10
33.4594865162
 20
53.1754847799
 30
0.0
 10
33.4135138079
 20
53.1102582812
 30
0.0
 10
33.3634580647
 20
52.992617727
 30
0.0
 10
33.3319210817
 20
52.8227845446
 30
0.0
 10
33.3238935549
 20
52.6784226505
 30
0.0
 10
33.3328042984
 20
52.5247042634
 30
0.0
 10
33.3674988047
 20
52.3059997919
 30
0.0
 10
33.4522714816
 20
52.0263498487
 30
0.0
 10
33.6080098912
 20
51.7032841155
 30
0.0
 10
33.8098180961
 20
51.4067791148
 30
0.0
 10
34.0095998695
 20
51.193350581
 30
0.0
 10
34.1816425883
 20
51.053878695
 30
0.0
 10
34.2701071956
 20
50.9956532809
 30
0.0
 10
34.314544254
 20
50.9699981136
 30
0.0
  0
SPLINE
  5
2D6
100
AcDbEntity
  8
0
100
AcDbSpline
 62
7
  6
CONTINUOUS
 70
0
 71
3
 72
12
 73
8
 74
0
 42
0.0000001
 43
0.0000001
 44
0.0000000001
 40
0.0
 40
0.0
 40
0.0
 40
0.0
 40
0.108169861
 40
0.2183744485
 40
0.4513322769
 40
0.7105272076
 40
1.0
 40
1.0
 40
1.0
 40
1.0
 10
33.2568418298
 20
53.1130976837
 30
0.0
 10
33.2797487221
 20
53.1263187312
 30
0.0
 10
33.3283971821
 20
53.1490610329
 30
0.0
 10
33.4351647782
 20
53.1786491939
 30
0.0
 10
33.5847682447
 20
53.1826405876
 30
0.0
 10
33.772064638
 20
53.1372966275
 30
0.0
 10
33.8940390724
 20
53.079306548
 30
0.0
 10
33.9553355047
 20
53.0439178369
 30
0.0
  0
SPLINE
  5
2D7
100
AcDbEntity
  8
0
100
AcDbSpline
 62
7
  6
CONTINUOUS
 70
0
 71
3
 72
18
 73
14
 74
0
 42
0.0000001
 43
0.0000001
 44
0.0000000001
 40
0.0
 40
0.0
 40
0.0
 40
0.0
 40
0.0931386988
 40
0.1453392415
 40
0.2014586624
 40
0.2613776126
 40
0.3247427191
 40
0.4595558115
 40
0.6006820805
 40
0.7418242252
 40
0.8766737708
 40
0.9401117905
 40
1.0
 40
1.0
 40
1.0
 40
1.0
 10
15.3193280246
 20
58.8785882616
 30
0.0
 10
15.2733553163
 20
58.8133617628
 30
0.0
 10
15.223299573
 20
58.6957212086
 30
0.0
 10
15.1917625901
 20
58.5258880263
 30
0.0
 10
15.1837350633
 20
58.3815261322
 30
0.0
 10
15.1926458068
 20
58.227807745
 30
0.0
 10
15.2273403131
 20
58.0091032735
 30
0.0
 10
15.31211299
 20
57.7294533303
 30
0.0
 10
15.4678513996
 20
57.4063875972
 30
0.0
 10
15.6696596045
 20
57.1098825965
 30
0.0
 10
15.8694413778
 20
56.8964540626
 30
0.0
 10
16.0414840967
 20
56.7569821767
 30
0.0
 10
16.129948704
 20
56.6987567625
 30
0.0
 10
16.1743857624
 20
56.6731015953
 30
0.0
  0
SPLINE
  5
2D8
100
AcDbEntity
  8
0
100
AcDbSpline
 62
7
  6
CONTINUOUS
 70
0
 71
3
 72
12
 73
8
 74
0
 42
0.0000001
 43
0.0000001
 44
0.0000000001
 40
0.0
 40
0.0
 40
0.0
 40
0.0
 40
0.108169861
 40
0.2183744485
 40
0.4513322769
 40
0.7105272076
 40
1.0
 40
1.0
 40
1.0
 40
1.0
 10
15.1166833382
 20
58.8162011653
 30
0.0
 10
15.1395902305
 20
58.8294222128
 30
0.0
 10
15.1882386905
 20
58.8521645145
 30
0.0
 10
15.2950062866
 20
58.8817526755
 30
0.0
 10
15.4446097531
 20
58.8857440692
 30
0.0
 10
15.6319061464
 20
58.8404001091
 30
0.0
 10
15.7538805808
 20
58.7824100296
 30
0.0
 10
15.8151770131
 20
58.7470213186
 30
0.0
  0
SPLINE
  5
2D9
100
AcDbEntity
  8
0
100
AcDbSpline
 62
7
  6
CONTINUOUS
 70
0
 71
3
 72
18
 73
14
 74
0
 42
0.0000001
 43
0.0000001
 44
0.0000000001
 40
0.0
 40
0.0
 40
0.0
 40
0.0
 40
0.0931386988
 40
0.1453392415
 40
0.2014586624
 40
0.2613776126
 40
0.3247427191
 40
0.4595558115
 40
0.6006820805
 40
0.7418242252
 40
0.8766737708
 40
0.9401117905
 40
1.0
 40
1.0
 40
1.0
 40
1.0
 10
22.3239569619
 20
54.8345553473
 30
0.0
 10
22.2779842536
 20
54.7693288485
 30
0.0
 10
22.2279285103
 20
54.6516882943
 30
0.0
 10
22.1963915274
 20
54.481855112
 30
0.0
 10
22.1883640006
 20
54.3374932179
 30
0.0
 10
22.1972747441
 20
54.1837748307
 30
0.0
 10
22.2319692504
 20
53.9650703592
 30
0.0
 10
22.3167419273
 20
53.685420416
 30
0.0
 10
22.4724803369
 20
53.3623546829
 30
0.0
 10
22.6742885418
 20
53.0658496822
 30
0.0
 10
22.8740703151
 20
52.8524211483
 30
0.0
 10
23.046113034
 20
52.7129492624
 30
0.0
 10
23.1345776413
 20
52.6547238482
 30
0.0
 10
23.1790146997
 20
52.629068681
 30
0.0
  0
SPLINE
  5
2DA
100
AcDbEntity
  8
0
100
AcDbSpline
 62
7
  6
CONTINUOUS
 70
0
 71
3
 72
12
 73
8
 74
0
 42
0.0000001
 43
0.0000001
 44
0.0000000001
 40
0.0
 40
0.0
 40
0.0
 40
0.0
 40
0.108169861
 40
0.2183744485
 40
0.4513322769
 40
0.7105272076
 40
1.0
 40
1.0
 40
1.0
 40
1.0
 10
22.1213122755
 20
54.772168251
 30
0.0
 10
22.1442191678
 20
54.7853892985
 30
0.0
 10
22.1928676278
 20
54.8081316002
 30
0.0
 10
22.2996352239
 20
54.8377197613
 30
0.0
 10
22.4492386904
 20
54.8417111549
 30
0.0
 10
22.6365350837
 20
54.7963671948
 30
0.0
 10
22.7585095181
 20
54.7383771153
 30
0.0
 10
22.8198059504
 20
54.7029884043
 30
0.0
  0
SPLINE
  5
2DB
100
AcDbEntity
  8
0
100
AcDbSpline
 62
7
  6
CONTINUOUS
 70
0
 71
3
 72
18
 73
14
 74
0
 42
0.0000001
 43
0.0000001
 44
0.0000000001
 40
0.0
 40
0.0
 40
0.0
 40
0.0
 40
0.0931386988
 40
0.1453392415
 40
0.2014586624
 40
0.2613776126
 40
0.3247427191
 40
0.4595558115
 40
0.6006820805
 40
0.7418242252
 40
0.8766737708
 40
0.9401117905
 40
1.0
 40
1.0
 40
1.0
 40
1.0
 10
29.3285858992
 20
50.790522433
 30
0.0
 10
29.2826131909
 20
50.7252959342
 30
0.0
 10
29.2325574477
 20
50.6076553801
 30
0.0
 10
29.2010204647
 20
50.4378221977
 30
0.0
 10
29.1929929379
 20
50.2934603036
 30
0.0
 10
29.2019036814
 20
50.1397419165
 30
0.0
 10
29.2365981877
 20
49.9210374449
 30
0.0
 10
29.3213708646
 20
49.6413875017
 30
0.0
 10
29.4771092742
 20
49.3183217686
 30
0.0
 10
29.6789174791
 20
49.0218167679
 30
0.0
 10
29.8786992524
 20
48.8083882341
 30
0.0
 10
30.0507419713
 20
48.6689163481
 30
0.0
 10
30.1392065786
 20
48.6106909339
 30
0.0
 10
30.183643637
 20
48.5850357667
 30
0.0
  0
SPLINE
  5
2DC
100
AcDbEntity
  8
0
100
AcDbSpline
 62
7
  6
CONTINUOUS
 70
0
 71
3
 72
12
 73
8
 74
0
 42
0.0000001
 43
0.0000001
 44
0.0000000001
 40
0.0
 40
0.0
 40
0.0
 40
0.0
 40
0.108169861
 40
0.2183744485
 40
0.4513322769
 40
0.7105272076
 40
1.0
 40
1.0
 40
1.0
 40
1.0
 10
29.1259412128
 20
50.7281353367
 30
0.0
 10
29.1488481051
 20
50.7413563843
 30
0.0
 10
29.1974965651
 20
50.7640986859
 30
0.0
 10
29.3042641612
 20
50.793686847
 30
0.0
 10
29.4538676277
 20
50.7976782406
 30
0.0
 10
29.641164021
 20
50.7523342806
 30
0.0
 10
29.7631384554
 20
50.6943442011
 30
0.0
 10
29.8244348877
 20
50.65895549
 30
0.0
  0
SPLINE
  5
2DD
100
AcDbEntity
  8
0
100
AcDbSpline
 62
7
  6
CONTINUOUS
 70
0
 71
3
 72
18
 73
14
 74
0
 42
0.0000001
 43
0.0000001
 44
0.0000000001
 40
0.0
 40
0.0
 40
0.0
 40
0.0
 40
0.0931386988
 40
0.1453392415
 40
0.2014586624
 40
0.2613776126
 40
0.3247427191
 40
0.4595558115
 40
0.6006820805
 40
0.7418242252
 40
0.8766737708
 40
0.9401117905
 40
1.0
 40
1.0
 40
1.0
 40
1.0
 10
11.9068449062
 20
56.908401975
 30
0.0
 10
11.8608721979
 20
56.8431754762
 30
0.0
 10
11.8108164546
 20
56.725534922
 30
0.0
 10
11.7792794717
 20
56.5557017397
 30
0.0
 10
11.7712519449
 20
56.4113398456
 30
0.0
 10
11.7801626884
 20
56.2576214584
 30
0.0
 10
11.8148571947
 20
56.0389169869
 30
0.0
 10
11.8996298716
 20
55.7592670437
 30
0.0
 10
12.0553682812
 20
55.4362013106
 30
0.0
 10
12.2571764861
 20
55.1396963099
 30
0.0
 10
12.4569582594
 20
54.926267776
 30
0.0
 10
12.6290009783
 20
54.7867958901
 30
0.0
 10
12.7174655856
 20
54.7285704759
 30
0.0
 10
12.761902644
 20
54.7029153087
 30
0.0
  0
SPLINE
  5
2DE
100
AcDbEntity
  8
0
100
AcDbSpline
 62
7
  6
CONTINUOUS
 70
0
 71
3
 72
12
 73
8
 74
0
 42
0.0000001
 43
0.0000001
 44
0.0000000001
 40
0.0
 40
0.0
 40
0.0
 40
0.0
 40
0.108169861
 40
0.2183744485
 40
0.4513322769
 40
0.7105272076
 40
1.0
 40
1.0
 40
1.0
 40
1.0
 10
11.7042002198
 20
56.8460148787
 30
0.0
 10
11.7271071121
 20
56.8592359262
 30
0.0
 10
11.7757555721
 20
56.8819782279
 30
0.0
 10
11.8825231682
 20
56.911566389
 30
0.0
 10
12.0321266347
 20
56.9155577826
 30
0.0
 10
12.219423028
 20
56.8702138225
 30
0.0
 10
12.3413974624
 20
56.812223743
 30
0.0
 10
12.4026938947
 20
56.776835032
 30
0.0
  0
SPLINE
  5
2DF
100
AcDbEntity
  8
0
100
AcDbSpline
 62
7
  6
CONTINUOUS
 70
0
 71
3
 72
18
 73
14
 74
0
 42
0.0000001
 43
0.0000001
 44
0.0000000001
 40
0.0
 40
0.0
 40
0.0
 40
0.0
 40
0.0931386988
 40
0.1453392415
 40
0.2014586624
 40
0.2613776126
 40
0.3247427191
 40
0.4595558115
 40
0.6006820805
 40
0.7418242252
 40
0.8766737708
 40
0.9401117905
 40
1.0
 40
1.0
 40
1.0
 40
1.0
 10
18.9114738435
 20
52.8643690607
 30
0.0
 10
18.8655011352
 20
52.7991425619
 30
0.0
 10
18.815445392
 20
52.6815020077
 30
0.0
 10
18.783908409
 20
52.5116688254
 30
0.0
 10
18.7758808822
 20
52.3673069313
 30
0.0
 10
18.7847916257
 20
52.2135885442
 30
0.0
 10
18.819486132
 20
51.9948840726
 30
0.0
 10
18.9042588089
 20
51.7152341294
 30
0.0
 10
19.0599972185
 20
51.3921683963
 30
0.0
 10
19.2618054234
 20
51.0956633956
 30
0.0
 10
19.4615871967
 20
50.8822348618
 30
0.0
 10
19.6336299156
 20
50.7427629758
 30
0.0
 10
19.7220945229
 20
50.6845375616
 30
0.0
 10
19.7665315813
 20
50.6588823944
 30
0.0
  0
SPLINE
  5
2E0
100
AcDbEntity
  8
0
100
AcDbSpline
 62
7
  6
CONTINUOUS
 70
0
 71
3
 72
12
 73
8
 74
0
 42
0.0000001
 43
0.0000001
 44
0.0000000001
 40
0.0
 40
0.0
 40
0.0
 40
0.0
 40
0.108169861
 40
0.2183744485
 40
0.4513322769
 40
0.7105272076
 40
1.0
 40
1.0
 40
1.0
 40
1.0
 10
18.7088291571
 20
52.8019819644
 30
0.0
 10
18.7317360494
 20
52.8152030119
 30
0.0
 10
18.7803845094
 20
52.8379453136
 30
0.0
 10
18.8871521055
 20
52.8675334747
 30
0.0
 10
19.036755572
 20
52.8715248683
 30
0.0
 10
19.2240519653
 20
52.8261809083
 30
0.0
 10
19.3460263997
 20
52.7681908288
 30
0.0
 10
19.407322832
 20
52.7328021177
 30
0.0
  0
SPLINE
  5
2E1
100
AcDbEntity
  8
0
100
AcDbSpline
 62
7
  6
CONTINUOUS
 70
0
 71
3
 72
18
 73
14
 74
0
 42
0.0000001
 43
0.0000001
 44
0.0000000001
 40
0.0
 40
0.0
 40
0.0
 40
0.0
 40
0.0931386988
 40
0.1453392415
 40
0.2014586624
 40
0.2613776126
 40
0.3247427191
 40
0.4595558115
 40
0.6006820805
 40
0.7418242252
 40
0.8766737708
 40
0.9401117905
 40
1.0
 40
1.0
 40
1.0
 40
1.0
 10
25.9161027808
 20
48.8203361464
 30
0.0
 10
25.8701300725
 20
48.7551096477
 30
0.0
 10
25.8200743293
 20
48.6374690935
 30
0.0
 10
25.7885373463
 20
48.4676359111
 30
0.0
 10
25.7805098195
 20
48.323274017
 30
0.0
 10
25.789420563
 20
48.1695556299
 30
0.0
 10
25.8241150693
 20
47.9508511584
 30
0.0
 10
25.9088877462
 20
47.6712012152
 30
0.0
 10
26.0646261558
 20
47.348135482
 30
0.0
 10
26.2664343607
 20
47.0516304813
 30
0.0
 10
26.4662161341
 20
46.8382019475
 30
0.0
 10
26.6382588529
 20
46.6987300615
 30
0.0
 10
26.7267234602
 20
46.6405046474
 30
0.0
 10
26.7711605186
 20
46.6148494801
 30
0.0
  0
SPLINE
  5
2E2
100
AcDbEntity
  8
0
100
AcDbSpline
 62
7
  6
CONTINUOUS
 70
0
 71
3
 72
12
 73
8
 74
0
 42
0.0000001
 43
0.0000001
 44
0.0000000001
 40
0.0
 40
0.0
 40
0.0
 40
0.0
 40
0.108169861
 40
0.2183744485
 40
0.4513322769
 40
0.7105272076
 40
1.0
 40
1.0
 40
1.0
 40
1.0
 10
25.7134580944
 20
48.7579490502
 30
0.0
 10
25.7363649867
 20
48.7711700977
 30
0.0
 10
25.7850134467
 20
48.7939123994
 30
0.0
 10
25.8917810428
 20
48.8235005604
 30
0.0
 10
26.0413845093
 20
48.8274919541
 30
0.0
 10
26.2286809026
 20
48.782147994
 30
0.0
 10
26.350655337
 20
48.7241579145
 30
0.0
 10
26.4119517693
 20
48.6887692034
 30
0.0
  0
SPLINE
  5
2E3
100
AcDbEntity
  8
0
100
AcDbSpline
 62
7
  6
CONTINUOUS
 70
0
 71
3
 72
10
 73
6
 74
0
 42
0.0000001
 43
0.0000001
 44
0.0000000001
 40
0.0
 40
0.0
 40
0.0
 40
0.0
 40
0.4621721647
 40
0.7215757803
 40
1.0
 40
1.0
 40
1.0
 40
1.0
 10
24.0299916718
 20
61.6738070866
 30
0.0
 10
24.1097396772
 20
61.666371371
 30
0.0
 10
24.237250627
 20
61.6817657368
 30
0.0
 10
24.4007153973
 20
61.7396232405
 30
0.0
 10
24.484200633
 20
61.7818288549
 30
0.0
 10
24.5259869404
 20
61.8059540468
 30
0.0
  0
SPLINE
  5
2E4
100
AcDbEntity
  8
0
100
AcDbSpline
 62
7
  6
CONTINUOUS
 70
0
 71
3
 72
20
 73
16
 74
0
 42
0.0000001
 43
0.0000001
 44
0.0000000001
 40
0.0
 40
0.0
 40
0.0
 40
0.0
 40
0.0428327198
 40
0.0874313059
 40
0.1352362504
 40
0.1871663999
 40
0.2436365835
 40
0.3046197838
 40
0.4382035481
 40
0.5824569572
 40
0.7295308786
 40
0.8015435904
 40
0.8711868595
 40
0.9376187784
 40
1.0
 40
1.0
 40
1.0
 40
1.0
 10
24.1867129114
 20
61.529381415
 30
0.0
 10
24.1522706085
 20
61.5492627578
 30
0.0
 10
24.087003242
 20
61.599253225
 30
0.0
 10
24.0084148818
 20
61.6985792872
 30
0.0
 10
23.9497231475
 20
61.8200863635
 30
0.0
 10
23.9117006416
 20
61.9607606823
 30
0.0
 10
23.8947595635
 20
62.1176655492
 30
0.0
 10
23.9007620916
 20
62.3512163617
 30
0.0
 10
23.9641337152
 20
62.6619244943
 30
0.0
 10
24.1126186609
 20
63.0293201158
 30
0.0
 10
24.2901945965
 20
63.3182621891
 30
0.0
 10
24.4590892641
 20
63.5268125607
 30
0.0
 10
24.5940905212
 20
63.6654555159
 30
0.0
 10
24.7353469482
 20
63.7842403726
 30
0.0
 10
24.8350395969
 20
63.8509163092
 30
0.0
 10
24.8851986808
 20
63.8798754969
 30
0.0
  0
SPLINE
  5
2E5
100
AcDbEntity
  8
0
100
AcDbSpline
 62
7
  6
CONTINUOUS
 70
0
 71
3
 72
12
 73
8
 74
0
 42
0.0000001
 43
0.0000001
 44
0.0000000001
 40
0.0
 40
0.0
 40
0.0
 40
0.0
 40
0.289482697
 40
0.5486747891
 40
0.7816285344
 40
0.8918320999
 40
1.0
 40
1.0
 40
1.0
 40
1.0
 10
24.8851986808
 20
63.8798754969
 30
0.0
 10
24.9464963121
 20
63.9152654896
 30
0.0
 10
25.0684705595
 20
63.9732563981
 30
0.0
 10
25.255765827
 20
64.0186018706
 30
0.0
 10
25.4053651275
 20
64.0146074739
 30
0.0
 10
25.5121311086
 20
63.9850251292
 30
0.0
 10
25.5607789231
 20
63.962283724
 30
0.0
 10
25.5836844502
 20
63.9490618254
 30
0.0
  0
SPLINE
  5
2E6
100
AcDbEntity
  8
0
100
AcDbSpline
 62
7
  6
CONTINUOUS
 70
0
 71
3
 72
18
 73
14
 74
0
 42
0.0000001
 43
0.0000001
 44
0.0000000001
 40
0.0
 40
0.0
 40
0.0
 40
0.0
 40
0.0599120408
 40
0.1233769678
 40
0.2582830244
 40
0.399477744
 40
0.5406371515
 40
0.6754524932
 40
0.7388033876
 40
0.7986968631
 40
0.8547817668
 40
0.9069410731
 40
1.0
 40
1.0
 40
1.0
 40
1.0
 10
38.7148506852
 20
53.6141950665
 30
0.0
 10
38.7593403775
 20
53.6398810491
 30
0.0
 10
38.8479075129
 20
53.6981832065
 30
0.0
 10
39.0201337129
 20
53.8378538116
 30
0.0
 10
39.2200915247
 20
54.0515980537
 30
0.0
 10
39.4220041279
 20
54.3485259564
 30
0.0
 10
39.5777094522
 20
54.6720096694
 30
0.0
 10
39.6623285395
 20
54.9519724158
 30
0.0
 10
39.6968009835
 20
55.1708582519
 30
0.0
 10
39.7055043704
 20
55.3246478932
 30
0.0
 10
39.6972300916
 20
55.4690260955
 30
0.0
 10
39.6653305097
 20
55.6387950631
 30
0.0
 10
39.6149291793
 20
55.7563093715
 30
0.0
 10
39.5687159201
 20
55.8213591237
 30
0.0
  0
SPLINE
  5
2E7
100
AcDbEntity
  8
0
100
AcDbSpline
 62
7
  6
CONTINUOUS
 70
0
 71
3
 72
12
 73
8
 74
0
 42
0.0000001
 43
0.0000001
 44
0.0000000001
 40
0.0
 40
0.0
 40
0.0
 40
0.0
 40
0.289482697
 40
0.5486747891
 40
0.7816285344
 40
0.8918320999
 40
1.0
 40
1.0
 40
1.0
 40
1.0
 10
39.0740624256
 20
55.6881165167
 30
0.0
 10
39.1353600569
 20
55.7235065094
 30
0.0
 10
39.2573343043
 20
55.7814974179
 30
0.0
 10
39.4446295718
 20
55.8268428904
 30
0.0
 10
39.5942288723
 20
55.8228484937
 30
0.0
 10
39.7009948534
 20
55.793266149
 30
0.0
 10
39.7496426679
 20
55.7705247438
 30
0.0
 10
39.772548195
 20
55.7573028452
 30
0.0
  0
SPLINE
  5
2E8
100
AcDbEntity
  8
0
100
AcDbSpline
 62
7
  6
CONTINUOUS
 70
0
 71
3
 72
10
 73
6
 74
0
 42
0.0000001
 43
0.0000001
 44
0.0000000001
 40
0.0
 40
0.0
 40
0.0
 40
0.0
 40
0.2782840223
 40
0.5376524342
 40
1.0
 40
1.0
 40
1.0
 40
1.0
 10
20.3052863794
 20
59.0580639422
 30
0.0
 10
20.3468734473
 20
59.0340541805
 30
0.0
 10
20.4299606407
 20
58.9920224589
 30
0.0
 10
20.5926717766
 20
58.9342564474
 30
0.0
 10
20.7195788365
 20
58.9186258368
 30
0.0
 10
20.7990453804
 20
58.9257148053
 30
0.0
  0
SPLINE
  5
2E9
100
AcDbEntity
  8
0
100
AcDbSpline
 62
7
  6
CONTINUOUS
 70
0
 71
3
 72
20
 73
16
 74
0
 42
0.0000001
 43
0.0000001
 44
0.0000000001
 40
0.0
 40
0.0
 40
0.0
 40
0.0
 40
0.0623800605
 40
0.128808606
 40
0.270303761
 40
0.4173671729
 40
0.5616157698
 40
0.6302544863
 40
0.6953782812
 40
0.7563609137
 40
0.8128312053
 40
0.8647606791
 40
0.9125660172
 40
0.957165531
 40
1.0
 40
1.0
 40
1.0
 40
1.0
 10
19.9460776301
 20
61.1319836655
 30
0.0
 10
19.9962374213
 20
61.1030245516
 30
0.0
 10
20.0959383673
 20
61.0363508477
 30
0.0
 10
20.2882860423
 20
60.8745535258
 30
0.0
 10
20.5072372212
 20
60.6253789304
 30
0.0
 10
20.7185748839
 20
60.281620414
 30
0.0
 10
20.8445636211
 20
59.9699701468
 30
0.0
 10
20.906813863
 20
59.7190876451
 30
0.0
 10
20.9321809982
 20
59.5396911861
 30
0.0
 10
20.9365177504
 20
59.3698014447
 30
0.0
 10
20.919592647
 20
59.2128979877
 30
0.0
 10
20.8815641197
 20
59.0722196357
 30
0.0
 10
20.822880075
 20
58.9507040747
 30
0.0
 10
20.7442845952
 20
58.8513755393
 30
0.0
 10
20.679017065
 20
58.8013769389
 30
0.0
 10
20.644571305
 20
58.7814960653
 30
0.0
  0
SPLINE
  5
2EA
100
AcDbEntity
  8
0
100
AcDbSpline
 62
7
  6
CONTINUOUS
 70
0
 71
3
 72
20
 73
16
 74
0
 42
0.0000001
 43
0.0000001
 44
0.0000000001
 40
0.0
 40
0.0
 40
0.0
 40
0.0
 40
0.0623800605
 40
0.128808606
 40
0.270303761
 40
0.4173671729
 40
0.5616157698
 40
0.6302544863
 40
0.6953782812
 40
0.7563609137
 40
0.8128312053
 40
0.8647606791
 40
0.9125660172
 40
0.957165531
 40
1.0
 40
1.0
 40
1.0
 40
1.0
 10
26.4119517693
 20
48.6887692034
 30
0.0
 10
26.4621115606
 20
48.6598100896
 30
0.0
 10
26.5618125066
 20
48.5931363856
 30
0.0
 10
26.7541601815
 20
48.4313390637
 30
0.0
 10
26.9731113604
 20
48.1821644684
 30
0.0
 10
27.1844490231
 20
47.8384059519
 30
0.0
 10
27.3104377603
 20
47.5267556847
 30
0.0
 10
27.3726880022
 20
47.2758731831
 30
0.0
 10
27.3980551374
 20
47.096476724
 30
0.0
 10
27.4023918896
 20
46.9265869827
 30
0.0
 10
27.3854667862
 20
46.7696835256
 30
0.0
 10
27.347438259
 20
46.6290051736
 30
0.0
 10
27.2887542143
 20
46.5074896127
 30
0.0
 10
27.2101587344
 20
46.4081610773
 30
0.0
 10
27.1448912043
 20
46.3581624769
 30
0.0
 10
27.1104454442
 20
46.3382816032
 30
0.0
  0
SPLINE
  5
2EB
100
AcDbEntity
  8
0
100
AcDbSpline
 62
7
  6
CONTINUOUS
 70
0
 71
3
 72
10
 73
6
 74
0
 42
0.0000001
 43
0.0000001
 44
0.0000000001
 40
0.0
 40
0.0
 40
0.0
 40
0.0
 40
0.2782840223
 40
0.5376524342
 40
1.0
 40
1.0
 40
1.0
 40
1.0
 10
26.7711605186
 20
46.6148494801
 30
0.0
 10
26.8127475865
 20
46.5908397184
 30
0.0
 10
26.8958347799
 20
46.5488079968
 30
0.0
 10
27.0585459158
 20
46.4910419853
 30
0.0
 10
27.1854529757
 20
46.4754113748
 30
0.0
 10
27.2649195196
 20
46.4825003433
 30
0.0
  0
SPLINE
  5
2EC
100
AcDbEntity
  8
0
100
AcDbSpline
 62
7
  6
CONTINUOUS
 70
0
 71
3
 72
20
 73
16
 74
0
 42
0.0000001
 43
0.0000001
 44
0.0000000001
 40
0.0
 40
0.0
 40
0.0
 40
0.0
 40
0.0623800605
 40
0.128808606
 40
0.270303761
 40
0.4173671729
 40
0.5616157698
 40
0.6302544863
 40
0.6953782812
 40
0.7563609137
 40
0.8128312053
 40
0.8647606791
 40
0.9125660172
 40
0.957165531
 40
1.0
 40
1.0
 40
1.0
 40
1.0
 10
19.407322832
 20
52.7328021177
 30
0.0
 10
19.4574826233
 20
52.7038430039
 30
0.0
 10
19.5571835692
 20
52.6371692999
 30
0.0
 10
19.7495312442
 20
52.475371978
 30
0.0
 10
19.9684824231
 20
52.2261973826
 30
0.0
 10
20.1798200858
 20
51.8824388662
 30
0.0
 10
20.305808823
 20
51.570788599
 30
0.0
 10
20.3680590649
 20
51.3199060973
 30
0.0
 10
20.3934262001
 20
51.1405096383
 30
0.0
 10
20.3977629523
 20
50.970619897
 30
0.0
 10
20.3808378489
 20
50.8137164399
 30
0.0
 10
20.3428093217
 20
50.6730380879
 30
0.0
 10
20.284125277
 20
50.551522527
 30
0.0
 10
20.2055297971
 20
50.4521939915
 30
0.0
 10
20.140262267
 20
50.4021953911
 30
0.0
 10
20.1058165069
 20
50.3823145175
 30
0.0
  0
SPLINE
  5
2ED
100
AcDbEntity
  8
0
100
AcDbSpline
 62
7
  6
CONTINUOUS
 70
0
 71
3
 72
10
 73
6
 74
0
 42
0.0000001
 43
0.0000001
 44
0.0000000001
 40
0.0
 40
0.0
 40
0.0
 40
0.0
 40
0.2782840223
 40
0.5376524342
 40
1.0
 40
1.0
 40
1.0
 40
1.0
 10
19.7665315813
 20
50.6588823944
 30
0.0
 10
19.8081186492
 20
50.6348726327
 30
0.0
 10
19.8912058426
 20
50.5928409111
 30
0.0
 10
20.0539169785
 20
50.5350748996
 30
0.0
 10
20.1808240384
 20
50.519444289
 30
0.0
 10
20.2602905823
 20
50.5265332576
 30
0.0
  0
SPLINE
  5
2EE
100
AcDbEntity
  8
0
100
AcDbSpline
 62
7
  6
CONTINUOUS
 70
0
 71
3
 72
20
 73
16
 74
0
 42
0.0000001
 43
0.0000001
 44
0.0000000001
 40
0.0
 40
0.0
 40
0.0
 40
0.0
 40
0.0623800605
 40
0.128808606
 40
0.270303761
 40
0.4173671729
 40
0.5616157698
 40
0.6302544863
 40
0.6953782812
 40
0.7563609137
 40
0.8128312053
 40
0.8647606791
 40
0.9125660172
 40
0.957165531
 40
1.0
 40
1.0
 40
1.0
 40
1.0
 10
12.4026938947
 20
56.776835032
 30
0.0
 10
12.4528536859
 20
56.7478759181
 30
0.0
 10
12.5525546319
 20
56.6812022142
 30
0.0
 10
12.7449023069
 20
56.5194048923
 30
0.0
 10
12.9638534858
 20
56.2702302969
 30
0.0
 10
13.1751911485
 20
55.9264717805
 30
0.0
 10
13.3011798857
 20
55.6148215133
 30
0.0
 10
13.3634301276
 20
55.3639390116
 30
0.0
 10
13.3887972628
 20
55.1845425526
 30
0.0
 10
13.393134015
 20
55.0146528112
 30
0.0
 10
13.3762089116
 20
54.8577493541
 30
0.0
 10
13.3381803844
 20
54.7170710022
 30
0.0
 10
13.2794963397
 20
54.5955554412
 30
0.0
 10
13.2009008598
 20
54.4962269058
 30
0.0
 10
13.1356333296
 20
54.4462283054
 30
0.0
 10
13.1011875696
 20
54.4263474318
 30
0.0
  0
SPLINE
  5
2EF
100
AcDbEntity
  8
0
100
AcDbSpline
 62
7
  6
CONTINUOUS
 70
0
 71
3
 72
10
 73
6
 74
0
 42
0.0000001
 43
0.0000001
 44
0.0000000001
 40
0.0
 40
0.0
 40
0.0
 40
0.0
 40
0.2782840223
 40
0.5376524342
 40
1.0
 40
1.0
 40
1.0
 40
1.0
 10
27.3099153167
 20
55.0140310279
 30
0.0
 10
27.3515023846
 20
54.9900212662
 30
0.0
 10
27.434589578
 20
54.9479895446
 30
0.0
 10
27.5973007139
 20
54.8902235331
 30
0.0
 10
27.7242077738
 20
54.8745929225
 30
0.0
 10
27.8036743177
 20
54.8816818911
 30
0.0
  0
SPLINE
  5
2F0
100
AcDbEntity
  8
0
100
AcDbSpline
 62
7
  6
CONTINUOUS
 70
0
 71
3
 72
10
 73
6
 74
0
 42
0.0000001
 43
0.0000001
 44
0.0000000001
 40
0.0
 40
0.0
 40
0.0
 40
0.0
 40
0.2782840223
 40
0.5376524342
 40
1.0
 40
1.0
 40
1.0
 40
1.0
 10
12.761902644
 20
54.7029153087
 30
0.0
 10
12.8034897119
 20
54.678905547
 30
0.0
 10
12.8865769053
 20
54.6368738254
 30
0.0
 10
13.0492880412
 20
54.5791078138
 30
0.0
 10
13.1761951011
 20
54.5634772033
 30
0.0
 10
13.255661645
 20
54.5705661718
 30
0.0
  0
SPLINE
  5
2F1
100
AcDbEntity
  8
0
100
AcDbSpline
 62
7
  6
CONTINUOUS
 70
0
 71
3
 72
20
 73
16
 74
0
 42
0.0000001
 43
0.0000001
 44
0.0000000001
 40
0.0
 40
0.0
 40
0.0
 40
0.0
 40
0.0623800605
 40
0.128808606
 40
0.270303761
 40
0.4173671729
 40
0.5616157698
 40
0.6302544863
 40
0.6953782812
 40
0.7563609137
 40
0.8128312053
 40
0.8647606791
 40
0.9125660172
 40
0.957165531
 40
1.0
 40
1.0
 40
1.0
 40
1.0
 10
26.9507065674
 20
57.0879507512
 30
0.0
 10
27.0008663587
 20
57.0589916374
 30
0.0
 10
27.1005673046
 20
56.9923179334
 30
0.0
 10
27.2929149796
 20
56.8305206115
 30
0.0
 10
27.5118661585
 20
56.5813460161
 30
0.0
 10
27.7232038212
 20
56.2375874997
 30
0.0
 10
27.8491925584
 20
55.9259372325
 30
0.0
 10
27.9114428003
 20
55.6750547308
 30
0.0
 10
27.9368099355
 20
55.4956582718
 30
0.0
 10
27.9411466877
 20
55.3257685305
 30
0.0
 10
27.9242215843
 20
55.1688650734
 30
0.0
 10
27.8861930571
 20
55.0281867214
 30
0.0
 10
27.8275090124
 20
54.9066711605
 30
0.0
 10
27.7489135325
 20
54.807342625
 30
0.0
 10
27.6836460023
 20
54.7573440246
 30
0.0
 10
27.6492002423
 20
54.737463151
 30
0.0
  0
SPLINE
  5
2F2
100
AcDbEntity
  8
0
100
AcDbSpline
 62
7
  6
CONTINUOUS
 70
0
 71
3
 72
20
 73
16
 74
0
 42
0.0000001
 43
0.0000001
 44
0.0000000001
 40
0.0
 40
0.0
 40
0.0
 40
0.0
 40
0.0623800605
 40
0.128808606
 40
0.270303761
 40
0.4173671729
 40
0.5616157698
 40
0.6302544863
 40
0.6953782812
 40
0.7563609137
 40
0.8128312053
 40
0.8647606791
 40
0.9125660172
 40
0.957165531
 40
1.0
 40
1.0
 40
1.0
 40
1.0
 10
29.8244348877
 20
50.65895549
 30
0.0
 10
29.874594679
 20
50.6299963762
 30
0.0
 10
29.9742956249
 20
50.5633226722
 30
0.0
 10
30.1666432999
 20
50.4015253503
 30
0.0
 10
30.3855944788
 20
50.1523507549
 30
0.0
 10
30.5969321415
 20
49.8085922385
 30
0.0
 10
30.7229208787
 20
49.4969419713
 30
0.0
 10
30.7851711206
 20
49.2460594697
 30
0.0
 10
30.8105382558
 20
49.0666630106
 30
0.0
 10
30.814875008
 20
48.8967732693
 30
0.0
 10
30.7979499046
 20
48.7398698122
 30
0.0
 10
30.7599213774
 20
48.5991914602
 30
0.0
 10
30.7012373327
 20
48.4776758993
 30
0.0
 10
30.6226418528
 20
48.3783473638
 30
0.0
 10
30.5573743227
 20
48.3283487634
 30
0.0
 10
30.5229285626
 20
48.3084678898
 30
0.0
  0
SPLINE
  5
2F3
100
AcDbEntity
  8
0
100
AcDbSpline
 62
7
  6
CONTINUOUS
 70
0
 71
3
 72
10
 73
6
 74
0
 42
0.0000001
 43
0.0000001
 44
0.0000000001
 40
0.0
 40
0.0
 40
0.0
 40
0.0
 40
0.2782840223
 40
0.5376524342
 40
1.0
 40
1.0
 40
1.0
 40
1.0
 10
30.183643637
 20
48.5850357667
 30
0.0
 10
30.2252307049
 20
48.561026005
 30
0.0
 10
30.3083178983
 20
48.5189942834
 30
0.0
 10
30.4710290342
 20
48.4612282719
 30
0.0
 10
30.5979360941
 20
48.4455976614
 30
0.0
 10
30.677402638
 20
48.4526866299
 30
0.0
  0
SPLINE
  5
2F4
100
AcDbEntity
  8
0
100
AcDbSpline
 62
7
  6
CONTINUOUS
 70
0
 71
3
 72
20
 73
16
 74
0
 42
0.0000001
 43
0.0000001
 44
0.0000000001
 40
0.0
 40
0.0
 40
0.0
 40
0.0
 40
0.0623800605
 40
0.128808606
 40
0.270303761
 40
0.4173671729
 40
0.5616157698
 40
0.6302544863
 40
0.6953782812
 40
0.7563609137
 40
0.8128312053
 40
0.8647606791
 40
0.9125660172
 40
0.957165531
 40
1.0
 40
1.0
 40
1.0
 40
1.0
 10
22.8198059504
 20
54.7029884043
 30
0.0
 10
22.8699657416
 20
54.6740292904
 30
0.0
 10
22.9696666876
 20
54.6073555865
 30
0.0
 10
23.1620143626
 20
54.4455582646
 30
0.0
 10
23.3809655415
 20
54.1963836692
 30
0.0
 10
23.5923032042
 20
53.8526251528
 30
0.0
 10
23.7182919414
 20
53.5409748856
 30
0.0
 10
23.7805421833
 20
53.2900923839
 30
0.0
 10
23.8059093185
 20
53.1106959249
 30
0.0
 10
23.8102460707
 20
52.9408061835
 30
0.0
 10
23.7933209673
 20
52.7839027265
 30
0.0
 10
23.7552924401
 20
52.6432243745
 30
0.0
 10
23.6966083954
 20
52.5217088136
 30
0.0
 10
23.6180129155
 20
52.4223802781
 30
0.0
 10
23.5527453853
 20
52.3723816777
 30
0.0
 10
23.5182996253
 20
52.3525008041
 30
0.0
  0
SPLINE
  5
2F5
100
AcDbEntity
  8
0
100
AcDbSpline
 62
7
  6
CONTINUOUS
 70
0
 71
3
 72
10
 73
6
 74
0
 42
0.0000001
 43
0.0000001
 44
0.0000000001
 40
0.0
 40
0.0
 40
0.0
 40
0.0
 40
0.2782840223
 40
0.5376524342
 40
1.0
 40
1.0
 40
1.0
 40
1.0
 10
23.1790146997
 20
52.629068681
 30
0.0
 10
23.2206017676
 20
52.6050589193
 30
0.0
 10
23.303688961
 20
52.5630271977
 30
0.0
 10
23.4664000969
 20
52.5052611862
 30
0.0
 10
23.5933071568
 20
52.4896305756
 30
0.0
 10
23.6727737007
 20
52.4967195441
 30
0.0
  0
SPLINE
  5
2F6
100
AcDbEntity
  8
0
100
AcDbSpline
 62
7
  6
CONTINUOUS
 70
0
 71
3
 72
20
 73
16
 74
0
 42
0.0000001
 43
0.0000001
 44
0.0000000001
 40
0.0
 40
0.0
 40
0.0
 40
0.0
 40
0.0623800605
 40
0.128808606
 40
0.270303761
 40
0.4173671729
 40
0.5616157698
 40
0.6302544863
 40
0.6953782812
 40
0.7563609137
 40
0.8128312053
 40
0.8647606791
 40
0.9125660172
 40
0.957165531
 40
1.0
 40
1.0
 40
1.0
 40
1.0
 10
15.8151770131
 20
58.7470213186
 30
0.0
 10
15.8653368043
 20
58.7180622047
 30
0.0
 10
15.9650377503
 20
58.6513885008
 30
0.0
 10
16.1573854253
 20
58.4895911788
 30
0.0
 10
16.3763366042
 20
58.2404165835
 30
0.0
 10
16.5876742669
 20
57.8966580671
 30
0.0
 10
16.7136630041
 20
57.5850077999
 30
0.0
 10
16.775913246
 20
57.3341252982
 30
0.0
 10
16.8012803812
 20
57.1547288391
 30
0.0
 10
16.8056171334
 20
56.9848390978
 30
0.0
 10
16.78869203
 20
56.8279356407
 30
0.0
 10
16.7506635027
 20
56.6872572888
 30
0.0
 10
16.691979458
 20
56.5657417278
 30
0.0
 10
16.6133839782
 20
56.4664131924
 30
0.0
 10
16.548116448
 20
56.416414592
 30
0.0
 10
16.513670688
 20
56.3965337184
 30
0.0
  0
SPLINE
  5
2F7
100
AcDbEntity
  8
0
100
AcDbSpline
 62
7
  6
CONTINUOUS
 70
0
 71
3
 72
10
 73
6
 74
0
 42
0.0000001
 43
0.0000001
 44
0.0000000001
 40
0.0
 40
0.0
 40
0.0
 40
0.0
 40
0.2782840223
 40
0.5376524342
 40
1.0
 40
1.0
 40
1.0
 40
1.0
 10
34.314544254
 20
50.9699981136
 30
0.0
 10
34.3561313219
 20
50.9459883519
 30
0.0
 10
34.4392185153
 20
50.9039566304
 30
0.0
 10
34.6019296512
 20
50.8461906188
 30
0.0
 10
34.7288367111
 20
50.8305600083
 30
0.0
 10
34.808303255
 20
50.8376489768
 30
0.0
  0
SPLINE
  5
2F8
100
AcDbEntity
  8
0
100
AcDbSpline
 62
7
  6
CONTINUOUS
 70
0
 71
3
 72
10
 73
6
 74
0
 42
0.0000001
 43
0.0000001
 44
0.0000000001
 40
0.0
 40
0.0
 40
0.0
 40
0.0
 40
0.2782840223
 40
0.5376524342
 40
1.0
 40
1.0
 40
1.0
 40
1.0
 10
16.1743857624
 20
56.6731015953
 30
0.0
 10
16.2159728303
 20
56.6490918336
 30
0.0
 10
16.2990600237
 20
56.607060112
 30
0.0
 10
16.4617711596
 20
56.5492941004
 30
0.0
 10
16.5886782195
 20
56.5336634899
 30
0.0
 10
16.6681447634
 20
56.5407524584
 30
0.0
  0
SPLINE
  5
2F9
100
AcDbEntity
  8
0
100
AcDbSpline
 62
7
  6
CONTINUOUS
 70
0
 71
3
 72
20
 73
16
 74
0
 42
0.0000001
 43
0.0000001
 44
0.0000000001
 40
0.0
 40
0.0
 40
0.0
 40
0.0
 40
0.0623800605
 40
0.128808606
 40
0.270303761
 40
0.4173671729
 40
0.5616157698
 40
0.6302544863
 40
0.6953782812
 40
0.7563609137
 40
0.8128312053
 40
0.8647606791
 40
0.9125660172
 40
0.957165531
 40
1.0
 40
1.0
 40
1.0
 40
1.0
 10
33.9553355047
 20
53.0439178369
 30
0.0
 10
34.005495296
 20
53.0149587231
 30
0.0
 10
34.105196242
 20
52.9482850191
 30
0.0
 10
34.2975439169
 20
52.7864876972
 30
0.0
 10
34.5164950958
 20
52.5373131019
 30
0.0
 10
34.7278327585
 20
52.1935545854
 30
0.0
 10
34.8538214957
 20
51.8819043182
 30
0.0
 10
34.9160717376
 20
51.6310218166
 30
0.0
 10
34.9414388728
 20
51.4516253575
 30
0.0
 10
34.945775625
 20
51.2817356162
 30
0.0
 10
34.9288505216
 20
51.1248321591
 30
0.0
 10
34.8908219944
 20
50.9841538071
 30
0.0
 10
34.8321379497
 20
50.8626382462
 30
0.0
 10
34.7535424698
 20
50.7633097108
 30
0.0
 10
34.6882749397
 20
50.7133111104
 30
0.0
 10
34.6538291796
 20
50.6934302367
 30
0.0
  0
SPLINE
  5
2FA
100
AcDbEntity
  8
0
100
AcDbSpline
 62
7
  6
CONTINUOUS
 70
0
 71
3
 72
12
 73
8
 74
0
 42
0.0000001
 43
0.0000001
 44
0.0000000001
 40
0.0
 40
0.0
 40
0.0
 40
0.0
 40
0.108169861
 40
0.2183744485
 40
0.4513322769
 40
0.7105272076
 40
1.0
 40
1.0
 40
1.0
 40
1.0
 10
13.1011875696
 20
54.4263474318
 30
0.0
 10
13.0782806773
 20
54.4131263843
 30
0.0
 10
13.0296322172
 20
54.3903840826
 30
0.0
 10
12.9228646211
 20
54.3607959216
 30
0.0
 10
12.7732611546
 20
54.3568045279
 30
0.0
 10
12.5859647613
 20
54.402148488
 30
0.0
 10
12.4639903269
 20
54.4601385675
 30
0.0
 10
12.4026938947
 20
54.4955272785
 30
0.0
  0
SPLINE
  5
2FB
100
AcDbEntity
  8
0
100
AcDbSpline
 62
7
  6
CONTINUOUS
 70
0
 71
3
 72
12
 73
8
 74
0
 42
0.0000001
 43
0.0000001
 44
0.0000000001
 40
0.0
 40
0.0
 40
0.0
 40
0.0
 40
0.108169861
 40
0.2183744485
 40
0.4513322769
 40
0.7105272076
 40
1.0
 40
1.0
 40
1.0
 40
1.0
 10
20.644571305
 20
58.7814960653
 30
0.0
 10
20.6216644127
 20
58.7682750178
 30
0.0
 10
20.5730159526
 20
58.7455327161
 30
0.0
 10
20.4662483565
 20
58.7159445551
 30
0.0
 10
20.31664489
 20
58.7119531614
 30
0.0
 10
20.1293484967
 20
58.7572971215
 30
0.0
 10
20.0073740623
 20
58.815287201
 30
0.0
 10
19.9460776301
 20
58.850675912
 30
0.0
  0
SPLINE
  5
2FC
100
AcDbEntity
  8
0
100
AcDbSpline
 62
7
  6
CONTINUOUS
 70
0
 71
3
 72
20
 73
16
 74
0
 42
0.0000001
 43
0.0000001
 44
0.0000000001
 40
0.0
 40
0.0
 40
0.0
 40
0.0
 40
0.0623800605
 40
0.128808606
 40
0.270303761
 40
0.4173671729
 40
0.5616157698
 40
0.6302544863
 40
0.6953782812
 40
0.7563609137
 40
0.8128312053
 40
0.8647606791
 40
0.9125660172
 40
0.957165531
 40
1.0
 40
1.0
 40
1.0
 40
1.0
 10
26.4119517693
 20
46.40746145
 30
0.0
 10
26.361791978
 20
46.4364205638
 30
0.0
 10
26.262091032
 20
46.5030942678
 30
0.0
 10
26.069743357
 20
46.6648915897
 30
0.0
 10
25.8507921782
 20
46.914066185
 30
0.0
 10
25.6394545155
 20
47.2578247015
 30
0.0
 10
25.5134657783
 20
47.5694749687
 30
0.0
 10
25.4512155363
 20
47.8203574703
 30
0.0
 10
25.4258484011
 20
47.9997539294
 30
0.0
 10
25.4215116489
 20
48.1696436707
 30
0.0
 10
25.4384367523
 20
48.3265471278
 30
0.0
 10
25.4764652796
 20
48.4672254798
 30
0.0
 10
25.5351493243
 20
48.5887410407
 30
0.0
 10
25.6137448041
 20
48.6880695761
 30
0.0
 10
25.6790123343
 20
48.7380681765
 30
0.0
 10
25.7134580944
 20
48.7579490502
 30
0.0
  0
SPLINE
  5
2FD
100
AcDbEntity
  8
0
100
AcDbSpline
 62
7
  6
CONTINUOUS
 70
0
 71
3
 72
20
 73
16
 74
0
 42
0.0000001
 43
0.0000001
 44
0.0000000001
 40
0.0
 40
0.0
 40
0.0
 40
0.0
 40
0.0623800605
 40
0.128808606
 40
0.270303761
 40
0.4173671729
 40
0.5616157698
 40
0.6302544863
 40
0.6953782812
 40
0.7563609137
 40
0.8128312053
 40
0.8647606791
 40
0.9125660172
 40
0.957165531
 40
1.0
 40
1.0
 40
1.0
 40
1.0
 10
19.9460776301
 20
58.850675912
 30
0.0
 10
19.8959178388
 20
58.8796350259
 30
0.0
 10
19.7962168928
 20
58.9463087298
 30
0.0
 10
19.6038692178
 20
59.1081060518
 30
0.0
 10
19.3849180389
 20
59.3572806471
 30
0.0
 10
19.1735803762
 20
59.7010391635
 30
0.0
 10
19.0475916391
 20
60.0126894307
 30
0.0
 10
18.9853413971
 20
60.2635719324
 30
0.0
 10
18.9599742619
 20
60.4429683915
 30
0.0
 10
18.9556375097
 20
60.6128581328
 30
0.0
 10
18.9725626131
 20
60.7697615899
 30
0.0
 10
19.0105911404
 20
60.9104399418
 30
0.0
 10
19.0692751851
 20
61.0319555028
 30
0.0
 10
19.1478706649
 20
61.1312840382
 30
0.0
 10
19.2131381951
 20
61.1812826386
 30
0.0
 10
19.2475839552
 20
61.2011635122
 30
0.0
  0
SPLINE
  5
2FE
100
AcDbEntity
  8
0
100
AcDbSpline
 62
7
  6
CONTINUOUS
 70
0
 71
3
 72
12
 73
8
 74
0
 42
0.0000001
 43
0.0000001
 44
0.0000000001
 40
0.0
 40
0.0
 40
0.0
 40
0.0
 40
0.108169861
 40
0.2183744485
 40
0.4513322769
 40
0.7105272076
 40
1.0
 40
1.0
 40
1.0
 40
1.0
 10
16.513670688
 20
56.3965337184
 30
0.0
 10
16.4907637957
 20
56.3833126709
 30
0.0
 10
16.4421153356
 20
56.3605703692
 30
0.0
 10
16.3353477395
 20
56.3309822081
 30
0.0
 10
16.185744273
 20
56.3269908145
 30
0.0
 10
15.9984478797
 20
56.3723347746
 30
0.0
 10
15.8764734453
 20
56.4303248541
 30
0.0
 10
15.8151770131
 20
56.4657135651
 30
0.0
  0
SPLINE
  5
2FF
100
AcDbEntity
  8
0
100
AcDbSpline
 62
7
  6
CONTINUOUS
 70
0
 71
3
 72
12
 73
8
 74
0
 42
0.0000001
 43
0.0000001
 44
0.0000000001
 40
0.0
 40
0.0
 40
0.0
 40
0.0
 40
0.108169861
 40
0.2183744485
 40
0.4513322769
 40
0.7105272076
 40
1.0
 40
1.0
 40
1.0
 40
1.0
 10
34.6538291796
 20
50.6934302367
 30
0.0
 10
34.6309222873
 20
50.6802091892
 30
0.0
 10
34.5822738272
 20
50.6574668875
 30
0.0
 10
34.4755062312
 20
50.6278787265
 30
0.0
 10
34.3259027646
 20
50.6238873328
 30
0.0
 10
34.1386063713
 20
50.6692312929
 30
0.0
 10
34.0166319369
 20
50.7272213724
 30
0.0
 10
33.9553355047
 20
50.7626100835
 30
0.0
  0
SPLINE
  5
300
100
AcDbEntity
  8
0
100
AcDbSpline
 62
7
  6
CONTINUOUS
 70
0
 71
3
 72
12
 73
8
 74
0
 42
0.0000001
 43
0.0000001
 44
0.0000000001
 40
0.0
 40
0.0
 40
0.0
 40
0.0
 40
0.289482697
 40
0.5486747891
 40
0.7816285344
 40
0.8918320999
 40
1.0
 40
1.0
 40
1.0
 40
1.0
 10
24.8851986808
 20
61.5985677435
 30
0.0
 10
24.8239010495
 20
61.5631777508
 30
0.0
 10
24.701926802
 20
61.5051868423
 30
0.0
 10
24.5146315345
 20
61.4598413698
 30
0.0
 10
24.365032234
 20
61.4638357665
 30
0.0
 10
24.258266253
 20
61.4934181112
 30
0.0
 10
24.2096184385
 20
61.5161595164
 30
0.0
 10
24.1867129114
 20
61.529381415
 30
0.0
  0
SPLINE
  5
301
100
AcDbEntity
  8
0
100
AcDbSpline
 62
7
  6
CONTINUOUS
 70
0
 71
3
 72
20
 73
16
 74
0
 42
0.0000001
 43
0.0000001
 44
0.0000000001
 40
0.0
 40
0.0
 40
0.0
 40
0.0
 40
0.0623800605
 40
0.128808606
 40
0.270303761
 40
0.4173671729
 40
0.5616157698
 40
0.6302544863
 40
0.6953782812
 40
0.7563609137
 40
0.8128312053
 40
0.8647606791
 40
0.9125660172
 40
0.957165531
 40
1.0
 40
1.0
 40
1.0
 40
1.0
 10
19.407322832
 20
50.4514943643
 30
0.0
 10
19.3571630407
 20
50.4804534781
 30
0.0
 10
19.2574620947
 20
50.547127182
 30
0.0
 10
19.0651144197
 20
50.708924504
 30
0.0
 10
18.8461632408
 20
50.9580990993
 30
0.0
 10
18.6348255781
 20
51.3018576158
 30
0.0
 10
18.508836841
 20
51.613507883
 30
0.0
 10
18.446586599
 20
51.8643903846
 30
0.0
 10
18.4212194638
 20
52.0437868437
 30
0.0
 10
18.4168827116
 20
52.213676585
 30
0.0
 10
18.433807815
 20
52.3705800421
 30
0.0
 10
18.4718363423
 20
52.5112583941
 30
0.0
 10
18.530520387
 20
52.632773955
 30
0.0
 10
18.6091158668
 20
52.7321024904
 30
0.0
 10
18.674383397
 20
52.7821010908
 30
0.0
 10
18.7088291571
 20
52.8019819644
 30
0.0
  0
SPLINE
  5
302
100
AcDbEntity
  8
0
100
AcDbSpline
 62
7
  6
CONTINUOUS
 70
0
 71
3
 72
12
 73
8
 74
0
 42
0.0000001
 43
0.0000001
 44
0.0000000001
 40
0.0
 40
0.0
 40
0.0
 40
0.0
 40
0.108169861
 40
0.2183744485
 40
0.4513322769
 40
0.7105272076
 40
1.0
 40
1.0
 40
1.0
 40
1.0
 10
20.1058165069
 20
50.3823145175
 30
0.0
 10
20.0829096146
 20
50.36909347
 30
0.0
 10
20.0342611545
 20
50.3463511683
 30
0.0
 10
19.9274935585
 20
50.3167630073
 30
0.0
 10
19.7778900919
 20
50.3127716136
 30
0.0
 10
19.5905936986
 20
50.3581155737
 30
0.0
 10
19.4686192642
 20
50.4161056532
 30
0.0
 10
19.407322832
 20
50.4514943643
 30
0.0
  0
SPLINE
  5
303
100
AcDbEntity
  8
0
100
AcDbSpline
 62
7
  6
CONTINUOUS
 70
0
 71
3
 72
12
 73
8
 74
0
 42
0.0000001
 43
0.0000001
 44
0.0000000001
 40
0.0
 40
0.0
 40
0.0
 40
0.0
 40
0.108169861
 40
0.2183744485
 40
0.4513322769
 40
0.7105272076
 40
1.0
 40
1.0
 40
1.0
 40
1.0
 10
23.5182996253
 20
52.3525008041
 30
0.0
 10
23.495392733
 20
52.3392797566
 30
0.0
 10
23.4467442729
 20
52.3165374549
 30
0.0
 10
23.3399766768
 20
52.2869492939
 30
0.0
 10
23.1903732103
 20
52.2829579002
 30
0.0
 10
23.003076817
 20
52.3283018603
 30
0.0
 10
22.8811023826
 20
52.3862919398
 30
0.0
 10
22.8198059504
 20
52.4216806508
 30
0.0
  0
SPLINE
  5
304
100
AcDbEntity
  8
0
100
AcDbSpline
 62
7
  6
CONTINUOUS
 70
0
 71
3
 72
20
 73
16
 74
0
 42
0.0000001
 43
0.0000001
 44
0.0000000001
 40
0.0
 40
0.0
 40
0.0
 40
0.0
 40
0.0623800605
 40
0.128808606
 40
0.270303761
 40
0.4173671729
 40
0.5616157698
 40
0.6302544863
 40
0.6953782812
 40
0.7563609137
 40
0.8128312053
 40
0.8647606791
 40
0.9125660172
 40
0.957165531
 40
1.0
 40
1.0
 40
1.0
 40
1.0
 10
12.4026938947
 20
54.4955272785
 30
0.0
 10
12.3525341034
 20
54.5244863924
 30
0.0
 10
12.2528331574
 20
54.5911600963
 30
0.0
 10
12.0604854824
 20
54.7529574183
 30
0.0
 10
11.8415343035
 20
55.0021320136
 30
0.0
 10
11.6301966408
 20
55.34589053
 30
0.0
 10
11.5042079037
 20
55.6575407972
 30
0.0
 10
11.4419576617
 20
55.9084232989
 30
0.0
 10
11.4165905265
 20
56.087819758
 30
0.0
 10
11.4122537743
 20
56.2577094993
 30
0.0
 10
11.4291788777
 20
56.4146129564
 30
0.0
 10
11.467207405
 20
56.5552913083
 30
0.0
 10
11.5258914497
 20
56.6768068693
 30
0.0
 10
11.6044869295
 20
56.7761354047
 30
0.0
 10
11.6697544597
 20
56.8261340051
 30
0.0
 10
11.7042002198
 20
56.8460148787
 30
0.0
  0
SPLINE
  5
305
100
AcDbEntity
  8
0
100
AcDbSpline
 62
7
  6
CONTINUOUS
 70
0
 71
3
 72
20
 73
16
 74
0
 42
0.0000001
 43
0.0000001
 44
0.0000000001
 40
0.0
 40
0.0
 40
0.0
 40
0.0
 40
0.0428327198
 40
0.0874313059
 40
0.1352362504
 40
0.1871663999
 40
0.2436365835
 40
0.3046197838
 40
0.4382035481
 40
0.5824569572
 40
0.7295308786
 40
0.8015435904
 40
0.8711868595
 40
0.9376187784
 40
1.0
 40
1.0
 40
1.0
 40
1.0
 10
39.772548195
 20
55.7573028452
 30
0.0
 10
39.8069904979
 20
55.7374215024
 30
0.0
 10
39.8722578644
 20
55.6874310352
 30
0.0
 10
39.9508462246
 20
55.5881049729
 30
0.0
 10
40.0095379588
 20
55.4665978966
 30
0.0
 10
40.0475604648
 20
55.3259235779
 30
0.0
 10
40.0645015429
 20
55.1690187109
 30
0.0
 10
40.0584990148
 20
54.9354678985
 30
0.0
 10
39.9951273911
 20
54.6247597659
 30
0.0
 10
39.8466424454
 20
54.2573641443
 30
0.0
 10
39.6690665098
 20
53.9684220711
 30
0.0
 10
39.5001718423
 20
53.7598716994
 30
0.0
 10
39.3651705851
 20
53.6212287442
 30
0.0
 10
39.2239141582
 20
53.5024438876
 30
0.0
 10
39.1242215095
 20
53.435767951
 30
0.0
 10
39.0740624256
 20
53.4068087633
 30
0.0
  0
SPLINE
  5
306
100
AcDbEntity
  8
0
100
AcDbSpline
 62
7
  6
CONTINUOUS
 70
0
 71
3
 72
12
 73
8
 74
0
 42
0.0000001
 43
0.0000001
 44
0.0000000001
 40
0.0
 40
0.0
 40
0.0
 40
0.0
 40
0.108169861
 40
0.2183744485
 40
0.4513322769
 40
0.7105272076
 40
1.0
 40
1.0
 40
1.0
 40
1.0
 10
30.5229285626
 20
48.3084678898
 30
0.0
 10
30.5000216703
 20
48.2952468423
 30
0.0
 10
30.4513732102
 20
48.2725045406
 30
0.0
 10
30.3446056142
 20
48.2429163796
 30
0.0
 10
30.1950021476
 20
48.2389249859
 30
0.0
 10
30.0077057543
 20
48.284268946
 30
0.0
 10
29.8857313199
 20
48.3422590255
 30
0.0
 10
29.8244348877
 20
48.3776477366
 30
0.0
  0
SPLINE
  5
307
100
AcDbEntity
  8
0
100
AcDbSpline
 62
7
  6
CONTINUOUS
 70
0
 71
3
 72
20
 73
16
 74
0
 42
0.0000001
 43
0.0000001
 44
0.0000000001
 40
0.0
 40
0.0
 40
0.0
 40
0.0
 40
0.0623800605
 40
0.128808606
 40
0.270303761
 40
0.4173671729
 40
0.5616157698
 40
0.6302544863
 40
0.6953782812
 40
0.7563609137
 40
0.8128312053
 40
0.8647606791
 40
0.9125660172
 40
0.957165531
 40
1.0
 40
1.0
 40
1.0
 40
1.0
 10
29.8244348877
 20
48.3776477366
 30
0.0
 10
29.7742750964
 20
48.4066068504
 30
0.0
 10
29.6745741504
 20
48.4732805544
 30
0.0
 10
29.4822264754
 20
48.6350778763
 30
0.0
 10
29.2632752965
 20
48.8842524716
 30
0.0
 10
29.0519376338
 20
49.2280109881
 30
0.0
 10
28.9259488967
 20
49.5396612553
 30
0.0
 10
28.8636986547
 20
49.7905437569
 30
0.0
 10
28.8383315195
 20
49.969940216
 30
0.0
 10
28.8339947673
 20
50.1398299573
 30
0.0
 10
28.8509198707
 20
50.2967334144
 30
0.0
 10
28.888948398
 20
50.4374117664
 30
0.0
 10
28.9476324427
 20
50.5589273273
 30
0.0
 10
29.0262279225
 20
50.6582558627
 30
0.0
 10
29.0914954527
 20
50.7082544631
 30
0.0
 10
29.1259412128
 20
50.7281353367
 30
0.0
  0
SPLINE
  5
308
100
AcDbEntity
  8
0
100
AcDbSpline
 62
7
  6
CONTINUOUS
 70
0
 71
3
 72
20
 73
16
 74
0
 42
0.0000001
 43
0.0000001
 44
0.0000000001
 40
0.0
 40
0.0
 40
0.0
 40
0.0
 40
0.0623800605
 40
0.128808606
 40
0.270303761
 40
0.4173671729
 40
0.5616157698
 40
0.6302544863
 40
0.6953782812
 40
0.7563609137
 40
0.8128312053
 40
0.8647606791
 40
0.9125660172
 40
0.957165531
 40
1.0
 40
1.0
 40
1.0
 40
1.0
 10
26.9507065674
 20
54.8066429978
 30
0.0
 10
26.9005467761
 20
54.8356021116
 30
0.0
 10
26.8008458301
 20
54.9022758155
 30
0.0
 10
26.6084981551
 20
55.0640731375
 30
0.0
 10
26.3895469762
 20
55.3132477328
 30
0.0
 10
26.1782093135
 20
55.6570062493
 30
0.0
 10
26.0522205764
 20
55.9686565165
 30
0.0
 10
25.9899703344
 20
56.2195390181
 30
0.0
 10
25.9646031992
 20
56.3989354772
 30
0.0
 10
25.960266447
 20
56.5688252185
 30
0.0
 10
25.9771915504
 20
56.7257286756
 30
0.0
 10
26.0152200777
 20
56.8664070276
 30
0.0
 10
26.0739041224
 20
56.9879225885
 30
0.0
 10
26.1524996022
 20
57.0872511239
 30
0.0
 10
26.2177671324
 20
57.1372497243
 30
0.0
 10
26.2522128925
 20
57.1571305979
 30
0.0
  0
SPLINE
  5
309
100
AcDbEntity
  8
0
100
AcDbSpline
 62
7
  6
CONTINUOUS
 70
0
 71
3
 72
12
 73
8
 74
0
 42
0.0000001
 43
0.0000001
 44
0.0000000001
 40
0.0
 40
0.0
 40
0.0
 40
0.0
 40
0.108169861
 40
0.2183744485
 40
0.4513322769
 40
0.7105272076
 40
1.0
 40
1.0
 40
1.0
 40
1.0
 10
27.1104454442
 20
46.3382816032
 30
0.0
 10
27.0875385519
 20
46.3250605557
 30
0.0
 10
27.0388900918
 20
46.302318254
 30
0.0
 10
26.9321224958
 20
46.272730093
 30
0.0
 10
26.7825190292
 20
46.2687386993
 30
0.0
 10
26.5952226359
 20
46.3140826594
 30
0.0
 10
26.4732482015
 20
46.3720727389
 30
0.0
 10
26.4119517693
 20
46.40746145
 30
0.0
  0
SPLINE
  5
30A
100
AcDbEntity
  8
0
100
AcDbSpline
 62
7
  6
CONTINUOUS
 70
0
 71
3
 72
20
 73
16
 74
0
 42
0.0000001
 43
0.0000001
 44
0.0000000001
 40
0.0
 40
0.0
 40
0.0
 40
0.0
 40
0.0623800605
 40
0.128808606
 40
0.270303761
 40
0.4173671729
 40
0.5616157698
 40
0.6302544863
 40
0.6953782812
 40
0.7563609137
 40
0.8128312053
 40
0.8647606791
 40
0.9125660172
 40
0.957165531
 40
1.0
 40
1.0
 40
1.0
 40
1.0
 10
22.8198059504
 20
52.4216806508
 30
0.0
 10
22.7696461591
 20
52.4506397647
 30
0.0
 10
22.6699452131
 20
52.5173134686
 30
0.0
 10
22.4775975381
 20
52.6791107906
 30
0.0
 10
22.2586463592
 20
52.9282853859
 30
0.0
 10
22.0473086965
 20
53.2720439024
 30
0.0
 10
21.9213199594
 20
53.5836941695
 30
0.0
 10
21.8590697174
 20
53.8345766712
 30
0.0
 10
21.8337025822
 20
54.0139731303
 30
0.0
 10
21.82936583
 20
54.1838628716
 30
0.0
 10
21.8462909334
 20
54.3407663287
 30
0.0
 10
21.8843194607
 20
54.4814446806
 30
0.0
 10
21.9430035054
 20
54.6029602416
 30
0.0
 10
22.0215989852
 20
54.702288777
 30
0.0
 10
22.0868665154
 20
54.7522873774
 30
0.0
 10
22.1213122755
 20
54.772168251
 30
0.0
  0
SPLINE
  5
30B
100
AcDbEntity
  8
0
100
AcDbSpline
 62
7
  6
CONTINUOUS
 70
0
 71
3
 72
12
 73
8
 74
0
 42
0.0000001
 43
0.0000001
 44
0.0000000001
 40
0.0
 40
0.0
 40
0.0
 40
0.0
 40
0.108169861
 40
0.2183744485
 40
0.4513322769
 40
0.7105272076
 40
1.0
 40
1.0
 40
1.0
 40
1.0
 10
27.6492002423
 20
54.737463151
 30
0.0
 10
27.62629335
 20
54.7242421035
 30
0.0
 10
27.5776448899
 20
54.7014998018
 30
0.0
 10
27.4708772939
 20
54.6719116408
 30
0.0
 10
27.3212738273
 20
54.6679202471
 30
0.0
 10
27.133977434
 20
54.7132642072
 30
0.0
 10
27.0120029996
 20
54.7712542867
 30
0.0
 10
26.9507065674
 20
54.8066429978
 30
0.0
  0
SPLINE
  5
30C
100
AcDbEntity
  8
0
100
AcDbSpline
 62
7
  6
CONTINUOUS
 70
0
 71
3
 72
12
 73
8
 74
0
 42
0.0000001
 43
0.0000001
 44
0.0000000001
 40
0.0
 40
0.0
 40
0.0
 40
0.0
 40
0.289482697
 40
0.5486747891
 40
0.7816285344
 40
0.8918320999
 40
1.0
 40
1.0
 40
1.0
 40
1.0
 10
39.0740624256
 20
53.4068087633
 30
0.0
 10
39.0127647943
 20
53.3714187706
 30
0.0
 10
38.8907905468
 20
53.3134278621
 30
0.0
 10
38.7034952793
 20
53.2680823896
 30
0.0
 10
38.5538959788
 20
53.2720767863
 30
0.0
 10
38.4471299978
 20
53.301659131
 30
0.0
 10
38.3984821833
 20
53.3244005362
 30
0.0
 10
38.3755766562
 20
53.3376224348
 30
0.0
  0
SPLINE
  5
30D
100
AcDbEntity
  8
0
100
AcDbSpline
 62
7
  6
CONTINUOUS
 70
0
 71
3
 72
20
 73
16
 74
0
 42
0.0000001
 43
0.0000001
 44
0.0000000001
 40
0.0
 40
0.0
 40
0.0
 40
0.0
 40
0.0623800605
 40
0.128808606
 40
0.270303761
 40
0.4173671729
 40
0.5616157698
 40
0.6302544863
 40
0.6953782812
 40
0.7563609137
 40
0.8128312053
 40
0.8647606791
 40
0.9125660172
 40
0.957165531
 40
1.0
 40
1.0
 40
1.0
 40
1.0
 10
15.8151770131
 20
56.4657135651
 30
0.0
 10
15.7650172218
 20
56.494672679
 30
0.0
 10
15.6653162758
 20
56.5613463829
 30
0.0
 10
15.4729686008
 20
56.7231437048
 30
0.0
 10
15.2540174219
 20
56.9723183002
 30
0.0
 10
15.0426797592
 20
57.3160768166
 30
0.0
 10
14.9166910221
 20
57.6277270838
 30
0.0
 10
14.8544407801
 20
57.8786095855
 30
0.0
 10
14.8290736449
 20
58.0580060445
 30
0.0
 10
14.8247368927
 20
58.2278957859
 30
0.0
 10
14.8416619961
 20
58.384799243
 30
0.0
 10
14.8796905234
 20
58.5254775949
 30
0.0
 10
14.9383745681
 20
58.6469931559
 30
0.0
 10
15.0169700479
 20
58.7463216913
 30
0.0
 10
15.0822375781
 20
58.7963202917
 30
0.0
 10
15.1166833382
 20
58.8162011653
 30
0.0
  0
SPLINE
  5
30E
100
AcDbEntity
  8
0
100
AcDbSpline
 62
7
  6
CONTINUOUS
 70
0
 71
3
 72
20
 73
16
 74
0
 42
0.0000001
 43
0.0000001
 44
0.0000000001
 40
0.0
 40
0.0
 40
0.0
 40
0.0
 40
0.0428327198
 40
0.0874313059
 40
0.1352362504
 40
0.1871663999
 40
0.2436365835
 40
0.3046197838
 40
0.4382035481
 40
0.5824569572
 40
0.7295308786
 40
0.8015435904
 40
0.8711868595
 40
0.9376187784
 40
1.0
 40
1.0
 40
1.0
 40
1.0
 10
25.5836844502
 20
63.9490618254
 30
0.0
 10
25.6181267531
 20
63.9291804826
 30
0.0
 10
25.6833941196
 20
63.8791900154
 30
0.0
 10
25.7619824798
 20
63.7798639531
 30
0.0
 10
25.820674214
 20
63.6583568769
 30
0.0
 10
25.85869672
 20
63.5176825581
 30
0.0
 10
25.8756377981
 20
63.3607776911
 30
0.0
 10
25.86963527
 20
63.1272268787
 30
0.0
 10
25.8062636463
 20
62.8165187461
 30
0.0
 10
25.6577787006
 20
62.4491231246
 30
0.0
 10
25.480202765
 20
62.1601810513
 30
0.0
 10
25.3113080975
 20
61.9516306797
 30
0.0
 10
25.1763068403
 20
61.8129877244
 30
0.0
 10
25.0350504134
 20
61.6942028678
 30
0.0
 10
24.9353577647
 20
61.6275269312
 30
0.0
 10
24.8851986808
 20
61.5985677435
 30
0.0
  0
SPLINE
  5
30F
100
AcDbEntity
  8
0
100
AcDbSpline
 62
7
  6
CONTINUOUS
 70
0
 71
3
 72
20
 73
16
 74
0
 42
0.0000001
 43
0.0000001
 44
0.0000000001
 40
0.0
 40
0.0
 40
0.0
 40
0.0
 40
0.0623800605
 40
0.128808606
 40
0.270303761
 40
0.4173671729
 40
0.5616157698
 40
0.6302544863
 40
0.6953782812
 40
0.7563609137
 40
0.8128312053
 40
0.8647606791
 40
0.9125660172
 40
0.957165531
 40
1.0
 40
1.0
 40
1.0
 40
1.0
 10
33.9553355047
 20
50.7626100835
 30
0.0
 10
33.9051757134
 20
50.7915691973
 30
0.0
 10
33.8054747674
 20
50.8582429013
 30
0.0
 10
33.6131270924
 20
51.0200402232
 30
0.0
 10
33.3941759135
 20
51.2692148185
 30
0.0
 10
33.1828382508
 20
51.612973335
 30
0.0
 10
33.0568495137
 20
51.9246236022
 30
0.0
 10
32.9945992717
 20
52.1755061038
 30
0.0
 10
32.9692321365
 20
52.3549025629
 30
0.0
 10
32.9648953843
 20
52.5247923042
 30
0.0
 10
32.9818204877
 20
52.6816957613
 30
0.0
 10
33.019849015
 20
52.8223741133
 30
0.0
 10
33.0785330597
 20
52.9438896742
 30
0.0
 10
33.1571285395
 20
53.0432182096
 30
0.0
 10
33.2223960697
 20
53.09321681
 30
0.0
 10
33.2568418298
 20
53.1130976837
 30
0.0
  0
ENDSEC
  0
SECTION
  2
OBJECTS
  0
DICTIONARY
  5
C
100
AcDbDictionary
280
0
281
1
  3
ACAD_GROUP
350
D
  3
ACAD_MLINESTYLE
350
17
  3
ACAD_LAYOUT
350
1A
  3
ACAD_PLOTSETTINGS
350
19
  3
ACAD_PLOTSTYLENAME
350
E
  0
DICTIONARY
  5
D
102
{ACAD_REACTORS
330
C
102
}
100
AcDbDictionary
280
0
281
1
  0
ACDBDICTIONARYWDFLT
  5
E
102
{ACAD_REACTORS
330
C
102
}
100
AcDbDictionary
281
1
  3
Normal
350
F
100
AcDbDictionaryWithDefault
340
F
  0
DICTIONARY
  5
17
102
{ACAD_REACTORS
330
C
102
}
100
AcDbDictionary
280
0
281
1
  3
Standard
350
18
  0
DICTIONARY
  5
19
102
{ACAD_REACTORS
330
C
102
}
100
AcDbDictionary
281
1
  0
DICTIONARY
  5
1A
102
{ACAD_REACTORS
330
C
102
}
100
AcDbDictionary
281
1
  3
Model
350
310
  3
Layout1
350
311
  0
ACDBPLACEHOLDER
  5
F
102
{ACAD_REACTORS
330
E
102
}
  0
MLINESTYLE
  5
18
102
{ACAD_REACTORS
330
17
102
}
100
AcDbMlineStyle
  2
STANDARD
 70
0
  3

 62
256
 51
90.0
 52
90.0
 71
2
 49
0.5
 62
256
  6
BYLAYER
 49
-0.5
 62
256
  6
BYLAYER
  0
LAYOUT
  5
310
102
{ACAD_REACTORS
330
1A
102
}
100
AcDbPlotSettings
  1

  2
none_device
  4

  6

 40
0.0
 41
0.0
 42
0.0
 43
0.0
 44
210.0
 45
297.0
 46
0.0
 47
0.0
 48
0.0
 49
0.0
140
0.0
141
0.0
142
1.0
143
1.0
 70
1024
 72
1
 73
0
 74
0
  7

 75
0
147
1.0
148
0.0
149
0.0
100
AcDbLayout
  1
Model
 70
0
 71
0
 10
0.0
 20
0.0
 11
210.0
 21
297.0
 12
0.0
 22
0.0
 32
0.0
 14
0.0
 24
0.0
 34
0.0
 15
0.0
 25
0.0
 35
0.0
146
0.0
 13
0.0
 23
0.0
 33
0.0
 16
1.0
 26
0.0
 36
0.0
 17
0.0
 27
1.0
 37
0.0
 76
0
330
210
345
0
346
0
  0
LAYOUT
  5
311
102
{ACAD_REACTORS
330
1A
102
}
100
AcDbPlotSettings
  1

  2
none_device
  4

  6

 40
0.0
 41
0.0
 42
0.0
 43
0.0
 44
210.0
 45
297.0
 46
0.0
 47
0.0
 48
0.0
 49
0.0
140
0.0
141
0.0
142
1.0
143
1.0
 70
0
 72
1
 73
0
 74
0
  7

 75
0
147
1.0
148
0.0
149
0.0
100
AcDbLayout
  1
Layout1
 70
0
 71
1
 10
0.0
 20
0.0
 11
210.0
 21
297.0
 12
0.0
 22
0.0
 32
0.0
 14
0.0
 24
0.0
 34
0.0
 15
0.0
 25
0.0
 35
0.0
146
0.0
 13
0.0
 23
0.0
 33
0.0
 16
1.0
 26
0.0
 36
0.0
 17
0.0
 27
1.0
 37
0.0
 76
0
330
211
345
0
346
0
  0
ENDSEC
  0
EOF
