999
DXF file: C:\Users\sesa63760\Dev\_Creo\CAD\MCADID0002333_3D-CAD\drw0001_5.dxf
999
Pro/ENGINEER 2019471 by Parametric Technology Corporation
  0
SECTION
  2
HEADER
  9
$ACADVER
  1
AC1024
  9
$DWGCODEPAGE
  3
ANSI_1252
  9
$EXTMAX
 10
104.2083501628
 20
147.3803809445
 30
0.0
  9
$EXTMIN
 10
0.0
 20
0.0
 30
0.0
  9
$LIMMIN
 10
0.0
 20
0.0
  9
$LIMMAX
 10
104.2083501628
 20
147.3803809445
  9
$VIEWCTR
 10
52.1041750814
 20
73.6901904723
  9
$VIEWSIZE
 40
147.3803809445
  9
$CLAYER
  8
0
  9
$LTSCALE
 40
9.6070174245
  9
$CELTYPE
  6
BYLAYER
  9
$DIMSCALE
 40
1.0
  9
$DIMASZ
 40
1.2405755972
  9
$DIMEXO
 40
1.0
  9
$DIMDLI
 40
6.6375756751
  9
$DIMEXE
 40
1.0
  9
$DIMCEN
 40
1.5720573967
  9
$DIMLFAC
 40
1.0
  9
$DIMBLK
  1
_FILLED
  9
$DIMALT
 70
0
  9
$DIMALTF
 40
0.0393700787
  9
$DIMTXT
 40
1.736805836
  9
$DIMTOL
 70
1
  9
$DIMLIM
 70
0
  9
$DIMTFAC
 40
1.0
  9
$DIMTP
 40
0.01
  9
$DIMTM
 40
0.01
  9
$DIMGAP
 40
0.625
  9
$DIMDSEP
 70
46
  9
$AUNITS
 70
0
  9
$PDMODE
 70
3
  9
$PDSIZE
 40
0.3125
  9
$HANDSEED
  5
319
  9
$TILEMODE
 70
1
  9
$MEASUREMENT
 70
1
  9
$INSUNITS
 70
4
  0
ENDSEC
  0
SECTION
  2
CLASSES
  0
CLASS
  1
ACDBDICTIONARYWDFLT
  2
AcDbDictionaryWithDefault
  3
AutoCAD 2000
 90
0
 91
1
280
0
281
0
  0
CLASS
  1
ACDBPLACEHOLDER
  2
AcDbPlaceHolder
  3
AutoCAD 2000
 90
0
 91
1
280
0
281
0
  0
CLASS
  1
LAYOUT
  2
AcDbLayout
  3
AutoCAD 2000
 90
0
 91
0
280
0
281
0
  0
ENDSEC
  0
SECTION
  2
TABLES
  0
TABLE
  2
VPORT
  5
8
100
AcDbSymbolTable
 70
2
  0
VPORT
  5
1F4
100
AcDbSymbolTableRecord
100
AcDbViewportTableRecord
  2
*ACTIVE
 70
0
 10
0.0
 20
0.0
 11
1.0
 21
1.0
 12
52.1041750814
 22
73.6901904723
 13
0.0
 23
0.0
 14
1.0
 24
1.0
 15
0.0
 25
0.0
 16
0.0
 26
0.0
 36
1.0
 17
0.0
 27
0.0
 37
0.0
 40
147.3803809445
 41
0.7070707071
 42
50.0
 43
0.0
 44
0.0
 50
0.0
 51
0.0
 71
0
 72
100
 73
1
 74
1
 75
0
 76
0
 77
0
 78
0
  0
ENDTAB
  0
TABLE
  2
LTYPE
  5
5
100
AcDbSymbolTable
 70
6
  0
LTYPE
  5
14
100
AcDbSymbolTableRecord
100
AcDbLinetypeTableRecord
  2
BYBLOCK
 70
0
  3

 72
65
 73
0
 40
0.0
  0
LTYPE
  5
15
100
AcDbSymbolTableRecord
100
AcDbLinetypeTableRecord
  2
BYLAYER
 70
0
  3

 72
65
 73
0
 40
0.0
  0
LTYPE
  5
16
100
AcDbSymbolTableRecord
100
AcDbLinetypeTableRecord
  2
CONTINUOUS
 70
64
  3
Solid line
 72
65
 73
0
 40
0.0
  0
LTYPE
  5
1F5
100
AcDbSymbolTableRecord
100
AcDbLinetypeTableRecord
  2
CENTER
 70
64
  3
____ _ ____ _ ____ _ ____ _ ____ _ ____ _ ____
 72
65
 73
4
 40
0.6
 49
0.375
 74
0
 49
-0.075
 74
0
 49
0.075
 74
0
 49
-0.075
 74
0
  0
LTYPE
  5
1F6
100
AcDbSymbolTableRecord
100
AcDbLinetypeTableRecord
  2
HIDDEN
 70
64
  3
- - - - - - - - - - - - - - - - - - - -
 72
65
 73
2
 40
0.2
 49
0.1
 74
0
 49
-0.1
 74
0
  0
LTYPE
  5
1F7
100
AcDbSymbolTableRecord
100
AcDbLinetypeTableRecord
  2
PHANTOM
 70
64
  3
_____ _ _ _____ _ _ _____ _ _ _____
 72
65
 73
6
 40
0.8
 49
0.45
 74
0
 49
-0.05
 74
0
 49
0.1
 74
0
 49
-0.05
 74
0
 49
0.1
 74
0
 49
-0.05
 74
0
  0
LTYPE
  5
1F8
100
AcDbSymbolTableRecord
100
AcDbLinetypeTableRecord
  2
DOT
 70
64
  3
. . . . . . . . . . . . . . . . . . . .
 72
65
 73
2
 40
0.2
 49
0.1
 74
0
 49
-0.1
 74
0
  0
LTYPE
  5
1F9
100
AcDbSymbolTableRecord
100
AcDbLinetypeTableRecord
  2
DASHED
 70
64
  3
- - - - - - - - - - - - - - - - - - - -
 72
65
 73
2
 40
0.2
 49
0.1
 74
0
 49
-0.1
 74
0
  0
ENDTAB
  0
TABLE
  2
LAYER
  5
2
100
AcDbSymbolTable
 70
36
  0
LAYER
  5
10
100
AcDbSymbolTableRecord
100
AcDbLayerTableRecord
  2
0
 70
0
 62
7
  6
CONTINUOUS
370
-3
390
F
  0
LAYER
  5
1FA
100
AcDbSymbolTableRecord
100
AcDbLayerTableRecord
  2
DEFAULT_1
 70
0
 62
7
  6
CENTER
370
-3
390
F
  0
LAYER
  5
1FB
100
AcDbSymbolTableRecord
100
AcDbLayerTableRecord
  2
DEFAULT_2
 70
0
 62
8
  6
HIDDEN
370
-3
390
F
  0
LAYER
  5
1FC
100
AcDbSymbolTableRecord
100
AcDbLayerTableRecord
  2
DEFAULT_3
 70
0
 62
7
  6
PHANTOM
370
-3
390
F
  0
LAYER
  5
1FD
100
AcDbSymbolTableRecord
100
AcDbLayerTableRecord
  2
00_COMPONENTS
 70
0
 62
7
  6
CONTINUOUS
370
-3
390
F
  0
LAYER
  5
1FE
100
AcDbSymbolTableRecord
100
AcDbLayerTableRecord
  2
01_1_DEFAULT_DATUMS
 70
0
 62
7
  6
CONTINUOUS
370
-3
390
F
  0
LAYER
  5
1FF
100
AcDbSymbolTableRecord
100
AcDbLayerTableRecord
  2
01_PLANES
 70
0
 62
7
  6
CONTINUOUS
370
-3
390
F
  0
LAYER
  5
200
100
AcDbSymbolTableRecord
100
AcDbLayerTableRecord
  2
02_COORD_SYS
 70
0
 62
7
  6
CONTINUOUS
370
-3
390
F
  0
LAYER
  5
201
100
AcDbSymbolTableRecord
100
AcDbLayerTableRecord
  2
03_AXES
 70
0
 62
7
  6
CONTINUOUS
370
-3
390
F
  0
LAYER
  5
202
100
AcDbSymbolTableRecord
100
AcDbLayerTableRecord
  2
04_POINTS
 70
0
 62
7
  6
CONTINUOUS
370
-3
390
F
  0
LAYER
  5
203
100
AcDbSymbolTableRecord
100
AcDbLayerTableRecord
  2
05_CURVES
 70
0
 62
7
  6
CONTINUOUS
370
-3
390
F
  0
LAYER
  5
204
100
AcDbSymbolTableRecord
100
AcDbLayerTableRecord
  2
06_SURFS
 70
0
 62
7
  6
CONTINUOUS
370
-3
390
F
  0
LAYER
  5
205
100
AcDbSymbolTableRecord
100
AcDbLayerTableRecord
  2
07_COSMETICS
 70
0
 62
7
  6
CONTINUOUS
370
-3
390
F
  0
LAYER
  5
206
100
AcDbSymbolTableRecord
100
AcDbLayerTableRecord
  2
10_NOTES
 70
0
 62
7
  6
CONTINUOUS
370
-3
390
F
  0
LAYER
  5
207
100
AcDbSymbolTableRecord
100
AcDbLayerTableRecord
  2
11_NOTES_PUB
 70
0
 62
7
  6
CONTINUOUS
370
-3
390
F
  0
LAYER
  5
208
100
AcDbSymbolTableRecord
100
AcDbLayerTableRecord
  2
13_REF_GTOL
 70
0
 62
7
  6
CONTINUOUS
370
-3
390
F
  0
LAYER
  5
209
100
AcDbSymbolTableRecord
100
AcDbLayerTableRecord
  2
16_MISC
 70
0
 62
7
  6
CONTINUOUS
370
-3
390
F
  0
LAYER
  5
20A
100
AcDbSymbolTableRecord
100
AcDbLayerTableRecord
  2
17_NO_PRINT
 70
0
 62
7
  6
CONTINUOUS
370
-3
390
F
  0
LAYER
  5
20B
100
AcDbSymbolTableRecord
100
AcDbLayerTableRecord
  2
18_DATUM_CAMS_JOINTS
 70
0
 62
7
  6
CONTINUOUS
370
-3
390
F
  0
LAYER
  5
20C
100
AcDbSymbolTableRecord
100
AcDbLayerTableRecord
  2
19_DATUM_FUNCTIONAL
 70
0
 62
7
  6
CONTINUOUS
370
-3
390
F
  0
LAYER
  5
20D
100
AcDbSymbolTableRecord
100
AcDbLayerTableRecord
  2
20_DATUM_KINEMATIC_SCHEME
 70
0
 62
7
  6
CONTINUOUS
370
-3
390
F
  0
ENDTAB
  0
TABLE
  2
STYLE
  5
3
100
AcDbSymbolTable
 70
1
  0
STYLE
  5
11
100
AcDbSymbolTableRecord
100
AcDbTextStyleTableRecord
  2
STANDARD
 70
0
 40
0.0
 41
0.8
 50
0.0
 71
0
 42
0.2
  3
txt
  4

  0
STYLE
  5
20E
100
AcDbSymbolTableRecord
100
AcDbTextStyleTableRecord
  2
TEXTSTYLE_1
 70
0
 40
0.0
 41
0.8
 50
0.0
 71
0
 42
0.2
  3
gdt
  4

  0
ENDTAB
  0
TABLE
  2
VIEW
  5
6
100
AcDbSymbolTable
 70
0
  0
ENDTAB
  0
TABLE
  2
UCS
  5
7
100
AcDbSymbolTable
 70
0
  0
ENDTAB
  0
TABLE
  2
APPID
  5
9
100
AcDbSymbolTable
 70
1
  0
APPID
  5
20F
100
AcDbSymbolTableRecord
100
AcDbRegAppTableRecord
  2
ACAD
 70
0
  0
ENDTAB
  0
TABLE
  2
BLOCK_RECORD
  5
1
100
AcDbSymbolTable
 70
0
  0
BLOCK_RECORD
  5
210
100
AcDbSymbolTableRecord
100
AcDbBlockTableRecord
  2
*Model_Space
  0
BLOCK_RECORD
  5
211
100
AcDbSymbolTableRecord
100
AcDbBlockTableRecord
  2
*Paper_Space
  0
BLOCK_RECORD
  5
212
100
AcDbSymbolTableRecord
100
AcDbBlockTableRecord
  2
_FILLED
  0
ENDTAB
  0
TABLE
  2
DIMSTYLE
  5
A
100
AcDbSymbolTable
 70
1
100
AcDbDimStyleTable
 71
0
  0
DIMSTYLE
105
213
100
AcDbSymbolTableRecord
100
AcDbDimStyleTableRecord
  2
STANDARD
 70
0
  3

  4

 40
1.0
 41
1.2405755972
 42
1.0
 43
0.38
 44
1.0
 45
0.0
 46
0.0
 47
0.01
 48
0.01
140
1.736805836
141
0.09
142
0.0
143
25.4
144
1.0
145
0.0
146
1.0
147
0.625
 71
1
 72
0
 73
0
 74
0
 75
0
 76
0
 77
1
 78
8
 79
2
170
0
171
1
172
0
173
0
174
0
175
0
176
0
177
0
178
0
270
2
179
2
271
2
272
2
273
2
274
2
275
0
280
0
281
0
282
0
283
1
284
8
285
0
286
0
287
3
288
0
340
11
278
46
341
212
342
212
343
212
344
212
  0
ENDTAB
  0
ENDSEC
  0
SECTION
  2
BLOCKS
  0
BLOCK
  5
20
100
AcDbEntity
  8
0
100
AcDbBlockBegin
  2
*Model_Space
 70
0
 10
0.0
 20
0.0
 30
0.0
  3
*Model_Space
  1

  0
ENDBLK
  5
21
100
AcDbEntity
  8
0
100
AcDbBlockEnd
  0
BLOCK
  5
1C
100
AcDbEntity
  8
0
100
AcDbBlockBegin
  2
*Paper_Space
 70
0
 10
0.0
 20
0.0
 30
0.0
  3
*Paper_Space
  1

  0
ENDBLK
  5
1D
100
AcDbEntity
  8
0
100
AcDbBlockEnd
  0
BLOCK
  5
214
100
AcDbEntity
  8
0
100
AcDbBlockBegin
  2
_FILLED
 70
64
 10
0.0
 20
0.0
  3
_FILLED
  1

  0
SOLID
  5
215
100
AcDbEntity
  8
0
  6
BYBLOCK
 62
0
100
AcDbTrace
 10
0.0
 20
0.0
 11
-1.0
 21
0.25
 12
-1.0
 22
-0.25
 13
-1.0
 23
-0.25
  0
ENDBLK
  5
216
100
AcDbEntity
  8
0
  6
BYBLOCK
 62
0
100
AcDbBlockEnd
  0
ENDSEC
  0
SECTION
  2
ENTITIES
  0
LINE
  5
217
100
AcDbEntity
  8
0
100
AcDbLine
 62
7
  6
CONTINUOUS
 10
12.1473153761
 20
80.9132414
 11
12.1473153761
 21
66.9143198219
  0
LINE
  5
218
100
AcDbEntity
  8
0
100
AcDbLine
 62
7
  6
CONTINUOUS
 10
13.6473153761
 20
76.913780611
 11
13.6473153761
 21
70.913780611
  0
LINE
  5
219
100
AcDbEntity
  8
0
100
AcDbLine
 62
7
  6
CONTINUOUS
 10
94.9473090769
 20
38.0469366253
 11
85.0473153761
 21
37.8705826154
  0
LINE
  5
21A
100
AcDbEntity
  8
0
100
AcDbLine
 62
7
  6
CONTINUOUS
 10
17.6473153761
 20
81.413780611
 11
17.6473153761
 21
66.413780611
  0
LINE
  5
21B
100
AcDbEntity
  8
0
100
AcDbLine
 62
7
  6
CONTINUOUS
 10
18.1473153761
 20
68.2655752325
 11
18.1473153761
 21
79.4755900001
  0
LINE
  5
21C
100
AcDbEntity
  8
0
100
AcDbLine
 62
7
  6
CONTINUOUS
 10
19.6473153761
 20
80.8705826152
 11
19.6473153761
 21
66.913780611
  0
LINE
  5
21D
100
AcDbEntity
  8
0
100
AcDbLine
 62
7
  6
CONTINUOUS
 10
19.7473153761
 20
83.8705826163
 11
19.7473153761
 21
75.913780611
  0
LINE
  5
21E
100
AcDbEntity
  8
0
100
AcDbLine
 62
7
  6
CONTINUOUS
 10
19.7473153761
 20
71.913780611
 11
19.7473153761
 21
63.8705826163
  0
LINE
  5
21F
100
AcDbEntity
  8
0
100
AcDbLine
 62
7
  6
CONTINUOUS
 10
85.0473153761
 20
37.9205826163
 11
84.0473153761
 21
37.9205826163
  0
LINE
  5
220
100
AcDbEntity
  8
0
100
AcDbLine
 62
7
  6
CONTINUOUS
 10
79.0973153761
 20
40.1725074824
 11
84.0473153761
 21
40.1725074824
  0
LINE
  5
221
100
AcDbEntity
  8
0
100
AcDbLine
 62
7
  6
CONTINUOUS
 10
48.3473153761
 20
40.4797313065
 11
43.8929520903
 21
40.4797313065
  0
LINE
  5
222
100
AcDbEntity
  8
0
100
AcDbLine
 62
7
  6
CONTINUOUS
 10
48.3473153761
 20
40.9806821768
 11
33.2362748312
 21
40.9806821768
  0
LINE
  5
223
100
AcDbEntity
  8
0
100
AcDbLine
 62
7
  6
CONTINUOUS
 10
34.0385883986
 20
40.5657290356
 11
64.7164245083
 21
40.2980076158
  0
LINE
  5
224
100
AcDbEntity
  8
0
100
AcDbLine
 62
7
  6
CONTINUOUS
 10
64.7164245083
 20
40.2980076158
 11
79.0973153761
 21
40.1725074824
  0
LINE
  5
225
100
AcDbEntity
  8
0
100
AcDbLine
 62
7
  6
CONTINUOUS
 10
21.3473153761
 20
63.8705826163
 11
21.3473153761
 21
83.8705826163
  0
LINE
  5
226
100
AcDbEntity
  8
0
100
AcDbLine
 62
7
  6
CONTINUOUS
 10
23.3473148292
 20
90.839689335
 11
23.3473148292
 21
56.9016116382
  0
LINE
  5
227
100
AcDbEntity
  8
0
100
AcDbLine
 62
7
  6
CONTINUOUS
 10
23.3791671888
 20
56.6513054676
 11
23.3791671888
 21
91.089953563
  0
LINE
  5
228
100
AcDbEntity
  8
0
100
AcDbLine
 62
7
  6
CONTINUOUS
 10
24.3253448069
 20
55.9013906923
 11
24.3253448069
 21
91.8311237996
  0
LINE
  5
229
100
AcDbEntity
  8
0
100
AcDbLine
 62
7
  6
CONTINUOUS
 10
24.3385882937
 20
91.8318309966
 11
24.3385882937
 21
55.9006966306
  0
LINE
  5
22A
100
AcDbEntity
  8
0
100
AcDbLine
 62
7
  6
CONTINUOUS
 10
48.3473153761
 20
44.9137805412
 11
33.0473149341
 21
44.9137805412
  0
LINE
  5
22B
100
AcDbEntity
  8
0
100
AcDbLine
 62
7
  6
CONTINUOUS
 10
23.3791671888
 20
56.6512316342
 11
23.3473148292
 21
56.9016116382
  0
LINE
  5
22C
100
AcDbEntity
  8
0
100
AcDbLine
 62
7
  6
CONTINUOUS
 10
13.6473153761
 20
70.913780611
 11
12.1473153761
 21
69.413780611
  0
LINE
  5
22D
100
AcDbEntity
  8
0
100
AcDbLine
 62
7
  6
CONTINUOUS
 10
38.0473153761
 20
45.783780611
 11
37.0473153761
 21
45.783780611
  0
LINE
  5
22E
100
AcDbEntity
  8
0
100
AcDbLine
 62
7
  6
CONTINUOUS
 10
37.0473153761
 20
46.463780611
 11
36.4504521411
 21
46.463780611
  0
LINE
  5
22F
100
AcDbEntity
  8
0
100
AcDbLine
 62
7
  6
CONTINUOUS
 10
35.2938709931
 20
47.6936390534
 11
36.5473153761
 21
47.6936390534
  0
LINE
  5
230
100
AcDbEntity
  8
0
100
AcDbLine
 62
7
  6
CONTINUOUS
 10
40.0555838956
 20
47.713780611
 11
38.0473153761
 21
47.713780611
  0
LINE
  5
231
100
AcDbEntity
  8
0
100
AcDbLine
 62
7
  6
CONTINUOUS
 10
80.0473153761
 20
47.763780611
 11
65.0473153761
 21
47.763780611
  0
LINE
  5
232
100
AcDbEntity
  8
0
100
AcDbLine
 62
7
  6
CONTINUOUS
 10
48.3473153761
 20
48.2946825506
 11
33.0473149341
 21
48.2946825506
  0
LINE
  5
233
100
AcDbEntity
  8
0
100
AcDbLine
 62
7
  6
CONTINUOUS
 10
36.5473153761
 20
48.538780611
 11
35.1289961098
 21
48.538780611
  0
LINE
  5
234
100
AcDbEntity
  8
0
100
AcDbLine
 62
7
  6
CONTINUOUS
 10
13.6473153761
 20
76.913780611
 11
12.1473153761
 21
78.413780611
  0
LINE
  5
235
100
AcDbEntity
  8
0
100
AcDbLine
 62
7
  6
CONTINUOUS
 10
23.3473148292
 20
91.0900255561
 11
23.3791671888
 21
90.8396885538
  0
LINE
  5
236
100
AcDbEntity
  8
0
100
AcDbLine
 62
7
  6
CONTINUOUS
 10
32.0473149341
 20
92.243474013
 11
32.0473149341
 21
92.218780611
  0
LINE
  5
237
100
AcDbEntity
  8
0
100
AcDbLine
 62
7
  6
CONTINUOUS
 10
36.5473153761
 20
48.838780611
 11
35.1289961098
 21
48.838780611
  0
LINE
  5
238
100
AcDbEntity
  8
0
100
AcDbLine
 62
7
  6
CONTINUOUS
 10
36.5473153761
 20
49.588780611
 11
35.1289961098
 21
49.588780611
  0
LINE
  5
239
100
AcDbEntity
  8
0
100
AcDbLine
 62
7
  6
CONTINUOUS
 10
36.5473153761
 20
49.888780611
 11
35.1289961098
 21
49.888780611
  0
LINE
  5
23A
100
AcDbEntity
  8
0
100
AcDbLine
 62
7
  6
CONTINUOUS
 10
80.0473153761
 20
50.063780611
 11
65.0473153761
 21
50.063780611
  0
LINE
  5
23B
100
AcDbEntity
  8
0
100
AcDbLine
 62
7
  6
CONTINUOUS
 10
40.0555838956
 20
50.713780611
 11
38.0473153761
 21
50.713780611
  0
LINE
  5
23C
100
AcDbEntity
  8
0
100
AcDbLine
 62
7
  6
CONTINUOUS
 10
35.2938709931
 20
50.7339221685
 11
36.5473153761
 21
50.7339221685
  0
LINE
  5
23D
100
AcDbEntity
  8
0
100
AcDbLine
 62
7
  6
CONTINUOUS
 10
37.0473153761
 20
51.963780611
 11
36.4504521411
 21
51.963780611
  0
LINE
  5
23E
100
AcDbEntity
  8
0
100
AcDbLine
 62
7
  6
CONTINUOUS
 10
33.0473149341
 20
106.1754742758
 11
33.0473149341
 21
92.218780611
  0
LINE
  5
23F
100
AcDbEntity
  8
0
100
AcDbLine
 62
7
  6
CONTINUOUS
 10
33.0473149341
 20
55.508780611
 11
33.0473149341
 21
41.5656868289
  0
LINE
  5
240
100
AcDbEntity
  8
0
100
AcDbLine
 62
7
  6
CONTINUOUS
 10
33.5385887309
 20
107.0363990944
 11
33.5385887309
 21
92.218780611
  0
LINE
  5
241
100
AcDbEntity
  8
0
100
AcDbLine
 62
7
  6
CONTINUOUS
 10
33.5385887306
 20
55.508780611
 11
33.5385887306
 21
40.7047661406
  0
LINE
  5
242
100
AcDbEntity
  8
0
100
AcDbLine
 62
7
  6
CONTINUOUS
 10
33.5468572539
 20
107.041230567
 11
33.5468572539
 21
92.218780611
  0
LINE
  5
243
100
AcDbEntity
  8
0
100
AcDbLine
 62
7
  6
CONTINUOUS
 10
33.573343154
 20
40.6851603235
 11
33.573343154
 21
55.508780611
  0
LINE
  5
244
100
AcDbEntity
  8
0
100
AcDbLine
 62
7
  6
CONTINUOUS
 10
33.6192448256
 20
107.0790332883
 11
33.6192448256
 21
92.218780611
  0
LINE
  5
245
100
AcDbEntity
  8
0
100
AcDbLine
 62
7
  6
CONTINUOUS
 10
34.0473149341
 20
55.508780611
 11
34.0473149341
 21
40.5656443006
  0
LINE
  5
246
100
AcDbEntity
  8
0
100
AcDbLine
 62
7
  6
CONTINUOUS
 10
34.5385887309
 20
55.508780611
 11
34.5385887309
 21
40.5613655988
  0
LINE
  5
247
100
AcDbEntity
  8
0
100
AcDbLine
 62
7
  6
CONTINUOUS
 10
35.1625315736
 20
55.508780611
 11
35.1625315736
 21
40.5559205321
  0
LINE
  5
248
100
AcDbEntity
  8
0
100
AcDbLine
 62
7
  6
CONTINUOUS
 10
35.5512342497
 20
47.0262795439
 11
35.5512342497
 21
51.401281678
  0
LINE
  5
249
100
AcDbEntity
  8
0
100
AcDbLine
 62
7
  6
CONTINUOUS
 10
35.5512342497
 20
96.4262795439
 11
35.5512342497
 21
100.801281678
  0
LINE
  5
24A
100
AcDbEntity
  8
0
100
AcDbLine
 62
7
  6
CONTINUOUS
 10
35.6538053704
 20
55.508780611
 11
35.6538053704
 21
40.5516332506
  0
LINE
  5
24B
100
AcDbEntity
  8
0
100
AcDbLine
 62
7
  6
CONTINUOUS
 10
38.0473153761
 20
52.643780611
 11
37.0473153761
 21
52.643780611
  0
LINE
  5
24C
100
AcDbEntity
  8
0
100
AcDbLine
 62
7
  6
CONTINUOUS
 10
80.0473153761
 20
52.763780611
 11
65.0473153761
 21
52.763780611
  0
LINE
  5
24D
100
AcDbEntity
  8
0
100
AcDbLine
 62
7
  6
CONTINUOUS
 10
80.0473153761
 20
55.063780611
 11
65.0473153761
 21
55.063780611
  0
LINE
  5
24E
100
AcDbEntity
  8
0
100
AcDbLine
 62
7
  6
CONTINUOUS
 10
31.8167914343
 20
55.508780611
 11
40.0555838956
 21
55.508780611
  0
LINE
  5
24F
100
AcDbEntity
  8
0
100
AcDbLine
 62
7
  6
CONTINUOUS
 10
90.5473153761
 20
55.637580611
 11
94.9473090769
 21
55.637580611
  0
LINE
  5
250
100
AcDbEntity
  8
0
100
AcDbLine
 62
7
  6
CONTINUOUS
 10
33.0473149341
 20
55.444291607
 11
24.2949788729
 21
55.9029821035
  0
LINE
  5
251
100
AcDbEntity
  8
0
100
AcDbLine
 62
7
  6
CONTINUOUS
 10
36.4504521411
 20
101.363780611
 11
36.4504521411
 21
95.863780611
  0
LINE
  5
252
100
AcDbEntity
  8
0
100
AcDbLine
 62
7
  6
CONTINUOUS
 10
36.4504521411
 20
51.963780611
 11
36.4504521411
 21
46.463780611
  0
LINE
  5
253
100
AcDbEntity
  8
0
100
AcDbLine
 62
7
  6
CONTINUOUS
 10
36.5473153761
 20
100.1339221685
 11
36.5473153761
 21
97.0936390534
  0
LINE
  5
254
100
AcDbEntity
  8
0
100
AcDbLine
 62
7
  6
CONTINUOUS
 10
36.5473153761
 20
50.7339221685
 11
36.5473153761
 21
47.6936390534
  0
LINE
  5
255
100
AcDbEntity
  8
0
100
AcDbLine
 62
7
  6
CONTINUOUS
 10
37.0473153761
 20
102.043780611
 11
37.0473153761
 21
95.183780611
  0
LINE
  5
256
100
AcDbEntity
  8
0
100
AcDbLine
 62
7
  6
CONTINUOUS
 10
37.0473153761
 20
52.643780611
 11
37.0473153761
 21
45.783780611
  0
LINE
  5
257
100
AcDbEntity
  8
0
100
AcDbLine
 62
7
  6
CONTINUOUS
 10
38.0473153761
 20
102.043780611
 11
38.0473153761
 21
95.183780611
  0
LINE
  5
258
100
AcDbEntity
  8
0
100
AcDbLine
 62
7
  6
CONTINUOUS
 10
38.0473153761
 20
52.643780611
 11
38.0473153761
 21
45.783780611
  0
LINE
  5
259
100
AcDbEntity
  8
0
100
AcDbLine
 62
7
  6
CONTINUOUS
 10
94.9473090769
 20
56.163780611
 11
90.5473153761
 21
56.163780611
  0
LINE
  5
25A
100
AcDbEntity
  8
0
100
AcDbLine
 62
7
  6
CONTINUOUS
 10
80.0473153761
 20
57.763780611
 11
65.0473153761
 21
57.763780611
  0
LINE
  5
25B
100
AcDbEntity
  8
0
100
AcDbLine
 62
7
  6
CONTINUOUS
 10
40.0473153726
 20
107.2278735648
 11
40.0473153726
 21
92.218780611
  0
LINE
  5
25C
100
AcDbEntity
  8
0
100
AcDbLine
 62
7
  6
CONTINUOUS
 10
40.0473153726
 20
40.5132916697
 11
40.0473153726
 21
55.508780611
  0
LINE
  5
25D
100
AcDbEntity
  8
0
100
AcDbLine
 62
7
  6
CONTINUOUS
 10
40.0555838956
 20
107.2279457231
 11
40.0555838956
 21
92.218780611
  0
LINE
  5
25E
100
AcDbEntity
  8
0
100
AcDbLine
 62
7
  6
CONTINUOUS
 10
40.0555838956
 20
40.5132195114
 11
40.0555838956
 21
55.508780611
  0
LINE
  5
25F
100
AcDbEntity
  8
0
100
AcDbLine
 62
7
  6
CONTINUOUS
 10
80.0473153761
 20
60.063780611
 11
65.0473153761
 21
60.063780611
  0
LINE
  5
260
100
AcDbEntity
  8
0
100
AcDbLine
 62
7
  6
CONTINUOUS
 10
80.0473153761
 20
62.763780611
 11
65.0473153761
 21
62.763780611
  0
LINE
  5
261
100
AcDbEntity
  8
0
100
AcDbLine
 62
7
  6
CONTINUOUS
 10
12.1473153761
 20
66.9143198219
 11
17.6473153761
 21
66.413780611
  0
LINE
  5
262
100
AcDbEntity
  8
0
100
AcDbLine
 62
7
  6
CONTINUOUS
 10
21.3473153761
 20
63.8705826163
 11
19.7473153761
 21
63.8705826163
  0
LINE
  5
263
100
AcDbEntity
  8
0
100
AcDbLine
 62
7
  6
CONTINUOUS
 10
19.7473153761
 20
63.9137806119
 11
84.0473153761
 21
63.9137806119
  0
LINE
  5
264
100
AcDbEntity
  8
0
100
AcDbLine
 62
7
  6
CONTINUOUS
 10
80.0473153761
 20
65.063780611
 11
65.0473153761
 21
65.063780611
  0
LINE
  5
265
100
AcDbEntity
  8
0
100
AcDbLine
 62
7
  6
CONTINUOUS
 10
19.7473153761
 20
66.8705826163
 11
19.6502479951
 21
66.8705826163
  0
LINE
  5
266
100
AcDbEntity
  8
0
100
AcDbLine
 62
7
  6
CONTINUOUS
 10
19.7473153761
 20
66.913780611
 11
19.6473153761
 21
66.913780611
  0
LINE
  5
267
100
AcDbEntity
  8
0
100
AcDbLine
 62
7
  6
CONTINUOUS
 10
48.3473153761
 20
40.440858667
 11
48.3473153761
 21
48.3318600554
  0
LINE
  5
268
100
AcDbEntity
  8
0
100
AcDbLine
 62
7
  6
CONTINUOUS
 10
48.3473153761
 20
99.4957011665
 11
48.3473153761
 21
107.3003065675
  0
LINE
  5
269
100
AcDbEntity
  8
0
100
AcDbLine
 62
7
  6
CONTINUOUS
 10
18.1473153761
 20
69.913780611
 11
17.6473153761
 21
69.913780611
  0
LINE
  5
26A
100
AcDbEntity
  8
0
100
AcDbLine
 62
7
  6
CONTINUOUS
 10
23.377081161
 20
71.913780611
 11
21.3473153761
 21
71.913780611
  0
LINE
  5
26B
100
AcDbEntity
  8
0
100
AcDbLine
 62
7
  6
CONTINUOUS
 10
19.7473153761
 20
71.913780611
 11
18.1473153761
 21
71.913780611
  0
LINE
  5
26C
100
AcDbEntity
  8
0
100
AcDbLine
 62
7
  6
CONTINUOUS
 10
23.377081161
 20
75.913780611
 11
21.3473153761
 21
75.913780611
  0
LINE
  5
26D
100
AcDbEntity
  8
0
100
AcDbLine
 62
7
  6
CONTINUOUS
 10
18.1473153761
 20
75.913780611
 11
19.7473153761
 21
75.913780611
  0
LINE
  5
26E
100
AcDbEntity
  8
0
100
AcDbLine
 62
7
  6
CONTINUOUS
 10
18.1473153761
 20
77.913780611
 11
17.6473153761
 21
77.913780611
  0
LINE
  5
26F
100
AcDbEntity
  8
0
100
AcDbLine
 62
7
  6
CONTINUOUS
 10
19.7473153761
 20
80.8705826163
 11
19.6473153761
 21
80.8705826163
  0
LINE
  5
270
100
AcDbEntity
  8
0
100
AcDbLine
 62
7
  6
CONTINUOUS
 10
12.1473153761
 20
80.9132414
 11
17.6473153761
 21
81.413780611
  0
LINE
  5
271
100
AcDbEntity
  8
0
100
AcDbLine
 62
7
  6
CONTINUOUS
 10
80.0473153761
 20
82.763780611
 11
65.0473153761
 21
82.763780611
  0
LINE
  5
272
100
AcDbEntity
  8
0
100
AcDbLine
 62
7
  6
CONTINUOUS
 10
23.3473148292
 20
83.8705826163
 11
19.7473153761
 21
83.8705826163
  0
LINE
  5
273
100
AcDbEntity
  8
0
100
AcDbLine
 62
7
  6
CONTINUOUS
 10
84.0473153761
 20
83.9137806119
 11
23.3473148292
 21
83.9137806119
  0
LINE
  5
274
100
AcDbEntity
  8
0
100
AcDbLine
 62
7
  6
CONTINUOUS
 10
80.0473153761
 20
85.063780611
 11
65.0473153761
 21
85.063780611
  0
LINE
  5
275
100
AcDbEntity
  8
0
100
AcDbLine
 62
7
  6
CONTINUOUS
 10
65.0473153761
 20
100.063780611
 11
65.0473153761
 21
97.763780611
  0
LINE
  5
276
100
AcDbEntity
  8
0
100
AcDbLine
 62
7
  6
CONTINUOUS
 10
65.0473153761
 20
95.063780611
 11
65.0473153761
 21
92.763780611
  0
LINE
  5
277
100
AcDbEntity
  8
0
100
AcDbLine
 62
7
  6
CONTINUOUS
 10
65.0473153761
 20
90.063780611
 11
65.0473153761
 21
87.763780611
  0
LINE
  5
278
100
AcDbEntity
  8
0
100
AcDbLine
 62
7
  6
CONTINUOUS
 10
65.0473153761
 20
85.063780611
 11
65.0473153761
 21
82.763780611
  0
LINE
  5
279
100
AcDbEntity
  8
0
100
AcDbLine
 62
7
  6
CONTINUOUS
 10
65.0473153761
 20
65.063780611
 11
65.0473153761
 21
62.763780611
  0
LINE
  5
27A
100
AcDbEntity
  8
0
100
AcDbLine
 62
7
  6
CONTINUOUS
 10
65.0473153761
 20
60.063780611
 11
65.0473153761
 21
57.763780611
  0
LINE
  5
27B
100
AcDbEntity
  8
0
100
AcDbLine
 62
7
  6
CONTINUOUS
 10
65.0473153761
 20
55.063780611
 11
65.0473153761
 21
52.763780611
  0
LINE
  5
27C
100
AcDbEntity
  8
0
100
AcDbLine
 62
7
  6
CONTINUOUS
 10
65.0473153761
 20
50.063780611
 11
65.0473153761
 21
47.763780611
  0
LINE
  5
27D
100
AcDbEntity
  8
0
100
AcDbLine
 62
7
  6
CONTINUOUS
 10
80.0473153761
 20
87.763780611
 11
65.0473153761
 21
87.763780611
  0
LINE
  5
27E
100
AcDbEntity
  8
0
100
AcDbLine
 62
7
  6
CONTINUOUS
 10
80.0473153761
 20
90.063780611
 11
65.0473153761
 21
90.063780611
  0
LINE
  5
27F
100
AcDbEntity
  8
0
100
AcDbLine
 62
7
  6
CONTINUOUS
 10
90.5473153761
 20
91.663980611
 11
94.9473090769
 21
91.663980611
  0
LINE
  5
280
100
AcDbEntity
  8
0
100
AcDbLine
 62
7
  6
CONTINUOUS
 10
94.9473090769
 20
92.190180611
 11
90.5473153761
 21
92.190180611
  0
LINE
  5
281
100
AcDbEntity
  8
0
100
AcDbLine
 62
7
  6
CONTINUOUS
 10
31.5848883196
 20
92.218780611
 11
40.0555838956
 21
92.218780611
  0
LINE
  5
282
100
AcDbEntity
  8
0
100
AcDbLine
 62
7
  6
CONTINUOUS
 10
33.0473149341
 20
92.2968736257
 11
24.1643491544
 21
91.8225266941
  0
LINE
  5
283
100
AcDbEntity
  8
0
100
AcDbLine
 62
7
  6
CONTINUOUS
 10
80.0473153761
 20
92.763780611
 11
65.0473153761
 21
92.763780611
  0
LINE
  5
284
100
AcDbEntity
  8
0
100
AcDbLine
 62
7
  6
CONTINUOUS
 10
80.0473153761
 20
95.063780611
 11
65.0473153761
 21
95.063780611
  0
LINE
  5
285
100
AcDbEntity
  8
0
100
AcDbLine
 62
7
  6
CONTINUOUS
 10
38.0473153761
 20
95.183780611
 11
37.0473153761
 21
95.183780611
  0
LINE
  5
286
100
AcDbEntity
  8
0
100
AcDbLine
 62
7
  6
CONTINUOUS
 10
37.0473153761
 20
95.863780611
 11
36.4504521411
 21
95.863780611
  0
LINE
  5
287
100
AcDbEntity
  8
0
100
AcDbLine
 62
7
  6
CONTINUOUS
 10
35.2938709931
 20
97.0936390534
 11
36.5473153761
 21
97.0936390534
  0
LINE
  5
288
100
AcDbEntity
  8
0
100
AcDbLine
 62
7
  6
CONTINUOUS
 10
40.0473149341
 20
97.113780611
 11
38.0473153761
 21
97.113780611
  0
LINE
  5
289
100
AcDbEntity
  8
0
100
AcDbLine
 62
7
  6
CONTINUOUS
 10
80.0473153761
 20
97.763780611
 11
65.0473153761
 21
97.763780611
  0
LINE
  5
28A
100
AcDbEntity
  8
0
100
AcDbLine
 62
7
  6
CONTINUOUS
 10
36.5473153761
 20
97.938780611
 11
35.1289961098
 21
97.938780611
  0
LINE
  5
28B
100
AcDbEntity
  8
0
100
AcDbLine
 62
7
  6
CONTINUOUS
 10
36.5473153761
 20
98.238780611
 11
35.1289961098
 21
98.238780611
  0
LINE
  5
28C
100
AcDbEntity
  8
0
100
AcDbLine
 62
7
  6
CONTINUOUS
 10
36.5473153761
 20
98.988780611
 11
35.1289961098
 21
98.988780611
  0
LINE
  5
28D
100
AcDbEntity
  8
0
100
AcDbLine
 62
7
  6
CONTINUOUS
 10
36.5473153761
 20
99.288780611
 11
35.1289961098
 21
99.288780611
  0
LINE
  5
28E
100
AcDbEntity
  8
0
100
AcDbLine
 62
7
  6
CONTINUOUS
 10
48.3473153761
 20
99.5328676891
 11
33.0473149341
 21
99.5328676891
  0
LINE
  5
28F
100
AcDbEntity
  8
0
100
AcDbLine
 62
7
  6
CONTINUOUS
 10
80.0473153761
 20
100.063780611
 11
80.0473153761
 21
97.763780611
  0
LINE
  5
290
100
AcDbEntity
  8
0
100
AcDbLine
 62
7
  6
CONTINUOUS
 10
80.0473153761
 20
95.063780611
 11
80.0473153761
 21
92.763780611
  0
LINE
  5
291
100
AcDbEntity
  8
0
100
AcDbLine
 62
7
  6
CONTINUOUS
 10
80.0473153761
 20
90.063780611
 11
80.0473153761
 21
87.763780611
  0
LINE
  5
292
100
AcDbEntity
  8
0
100
AcDbLine
 62
7
  6
CONTINUOUS
 10
80.0473153761
 20
85.063780611
 11
80.0473153761
 21
82.763780611
  0
LINE
  5
293
100
AcDbEntity
  8
0
100
AcDbLine
 62
7
  6
CONTINUOUS
 10
80.0473153761
 20
65.063780611
 11
80.0473153761
 21
62.763780611
  0
LINE
  5
294
100
AcDbEntity
  8
0
100
AcDbLine
 62
7
  6
CONTINUOUS
 10
80.0473153761
 20
60.063780611
 11
80.0473153761
 21
57.763780611
  0
LINE
  5
295
100
AcDbEntity
  8
0
100
AcDbLine
 62
7
  6
CONTINUOUS
 10
80.0473153761
 20
55.063780611
 11
80.0473153761
 21
52.763780611
  0
LINE
  5
296
100
AcDbEntity
  8
0
100
AcDbLine
 62
7
  6
CONTINUOUS
 10
80.0473153761
 20
50.063780611
 11
80.0473153761
 21
47.763780611
  0
LINE
  5
297
100
AcDbEntity
  8
0
100
AcDbLine
 62
7
  6
CONTINUOUS
 10
80.0473153761
 20
100.063780611
 11
65.0473153761
 21
100.063780611
  0
LINE
  5
298
100
AcDbEntity
  8
0
100
AcDbLine
 62
7
  6
CONTINUOUS
 10
40.0473149341
 20
100.113780611
 11
38.0473153761
 21
100.113780611
  0
LINE
  5
299
100
AcDbEntity
  8
0
100
AcDbLine
 62
7
  6
CONTINUOUS
 10
35.2938709931
 20
100.1339221685
 11
36.5473153761
 21
100.1339221685
  0
LINE
  5
29A
100
AcDbEntity
  8
0
100
AcDbLine
 62
7
  6
CONTINUOUS
 10
37.0473153761
 20
101.363780611
 11
36.4504521411
 21
101.363780611
  0
LINE
  5
29B
100
AcDbEntity
  8
0
100
AcDbLine
 62
7
  6
CONTINUOUS
 10
38.0473153761
 20
102.043780611
 11
37.0473153761
 21
102.043780611
  0
LINE
  5
29C
100
AcDbEntity
  8
0
100
AcDbLine
 62
7
  6
CONTINUOUS
 10
48.3473153761
 20
102.9137806807
 11
33.0473149341
 21
102.9137806807
  0
LINE
  5
29D
100
AcDbEntity
  8
0
100
AcDbLine
 62
7
  6
CONTINUOUS
 10
84.0473153761
 20
40.1725074824
 11
84.0473153761
 21
40.672488444
  0
LINE
  5
29E
100
AcDbEntity
  8
0
100
AcDbLine
 62
7
  6
CONTINUOUS
 10
84.0473153761
 20
37.9205826163
 11
84.0473153761
 21
40.1725074824
  0
LINE
  5
29F
100
AcDbEntity
  8
0
100
AcDbLine
 62
7
  6
CONTINUOUS
 10
84.0473153761
 20
40.672488444
 11
84.0473153761
 21
109.8205826163
  0
LINE
  5
2A0
100
AcDbEntity
  8
0
100
AcDbLine
 62
7
  6
CONTINUOUS
 10
85.0473153761
 20
37.8705826154
 11
85.0473153761
 21
109.8705826154
  0
LINE
  5
2A1
100
AcDbEntity
  8
0
100
AcDbLine
 62
7
  6
CONTINUOUS
 10
48.3473153761
 20
106.8468790451
 11
33.3063095223
 21
106.8468790451
  0
LINE
  5
2A2
100
AcDbEntity
  8
0
100
AcDbLine
 62
7
  6
CONTINUOUS
 10
90.5473153761
 20
92.190180611
 11
90.5473153761
 21
91.663980611
  0
LINE
  5
2A3
100
AcDbEntity
  8
0
100
AcDbLine
 62
7
  6
CONTINUOUS
 10
90.5473153761
 20
56.163780611
 11
90.5473153761
 21
55.637580611
  0
LINE
  5
2A4
100
AcDbEntity
  8
0
100
AcDbLine
 62
7
  6
CONTINUOUS
 10
84.0473153761
 20
107.6118557476
 11
34.0385883986
 21
107.1754361989
  0
LINE
  5
2A5
100
AcDbEntity
  8
0
100
AcDbLine
 62
7
  6
CONTINUOUS
 10
85.0473153761
 20
109.8205826163
 11
84.0473153761
 21
109.8205826163
  0
LINE
  5
2A6
100
AcDbEntity
  8
0
100
AcDbLine
 62
7
  6
CONTINUOUS
 10
94.9473090769
 20
109.7092878412
 11
85.0473153761
 21
109.8705826154
  0
LINE
  5
2A7
100
AcDbEntity
  8
0
100
AcDbLine
 62
7
  6
CONTINUOUS
 10
91.2917783986
 20
109.7688452524
 11
91.2917783986
 21
92.190180611
  0
LINE
  5
2A8
100
AcDbEntity
  8
0
100
AcDbLine
 62
7
  6
CONTINUOUS
 10
91.2917783986
 20
91.663980611
 11
91.2917783986
 21
56.163780611
  0
LINE
  5
2A9
100
AcDbEntity
  8
0
100
AcDbLine
 62
7
  6
CONTINUOUS
 10
91.2917783986
 20
55.637580611
 11
91.2917783986
 21
37.9818186553
  0
LINE
  5
2AA
100
AcDbEntity
  8
0
100
AcDbLine
 62
7
  6
CONTINUOUS
 10
91.7619135276
 20
37.9901934298
 11
91.7619135276
 21
38.4803545213
  0
LINE
  5
2AB
100
AcDbEntity
  8
0
100
AcDbLine
 62
7
  6
CONTINUOUS
 10
91.7619135276
 20
41.8872067006
 11
91.7619135276
 21
55.637580611
  0
LINE
  5
2AC
100
AcDbEntity
  8
0
100
AcDbLine
 62
7
  6
CONTINUOUS
 10
91.7619135276
 20
56.163780611
 11
91.7619135276
 21
91.663980611
  0
LINE
  5
2AD
100
AcDbEntity
  8
0
100
AcDbLine
 62
7
  6
CONTINUOUS
 10
91.7619135276
 20
92.190180611
 11
91.7619135276
 21
109.7611856172
  0
LINE
  5
2AE
100
AcDbEntity
  8
0
100
AcDbLine
 62
7
  6
CONTINUOUS
 10
91.7756434878
 20
37.9904380091
 11
91.7756434878
 21
38.4599213937
  0
LINE
  5
2AF
100
AcDbEntity
  8
0
100
AcDbLine
 62
7
  6
CONTINUOUS
 10
91.7756434878
 20
41.9076398282
 11
91.7756434878
 21
55.637580611
  0
LINE
  5
2B0
100
AcDbEntity
  8
0
100
AcDbLine
 62
7
  6
CONTINUOUS
 10
91.7756434878
 20
56.163780611
 11
91.7756434878
 21
91.663980611
  0
LINE
  5
2B1
100
AcDbEntity
  8
0
100
AcDbLine
 62
7
  6
CONTINUOUS
 10
91.7756434878
 20
92.190180611
 11
91.7756434878
 21
109.7609619231
  0
LINE
  5
2B2
100
AcDbEntity
  8
0
100
AcDbLine
 62
7
  6
CONTINUOUS
 10
91.9510713968
 20
38.4549749776
 11
91.9510713968
 21
39.482423547
  0
LINE
  5
2B3
100
AcDbEntity
  8
0
100
AcDbLine
 62
7
  6
CONTINUOUS
 10
91.9510713968
 20
40.8851385269
 11
91.9510713968
 21
41.9125862443
  0
LINE
  5
2B4
100
AcDbEntity
  8
0
100
AcDbLine
 62
7
  6
CONTINUOUS
 10
92.2541829707
 20
37.998962495
 11
92.2541829707
 21
40.1245988118
  0
LINE
  5
2B5
100
AcDbEntity
  8
0
100
AcDbLine
 62
7
  6
CONTINUOUS
 10
92.2541829707
 20
40.2429730738
 11
92.2541829707
 21
55.637580611
  0
LINE
  5
2B6
100
AcDbEntity
  8
0
100
AcDbLine
 62
7
  6
CONTINUOUS
 10
92.2541829707
 20
56.163780611
 11
92.2541829707
 21
91.663980611
  0
LINE
  5
2B7
100
AcDbEntity
  8
0
100
AcDbLine
 62
7
  6
CONTINUOUS
 10
92.2541829707
 20
92.190180611
 11
92.2541829707
 21
109.7531653608
  0
LINE
  5
2B8
100
AcDbEntity
  8
0
100
AcDbLine
 62
7
  6
CONTINUOUS
 10
92.3282921697
 20
38.0002826427
 11
92.3282921697
 21
55.637580611
  0
LINE
  5
2B9
100
AcDbEntity
  8
0
100
AcDbLine
 62
7
  6
CONTINUOUS
 10
92.3282921697
 20
56.163780611
 11
92.3282921697
 21
91.663980611
  0
LINE
  5
2BA
100
AcDbEntity
  8
0
100
AcDbLine
 62
7
  6
CONTINUOUS
 10
92.3282921697
 20
92.190180611
 11
92.3282921697
 21
109.7519579432
  0
LINE
  5
2BB
100
AcDbEntity
  8
0
100
AcDbLine
 62
7
  6
CONTINUOUS
 10
92.7597265135
 20
109.7449288372
 11
92.7597265135
 21
92.190180611
  0
LINE
  5
2BC
100
AcDbEntity
  8
0
100
AcDbLine
 62
7
  6
CONTINUOUS
 10
92.7597265135
 20
91.663980611
 11
92.7597265135
 21
56.163780611
  0
LINE
  5
2BD
100
AcDbEntity
  8
0
100
AcDbLine
 62
7
  6
CONTINUOUS
 10
92.7597265135
 20
55.637580611
 11
92.7597265135
 21
38.007968019
  0
LINE
  5
2BE
100
AcDbEntity
  8
0
100
AcDbLine
 62
7
  6
CONTINUOUS
 10
92.8336463846
 20
109.7437245042
 11
92.8336463846
 21
92.190180611
  0
LINE
  5
2BF
100
AcDbEntity
  8
0
100
AcDbLine
 62
7
  6
CONTINUOUS
 10
92.8336463846
 20
91.663980611
 11
92.8336463846
 21
56.163780611
  0
LINE
  5
2C0
100
AcDbEntity
  8
0
100
AcDbLine
 62
7
  6
CONTINUOUS
 10
92.8336463846
 20
55.637580611
 11
92.8336463846
 21
38.0092847942
  0
LINE
  5
2C1
100
AcDbEntity
  8
0
100
AcDbLine
 62
7
  6
CONTINUOUS
 10
94.9473090769
 20
109.7092878412
 11
94.9473090769
 21
92.190180611
  0
LINE
  5
2C2
100
AcDbEntity
  8
0
100
AcDbLine
 62
7
  6
CONTINUOUS
 10
94.9473090769
 20
91.663980611
 11
94.9473090769
 21
56.163780611
  0
LINE
  5
2C3
100
AcDbEntity
  8
0
100
AcDbLine
 62
7
  6
CONTINUOUS
 10
94.9473090769
 20
55.637580611
 11
94.9473090769
 21
38.0469366253
  0
ARC
  5
2C4
100
AcDbEntity
  8
0
100
AcDbCircle
 62
7
  6
CONTINUOUS
 10
19.6502671084
 20
68.3777087284
 40
1.5071290026
100
AcDbArc
 50
184.2668666253
 51
269.9992733785
  0
ARC
  5
2C5
100
AcDbEntity
  8
0
100
AcDbCircle
 62
7
  6
CONTINUOUS
 10
19.6502671084
 20
68.420906723
 40
1.5071290026
100
AcDbArc
 50
184.2668666253
 51
269.8877853792
  0
ARC
  5
2C6
100
AcDbEntity
  8
0
100
AcDbCircle
 62
7
  6
CONTINUOUS
 10
24.3473148292
 20
56.9016116382
 40
1.0
100
AcDbArc
 50
180.0
 51
267.0
  0
ARC
  5
2C7
100
AcDbEntity
  8
0
100
AcDbCircle
 62
7
  6
CONTINUOUS
 10
34.0473149341
 20
41.5656909587
 40
1.0
100
AcDbArc
 50
180.0
 51
269.5
  0
ARC
  5
2C8
100
AcDbEntity
  8
0
100
AcDbCircle
 62
7
  6
CONTINUOUS
 10
36.4852486462
 20
47.519406743
 40
1.0561994733
100
AcDbArc
 50
207.832499576
 51
268.1120481874
  0
ARC
  5
2C9
100
AcDbEntity
  8
0
100
AcDbCircle
 62
7
  6
CONTINUOUS
 10
36.4852486462
 20
50.9081544789
 40
1.0561994733
100
AcDbArc
 50
91.8879518126
 51
152.167500424
  0
ARC
  5
2CA
100
AcDbEntity
  8
0
100
AcDbCircle
 62
7
  6
CONTINUOUS
 10
40.270507117
 20
49.2137810222
 40
4.976633225
100
AcDbArc
 50
175.6785391346
 51
184.3214608654
  0
ARC
  5
2CB
100
AcDbEntity
  8
0
100
AcDbCircle
 62
7
  6
CONTINUOUS
 10
40.0356650744
 20
49.2906009975
 40
4.9430687457
100
AcDbArc
 50
163.0229342752
 51
173.0493835997
  0
ARC
  5
2CC
100
AcDbEntity
  8
0
100
AcDbCircle
 62
7
  6
CONTINUOUS
 10
40.0356650744
 20
49.1369602244
 40
4.9430687457
100
AcDbArc
 50
186.9506164003
 51
196.9770657248
  0
ARC
  5
2CD
100
AcDbEntity
  8
0
100
AcDbCircle
 62
7
  6
CONTINUOUS
 10
39.9877806451
 20
49.3070690666
 40
4.9059831207
100
AcDbArc
 50
154.7309710241
 51
163.0917846882
  0
ARC
  5
2CE
100
AcDbEntity
  8
0
100
AcDbCircle
 62
7
  6
CONTINUOUS
 10
39.9877806451
 20
49.1204921553
 40
4.9059831207
100
AcDbArc
 50
196.9082153118
 51
205.2690289759
  0
ARC
  5
2CF
100
AcDbEntity
  8
0
100
AcDbCircle
 62
7
  6
CONTINUOUS
 10
19.6502671084
 20
79.3634565042
 40
1.5071290026
100
AcDbArc
 50
90.1122146208
 51
175.7331333747
  0
ARC
  5
2D0
100
AcDbEntity
  8
0
100
AcDbCircle
 62
7
  6
CONTINUOUS
 10
24.3469765508
 20
90.8396885538
 40
0.9996617308
100
AcDbArc
 50
100.526437128
 51
180.0077352188
  0
ARC
  5
2D1
100
AcDbEntity
  8
0
100
AcDbCircle
 62
7
  6
CONTINUOUS
 10
36.4852486462
 20
96.919406743
 40
1.0561994733
100
AcDbArc
 50
207.832499576
 51
268.1120481874
  0
ARC
  5
2D2
100
AcDbEntity
  8
0
100
AcDbCircle
 62
7
  6
CONTINUOUS
 10
36.4852486462
 20
100.3081544789
 40
1.0561994733
100
AcDbArc
 50
91.8879518126
 51
152.167500424
  0
ARC
  5
2D3
100
AcDbEntity
  8
0
100
AcDbCircle
 62
7
  6
CONTINUOUS
 10
34.0473149341
 20
106.1754742758
 40
1.0
100
AcDbArc
 50
90.5
 51
180.0
  0
ARC
  5
2D4
100
AcDbEntity
  8
0
100
AcDbCircle
 62
7
  6
CONTINUOUS
 10
40.270507117
 20
98.6137810222
 40
4.976633225
100
AcDbArc
 50
175.6785391346
 51
184.3214608654
  0
ARC
  5
2D5
100
AcDbEntity
  8
0
100
AcDbCircle
 62
7
  6
CONTINUOUS
 10
40.0356650744
 20
98.6906009975
 40
4.9430687457
100
AcDbArc
 50
163.0229342752
 51
173.0493835997
  0
ARC
  5
2D6
100
AcDbEntity
  8
0
100
AcDbCircle
 62
7
  6
CONTINUOUS
 10
40.0356650744
 20
98.5369602244
 40
4.9430687457
100
AcDbArc
 50
186.9506164003
 51
196.9770657248
  0
ARC
  5
2D7
100
AcDbEntity
  8
0
100
AcDbCircle
 62
7
  6
CONTINUOUS
 10
39.9877806451
 20
98.7070690666
 40
4.9059831207
100
AcDbArc
 50
154.7309710241
 51
163.0917846882
  0
ARC
  5
2D8
100
AcDbEntity
  8
0
100
AcDbCircle
 62
7
  6
CONTINUOUS
 10
39.9877806451
 20
98.5204921553
 40
4.9059831207
100
AcDbArc
 50
196.9082153118
 51
205.2690289759
  0
ARC
  5
2D9
100
AcDbEntity
  8
0
100
AcDbCircle
 62
7
  6
CONTINUOUS
 10
92.2473153761
 20
40.183780611
 40
1.803059417
100
AcDbArc
 50
255.5328502834
 51
104.4671497166
  0
ARC
  5
2DA
100
AcDbEntity
  8
0
100
AcDbCircle
 62
7
  6
CONTINUOUS
 10
92.2473153761
 20
40.183780611
 40
1.774262749
100
AcDbArc
 50
258.8825533255
 51
101.1174466745
  0
ARC
  5
2DB
100
AcDbEntity
  8
0
100
AcDbCircle
 62
7
  6
CONTINUOUS
 10
92.2473153761
 20
40.183780611
 40
1.7540038235
100
AcDbArc
 50
260.276371927
 51
99.723628073
  0
ARC
  5
2DC
100
AcDbEntity
  8
0
100
AcDbCircle
 62
7
  6
CONTINUOUS
 10
92.2473153761
 20
40.183780611
 40
1.2799100591
100
AcDbArc
 50
232.9811462914
 51
127.0188525062
  0
ARC
  5
2DD
100
AcDbEntity
  8
0
100
AcDbCircle
 62
7
  6
CONTINUOUS
 10
92.2473153761
 20
40.183780611
 40
0.7613566066
100
AcDbArc
 50
247.1014795377
 51
112.8985204623
  0
ARC
  5
2DE
100
AcDbEntity
  8
0
100
AcDbCircle
 62
7
  6
CONTINUOUS
 10
92.3329955282
 20
40.1494148219
 40
0.6415358528
100
AcDbArc
 50
130.4988188188
 51
131.8022834715
  0
ARC
  5
2DF
100
AcDbEntity
  8
0
100
AcDbCircle
 62
7
  6
CONTINUOUS
 10
92.3133432935
 20
40.1953834432
 40
0.6111304114
100
AcDbArc
 50
228.5708361377
 51
229.9213006004
  0
ARC
  5
2E0
100
AcDbEntity
  8
0
100
AcDbCircle
 62
7
  6
CONTINUOUS
 10
92.2473153761
 20
40.183780611
 40
0.5603023264
100
AcDbArc
 50
232.3894002884
 51
127.6106000855
  0
ARC
  5
2E1
100
AcDbEntity
  8
0
100
AcDbCircle
 62
7
  6
CONTINUOUS
 10
92.2473153761
 20
40.183780611
 40
0.0595877003
100
AcDbArc
 50
276.6181534371
 51
83.3818465629
  0
SPLINE
  5
2E2
100
AcDbEntity
  8
0
100
AcDbSpline
 62
7
  6
CONTINUOUS
 70
0
 71
3
 72
16
 73
12
 74
0
 42
0.0000001
 43
0.0000001
 44
0.0000000001
 40
0.0
 40
0.0
 40
0.0
 40
0.0
 40
0.065602179
 40
0.1669535371
 40
0.2953087215
 40
0.4362485799
 40
0.5746776502
 40
0.6989806508
 40
0.808903628
 40
0.9083349398
 40
1.0
 40
1.0
 40
1.0
 40
1.0
 10
91.7619135276
 20
41.8872067006
 30
0.0
 10
91.7536751664
 20
41.8730970051
 30
0.0
 10
91.7319914682
 20
41.8376129136
 30
0.0
 10
91.6935689848
 20
41.7749003596
 30
0.0
 10
91.6466713614
 20
41.6953763195
 30
0.0
 10
91.5979316062
 20
41.6062618208
 30
0.0
 10
91.5537843318
 20
41.5158803624
 30
0.0
 10
91.5181796467
 20
41.4300940126
 30
0.0
 10
91.4925322058
 20
41.3509130323
 30
0.0
 10
91.4775539715
 20
41.2772714357
 30
0.0
 10
91.4757745215
 20
41.2293144239
 30
0.0
 10
91.4777638886
 20
41.2065713721
 30
0.0
  0
SPLINE
  5
2E3
100
AcDbEntity
  8
0
100
AcDbSpline
 62
7
  6
CONTINUOUS
 70
0
 71
3
 72
10
 73
6
 74
0
 42
0.0000001
 43
0.0000001
 44
0.0000000001
 40
0.0
 40
0.0
 40
0.0
 40
0.0
 40
0.2337974299
 40
0.5594793153
 40
1.0
 40
1.0
 40
1.0
 40
1.0
 10
91.7939395496
 20
41.9291840307
 30
0.0
 10
91.7898558726
 20
41.9281232785
 30
0.0
 10
91.781179139
 20
41.9220178851
 30
0.0
 10
91.7708435587
 20
41.9071307832
 30
0.0
 10
91.7649344199
 20
41.8945601723
 30
0.0
 10
91.7619135276
 20
41.8872067006
 30
0.0
  0
SPLINE
  5
2E4
100
AcDbEntity
  8
0
100
AcDbSpline
 62
7
  6
CONTINUOUS
 70
0
 71
3
 72
11
 73
7
 74
0
 42
0.0000001
 43
0.0000001
 44
0.0000000001
 40
0.0
 40
0.0
 40
0.0
 40
0.0
 40
0.2612357701
 40
0.5161019217
 40
0.7671783242
 40
1.0
 40
1.0
 40
1.0
 40
1.0
 10
91.4777638886
 20
41.2065713721
 30
0.0
 10
91.4748993597
 20
41.1175309745
 30
0.0
 10
91.4693539957
 20
40.9416174219
 30
0.0
 10
91.4622793083
 20
40.6800886677
 30
0.0
 10
91.4575245486
 20
40.4281969483
 30
0.0
 10
91.4562930781
 20
40.2631773171
 30
0.0
 10
91.4562930781
 20
40.183780611
 30
0.0
  0
SPLINE
  5
2E5
100
AcDbEntity
  8
0
100
AcDbSpline
 62
7
  6
CONTINUOUS
 70
0
 71
3
 72
11
 73
7
 74
0
 42
0.0000001
 43
0.0000001
 44
0.0000000001
 40
0.0
 40
0.0
 40
0.0
 40
0.0
 40
0.233552467
 40
0.4852554627
 40
0.7405842186
 40
1.0
 40
1.0
 40
1.0
 40
1.0
 10
91.4562930781
 20
40.183780611
 30
0.0
 10
91.4562930781
 20
40.1043058685
 30
0.0
 10
91.4575300986
 20
39.9391790937
 30
0.0
 10
91.4622740275
 20
39.6872091463
 30
0.0
 10
91.469379725
 20
39.4264926877
 30
0.0
 10
91.4747692301
 20
39.2514148947
 30
0.0
 10
91.4776102925
 20
39.1631849467
 30
0.0
  0
SPLINE
  5
2E6
100
AcDbEntity
  8
0
100
AcDbSpline
 62
7
  6
CONTINUOUS
 70
0
 71
3
 72
10
 73
6
 74
0
 42
0.0000001
 43
0.0000001
 44
0.0000000001
 40
0.0
 40
0.0
 40
0.0
 40
0.0
 40
0.4405235701
 40
0.7662046506
 40
1.0
 40
1.0
 40
1.0
 40
1.0
 10
91.7619135276
 20
38.4803545213
 30
0.0
 10
91.7649344398
 20
38.4730010012
 30
0.0
 10
91.7708435971
 20
38.4604303569
 30
0.0
 10
91.7811792076
 20
38.4455432684
 30
0.0
 10
91.7898559088
 20
38.4394379341
 30
0.0
 10
91.7939395496
 20
38.4383771912
 30
0.0
  0
SPLINE
  5
2E7
100
AcDbEntity
  8
0
100
AcDbSpline
 62
7
  6
CONTINUOUS
 70
0
 71
3
 72
10
 73
6
 74
0
 42
0.0000001
 43
0.0000001
 44
0.0000000001
 40
0.0
 40
0.0
 40
0.0
 40
0.0
 40
0.3379072497
 40
0.6684392146
 40
1.0
 40
1.0
 40
1.0
 40
1.0
 10
91.7962293588
 20
38.43795598
 30
0.0
 10
91.8081163069
 20
38.4382362982
 30
0.0
 10
91.8315384275
 20
38.4411567054
 30
0.0
 10
91.8668348106
 20
38.4386524629
 30
0.0
 10
91.8899408657
 20
38.4424506358
 30
0.0
 10
91.9015665349
 20
38.4434310254
 30
0.0
  0
SPLINE
  5
2E8
100
AcDbEntity
  8
0
100
AcDbSpline
 62
7
  6
CONTINUOUS
 70
0
 71
3
 72
10
 73
6
 74
0
 42
0.0000001
 43
0.0000001
 44
0.0000000001
 40
0.0
 40
0.0
 40
0.0
 40
0.0
 40
0.3315607833
 40
0.6620927493
 40
1.0
 40
1.0
 40
1.0
 40
1.0
 10
91.9015665345
 20
41.9241301966
 30
0.0
 10
91.8899408654
 20
41.9251105862
 30
0.0
 10
91.8668348104
 20
41.928908759
 30
0.0
 10
91.8315384274
 20
41.9264045165
 30
0.0
 10
91.8081163068
 20
41.9293249237
 30
0.0
 10
91.7962293588
 20
41.9296052419
 30
0.0
  0
SPLINE
  5
2E9
100
AcDbEntity
  8
0
100
AcDbSpline
 62
7
  6
CONTINUOUS
 70
0
 71
3
 72
17
 73
13
 74
0
 42
0.0000001
 43
0.0000001
 44
0.0000000001
 40
0.0
 40
0.0
 40
0.0
 40
0.0
 40
0.0441775868
 40
0.1196168535
 40
0.2232357555
 40
0.3470039751
 40
0.4794153442
 40
0.6059496604
 40
0.7196363155
 40
0.821446045
 40
0.9145410734
 40
1.0
 40
1.0
 40
1.0
 40
1.0
 10
91.7756434878
 20
38.4599213937
 30
0.0
 10
91.7701616846
 20
38.4698936576
 30
0.0
 10
91.7541737634
 20
38.4962496183
 30
0.0
 10
91.7237388285
 20
38.545028196
 30
0.0
 10
91.6828324679
 20
38.6114530833
 30
0.0
 10
91.6359959726
 20
38.6914410828
 30
0.0
 10
91.5891707612
 20
38.7782254492
 30
0.0
 10
91.5476336246
 20
38.8648115466
 30
0.0
 10
91.5144229941
 20
38.9464859801
 30
0.0
 10
91.4904121666
 20
39.0223924184
 30
0.0
 10
91.4764433768
 20
39.0934232378
 30
0.0
 10
91.4749135833
 20
39.139755449
 30
0.0
 10
91.4768430026
 20
39.1616839716
 30
0.0
  0
SPLINE
  5
2EA
100
AcDbEntity
  8
0
100
AcDbSpline
 62
7
  6
CONTINUOUS
 70
0
 71
3
 72
10
 73
6
 74
0
 42
0.0000001
 43
0.0000001
 44
0.0000000001
 40
0.0
 40
0.0
 40
0.0
 40
0.0
 40
0.2596894905
 40
0.5864681347
 40
1.0
 40
1.0
 40
1.0
 40
1.0
 10
91.7983269417
 20
38.4372522824
 30
0.0
 10
91.7955795237
 20
38.4379585745
 30
0.0
 10
91.7897879883
 20
38.4411287183
 30
0.0
 10
91.7822531959
 20
38.4491527767
 30
0.0
 10
91.7778681548
 20
38.4559899108
 30
0.0
 10
91.7756434878
 20
38.4599213937
 30
0.0
  0
SPLINE
  5
2EB
100
AcDbEntity
  8
0
100
AcDbSpline
 62
7
  6
CONTINUOUS
 70
0
 71
3
 72
11
 73
7
 74
0
 42
0.0000001
 43
0.0000001
 44
0.0000000001
 40
0.0
 40
0.0
 40
0.0
 40
0.0
 40
0.2708368263
 40
0.5140906487
 40
0.7407642851
 40
1.0
 40
1.0
 40
1.0
 40
1.0
 10
92.2541829707
 20
40.2429730738
 30
0.0
 10
92.254977387
 20
40.2376486674
 30
0.0
 10
92.2564694805
 20
40.2275399097
 30
0.0
 10
92.2585003357
 20
40.2129555907
 30
0.0
 10
92.2603789074
 20
40.1985875091
 30
0.0
 10
92.2610906732
 20
40.1889333638
 30
0.0
 10
92.2610906732
 20
40.183780611
 30
0.0
  0
SPLINE
  5
2EC
100
AcDbEntity
  8
0
100
AcDbSpline
 62
7
  6
CONTINUOUS
 70
0
 71
3
 72
11
 73
7
 74
0
 42
0.0000001
 43
0.0000001
 44
0.0000000001
 40
0.0
 40
0.0
 40
0.0
 40
0.0
 40
0.260126354
 40
0.5048806742
 40
0.738667322
 40
1.0
 40
1.0
 40
1.0
 40
1.0
 10
92.2541829707
 20
40.1245988008
 30
0.0
 10
92.2549456299
 20
40.1297116283
 30
0.0
 10
92.256410233
 20
40.1396371717
 30
0.0
 10
92.2584531873
 20
40.1541751821
 30
0.0
 10
92.2603133545
 20
40.1687558909
 30
0.0
 10
92.2610906732
 20
40.1785872423
 30
0.0
 10
92.2610906732
 20
40.183780611
 30
0.0
  0
SPLINE
  5
2ED
100
AcDbEntity
  8
0
100
AcDbSpline
 62
7
  6
CONTINUOUS
 70
0
 71
3
 72
11
 73
7
 74
0
 42
0.0000001
 43
0.0000001
 44
0.0000000001
 40
0.0
 40
0.0
 40
0.0
 40
0.0
 40
0.2596534056
 40
0.4864066119
 40
0.7295476504
 40
1.0
 40
1.0
 40
1.0
 40
1.0
 10
92.2610906732
 20
40.183780611
 30
0.0
 10
92.2610906732
 20
40.1889416638
 30
0.0
 10
92.2603769659
 20
40.1986056399
 30
0.0
 10
92.2584968263
 20
40.2129811858
 30
0.0
 10
92.2564669393
 20
40.227557257
 30
0.0
 10
92.2549762588
 20
40.2376562259
 30
0.0
 10
92.2541829707
 20
40.2429730714
 30
0.0
  0
SPLINE
  5
2EE
100
AcDbEntity
  8
0
100
AcDbSpline
 62
7
  6
CONTINUOUS
 70
0
 71
3
 72
10
 73
6
 74
0
 42
0.0000001
 43
0.0000001
 44
0.0000000001
 40
0.0
 40
0.0
 40
0.0
 40
0.0
 40
0.4135318604
 40
0.7403105057
 40
1.0
 40
1.0
 40
1.0
 40
1.0
 10
91.7756434878
 20
41.9076398282
 30
0.0
 10
91.7778681548
 20
41.9115713111
 30
0.0
 10
91.7822531958
 20
41.9184084452
 30
0.0
 10
91.7897879882
 20
41.9264325036
 30
0.0
 10
91.7955795237
 20
41.9296026474
 30
0.0
 10
91.7983269417
 20
41.9303089396
 30
0.0
  0
SPLINE
  5
2EF
100
AcDbEntity
  8
0
100
AcDbSpline
 62
7
  6
CONTINUOUS
 70
0
 71
3
 72
17
 73
13
 74
0
 42
0.0000001
 43
0.0000001
 44
0.0000000001
 40
0.0
 40
0.0
 40
0.0
 40
0.0
 40
0.0857805188
 40
0.1789119743
 40
0.2804778362
 40
0.393660281
 40
0.5194493517
 40
0.6517168965
 40
0.7758805415
 40
0.8800502228
 40
0.9557869532
 40
1.0
 40
1.0
 40
1.0
 40
1.0
 10
91.4768407656
 20
41.20587701
 30
0.0
 10
91.474904063
 20
41.2278880494
 30
0.0
 10
91.4764602983
 20
41.274314758
 30
0.0
 10
91.4904682471
 20
41.3453663998
 30
0.0
 10
91.5144379031
 20
41.4210926635
 30
0.0
 10
91.5474941142
 20
41.5024136763
 30
0.0
 10
91.5888456428
 20
41.588690153
 30
0.0
 10
91.6355772949
 20
41.6753806242
 30
0.0
 10
91.6824984351
 20
41.7555587832
 30
0.0
 10
91.7235676246
 20
41.822259722
 30
0.0
 10
91.7541242501
 20
41.871230614
 30
0.0
 10
91.7701572847
 20
41.8976595603
 30
0.0
 10
91.7756434878
 20
41.9076398282
 30
0.0
  0
SPLINE
  5
2F0
100
AcDbEntity
  8
0
100
AcDbSpline
 62
7
  6
CONTINUOUS
 70
0
 71
3
 72
11
 73
7
 74
0
 42
0.0000001
 43
0.0000001
 44
0.0000000001
 40
0.0
 40
0.0
 40
0.0
 40
0.0
 40
0.2331354156
 40
0.4843282233
 40
0.7390727556
 40
1.0
 40
1.0
 40
1.0
 40
1.0
 10
91.4552906238
 20
40.183780611
 30
0.0
 10
91.4552906238
 20
40.2632305176
 30
0.0
 10
91.4565308931
 20
40.4282850769
 30
0.0
 10
91.4613041743
 20
40.6801111481
 30
0.0
 10
91.4684069236
 20
40.9413551263
 30
0.0
 10
91.4739665832
 20
41.1170024262
 30
0.0
 10
91.4768407656
 20
41.20587701
 30
0.0
  0
SPLINE
  5
2F1
100
AcDbEntity
  8
0
100
AcDbSpline
 62
7
  6
CONTINUOUS
 70
0
 71
3
 72
11
 73
7
 74
0
 42
0.0000001
 43
0.0000001
 44
0.0000000001
 40
0.0
 40
0.0
 40
0.0
 40
0.0
 40
0.2611542378
 40
0.5159842765
 40
0.7670919495
 40
1.0
 40
1.0
 40
1.0
 40
1.0
 10
91.4768430026
 20
39.1616839716
 30
0.0
 10
91.4739663572
 20
39.2506359001
 30
0.0
 10
91.4683998829
 20
39.4263895927
 30
0.0
 10
91.4612993035
 20
39.6877112253
 30
0.0
 10
91.4565280187
 20
39.9394600397
 30
0.0
 10
91.4552906238
 20
40.1044081636
 30
0.0
 10
91.4552906238
 20
40.183780611
 30
0.0
  0
SPLINE
  5
2F2
100
AcDbEntity
  8
0
100
AcDbSpline
 62
7
  6
CONTINUOUS
 70
0
 71
3
 72
10
 73
6
 74
0
 42
0.0000001
 43
0.0000001
 44
0.0000000001
 40
0.0
 40
0.0
 40
0.0
 40
0.0
 40
0.331857915
 40
0.6624353098
 40
1.0
 40
1.0
 40
1.0
 40
1.0
 10
91.9051816974
 20
38.4427235059
 30
0.0
 10
91.8936345771
 20
38.441703502
 30
0.0
 10
91.8707139605
 20
38.4376520217
 30
0.0
 10
91.8356566602
 20
38.4403514643
 30
0.0
 10
91.8124378166
 20
38.4371597771
 30
0.0
 10
91.8006510695
 20
38.4368276385
 30
0.0
  0
SPLINE
  5
2F3
100
AcDbEntity
  8
0
100
AcDbSpline
 62
7
  6
CONTINUOUS
 70
0
 71
3
 72
10
 73
6
 74
0
 42
0.0000001
 43
0.0000001
 44
0.0000000001
 40
0.0
 40
0.0
 40
0.0
 40
0.0
 40
0.3375646896
 40
0.6681420832
 40
1.0
 40
1.0
 40
1.0
 40
1.0
 10
91.8006510695
 20
41.9307335834
 30
0.0
 10
91.8124378166
 20
41.9304014448
 30
0.0
 10
91.8356566602
 20
41.9272097576
 30
0.0
 10
91.8707139607
 20
41.9299092002
 30
0.0
 10
91.8936345774
 20
41.9258577199
 30
0.0
 10
91.9051816977
 20
41.924837716
 30
0.0
  0
SPLINE
  5
2F4
100
AcDbEntity
  8
0
100
AcDbSpline
 62
7
  6
CONTINUOUS
 70
0
 71
3
 72
10
 73
6
 74
0
 42
0.0000001
 43
0.0000001
 44
0.0000000001
 40
0.0
 40
0.0
 40
0.0
 40
0.0
 40
0.3696532752
 40
0.7069785784
 40
1.0
 40
1.0
 40
1.0
 40
1.0
 10
91.9051816977
 20
41.924837716
 30
0.0
 10
91.9056639797
 20
41.7653381977
 30
0.0
 10
91.9079537028
 20
41.4602918263
 30
0.0
 10
91.9060765998
 20
41.028801038
 30
0.0
 10
91.9086513031
 20
40.756822169
 30
0.0
 10
91.9089620495
 20
40.6303878825
 30
0.0
  0
SPLINE
  5
2F5
100
AcDbEntity
  8
0
100
AcDbSpline
 62
7
  6
CONTINUOUS
 70
0
 71
3
 72
10
 73
6
 74
0
 42
0.0000001
 43
0.0000001
 44
0.0000000001
 40
0.0
 40
0.0
 40
0.0
 40
0.0
 40
0.2932378143
 40
0.6305661322
 40
1.0
 40
1.0
 40
1.0
 40
1.0
 10
91.9089620497
 20
39.7371733393
 30
0.0
 10
91.9086510738
 20
39.6106456828
 30
0.0
 10
91.9060781088
 20
39.3385721312
 30
0.0
 10
91.9079545553
 20
38.9070813476
 30
0.0
 10
91.9056636931
 20
38.6021283531
 30
0.0
 10
91.9051816974
 20
38.4427235059
 30
0.0
  0
LINE
  5
2F6
100
AcDbEntity
  8
0
100
AcDbLine
 62
7
  6
CONTINUOUS
 10
91.9089620495
 20
40.6303878825
 11
91.91987296
 21
40.6397915561
  0
SPLINE
  5
2F7
100
AcDbEntity
  8
0
100
AcDbSpline
 62
7
  6
CONTINUOUS
 70
0
 71
3
 72
10
 73
6
 74
0
 42
0.0000001
 43
0.0000001
 44
0.0000000001
 40
0.0
 40
0.0
 40
0.0
 40
0.0
 40
0.4587881639
 40
0.8245512782
 40
1.0
 40
1.0
 40
1.0
 40
1.0
 10
91.9543519256
 20
39.4810461004
 30
0.0
 10
91.9544996955
 20
39.5194450733
 30
0.0
 10
91.9528344305
 20
39.5901271857
 30
0.0
 10
91.9394430277
 20
39.6682109972
 30
0.0
 10
91.9318047943
 20
39.7192100332
 30
0.0
 10
91.9198729545
 20
39.7277696705
 30
0.0
  0
SPLINE
  5
2F8
100
AcDbEntity
  8
0
100
AcDbSpline
 62
7
  6
CONTINUOUS
 70
0
 71
3
 72
10
 73
6
 74
0
 42
0.0000001
 43
0.0000001
 44
0.0000000001
 40
0.0
 40
0.0
 40
0.0
 40
0.0
 40
0.3570915203
 40
0.6889464549
 40
1.0
 40
1.0
 40
1.0
 40
1.0
 10
92.2473167019
 20
38.6841337589
 30
0.0
 10
92.2176809902
 20
38.6508267601
 30
0.0
 10
92.1572545762
 20
38.5893115016
 30
0.0
 10
92.0593127047
 20
38.5113574537
 30
0.0
 10
91.9895306706
 20
38.4708664133
 30
0.0
 10
91.9543519256
 20
38.454416037
 30
0.0
  0
SPLINE
  5
2F9
100
AcDbEntity
  8
0
100
AcDbSpline
 62
7
  6
CONTINUOUS
 70
0
 71
3
 72
10
 73
6
 74
0
 42
0.0000001
 43
0.0000001
 44
0.0000000001
 40
0.0
 40
0.0
 40
0.0
 40
0.0
 40
0.3473303034
 40
0.6804285929
 40
1.0
 40
1.0
 40
1.0
 40
1.0
 10
92.4154541267
 20
38.9115552857
 30
0.0
 10
92.3980917153
 20
38.8837522086
 30
0.0
 10
92.3627778596
 20
38.8300799162
 30
0.0
 10
92.3067742213
 20
38.7540651881
 30
0.0
 10
92.2673645949
 20
38.7066651896
 30
0.0
 10
92.2473167019
 20
38.6841337589
 30
0.0
  0
SPLINE
  5
2FA
100
AcDbEntity
  8
0
100
AcDbSpline
 62
7
  6
CONTINUOUS
 70
0
 71
3
 72
10
 73
6
 74
0
 42
0.0000001
 43
0.0000001
 44
0.0000000001
 40
0.0
 40
0.0
 40
0.0
 40
0.0
 40
0.3195709022
 40
0.6526694401
 40
1.0
 40
1.0
 40
1.0
 40
1.0
 10
92.2473166505
 20
41.6834273897
 30
0.0
 10
92.2673645124
 20
41.6608959984
 30
0.0
 10
92.3067742175
 20
41.6134961037
 30
0.0
 10
92.3627778125
 20
41.5374813494
 30
0.0
 10
92.3980917039
 20
41.4838090315
 30
0.0
 10
92.4154541267
 20
41.4560059362
 30
0.0
  0
SPLINE
  5
2FB
100
AcDbEntity
  8
0
100
AcDbSpline
 62
7
  6
CONTINUOUS
 70
0
 71
3
 72
10
 73
6
 74
0
 42
0.0000001
 43
0.0000001
 44
0.0000000001
 40
0.0
 40
0.0
 40
0.0
 40
0.0
 40
0.3110439468
 40
0.6429053543
 40
1.0
 40
1.0
 40
1.0
 40
1.0
 10
91.9543519256
 20
41.9131451849
 30
0.0
 10
91.9895295866
 20
41.8966953155
 30
0.0
 10
92.0593113574
 20
41.8562046518
 30
0.0
 10
92.1572534852
 20
41.7782508674
 30
0.0
 10
92.2176806748
 20
41.7167346786
 30
0.0
 10
92.2473166505
 20
41.6834273897
 30
0.0
  0
SPLINE
  5
2FC
100
AcDbEntity
  8
0
100
AcDbSpline
 62
7
  6
CONTINUOUS
 70
0
 71
3
 72
10
 73
6
 74
0
 42
0.0000001
 43
0.0000001
 44
0.0000000001
 40
0.0
 40
0.0
 40
0.0
 40
0.0
 40
0.1752122589
 40
0.5410923356
 40
1.0
 40
1.0
 40
1.0
 40
1.0
 10
91.91987296
 20
40.6397915561
 30
0.0
 10
91.9317886967
 20
40.6483396414
 30
0.0
 10
91.9394416038
 20
40.6993185239
 30
0.0
 10
91.9528316344
 20
40.7774035326
 30
0.0
 10
91.9544997337
 20
40.8481052214
 30
0.0
 10
91.9543519256
 20
40.8865141255
 30
0.0
  0
SPLINE
  5
2FD
100
AcDbEntity
  8
0
100
AcDbSpline
 62
7
  6
CONTINUOUS
 70
0
 71
3
 72
67
 73
63
 74
0
 42
0.0000001
 43
0.0000001
 44
0.0000000001
 40
0.0
 40
0.0
 40
0.0
 40
0.0
 40
0.0751745794
 40
0.1447012407
 40
0.2090124966
 40
0.2685069503
 40
0.3235487377
 40
0.3744910569
 40
0.4216583151
 40
0.4652992513
 40
0.5056812236
 40
0.5430507332
 40
0.5776352673
 40
0.6096448146
 40
0.6392732481
 40
0.6666995993
 40
0.6920892231
 40
0.7155948681
 40
0.7373576595
 40
0.7575080034
 40
0.776166418
 40
0.7934442988
 40
0.8094446183
 40
0.82426258
 40
0.8379862098
 40
0.8506969068
 40
0.8624699516
 40
0.8733749719
 40
0.8834763729
 40
0.8928337345
 40
0.901502177
 40
0.9095326999
 40
0.9169724942
 40
0.9238652298
 40
0.9302513154
 40
0.9361680042
 40
0.9416495904
 40
0.9467278342
 40
0.9514321791
 40
0.9557898838
 40
0.9598265847
 40
0.9635654298
 40
0.9670280317
 40
0.9702345319
 40
0.9732035923
 40
0.9759525073
 40
0.9784972973
 40
0.9808527961
 40
0.983032742
 40
0.9850498499
 40
0.9869158792
 40
0.9886416973
 40
0.9902373382
 40
0.9917120464
 40
0.9930742997
 40
0.994331907
 40
0.9954913026
 40
0.9965589997
 40
0.9975418383
 40
0.9984444723
 40
0.9992661404
 40
1.0
 40
1.0
 40
1.0
 40
1.0
 10
65.2871438433
 20
40.2930270236
 30
0.0
 10
65.7575251655
 20
40.2967790633
 30
0.0
 10
66.66294575
 20
40.3042534876
 30
0.0
 10
67.9707663397
 20
40.3158200061
 30
0.0
 10
69.1804675541
 20
40.327243873
 30
0.0
 10
70.2995287038
 20
40.3384959406
 30
0.0
 10
71.334932791
 20
40.3495536638
 30
0.0
 10
72.2931985265
 20
40.3604003715
 30
0.0
 10
73.1801225408
 20
40.3710212396
 30
0.0
 10
74.0009643289
 20
40.3814036069
 30
0.0
 10
74.7604959036
 20
40.391536279
 30
0.0
 10
75.4633562672
 20
40.4014136403
 30
0.0
 10
76.1138254321
 20
40.4110321898
 30
0.0
 10
76.7158540867
 20
40.4203902299
 30
0.0
 10
77.2730897051
 20
40.4294875873
 30
0.0
 10
77.7889004623
 20
40.438325374
 30
0.0
 10
78.2663971934
 20
40.4469057822
 30
0.0
 10
78.708453533
 20
40.4552319076
 30
0.0
 10
79.1177244181
 20
40.4633075982
 30
0.0
 10
79.496663102
 20
40.4711373245
 30
0.0
 10
79.8475367988
 20
40.4787260674
 30
0.0
 10
80.1724410546
 20
40.4860792229
 30
0.0
 10
80.4733130022
 20
40.4932025204
 30
0.0
 10
80.7519435366
 20
40.5001019522
 30
0.0
 10
81.0099885519
 20
40.5067837144
 30
0.0
 10
81.2489792701
 20
40.5132541564
 30
0.0
 10
81.4703317796
 20
40.5195197386
 30
0.0
 10
81.6753558244
 20
40.5255869971
 30
0.0
 10
81.8652628944
 20
40.5314625148
 30
0.0
 10
82.041173694
 20
40.537152897
 30
0.0
 10
82.2041250324
 20
40.5426647536
 30
0.0
 10
82.3550761879
 20
40.5480046851
 30
0.0
 10
82.4949147768
 20
40.5531792726
 30
0.0
 10
82.6244621332
 20
40.5581950714
 30
0.0
 10
82.7444773943
 20
40.5630585712
 30
0.0
 10
82.8556610174
 20
40.5677761419
 30
0.0
 10
82.9586593282
 20
40.5723540283
 30
0.0
 10
83.0540697675
 20
40.5767983982
 30
0.0
 10
83.1424457312
 20
40.5811154072
 30
0.0
 10
83.2243022702
 20
40.5853113382
 30
0.0
 10
83.3001150142
 20
40.5893924348
 30
0.0
 10
83.3703242299
 20
40.5933649813
 30
0.0
 10
83.435335764
 20
40.5972352226
 30
0.0
 10
83.4955273416
 20
40.6010096348
 30
0.0
 10
83.5512496047
 20
40.6046949303
 30
0.0
 10
83.6028273346
 20
40.6082980849
 30
0.0
 10
83.6505612654
 20
40.6118264263
 30
0.0
 10
83.6947297603
 20
40.615287752
 30
0.0
 10
83.7355903456
 20
40.6186904854
 30
0.0
 10
83.7733811035
 20
40.6220438953
 30
0.0
 10
83.8083218883
 20
40.6253583712
 30
0.0
 10
83.8406153736
 20
40.6286459022
 30
0.0
 10
83.870448045
 20
40.6319205007
 30
0.0
 10
83.897990368
 20
40.6351997587
 30
0.0
 10
83.9233985974
 20
40.6385042494
 30
0.0
 10
83.9468064471
 20
40.6418664056
 30
0.0
 10
83.9683421154
 20
40.6453121924
 30
0.0
 10
83.9880880984
 20
40.6489472138
 30
0.0
 10
84.0062127077
 20
40.6527221336
 30
0.0
 10
84.0224448611
 20
40.6573049888
 30
0.0
 10
84.0375120393
 20
40.6614854966
 30
0.0
 10
84.0448030085
 20
40.6686373224
 30
0.0
 10
84.0473153761
 20
40.6724811301
 30
0.0
  0
LINE
  5
2FE
100
AcDbEntity
  8
0
100
AcDbLine
 62
7
  6
CONTINUOUS
 10
40.0473149341
 20
107.227873561
 11
40.0555838956
 21
107.2279457231
  0
LINE
  5
2FF
100
AcDbEntity
  8
0
100
AcDbLine
 62
7
  6
CONTINUOUS
 10
40.0555838956
 20
92.218780611
 11
40.0473149341
 21
92.218780611
  0
SPLINE
  5
300
100
AcDbEntity
  8
0
100
AcDbSpline
 62
7
  6
CONTINUOUS
 70
0
 71
3
 72
81
 73
77
 74
0
 42
0.0000001
 43
0.0000001
 44
0.0000000001
 40
0.0
 40
0.0
 40
0.0
 40
0.0
 40
0.0005530506
 40
0.0010255797
 40
0.0015391971
 40
0.0022138279
 40
0.0030691641
 40
0.0041194794
 40
0.0051492056
 40
0.0056049786
 40
0.0060953112
 40
0.0066246204
 40
0.0071975806
 40
0.0078196786
 40
0.0084970399
 40
0.0092364229
 40
0.0100449202
 40
0.0109306544
 40
0.0119027275
 40
0.0129709647
 40
0.0141458833
 40
0.0154395874
 40
0.0168651712
 40
0.0184365682
 40
0.0201697659
 40
0.0220816324
 40
0.0241908643
 40
0.0265180201
 40
0.0290850356
 40
0.0319164393
 40
0.0350382304
 40
0.0384792173
 40
0.0422702875
 40
0.0451530124
 40
0.047150768
 40
0.0493249112
 40
0.0517102252
 40
0.0543449639
 40
0.0572711572
 40
0.060534661
 40
0.0641866059
 40
0.0682832766
 40
0.0728873767
 40
0.0780684506
 40
0.0839042645
 40
0.0904811986
 40
0.097895747
 40
0.1062551523
 40
0.1156787542
 40
0.126299271
 40
0.1382637846
 40
0.1517347116
 40
0.1655731081
 40
0.1757858709
 40
0.1871428824
 40
0.199838956
 40
0.2140905268
 40
0.2301385275
 40
0.248250808
 40
0.26872497
 40
0.2918921796
 40
0.3181196421
 40
0.3478125197
 40
0.375732499
 40
0.4032396784
 40
0.4342758281
 40
0.4694266971
 40
0.5093382076
 40
0.5547192515
 40
0.6063460115
 40
0.658289573
 40
0.7116537368
 40
0.7717608067
 40
0.8393451653
 40
0.9151680312
 40
1.0
 40
1.0
 40
1.0
 40
1.0
 10
84.0473153761
 20
40.6724805588
 30
0.0
 10
84.0453505254
 20
40.6695049753
 30
0.0
 10
84.0410742066
 20
40.6640434992
 30
0.0
 10
84.031482446
 20
40.6607339702
 30
0.0
 10
84.0214113056
 20
40.6572802226
 30
0.0
 10
84.0086080436
 20
40.6540195683
 30
0.0
 10
83.9923615978
 20
40.6504823837
 30
0.0
 10
83.9737374317
 20
40.6470773929
 30
0.0
 10
83.9575955404
 20
40.6444820537
 30
0.0
 10
83.9449956036
 20
40.6426028748
 30
0.0
 10
83.9355781969
 20
40.6412596375
 30
0.0
 10
83.925404178
 20
40.6398713122
 30
0.0
 10
83.9143801022
 20
40.6384303819
 30
0.0
 10
83.9024011695
 20
40.6369309543
 30
0.0
 10
83.889349184
 20
40.6353664687
 30
0.0
 10
83.8750954799
 20
40.6337310512
 30
0.0
 10
83.8594986878
 20
40.6320170095
 30
0.0
 10
83.8424021031
 20
40.6302181787
 30
0.0
 10
83.8236313729
 20
40.6283283749
 30
0.0
 10
83.8029967129
 20
40.6263411758
 30
0.0
 10
83.780289078
 20
40.6242487992
 30
0.0
 10
83.7552781044
 20
40.6220457289
 30
0.0
 10
83.7277114786
 20
40.6197255609
 30
0.0
 10
83.6973119639
 20
40.6172801564
 30
0.0
 10
83.6637777076
 20
40.6147047667
 30
0.0
 10
83.6267763857
 20
40.6119914258
 30
0.0
 10
83.5859460611
 20
40.6091338334
 30
0.0
 10
83.5408921001
 20
40.6061260566
 30
0.0
 10
83.4911823894
 20
40.6029601322
 30
0.0
 10
83.4363495445
 20
40.5996311336
 30
0.0
 10
83.3758820607
 20
40.5961309392
 30
0.0
 10
83.3092272657
 20
40.5924543038
 30
0.0
 10
83.244102419
 20
40.5890312993
 30
0.0
 10
83.1882639849
 20
40.5862128979
 30
0.0
 10
83.1428342742
 20
40.5839825689
 30
0.0
 10
83.1006054583
 20
40.5819565765
 30
0.0
 10
83.0542719694
 20
40.579785783
 30
0.0
 10
83.0030922364
 20
40.5774473166
 30
0.0
 10
82.9462532325
 20
40.5749185951
 30
0.0
 10
82.8828589224
 20
40.5721755777
 30
0.0
 10
82.8119212189
 20
40.5691963093
 30
0.0
 10
82.732343435
 20
40.5659570505
 30
0.0
 10
82.6429100411
 20
40.5624357409
 30
0.0
 10
82.5422670124
 20
40.5586090161
 30
0.0
 10
82.4289075552
 20
40.5544553246
 30
0.0
 10
82.3011511275
 20
40.5499518826
 30
0.0
 10
82.1571270503
 20
40.5450773852
 30
0.0
 10
81.994752115
 20
40.5398105957
 30
0.0
 10
81.8117095198
 20
40.5341308106
 30
0.0
 10
81.6054255615
 20
40.5280183032
 30
0.0
 10
81.3730487703
 20
40.5214542968
 30
0.0
 10
81.1199235831
 20
40.5146494104
 30
0.0
 10
80.8780805748
 20
40.5084568479
 30
0.0
 10
80.649856847
 20
40.5028394418
 30
0.0
 10
80.428991612
 20
40.4975832392
 30
0.0
 10
80.1820888983
 20
40.4919121902
 30
0.0
 10
79.9049439051
 20
40.4857806516
 30
0.0
 10
79.5928808425
 20
40.4791450131
 30
0.0
 10
79.2407005185
 20
40.4719639078
 30
0.0
 10
78.8426218848
 20
40.464198687
 30
0.0
 10
78.3922232108
 20
40.4558147933
 30
0.0
 10
77.8823891925
 20
40.4467824524
 30
0.0
 10
77.3419082951
 20
40.4376926258
 30
0.0
 10
76.7931703109
 20
40.4289120729
 30
0.0
 10
76.2357665949
 20
40.4203862173
 30
0.0
 10
75.6317413464
 20
40.4115547497
 30
0.0
 10
74.9477414677
 20
40.4020246352
 30
0.0
 10
74.1712549983
 20
40.3917508699
 30
0.0
 10
73.2885420479
 20
40.380700057
 30
0.0
 10
72.3282505474
 20
40.3693714864
 30
0.0
 10
71.3164838527
 20
40.3581280169
 30
0.0
 10
70.2500368804
 20
40.3469423583
 30
0.0
 10
69.0827447787
 20
40.3354083092
 30
0.0
 10
67.7706503564
 20
40.3232541423
 30
0.0
 10
66.2991418409
 20
40.3105243617
 30
0.0
 10
65.2633588863
 20
40.3022532931
 30
0.0
 10
64.7164244887
 20
40.2980076159
 30
0.0
  0
SPLINE
  5
301
100
AcDbEntity
  8
0
100
AcDbSpline
 62
7
  6
CONTINUOUS
 70
0
 71
3
 72
64
 73
60
 74
0
 42
0.0000001
 43
0.0000001
 44
0.0000000001
 40
0.0
 40
0.0
 40
0.0
 40
0.0
 40
0.0747388591
 40
0.1439247562
 40
0.207976365
 40
0.2672797419
 40
0.3221916262
 40
0.3730402012
 40
0.420134665
 40
0.4637725523
 40
0.50418568
 40
0.5416115638
 40
0.5762732744
 40
0.6083769939
 40
0.6381132968
 40
0.6656583658
 40
0.6911750933
 40
0.7148141112
 40
0.7367147249
 40
0.7570057815
 40
0.7758064695
 40
0.7932270535
 40
0.8093695528
 40
0.8243283687
 40
0.8381908589
 40
0.8510378679
 40
0.8629442268
 40
0.873979203
 40
0.8842069088
 40
0.893686712
 40
0.9024735614
 40
0.9106183468
 40
0.9181680235
 40
0.9251658462
 40
0.9316518752
 40
0.937663151
 40
0.9432350355
 40
0.9483991722
 40
0.9531842987
 40
0.9576179245
 40
0.961725543
 40
0.9655307751
 40
0.9690555226
 40
0.9723200787
 40
0.9753432469
 40
0.9781424486
 40
0.9807338131
 40
0.9831322648
 40
0.9853516049
 40
0.9874045806
 40
0.9893029464
 40
0.991057463
 40
0.9926781173
 40
0.994172522
 40
0.9955503164
 40
0.9968198472
 40
0.9979858578
 40
0.9990482853
 40
1.0
 40
1.0
 40
1.0
 40
1.0
 10
69.6664244783
 20
107.486355614
 30
0.0
 10
70.0249549847
 20
107.4828187663
 30
0.0
 10
70.7153759354
 20
107.4758137519
 30
0.0
 10
71.7130523882
 20
107.4650939799
 30
0.0
 10
72.6366775481
 20
107.4546029794
 30
0.0
 10
73.4918234972
 20
107.444351007
 30
0.0
 10
74.2836282001
 20
107.4343456186
 30
0.0
 10
75.0168608958
 20
107.4245916864
 30
0.0
 10
75.6960067806
 20
107.4150909154
 30
0.0
 10
76.3250887507
 20
107.4058448701
 30
0.0
 10
76.9077858145
 20
107.3968543185
 30
0.0
 10
77.4474197569
 20
107.3881203034
 30
0.0
 10
77.9471893626
 20
107.3796408251
 30
0.0
 10
78.4100682142
 20
107.3714127373
 30
0.0
 10
78.8388049501
 20
107.3634321781
 30
0.0
 10
79.2359405261
 20
107.3556946966
 30
0.0
 10
79.6038242726
 20
107.3481953583
 30
0.0
 10
79.9446286009
 20
107.340928837
 30
0.0
 10
80.2603625896
 20
107.3338894923
 30
0.0
 10
80.5528844657
 20
107.3270714374
 30
0.0
 10
80.8239131308
 20
107.3204685955
 30
0.0
 10
81.0750387781
 20
107.3140747483
 30
0.0
 10
81.3077326823
 20
107.3078835764
 30
0.0
 10
81.5233562179
 20
107.301888694
 30
0.0
 10
81.7231691701
 20
107.2960836774
 30
0.0
 10
81.9083374318
 20
107.2904620877
 30
0.0
 10
82.0799401028
 20
107.2850174887
 30
0.0
 10
82.238976004
 20
107.279743462
 30
0.0
 10
82.3863697645
 20
107.2746336158
 30
0.0
 10
82.5229773127
 20
107.2696815944
 30
0.0
 10
82.6495911321
 20
107.264881078
 30
0.0
 10
82.7669441486
 20
107.2602258163
 30
0.0
 10
82.8757131746
 20
107.2557096732
 30
0.0
 10
82.9765230569
 20
107.2513266358
 30
0.0
 10
83.0699510627
 20
107.247070796
 30
0.0
 10
83.1565365701
 20
107.2429360538
 30
0.0
 10
83.2367785569
 20
107.2389163279
 30
0.0
 10
83.3111361447
 20
107.235005663
 30
0.0
 10
83.3800307611
 20
107.2311982975
 30
0.0
 10
83.443854292
 20
107.2274883456
 30
0.0
 10
83.5029740245
 20
107.2238695602
 30
0.0
 10
83.5577302884
 20
107.220335514
 30
0.0
 10
83.6084383965
 20
107.2168795316
 30
0.0
 10
83.6553904646
 20
107.2134945986
 30
0.0
 10
83.6988570031
 20
107.2101732489
 30
0.0
 10
83.7390884043
 20
107.2069074137
 30
0.0
 10
83.7763162587
 20
107.2036882119
 30
0.0
 10
83.8107545422
 20
107.2005056841
 30
0.0
 10
83.8426006291
 20
107.1973483307
 30
0.0
 10
83.8720362653
 20
107.1942027069
 30
0.0
 10
83.8992276129
 20
107.1910519252
 30
0.0
 10
83.9243273377
 20
107.1878762471
 30
0.0
 10
83.947463586
 20
107.1846447675
 30
0.0
 10
83.9687655955
 20
107.1813324578
 30
0.0
 10
83.988317098
 20
107.1778362306
 30
0.0
 10
84.0062809078
 20
107.1742078947
 30
0.0
 10
84.0223979228
 20
107.1697908883
 30
0.0
 10
84.0373742706
 20
107.1657977735
 30
0.0
 10
84.0447294348
 20
107.1588434507
 30
0.0
 10
84.0473153761
 20
107.1550806668
 30
0.0
  0
SPLINE
  5
302
100
AcDbEntity
  8
0
100
AcDbSpline
 62
7
  6
CONTINUOUS
 70
0
 71
3
 72
12
 73
8
 74
0
 42
0.0000001
 43
0.0000001
 44
0.0000000001
 40
0.0
 40
0.0
 40
0.0
 40
0.0
 40
0.0579858199
 40
0.1993814824
 40
0.4169619931
 40
0.6918575001
 40
1.0
 40
1.0
 40
1.0
 40
1.0
 10
35.1289961098
 20
49.588780611
 30
0.0
 10
35.1231264002
 20
49.588780611
 30
0.0
 10
35.1160026044
 20
49.6156814683
 30
0.0
 10
35.1139885727
 20
49.6517781451
 30
0.0
 10
35.1140085982
 20
49.7190669438
 30
0.0
 10
35.1192494484
 20
49.7987738541
 30
0.0
 10
35.1252143163
 20
49.8578184853
 30
0.0
 10
35.1289961098
 20
49.888780611
 30
0.0
  0
SPLINE
  5
303
100
AcDbEntity
  8
0
100
AcDbSpline
 62
7
  6
CONTINUOUS
 70
0
 71
3
 72
12
 73
8
 74
0
 42
0.0000001
 43
0.0000001
 44
0.0000000001
 40
0.0
 40
0.0
 40
0.0
 40
0.0
 40
0.0579858199
 40
0.1993814824
 40
0.4169619931
 40
0.6918575001
 40
1.0
 40
1.0
 40
1.0
 40
1.0
 10
35.1289961098
 20
48.838780611
 30
0.0
 10
35.1231264002
 20
48.838780611
 30
0.0
 10
35.1160026044
 20
48.8118797537
 30
0.0
 10
35.1139885727
 20
48.7757830768
 30
0.0
 10
35.1140085982
 20
48.7084942782
 30
0.0
 10
35.1192494484
 20
48.6287873678
 30
0.0
 10
35.1252143163
 20
48.5697427367
 30
0.0
 10
35.1289961098
 20
48.538780611
 30
0.0
  0
SPLINE
  5
304
100
AcDbEntity
  8
0
100
AcDbSpline
 62
7
  6
CONTINUOUS
 70
0
 71
3
 72
12
 73
8
 74
0
 42
0.0000001
 43
0.0000001
 44
0.0000000001
 40
0.0
 40
0.0
 40
0.0
 40
0.0
 40
0.0579858199
 40
0.1993814824
 40
0.4169619931
 40
0.6918575001
 40
1.0
 40
1.0
 40
1.0
 40
1.0
 10
35.1289961098
 20
98.988780611
 30
0.0
 10
35.1231264002
 20
98.988780611
 30
0.0
 10
35.1160026044
 20
99.0156814683
 30
0.0
 10
35.1139885727
 20
99.0517781451
 30
0.0
 10
35.1140085982
 20
99.1190669438
 30
0.0
 10
35.1192494484
 20
99.1987738541
 30
0.0
 10
35.1252143163
 20
99.2578184853
 30
0.0
 10
35.1289961098
 20
99.288780611
 30
0.0
  0
SPLINE
  5
305
100
AcDbEntity
  8
0
100
AcDbSpline
 62
7
  6
CONTINUOUS
 70
0
 71
3
 72
12
 73
8
 74
0
 42
0.0000001
 43
0.0000001
 44
0.0000000001
 40
0.0
 40
0.0
 40
0.0
 40
0.0
 40
0.0579858199
 40
0.1993814824
 40
0.4169619931
 40
0.6918575001
 40
1.0
 40
1.0
 40
1.0
 40
1.0
 10
35.1289961098
 20
98.238780611
 30
0.0
 10
35.1231264002
 20
98.238780611
 30
0.0
 10
35.1160026044
 20
98.2118797537
 30
0.0
 10
35.1139885727
 20
98.1757830768
 30
0.0
 10
35.1140085982
 20
98.1084942782
 30
0.0
 10
35.1192494484
 20
98.0287873678
 30
0.0
 10
35.1252143163
 20
97.9697427367
 30
0.0
 10
35.1289961098
 20
97.938780611
 30
0.0
  0
SPLINE
  5
306
100
AcDbEntity
  8
0
100
AcDbSpline
 62
7
  6
CONTINUOUS
 70
0
 71
3
 72
63
 73
59
 74
0
 42
0.0000001
 43
0.0000001
 44
0.0000000001
 40
0.0
 40
0.0
 40
0.0
 40
0.0
 40
0.075431487
 40
0.1452093338
 40
0.209763713
 40
0.2694908584
 40
0.3247568298
 40
0.3758972703
 40
0.4232324312
 40
0.4670623286
 40
0.5076230539
 40
0.5451597794
 40
0.5799003098
 40
0.6120550181
 40
0.6418182194
 40
0.66936942
 40
0.694874472
 40
0.7184866285
 40
0.7403475243
 40
0.7605880687
 40
0.7793292717
 40
0.7966830056
 40
0.8127527057
 40
0.8276340163
 40
0.8414153844
 40
0.8541786086
 40
0.8659993511
 40
0.8769475971
 40
0.8870880836
 40
0.896480713
 40
0.9051808966
 40
0.9132397548
 40
0.9207042977
 40
0.9276180413
 40
0.9340213306
 40
0.9399514015
 40
0.9454439432
 40
0.9505302836
 40
0.95523968
 40
0.9595996989
 40
0.9636358857
 40
0.9673718982
 40
0.9708296508
 40
0.9740294294
 40
0.9769900142
 40
0.9797287858
 40
0.9822618144
 40
0.9846039478
 40
0.9867688911
 40
0.9887692695
 40
0.9906166631
 40
0.992321726
 40
0.9938933414
 40
0.9953403326
 40
0.996671876
 40
0.9978941449
 40
0.999006678
 40
1.0
 40
1.0
 40
1.0
 40
1.0
 10
70.1458469191
 20
107.4905394703
 30
0.0
 10
70.4956608194
 20
107.4869452641
 30
0.0
 10
71.169067783
 20
107.4798243492
 30
0.0
 10
72.141838315
 20
107.4689166561
 30
0.0
 10
73.0417738238
 20
107.4582366827
 30
0.0
 10
73.8744047971
 20
107.4477961094
 30
0.0
 10
74.6448233149
 20
107.4376036895
 30
0.0
 10
75.357769056
 20
107.4276650229
 30
0.0
 10
76.0176753879
 20
107.4179825742
 30
0.0
 10
76.6285139834
 20
107.4085585927
 30
0.0
 10
77.1939083169
 20
107.3993945539
 30
0.0
 10
77.717146968
 20
107.3904918302
 30
0.0
 10
78.2013992168
 20
107.3818484696
 30
0.0
 10
78.649598471
 20
107.3734614653
 30
0.0
 10
79.0644541352
 20
107.3653270295
 30
0.0
 10
79.448469129
 20
107.357440727
 30
0.0
 10
79.8039559299
 20
107.3497975918
 30
0.0
 10
80.1330513687
 20
107.3423922258
 30
0.0
 10
80.437730214
 20
107.3352188835
 30
0.0
 10
80.7198176905
 20
107.3282715451
 30
0.0
 10
80.9810009855
 20
107.3215439775
 30
0.0
 10
81.2228398615
 20
107.3150297868
 30
0.0
 10
81.4467764331
 20
107.3087224622
 30
0.0
 10
81.6541441661
 20
107.3026154127
 30
0.0
 10
81.8461761727
 20
107.2967019974
 30
0.0
 10
82.0240128841
 20
107.2909755498
 30
0.0
 10
82.1887091021
 20
107.2854293969
 30
0.0
 10
82.3412404897
 20
107.2800568745
 30
0.0
 10
82.48250961
 20
107.2748513368
 30
0.0
 10
82.6133514232
 20
107.2698061637
 30
0.0
 10
82.7345377266
 20
107.2649147907
 30
0.0
 10
82.8467805136
 20
107.2601707727
 30
0.0
 10
82.9507365952
 20
107.2555677895
 30
0.0
 10
83.0470127928
 20
107.2510996061
 30
0.0
 10
83.1361705774
 20
107.2467600233
 30
0.0
 10
83.2187350903
 20
107.2425425788
 30
0.0
 10
83.2951896286
 20
107.2384409168
 30
0.0
 10
83.3659804528
 20
107.2344486872
 30
0.0
 10
83.4315161229
 20
107.2305597538
 30
0.0
 10
83.4921783268
 20
107.2267676744
 30
0.0
 10
83.548322721
 20
107.2230656846
 30
0.0
 10
83.6002786736
 20
107.2194467569
 30
0.0
 10
83.6483510682
 20
107.2159035146
 30
0.0
 10
83.6928220484
 20
107.2124281117
 30
0.0
 10
83.7339525778
 20
107.2090120774
 30
0.0
 10
83.771983863
 20
107.2056460963
 30
0.0
 10
83.8071386073
 20
107.2023197312
 30
0.0
 10
83.8396220652
 20
107.1990209456
 30
0.0
 10
83.8696230615
 20
107.1957356793
 30
0.0
 10
83.8973141991
 20
107.1924462852
 30
0.0
 10
83.9228536461
 20
107.1891321433
 30
0.0
 10
83.9463772472
 20
107.1857606745
 30
0.0
 10
83.9680148699
 20
107.1823058753
 30
0.0
 10
83.9878498048
 20
107.1786618551
 30
0.0
 10
84.0060500151
 20
107.1748788646
 30
0.0
 10
84.0223459059
 20
107.1702865654
 30
0.0
 10
84.037467161
 20
107.1661009465
 30
0.0
 10
84.0447906124
 20
107.1589339743
 30
0.0
 10
84.0473153761
 20
107.1550806667
 30
0.0
  0
SPLINE
  5
307
100
AcDbEntity
  8
0
100
AcDbSpline
 62
7
  6
CONTINUOUS
 70
0
 71
3
 72
35
 73
31
 74
0
 42
0.0000001
 43
0.0000001
 44
0.0000000001
 40
0.0
 40
0.0
 40
0.0
 40
0.0
 40
0.0487860889
 40
0.0891617078
 40
0.1211859661
 40
0.1453526525
 40
0.1646626325
 40
0.1830098074
 40
0.2037837683
 40
0.2295981509
 40
0.2629097095
 40
0.3064109471
 40
0.3614896145
 40
0.422485526
 40
0.4823309955
 40
0.5386406825
 40
0.5918886729
 40
0.6416163037
 40
0.6877971432
 40
0.7304896272
 40
0.7698112754
 40
0.8059625575
 40
0.839085418
 40
0.8693532479
 40
0.8969661427
 40
0.9220626186
 40
0.9448482355
 40
0.9652279439
 40
0.983759367
 40
1.0
 40
1.0
 40
1.0
 40
1.0
 10
18.1473153761
 20
76.7777325037
 30
0.0
 10
18.1475508436
 20
76.7462769168
 30
0.0
 10
18.1482207067
 20
76.6887891131
 30
0.0
 10
18.1507181043
 20
76.6106802439
 30
0.0
 10
18.1556545446
 20
76.5485669352
 30
0.0
 10
18.1647249956
 20
76.5005603374
 30
0.0
 10
18.1804783223
 20
76.4634016937
 30
0.0
 10
18.2057405156
 20
76.4345996928
 30
0.0
 10
18.2415981069
 20
76.4122240167
 30
0.0
 10
18.2896042902
 20
76.3931718297
 30
0.0
 10
18.3533127886
 20
76.3750614132
 30
0.0
 10
18.436285965
 20
76.356337773
 30
0.0
 10
18.5372371553
 20
76.3364241978
 30
0.0
 10
18.6487136526
 20
76.3154646376
 30
0.0
 10
18.7609233752
 20
76.2941040837
 30
0.0
 10
18.8680428017
 20
76.2727324705
 30
0.0
 10
18.9684905519
 20
76.2513014508
 30
0.0
 10
19.0621949921
 20
76.2296230555
 30
0.0
 10
19.1488303035
 20
76.2076621893
 30
0.0
 10
19.2284314158
 20
76.1853532197
 30
0.0
 10
19.3011646494
 20
76.162615883
 30
0.0
 10
19.367227456
 20
76.1393546988
 30
0.0
 10
19.4268165147
 20
76.1154448409
 30
0.0
 10
19.4800718015
 20
76.0907285435
 30
0.0
 10
19.5270368214
 20
76.064996008
 30
0.0
 10
19.5676080373
 20
76.0379552297
 30
0.0
 10
19.6012440051
 20
76.0093582695
 30
0.0
 10
19.6271338925
 20
75.9788385025
 30
0.0
 10
19.6435316229
 20
75.9467976394
 30
0.0
 10
19.6473153761
 20
75.924252304
 30
0.0
 10
19.6473153761
 20
75.9137806107
 30
0.0
  0
SPLINE
  5
308
100
AcDbEntity
  8
0
100
AcDbSpline
 62
7
  6
CONTINUOUS
 70
0
 71
3
 72
23
 73
19
 74
0
 42
0.0000001
 43
0.0000001
 44
0.0000000001
 40
0.0
 40
0.0
 40
0.0
 40
0.0
 40
0.1258966423
 40
0.1842773169
 40
0.2292061243
 40
0.2933276256
 40
0.3719797163
 40
0.448229755
 40
0.5224464626
 40
0.5915175234
 40
0.6541593257
 40
0.7100687365
 40
0.7689654357
 40
0.8273290766
 40
0.8765034593
 40
0.9183420869
 40
0.9615680853
 40
1.0
 40
1.0
 40
1.0
 40
1.0
 10
18.1473153761
 20
71.0494289806
 30
0.0
 10
18.1479221163
 20
71.1304366506
 30
0.0
 10
18.1362286374
 20
71.2475080911
 30
0.0
 10
18.1927545062
 20
71.3979062258
 30
0.0
 10
18.2986376171
 20
71.4385961469
 30
0.0
 10
18.4141742362
 20
71.4672401568
 30
0.0
 10
18.5531807275
 20
71.494234667
 30
0.0
 10
18.6979217783
 20
71.5212750422
 30
0.0
 10
18.8366445759
 20
71.5482202814
 30
0.0
 10
18.9662559707
 20
71.5757623888
 30
0.0
 10
19.0838048741
 20
71.6033454574
 30
0.0
 10
19.1942686417
 20
71.6323003292
 30
0.0
 10
19.3010477016
 20
71.6642607652
 30
0.0
 10
19.4018920909
 20
71.7005818391
 30
0.0
 10
19.4894360887
 20
71.7405906383
 30
0.0
 10
19.5639242089
 20
71.7847620902
 30
0.0
 10
19.6245783401
 20
71.8371504757
 30
0.0
 10
19.6473153761
 20
71.8890510621
 30
0.0
 10
19.6473153761
 20
71.9137806111
 30
0.0
  0
SPLINE
  5
309
100
AcDbEntity
  8
0
100
AcDbSpline
 62
7
  6
CONTINUOUS
 70
0
 71
3
 72
10
 73
6
 74
0
 42
0.0000001
 43
0.0000001
 44
0.0000000001
 40
0.0
 40
0.0
 40
0.0
 40
0.0
 40
0.3699789126
 40
0.7073182424
 40
1.0
 40
1.0
 40
1.0
 40
1.0
 10
91.9015665349
 20
38.4434310254
 30
0.0
 10
91.9020531605
 20
38.6033217555
 30
0.0
 10
91.9043598429
 20
38.9089939355
 30
0.0
 10
91.9024692624
 20
39.3411624287
 30
0.0
 10
91.9050607369
 20
39.613427642
 30
0.0
 10
91.9053718494
 20
39.7399137024
 30
0.0
  0
SPLINE
  5
30A
100
AcDbEntity
  8
0
100
AcDbSpline
 62
7
  6
CONTINUOUS
 70
0
 71
3
 72
10
 73
6
 74
0
 42
0.0000001
 43
0.0000001
 44
0.0000000001
 40
0.0
 40
0.0
 40
0.0
 40
0.0
 40
0.2928989326
 40
0.6302412794
 40
1.0
 40
1.0
 40
1.0
 40
1.0
 10
91.9053718496
 20
40.6276475197
 30
0.0
 10
91.9050605062
 20
40.7542274348
 30
0.0
 10
91.9024708546
 20
41.0265878189
 30
0.0
 10
91.9043607592
 20
41.4587563072
 30
0.0
 10
91.9020528705
 20
41.7643346252
 30
0.0
 10
91.9015665345
 20
41.9241301966
 30
0.0
  0
LINE
  5
30B
100
AcDbEntity
  8
0
100
AcDbLine
 62
7
  6
CONTINUOUS
 10
91.9053718494
 20
39.7399137024
 11
91.916360832
 21
39.7303094672
  0
SPLINE
  5
30C
100
AcDbEntity
  8
0
100
AcDbSpline
 62
7
  6
CONTINUOUS
 70
0
 71
3
 72
10
 73
6
 74
0
 42
0.0000001
 43
0.0000001
 44
0.0000000001
 40
0.0
 40
0.0
 40
0.0
 40
0.0
 40
0.4589291842
 40
0.8243518672
 40
1.0
 40
1.0
 40
1.0
 40
1.0
 10
91.9510713968
 20
40.8851385269
 30
0.0
 10
91.9512206126
 20
40.8465462023
 30
0.0
 10
91.949511919
 20
40.7755836321
 30
0.0
 10
91.9360533983
 20
40.6970167272
 30
0.0
 10
91.9282958493
 20
40.6459540317
 30
0.0
 10
91.9163608245
 20
40.6372517483
 30
0.0
  0
SPLINE
  5
30D
100
AcDbEntity
  8
0
100
AcDbSpline
 62
7
  6
CONTINUOUS
 70
0
 71
3
 72
10
 73
6
 74
0
 42
0.0000001
 43
0.0000001
 44
0.0000000001
 40
0.0
 40
0.0
 40
0.0
 40
0.0
 40
0.3570257774
 40
0.6888418637
 40
1.0
 40
1.0
 40
1.0
 40
1.0
 10
92.247316792
 20
41.6816601245
 30
0.0
 10
92.2173799911
 20
41.7152286321
 30
0.0
 10
92.1563129026
 20
41.7771965305
 30
0.0
 10
92.0572599003
 20
41.8555850051
 30
0.0
 10
91.9866617936
 20
41.8961557695
 30
0.0
 10
91.9510713968
 20
41.9125862443
 30
0.0
  0
SPLINE
  5
30E
100
AcDbEntity
  8
0
100
AcDbSpline
 62
7
  6
CONTINUOUS
 70
0
 71
3
 72
10
 73
6
 74
0
 42
0.0000001
 43
0.0000001
 44
0.0000000001
 40
0.0
 40
0.0
 40
0.0
 40
0.0
 40
0.3471219259
 40
0.6802204095
 40
1.0
 40
1.0
 40
1.0
 40
1.0
 10
92.4146069366
 20
41.4561176149
 30
0.0
 10
92.3973295973
 20
41.4836752079
 30
0.0
 10
92.3621861605
 20
41.5368876229
 30
0.0
 10
92.306463419
 20
41.6122726634
 30
0.0
 10
92.267260139
 20
41.6592974071
 30
0.0
 10
92.247316792
 20
41.6816601245
 30
0.0
  0
SPLINE
  5
30F
100
AcDbEntity
  8
0
100
AcDbSpline
 62
7
  6
CONTINUOUS
 70
0
 71
3
 72
10
 73
6
 74
0
 42
0.0000001
 43
0.0000001
 44
0.0000000001
 40
0.0
 40
0.0
 40
0.0
 40
0.0
 40
0.3197790548
 40
0.6528778019
 40
1.0
 40
1.0
 40
1.0
 40
1.0
 10
92.2473167383
 20
38.6859011748
 30
0.0
 10
92.2672600524
 20
38.7082638508
 30
0.0
 10
92.3064634149
 20
38.7552884851
 30
0.0
 10
92.3621861109
 20
38.830673553
 30
0.0
 10
92.3973295853
 20
38.8838859948
 30
0.0
 10
92.4146069366
 20
38.911443607
 30
0.0
  0
SPLINE
  5
310
100
AcDbEntity
  8
0
100
AcDbSpline
 62
7
  6
CONTINUOUS
 70
0
 71
3
 72
10
 73
6
 74
0
 42
0.0000001
 43
0.0000001
 44
0.0000000001
 40
0.0
 40
0.0
 40
0.0
 40
0.0
 40
0.3111486698
 40
0.6429712979
 40
1.0
 40
1.0
 40
1.0
 40
1.0
 10
91.9510713968
 20
38.4549749776
 30
0.0
 10
91.9866607125
 20
38.4714049533
 30
0.0
 10
92.0572585726
 20
38.5119753533
 30
0.0
 10
92.1563118322
 20
38.590363564
 30
0.0
 10
92.2173796872
 20
38.6523323938
 30
0.0
 10
92.2473167383
 20
38.6859011748
 30
0.0
  0
SPLINE
  5
311
100
AcDbEntity
  8
0
100
AcDbSpline
 62
7
  6
CONTINUOUS
 70
0
 71
3
 72
35
 73
31
 74
0
 42
0.0000001
 43
0.0000001
 44
0.0000000001
 40
0.0
 40
0.0
 40
0.0
 40
0.0
 40
0.03677891
 40
0.0753122225
 40
0.1146596976
 40
0.1541349604
 40
0.1932354061
 40
0.2316651374
 40
0.2692275187
 40
0.3057663029
 40
0.3411977531
 40
0.375421196
 40
0.4080534423
 40
0.4392224548
 40
0.4693383014
 40
0.4992006119
 40
0.5288776515
 40
0.5591684424
 40
0.5905232288
 40
0.6233385629
 40
0.6575477054
 40
0.693075485
 40
0.7297414333
 40
0.7674137129
 40
0.8059837407
 40
0.8452662532
 40
0.8849153709
 40
0.9244251914
 40
0.9631059035
 40
1.0
 40
1.0
 40
1.0
 40
1.0
 10
92.4146069366
 20
38.911443607
 30
0.0
 10
92.4313843661
 20
38.9389371636
 30
0.0
 10
92.4619294672
 20
38.9975685395
 30
0.0
 10
92.5006593484
 20
39.0902764072
 30
0.0
 10
92.5345302139
 20
39.1873598324
 30
0.0
 10
92.5641134879
 20
39.2863274256
 30
0.0
 10
92.5899130569
 20
39.3855103481
 30
0.0
 10
92.6123380571
 20
39.483787276
 30
0.0
 10
92.6317030967
 20
39.5804232169
 30
0.0
 10
92.6482291057
 20
39.6749191829
 30
0.0
 10
92.6620484248
 20
39.7668926036
 30
0.0
 10
92.6731943959
 20
39.855781572
 30
0.0
 10
92.6817066219
 20
39.9412112782
 30
0.0
 10
92.6876748074
 20
40.0232506145
 30
0.0
 10
92.691238922
 20
40.1030019616
 30
0.0
 10
92.6924633096
 20
40.1815174349
 30
0.0
 10
92.6913680655
 20
40.2601878925
 30
0.0
 10
92.6879253077
 20
40.3400986142
 30
0.0
 10
92.6820320594
 20
40.422621076
 30
0.0
 10
92.6735798995
 20
40.5083689903
 30
0.0
 10
92.6624859535
 20
40.597498489
 30
0.0
 10
92.6487148361
 20
40.6896644807
 30
0.0
 10
92.6322070379
 20
40.7844600941
 30
0.0
 10
92.6128410759
 20
40.8814329319
 30
0.0
 10
92.590393366
 20
40.9800930131
 30
0.0
 10
92.5645422911
 20
41.0797116836
 30
0.0
 10
92.5348814134
 20
41.1791299564
 30
0.0
 10
92.5009162399
 20
41.2766293951
 30
0.0
 10
92.4620770777
 20
41.3696953258
 30
0.0
 10
92.4314369107
 20
41.4285379523
 30
0.0
 10
92.4146069366
 20
41.4561176149
 30
0.0
  0
SPLINE
  5
312
100
AcDbEntity
  8
0
100
AcDbSpline
 62
7
  6
CONTINUOUS
 70
0
 71
3
 72
10
 73
6
 74
0
 42
0.0000001
 43
0.0000001
 44
0.0000000001
 40
0.0
 40
0.0
 40
0.0
 40
0.0
 40
0.1754000606
 40
0.5409442543
 40
1.0
 40
1.0
 40
1.0
 40
1.0
 10
91.916360832
 20
39.7303094672
 30
0.0
 10
91.9282789864
 20
39.7216194846
 30
0.0
 10
91.936051802
 20
39.6705779468
 30
0.0
 10
91.9495089936
 20
39.5920097191
 30
0.0
 10
91.9512206536
 20
39.5210264683
 30
0.0
 10
91.9510713968
 20
39.482423547
 30
0.0
  0
ELLIPSE
  5
313
100
AcDbEntity
  8
0
100
AcDbEllipse
 62
7
  6
CONTINUOUS
 10
30.1648655128
 20
99.0318341911
 30
0.0
 11
53.8925187708
 21
0.0
 31
0.0
 40
0.0092971064
 41
1.2266602222
 42
1.517285644
  0
ELLIPSE
  5
314
100
AcDbEntity
  8
0
100
AcDbEllipse
 62
7
  6
CONTINUOUS
 10
30.1648655128
 20
48.7957270308
 30
0.0
 11
53.8925187708
 21
-0.0
 31
0.0
 40
0.0092971064
 41
-1.517285644
 42
-1.2266602222
  0
ELLIPSE
  5
315
100
AcDbEntity
  8
0
100
AcDbEllipse
 62
7
  6
CONTINUOUS
 10
26.6440313673
 20
48.7957270308
 30
0.0
 11
57.4140106356
 21
0.0
 31
0.0
 40
0.0087268678
 41
-1.4590355746
 42
-1.1831464417
  0
ELLIPSE
  5
316
100
AcDbEntity
  8
0
100
AcDbEllipse
 62
7
  6
CONTINUOUS
 10
26.6440313673
 20
99.0318341911
 30
0.0
 11
57.4140106356
 21
0.0
 31
0.0
 40
0.0087268678
 41
1.1831464417
 42
1.4590355746
  0
ENDSEC
  0
SECTION
  2
OBJECTS
  0
DICTIONARY
  5
C
100
AcDbDictionary
280
0
281
1
  3
ACAD_GROUP
350
D
  3
ACAD_MLINESTYLE
350
17
  3
ACAD_LAYOUT
350
1A
  3
ACAD_PLOTSETTINGS
350
19
  3
ACAD_PLOTSTYLENAME
350
E
  0
DICTIONARY
  5
D
102
{ACAD_REACTORS
330
C
102
}
100
AcDbDictionary
280
0
281
1
  0
ACDBDICTIONARYWDFLT
  5
E
102
{ACAD_REACTORS
330
C
102
}
100
AcDbDictionary
281
1
  3
Normal
350
F
100
AcDbDictionaryWithDefault
340
F
  0
DICTIONARY
  5
17
102
{ACAD_REACTORS
330
C
102
}
100
AcDbDictionary
280
0
281
1
  3
Standard
350
18
  0
DICTIONARY
  5
19
102
{ACAD_REACTORS
330
C
102
}
100
AcDbDictionary
281
1
  0
DICTIONARY
  5
1A
102
{ACAD_REACTORS
330
C
102
}
100
AcDbDictionary
281
1
  3
Model
350
317
  3
Layout1
350
318
  0
ACDBPLACEHOLDER
  5
F
102
{ACAD_REACTORS
330
E
102
}
  0
MLINESTYLE
  5
18
102
{ACAD_REACTORS
330
17
102
}
100
AcDbMlineStyle
  2
STANDARD
 70
0
  3

 62
256
 51
90.0
 52
90.0
 71
2
 49
0.5
 62
256
  6
BYLAYER
 49
-0.5
 62
256
  6
BYLAYER
  0
LAYOUT
  5
317
102
{ACAD_REACTORS
330
1A
102
}
100
AcDbPlotSettings
  1

  2
none_device
  4

  6

 40
0.0
 41
0.0
 42
0.0
 43
0.0
 44
210.0
 45
297.0
 46
0.0
 47
0.0
 48
0.0
 49
0.0
140
0.0
141
0.0
142
1.0
143
1.0
 70
1024
 72
1
 73
0
 74
0
  7

 75
0
147
1.0
148
0.0
149
0.0
100
AcDbLayout
  1
Model
 70
0
 71
0
 10
0.0
 20
0.0
 11
210.0
 21
297.0
 12
0.0
 22
0.0
 32
0.0
 14
0.0
 24
0.0
 34
0.0
 15
0.0
 25
0.0
 35
0.0
146
0.0
 13
0.0
 23
0.0
 33
0.0
 16
1.0
 26
0.0
 36
0.0
 17
0.0
 27
1.0
 37
0.0
 76
0
330
210
345
0
346
0
  0
LAYOUT
  5
318
102
{ACAD_REACTORS
330
1A
102
}
100
AcDbPlotSettings
  1

  2
none_device
  4

  6

 40
0.0
 41
0.0
 42
0.0
 43
0.0
 44
210.0
 45
297.0
 46
0.0
 47
0.0
 48
0.0
 49
0.0
140
0.0
141
0.0
142
1.0
143
1.0
 70
0
 72
1
 73
0
 74
0
  7

 75
0
147
1.0
148
0.0
149
0.0
100
AcDbLayout
  1
Layout1
 70
0
 71
1
 10
0.0
 20
0.0
 11
210.0
 21
297.0
 12
0.0
 22
0.0
 32
0.0
 14
0.0
 24
0.0
 34
0.0
 15
0.0
 25
0.0
 35
0.0
146
0.0
 13
0.0
 23
0.0
 33
0.0
 16
1.0
 26
0.0
 36
0.0
 17
0.0
 27
1.0
 37
0.0
 76
0
330
211
345
0
346
0
  0
ENDSEC
  0
EOF
