999
DXF file: C:\2D\Gen2D\CAD\NSYS3D10830P_3D-Simplified\drw0001_3.dxf
999
Pro/ENGINEER 2019471 by Parametric Technology Corporation
  0
SECTION
  2
HEADER
  9
$ACADVER
  1
AC1024
  9
$DWGCODEPAGE
  3
ANSI_1252
  9
$EXTMAX
 10
1011.2503591716
 20
1430.1969365427
 30
0.0
  9
$EXTMIN
 10
0.0
 20
0.0
 30
0.0
  9
$LIMMIN
 10
0.0
 20
0.0
  9
$LIMMAX
 10
1011.2503591716
 20
1430.1969365427
  9
$VIEWCTR
 10
505.6251795858
 20
715.0984682713
  9
$VIEWSIZE
 40
1430.1969365427
  9
$CLAYER
  8
0
  9
$LTSCALE
 40
93.2276521598
  9
$CELTYPE
  6
BYLAYER
  9
$DIMSCALE
 40
1.0
  9
$DIMASZ
 40
12.038694752
  9
$DIMEXO
 40
1.0
  9
$DIMDLI
 40
64.4118324013
  9
$DIMEXE
 40
1.0
  9
$DIMCEN
 40
15.2554339898
  9
$DIMLFAC
 40
1.0
  9
$DIMBLK
  1
_FILLED
  9
$DIMALT
 70
0
  9
$DIMALTF
 40
0.0393700787
  9
$DIMTXT
 40
16.8541726529
  9
$DIMTOL
 70
1
  9
$DIMLIM
 70
0
  9
$DIMTFAC
 40
1.0
  9
$DIMTP
 40
0.01
  9
$DIMTM
 40
0.01
  9
$DIMGAP
 40
0.625
  9
$DIMDSEP
 70
46
  9
$AUNITS
 70
0
  9
$PDMODE
 70
3
  9
$PDSIZE
 40
0.3125
  9
$HANDSEED
  5
81F
  9
$TILEMODE
 70
1
  9
$MEASUREMENT
 70
1
  9
$INSUNITS
 70
4
  0
ENDSEC
  0
SECTION
  2
CLASSES
  0
CLASS
  1
ACDBDICTIONARYWDFLT
  2
AcDbDictionaryWithDefault
  3
AutoCAD 2000
 90
0
 91
1
280
0
281
0
  0
CLASS
  1
ACDBPLACEHOLDER
  2
AcDbPlaceHolder
  3
AutoCAD 2000
 90
0
 91
1
280
0
281
0
  0
CLASS
  1
LAYOUT
  2
AcDbLayout
  3
AutoCAD 2000
 90
0
 91
0
280
0
281
0
  0
ENDSEC
  0
SECTION
  2
TABLES
  0
TABLE
  2
VPORT
  5
8
100
AcDbSymbolTable
 70
2
  0
VPORT
  5
1F4
100
AcDbSymbolTableRecord
100
AcDbViewportTableRecord
  2
*ACTIVE
 70
0
 10
0.0
 20
0.0
 11
1.0
 21
1.0
 12
505.6251795858
 22
715.0984682713
 13
0.0
 23
0.0
 14
1.0
 24
1.0
 15
0.0
 25
0.0
 16
0.0
 26
0.0
 36
1.0
 17
0.0
 27
0.0
 37
0.0
 40
1430.1969365427
 41
0.7070707071
 42
50.0
 43
0.0
 44
0.0
 50
0.0
 51
0.0
 71
0
 72
100
 73
1
 74
1
 75
0
 76
0
 77
0
 78
0
  0
ENDTAB
  0
TABLE
  2
LTYPE
  5
5
100
AcDbSymbolTable
 70
6
  0
LTYPE
  5
14
100
AcDbSymbolTableRecord
100
AcDbLinetypeTableRecord
  2
BYBLOCK
 70
0
  3

 72
65
 73
0
 40
0.0
  0
LTYPE
  5
15
100
AcDbSymbolTableRecord
100
AcDbLinetypeTableRecord
  2
BYLAYER
 70
0
  3

 72
65
 73
0
 40
0.0
  0
LTYPE
  5
16
100
AcDbSymbolTableRecord
100
AcDbLinetypeTableRecord
  2
CONTINUOUS
 70
64
  3
Solid line
 72
65
 73
0
 40
0.0
  0
LTYPE
  5
1F5
100
AcDbSymbolTableRecord
100
AcDbLinetypeTableRecord
  2
CENTER
 70
64
  3
____ _ ____ _ ____ _ ____ _ ____ _ ____ _ ____
 72
65
 73
4
 40
0.6
 49
0.375
 74
0
 49
-0.075
 74
0
 49
0.075
 74
0
 49
-0.075
 74
0
  0
LTYPE
  5
1F6
100
AcDbSymbolTableRecord
100
AcDbLinetypeTableRecord
  2
HIDDEN
 70
64
  3
- - - - - - - - - - - - - - - - - - - -
 72
65
 73
2
 40
0.2
 49
0.1
 74
0
 49
-0.1
 74
0
  0
LTYPE
  5
1F7
100
AcDbSymbolTableRecord
100
AcDbLinetypeTableRecord
  2
PHANTOM
 70
64
  3
_____ _ _ _____ _ _ _____ _ _ _____
 72
65
 73
6
 40
0.8
 49
0.45
 74
0
 49
-0.05
 74
0
 49
0.1
 74
0
 49
-0.05
 74
0
 49
0.1
 74
0
 49
-0.05
 74
0
  0
LTYPE
  5
1F8
100
AcDbSymbolTableRecord
100
AcDbLinetypeTableRecord
  2
DOT
 70
64
  3
. . . . . . . . . . . . . . . . . . . .
 72
65
 73
2
 40
0.2
 49
0.1
 74
0
 49
-0.1
 74
0
  0
LTYPE
  5
1F9
100
AcDbSymbolTableRecord
100
AcDbLinetypeTableRecord
  2
DASHED
 70
64
  3
- - - - - - - - - - - - - - - - - - - -
 72
65
 73
2
 40
0.2
 49
0.1
 74
0
 49
-0.1
 74
0
  0
ENDTAB
  0
TABLE
  2
LAYER
  5
2
100
AcDbSymbolTable
 70
36
  0
LAYER
  5
10
100
AcDbSymbolTableRecord
100
AcDbLayerTableRecord
  2
0
 70
0
 62
7
  6
CONTINUOUS
370
-3
390
F
  0
LAYER
  5
1FA
100
AcDbSymbolTableRecord
100
AcDbLayerTableRecord
  2
DEFAULT_1
 70
0
 62
7
  6
CENTER
370
-3
390
F
  0
LAYER
  5
1FB
100
AcDbSymbolTableRecord
100
AcDbLayerTableRecord
  2
DEFAULT_2
 70
0
 62
8
  6
HIDDEN
370
-3
390
F
  0
LAYER
  5
1FC
100
AcDbSymbolTableRecord
100
AcDbLayerTableRecord
  2
DEFAULT_3
 70
0
 62
7
  6
PHANTOM
370
-3
390
F
  0
LAYER
  5
1FD
100
AcDbSymbolTableRecord
100
AcDbLayerTableRecord
  2
00_COMPONENTS
 70
0
 62
7
  6
CONTINUOUS
370
-3
390
F
  0
LAYER
  5
1FE
100
AcDbSymbolTableRecord
100
AcDbLayerTableRecord
  2
00_COMPONENTS_1
 70
0
 62
7
  6
CONTINUOUS
370
-3
390
F
  0
LAYER
  5
1FF
100
AcDbSymbolTableRecord
100
AcDbLayerTableRecord
  2
00_COMPONENTS_11
 70
0
 62
7
  6
CONTINUOUS
370
-3
390
F
  0
LAYER
  5
200
100
AcDbSymbolTableRecord
100
AcDbLayerTableRecord
  2
00_COMPONENTS_13
 70
0
 62
7
  6
CONTINUOUS
370
-3
390
F
  0
LAYER
  5
201
100
AcDbSymbolTableRecord
100
AcDbLayerTableRecord
  2
00_COMPONENTS_14
 70
0
 62
7
  6
CONTINUOUS
370
-3
390
F
  0
LAYER
  5
202
100
AcDbSymbolTableRecord
100
AcDbLayerTableRecord
  2
00_COMPONENTS_15
 70
0
 62
7
  6
CONTINUOUS
370
-3
390
F
  0
LAYER
  5
203
100
AcDbSymbolTableRecord
100
AcDbLayerTableRecord
  2
00_COMPONENTS_17
 70
0
 62
7
  6
CONTINUOUS
370
-3
390
F
  0
LAYER
  5
204
100
AcDbSymbolTableRecord
100
AcDbLayerTableRecord
  2
00_COMPONENTS_19
 70
0
 62
7
  6
CONTINUOUS
370
-3
390
F
  0
LAYER
  5
205
100
AcDbSymbolTableRecord
100
AcDbLayerTableRecord
  2
00_COMPONENTS_2
 70
0
 62
7
  6
CONTINUOUS
370
-3
390
F
  0
LAYER
  5
206
100
AcDbSymbolTableRecord
100
AcDbLayerTableRecord
  2
00_COMPONENTS_20
 70
0
 62
7
  6
CONTINUOUS
370
-3
390
F
  0
LAYER
  5
207
100
AcDbSymbolTableRecord
100
AcDbLayerTableRecord
  2
00_COMPONENTS_21
 70
0
 62
7
  6
CONTINUOUS
370
-3
390
F
  0
LAYER
  5
208
100
AcDbSymbolTableRecord
100
AcDbLayerTableRecord
  2
00_COMPONENTS_24
 70
0
 62
7
  6
CONTINUOUS
370
-3
390
F
  0
LAYER
  5
209
100
AcDbSymbolTableRecord
100
AcDbLayerTableRecord
  2
00_COMPONENTS_25
 70
0
 62
7
  6
CONTINUOUS
370
-3
390
F
  0
LAYER
  5
20A
100
AcDbSymbolTableRecord
100
AcDbLayerTableRecord
  2
00_COMPONENTS_26
 70
0
 62
7
  6
CONTINUOUS
370
-3
390
F
  0
LAYER
  5
20B
100
AcDbSymbolTableRecord
100
AcDbLayerTableRecord
  2
00_COMPONENTS_27
 70
0
 62
7
  6
CONTINUOUS
370
-3
390
F
  0
LAYER
  5
20C
100
AcDbSymbolTableRecord
100
AcDbLayerTableRecord
  2
00_COMPONENTS_29
 70
0
 62
7
  6
CONTINUOUS
370
-3
390
F
  0
LAYER
  5
20D
100
AcDbSymbolTableRecord
100
AcDbLayerTableRecord
  2
00_COMPONENTS_3
 70
0
 62
7
  6
CONTINUOUS
370
-3
390
F
  0
LAYER
  5
20E
100
AcDbSymbolTableRecord
100
AcDbLayerTableRecord
  2
00_COMPONENTS_30
 70
0
 62
7
  6
CONTINUOUS
370
-3
390
F
  0
LAYER
  5
20F
100
AcDbSymbolTableRecord
100
AcDbLayerTableRecord
  2
00_COMPONENTS_31
 70
0
 62
7
  6
CONTINUOUS
370
-3
390
F
  0
LAYER
  5
210
100
AcDbSymbolTableRecord
100
AcDbLayerTableRecord
  2
00_COMPONENTS_32
 70
0
 62
7
  6
CONTINUOUS
370
-3
390
F
  0
LAYER
  5
211
100
AcDbSymbolTableRecord
100
AcDbLayerTableRecord
  2
00_COMPONENTS_33
 70
0
 62
7
  6
CONTINUOUS
370
-3
390
F
  0
LAYER
  5
212
100
AcDbSymbolTableRecord
100
AcDbLayerTableRecord
  2
00_COMPONENTS_35
 70
0
 62
7
  6
CONTINUOUS
370
-3
390
F
  0
LAYER
  5
213
100
AcDbSymbolTableRecord
100
AcDbLayerTableRecord
  2
00_COMPONENTS_37
 70
0
 62
7
  6
CONTINUOUS
370
-3
390
F
  0
LAYER
  5
214
100
AcDbSymbolTableRecord
100
AcDbLayerTableRecord
  2
00_COMPONENTS_38
 70
0
 62
7
  6
CONTINUOUS
370
-3
390
F
  0
LAYER
  5
215
100
AcDbSymbolTableRecord
100
AcDbLayerTableRecord
  2
00_COMPONENTS_39
 70
0
 62
7
  6
CONTINUOUS
370
-3
390
F
  0
LAYER
  5
216
100
AcDbSymbolTableRecord
100
AcDbLayerTableRecord
  2
00_COMPONENTS_4
 70
0
 62
7
  6
CONTINUOUS
370
-3
390
F
  0
LAYER
  5
217
100
AcDbSymbolTableRecord
100
AcDbLayerTableRecord
  2
00_COMPONENTS_40
 70
0
 62
7
  6
CONTINUOUS
370
-3
390
F
  0
LAYER
  5
218
100
AcDbSymbolTableRecord
100
AcDbLayerTableRecord
  2
00_COMPONENTS_41
 70
0
 62
7
  6
CONTINUOUS
370
-3
390
F
  0
LAYER
  5
219
100
AcDbSymbolTableRecord
100
AcDbLayerTableRecord
  2
00_COMPONENTS_42
 70
0
 62
7
  6
CONTINUOUS
370
-3
390
F
  0
LAYER
  5
21A
100
AcDbSymbolTableRecord
100
AcDbLayerTableRecord
  2
00_COMPONENTS_43
 70
0
 62
7
  6
CONTINUOUS
370
-3
390
F
  0
LAYER
  5
21B
100
AcDbSymbolTableRecord
100
AcDbLayerTableRecord
  2
00_COMPONENTS_44
 70
0
 62
7
  6
CONTINUOUS
370
-3
390
F
  0
LAYER
  5
21C
100
AcDbSymbolTableRecord
100
AcDbLayerTableRecord
  2
00_COMPONENTS_46
 70
0
 62
7
  6
CONTINUOUS
370
-3
390
F
  0
LAYER
  5
21D
100
AcDbSymbolTableRecord
100
AcDbLayerTableRecord
  2
00_COMPONENTS_47
 70
0
 62
7
  6
CONTINUOUS
370
-3
390
F
  0
LAYER
  5
21E
100
AcDbSymbolTableRecord
100
AcDbLayerTableRecord
  2
00_COMPONENTS_48
 70
0
 62
7
  6
CONTINUOUS
370
-3
390
F
  0
LAYER
  5
21F
100
AcDbSymbolTableRecord
100
AcDbLayerTableRecord
  2
00_COMPONENTS_49
 70
0
 62
7
  6
CONTINUOUS
370
-3
390
F
  0
LAYER
  5
220
100
AcDbSymbolTableRecord
100
AcDbLayerTableRecord
  2
00_COMPONENTS_5
 70
0
 62
7
  6
CONTINUOUS
370
-3
390
F
  0
LAYER
  5
221
100
AcDbSymbolTableRecord
100
AcDbLayerTableRecord
  2
00_COMPONENTS_50
 70
0
 62
7
  6
CONTINUOUS
370
-3
390
F
  0
LAYER
  5
222
100
AcDbSymbolTableRecord
100
AcDbLayerTableRecord
  2
00_COMPONENTS_51
 70
0
 62
7
  6
CONTINUOUS
370
-3
390
F
  0
LAYER
  5
223
100
AcDbSymbolTableRecord
100
AcDbLayerTableRecord
  2
00_COMPONENTS_52
 70
0
 62
7
  6
CONTINUOUS
370
-3
390
F
  0
LAYER
  5
224
100
AcDbSymbolTableRecord
100
AcDbLayerTableRecord
  2
00_COMPONENTS_53
 70
0
 62
7
  6
CONTINUOUS
370
-3
390
F
  0
LAYER
  5
225
100
AcDbSymbolTableRecord
100
AcDbLayerTableRecord
  2
00_COMPONENTS_54
 70
0
 62
7
  6
CONTINUOUS
370
-3
390
F
  0
LAYER
  5
226
100
AcDbSymbolTableRecord
100
AcDbLayerTableRecord
  2
00_COMPONENTS_55
 70
0
 62
7
  6
CONTINUOUS
370
-3
390
F
  0
LAYER
  5
227
100
AcDbSymbolTableRecord
100
AcDbLayerTableRecord
  2
00_COMPONENTS_58
 70
0
 62
7
  6
CONTINUOUS
370
-3
390
F
  0
LAYER
  5
228
100
AcDbSymbolTableRecord
100
AcDbLayerTableRecord
  2
00_COMPONENTS_60
 70
0
 62
7
  6
CONTINUOUS
370
-3
390
F
  0
LAYER
  5
229
100
AcDbSymbolTableRecord
100
AcDbLayerTableRecord
  2
00_COMPONENTS_61
 70
0
 62
7
  6
CONTINUOUS
370
-3
390
F
  0
LAYER
  5
22A
100
AcDbSymbolTableRecord
100
AcDbLayerTableRecord
  2
00_COMPONENTS_62
 70
0
 62
7
  6
CONTINUOUS
370
-3
390
F
  0
LAYER
  5
22B
100
AcDbSymbolTableRecord
100
AcDbLayerTableRecord
  2
00_COMPONENTS_7
 70
0
 62
7
  6
CONTINUOUS
370
-3
390
F
  0
LAYER
  5
22C
100
AcDbSymbolTableRecord
100
AcDbLayerTableRecord
  2
00_COMPONENTS_8
 70
0
 62
7
  6
CONTINUOUS
370
-3
390
F
  0
LAYER
  5
22D
100
AcDbSymbolTableRecord
100
AcDbLayerTableRecord
  2
01_1_DEFAULT_DATUMS
 70
0
 62
7
  6
CONTINUOUS
370
-3
390
F
  0
LAYER
  5
22E
100
AcDbSymbolTableRecord
100
AcDbLayerTableRecord
  2
01_PLANES
 70
0
 62
7
  6
CONTINUOUS
370
-3
390
F
  0
LAYER
  5
22F
100
AcDbSymbolTableRecord
100
AcDbLayerTableRecord
  2
02_COORD_SYS
 70
0
 62
7
  6
CONTINUOUS
370
-3
390
F
  0
LAYER
  5
230
100
AcDbSymbolTableRecord
100
AcDbLayerTableRecord
  2
03_AXES
 70
0
 62
7
  6
CONTINUOUS
370
-3
390
F
  0
LAYER
  5
231
100
AcDbSymbolTableRecord
100
AcDbLayerTableRecord
  2
04_POINTS
 70
0
 62
7
  6
CONTINUOUS
370
-3
390
F
  0
LAYER
  5
232
100
AcDbSymbolTableRecord
100
AcDbLayerTableRecord
  2
05_CURVES
 70
0
 62
7
  6
CONTINUOUS
370
-3
390
F
  0
LAYER
  5
233
100
AcDbSymbolTableRecord
100
AcDbLayerTableRecord
  2
06_SURFS
 70
0
 62
7
  6
CONTINUOUS
370
-3
390
F
  0
LAYER
  5
234
100
AcDbSymbolTableRecord
100
AcDbLayerTableRecord
  2
07_COSMETICS
 70
0
 62
7
  6
CONTINUOUS
370
-3
390
F
  0
LAYER
  5
235
100
AcDbSymbolTableRecord
100
AcDbLayerTableRecord
  2
10_NOTES
 70
0
 62
7
  6
CONTINUOUS
370
-3
390
F
  0
LAYER
  5
236
100
AcDbSymbolTableRecord
100
AcDbLayerTableRecord
  2
11_NOTES_PUB
 70
0
 62
7
  6
CONTINUOUS
370
-3
390
F
  0
LAYER
  5
237
100
AcDbSymbolTableRecord
100
AcDbLayerTableRecord
  2
13_REF_GTOL
 70
0
 62
7
  6
CONTINUOUS
370
-3
390
F
  0
LAYER
  5
238
100
AcDbSymbolTableRecord
100
AcDbLayerTableRecord
  2
16_MISC
 70
0
 62
7
  6
CONTINUOUS
370
-3
390
F
  0
LAYER
  5
239
100
AcDbSymbolTableRecord
100
AcDbLayerTableRecord
  2
17_NO_PRINT
 70
0
 62
7
  6
CONTINUOUS
370
-3
390
F
  0
LAYER
  5
23A
100
AcDbSymbolTableRecord
100
AcDbLayerTableRecord
  2
18_DATUM_CAMS_JOINTS
 70
0
 62
7
  6
CONTINUOUS
370
-3
390
F
  0
LAYER
  5
23B
100
AcDbSymbolTableRecord
100
AcDbLayerTableRecord
  2
19_DATUM_FUNCTIONAL
 70
0
 62
7
  6
CONTINUOUS
370
-3
390
F
  0
LAYER
  5
23C
100
AcDbSymbolTableRecord
100
AcDbLayerTableRecord
  2
20_DATUM_KINEMATIC_SCHEME
 70
0
 62
7
  6
CONTINUOUS
370
-3
390
F
  0
LAYER
  5
23D
100
AcDbSymbolTableRecord
100
AcDbLayerTableRecord
  2
INTFCLR_10
 70
0
 62
7
  6
CONTINUOUS
370
-3
390
F
  0
ENDTAB
  0
TABLE
  2
STYLE
  5
3
100
AcDbSymbolTable
 70
1
  0
STYLE
  5
11
100
AcDbSymbolTableRecord
100
AcDbTextStyleTableRecord
  2
STANDARD
 70
0
 40
0.0
 41
0.8
 50
0.0
 71
0
 42
0.2
  3
txt
  4

  0
STYLE
  5
23E
100
AcDbSymbolTableRecord
100
AcDbTextStyleTableRecord
  2
TEXTSTYLE_1
 70
0
 40
0.0
 41
0.8
 50
0.0
 71
0
 42
0.2
  3
gdt
  4

  0
ENDTAB
  0
TABLE
  2
VIEW
  5
6
100
AcDbSymbolTable
 70
0
  0
ENDTAB
  0
TABLE
  2
UCS
  5
7
100
AcDbSymbolTable
 70
0
  0
ENDTAB
  0
TABLE
  2
APPID
  5
9
100
AcDbSymbolTable
 70
1
  0
APPID
  5
23F
100
AcDbSymbolTableRecord
100
AcDbRegAppTableRecord
  2
ACAD
 70
0
  0
ENDTAB
  0
TABLE
  2
BLOCK_RECORD
  5
1
100
AcDbSymbolTable
 70
0
  0
BLOCK_RECORD
  5
240
100
AcDbSymbolTableRecord
100
AcDbBlockTableRecord
  2
*Model_Space
  0
BLOCK_RECORD
  5
241
100
AcDbSymbolTableRecord
100
AcDbBlockTableRecord
  2
*Paper_Space
  0
BLOCK_RECORD
  5
242
100
AcDbSymbolTableRecord
100
AcDbBlockTableRecord
  2
_FILLED
  0
ENDTAB
  0
TABLE
  2
DIMSTYLE
  5
A
100
AcDbSymbolTable
 70
1
100
AcDbDimStyleTable
 71
0
  0
DIMSTYLE
105
243
100
AcDbSymbolTableRecord
100
AcDbDimStyleTableRecord
  2
STANDARD
 70
0
  3

  4

 40
1.0
 41
12.038694752
 42
1.0
 43
0.38
 44
1.0
 45
0.0
 46
0.0
 47
0.01
 48
0.01
140
16.8541726529
141
0.09
142
0.0
143
25.4
144
1.0
145
0.0
146
1.0
147
0.625
 71
1
 72
0
 73
0
 74
0
 75
0
 76
0
 77
1
 78
8
 79
2
170
0
171
1
172
0
173
0
174
0
175
0
176
0
177
0
178
0
270
2
179
2
271
2
272
2
273
2
274
2
275
0
280
0
281
0
282
0
283
1
284
8
285
0
286
0
287
3
288
0
340
11
278
46
341
242
342
242
343
242
344
242
  0
ENDTAB
  0
ENDSEC
  0
SECTION
  2
BLOCKS
  0
BLOCK
  5
20
100
AcDbEntity
  8
0
100
AcDbBlockBegin
  2
*Model_Space
 70
0
 10
0.0
 20
0.0
 30
0.0
  3
*Model_Space
  1

  0
ENDBLK
  5
21
100
AcDbEntity
  8
0
100
AcDbBlockEnd
  0
BLOCK
  5
1C
100
AcDbEntity
  8
0
100
AcDbBlockBegin
  2
*Paper_Space
 70
0
 10
0.0
 20
0.0
 30
0.0
  3
*Paper_Space
  1

  0
ENDBLK
  5
1D
100
AcDbEntity
  8
0
100
AcDbBlockEnd
  0
BLOCK
  5
244
100
AcDbEntity
  8
0
100
AcDbBlockBegin
  2
_FILLED
 70
64
 10
0.0
 20
0.0
  3
_FILLED
  1

  0
SOLID
  5
245
100
AcDbEntity
  8
0
  6
BYBLOCK
 62
0
100
AcDbTrace
 10
0.0
 20
0.0
 11
-1.0
 21
0.25
 12
-1.0
 22
-0.25
 13
-1.0
 23
-0.25
  0
ENDBLK
  5
246
100
AcDbEntity
  8
0
  6
BYBLOCK
 62
0
100
AcDbBlockEnd
  0
ENDSEC
  0
SECTION
  2
ENTITIES
  0
LINE
  5
247
100
AcDbEntity
  8
00_COMPONENTS_51
100
AcDbLine
 62
7
  6
CONTINUOUS
 10
119.6295559534
 20
567.0495908135
 11
119.6295559534
 21
837.6495884453
  0
LINE
  5
248
100
AcDbEntity
  8
00_COMPONENTS_51
100
AcDbLine
 62
7
  6
CONTINUOUS
 10
121.1295559534
 20
567.0495908135
 11
121.1295559534
 21
837.6495908135
  0
LINE
  5
249
100
AcDbEntity
  8
00_COMPONENTS_11
100
AcDbLine
 62
7
  6
CONTINUOUS
 10
121.7861221518
 20
858.6919974811
 11
121.7861221518
 21
849.0598874249
  0
LINE
  5
24A
100
AcDbEntity
  8
00_COMPONENTS_11
100
AcDbLine
 62
7
  6
CONTINUOUS
 10
123.2861221518
 20
858.6919974811
 11
124.01104221
 21
860.0845559563
  0
LINE
  5
24B
100
AcDbEntity
  8
00_COMPONENTS_7
100
AcDbLine
 62
7
  6
CONTINUOUS
 10
152.8073857252
 20
658.1395704497
 11
152.8111753402
 21
658.0312102003
  0
LINE
  5
24C
100
AcDbEntity
  8
00_COMPONENTS_11
100
AcDbLine
 62
7
  6
CONTINUOUS
 10
123.2861221518
 20
858.6919974811
 11
123.2861221518
 21
849.0598874249
  0
LINE
  5
24D
100
AcDbEntity
  8
00_COMPONENTS_51
100
AcDbLine
 62
7
  6
CONTINUOUS
 10
141.8795559534
 20
615.5995908135
 11
141.8795559534
 21
702.0995908135
  0
LINE
  5
24E
100
AcDbEntity
  8
00_COMPONENTS_51
100
AcDbLine
 62
7
  6
CONTINUOUS
 10
142.3795559534
 20
615.5995908135
 11
142.3795559534
 21
702.0995908135
  0
LINE
  5
24F
100
AcDbEntity
  8
00_COMPONENTS_51
100
AcDbLine
 62
7
  6
CONTINUOUS
 10
143.201356691
 20
616.5995908143
 11
143.201356691
 21
701.0995908128
  0
LINE
  5
250
100
AcDbEntity
  8
00_COMPONENTS_51
100
AcDbLine
 62
7
  6
CONTINUOUS
 10
145.1709721971
 20
701.0995908135
 11
145.1709721971
 21
616.599590814
  0
LINE
  5
251
100
AcDbEntity
  8
00_COMPONENTS_51
100
AcDbLine
 62
7
  6
CONTINUOUS
 10
145.2628287737
 20
616.5995908149
 11
145.2628287737
 21
701.0995908152
  0
LINE
  5
252
100
AcDbEntity
  8
00_COMPONENTS_51
100
AcDbLine
 62
7
  6
CONTINUOUS
 10
146.2476365267
 20
701.0995908135
 11
146.2476365267
 21
616.5995908135
  0
LINE
  5
253
100
AcDbEntity
  8
00_COMPONENTS_3
100
AcDbLine
 62
7
  6
CONTINUOUS
 10
147.1295559534
 20
618.8495908135
 11
147.1295559534
 21
698.8495908135
  0
LINE
  5
254
100
AcDbEntity
  8
00_COMPONENTS_25
100
AcDbLine
 62
7
  6
CONTINUOUS
 10
155.3608385599
 20
869.4994854117
 11
155.2861221518
 21
867.3598874249
  0
LINE
  5
255
100
AcDbEntity
  8
00_COMPONENTS_7
100
AcDbLine
 62
7
  6
CONTINUOUS
 10
154.4517261816
 20
659.5596111773
 11
154.4479365666
 21
659.6679714267
  0
LINE
  5
256
100
AcDbEntity
  8
00_COMPONENTS_7
100
AcDbLine
 62
7
  6
CONTINUOUS
 10
153.1145559534
 20
656.8528289442
 11
153.1145559534
 21
657.9356267709
  0
LINE
  5
257
100
AcDbEntity
  8
00_COMPONENTS_7
100
AcDbLine
 62
7
  6
CONTINUOUS
 10
153.1145559534
 20
659.7635543565
 11
153.1145559534
 21
660.8463526828
  0
LINE
  5
258
100
AcDbEntity
  8
00_COMPONENTS_7
100
AcDbLine
 62
7
  6
CONTINUOUS
 10
154.1445559534
 20
657.9356272706
 11
154.1445559534
 21
656.8528289442
  0
LINE
  5
259
100
AcDbEntity
  8
00_COMPONENTS_7
100
AcDbLine
 62
7
  6
CONTINUOUS
 10
154.1445559534
 20
659.7635548563
 11
154.1445559534
 21
660.8463526828
  0
LINE
  5
25A
100
AcDbEntity
  8
00_COMPONENTS_51
100
AcDbLine
 62
7
  6
CONTINUOUS
 10
168.8795559534
 20
729.0995908135
 11
168.8795559534
 21
728.5995908135
  0
LINE
  5
25B
100
AcDbEntity
  8
00_COMPONENTS_51
100
AcDbLine
 62
7
  6
CONTINUOUS
 10
168.8795559534
 20
589.0995908135
 11
168.8795559534
 21
588.5995908135
  0
LINE
  5
25C
100
AcDbEntity
  8
00_COMPONENTS_51
100
AcDbLine
 62
7
  6
CONTINUOUS
 10
169.8795559534
 20
727.7777900759
 11
169.8795559534
 21
724.7315102402
  0
LINE
  5
25D
100
AcDbEntity
  8
00_COMPONENTS_51
100
AcDbLine
 62
7
  6
CONTINUOUS
 10
169.8795559479
 20
592.9676713868
 11
169.8795559534
 21
589.9213915512
  0
LINE
  5
25E
100
AcDbEntity
  8
00_COMPONENTS_7
100
AcDbLine
 62
7
  6
CONTINUOUS
 10
152.8072765549
 20
659.5108068581
 11
152.8127189877
 21
659.6664277793
  0
LINE
  5
25F
100
AcDbEntity
  8
00_COMPONENTS_7
100
AcDbLine
 62
7
  6
CONTINUOUS
 10
154.4463929192
 20
658.0327538478
 11
154.4518353519
 21
658.188374769
  0
LINE
  5
260
100
AcDbEntity
  8
00_COMPONENTS_51
100
AcDbLine
 62
7
  6
CONTINUOUS
 10
140.2648869283
 20
842.8496053745
 11
140.6390570873
 21
843.2312088043
  0
LINE
  5
261
100
AcDbEntity
  8
00_COMPONENTS_11
100
AcDbLine
 62
7
  6
CONTINUOUS
 10
123.1506775555
 20
861.3132840228
 11
130.9596336799
 21
866.7811739667
  0
LINE
  5
262
100
AcDbEntity
  8
00_COMPONENTS_11
100
AcDbLine
 62
7
  6
CONTINUOUS
 10
124.01104221
 20
860.0845559563
 11
129.8312187237
 21
864.1598874249
  0
LINE
  5
263
100
AcDbEntity
  8
00_COMPONENTS_51
100
AcDbLine
 62
7
  6
CONTINUOUS
 10
138.3640824855
 20
847.3598874249
 11
139.1666163121
 21
843.2312088043
  0
LINE
  5
264
100
AcDbEntity
  8
00_COMPONENTS_51
100
AcDbLine
 62
7
  6
CONTINUOUS
 10
140.6390570873
 20
843.2312088043
 11
139.8365232607
 21
847.3598874249
  0
LINE
  5
265
100
AcDbEntity
  8
00_COMPONENTS_25
100
AcDbLine
 62
7
  6
CONTINUOUS
 10
187.2114057437
 20
869.4994854117
 11
187.2861221518
 21
867.3598874249
  0
LINE
  5
266
100
AcDbEntity
  8
00_COMPONENTS_7
100
AcDbLine
 62
7
  6
CONTINUOUS
 10
198.8073857252
 20
599.6395704497
 11
198.8111753402
 21
599.5312102003
  0
LINE
  5
267
100
AcDbEntity
  8
00_COMPONENTS_7
100
AcDbLine
 62
7
  6
CONTINUOUS
 10
200.4517261816
 20
601.0596111773
 11
200.4479365666
 21
601.1679714267
  0
LINE
  5
268
100
AcDbEntity
  8
00_COMPONENTS_7
100
AcDbLine
 62
7
  6
CONTINUOUS
 10
198.8073857252
 20
716.6395704497
 11
198.8111753402
 21
716.5312102003
  0
LINE
  5
269
100
AcDbEntity
  8
00_COMPONENTS_7
100
AcDbLine
 62
7
  6
CONTINUOUS
 10
200.4517261816
 20
718.0596111773
 11
200.4479365666
 21
718.1679714267
  0
LINE
  5
26A
100
AcDbEntity
  8
00_COMPONENTS_7
100
AcDbLine
 62
7
  6
CONTINUOUS
 10
199.1145559534
 20
598.3528289442
 11
199.1145559534
 21
599.4356267709
  0
LINE
  5
26B
100
AcDbEntity
  8
00_COMPONENTS_7
100
AcDbLine
 62
7
  6
CONTINUOUS
 10
199.1145559534
 20
601.2635543565
 11
199.1145559534
 21
602.3463526828
  0
LINE
  5
26C
100
AcDbEntity
  8
00_COMPONENTS_7
100
AcDbLine
 62
7
  6
CONTINUOUS
 10
199.1145559534
 20
715.3528289442
 11
199.1145559534
 21
716.4356267709
  0
LINE
  5
26D
100
AcDbEntity
  8
00_COMPONENTS_7
100
AcDbLine
 62
7
  6
CONTINUOUS
 10
199.1145559534
 20
718.2635543565
 11
199.1145559534
 21
719.3463526828
  0
LINE
  5
26E
100
AcDbEntity
  8
00_COMPONENTS_7
100
AcDbLine
 62
7
  6
CONTINUOUS
 10
200.1445559534
 20
716.4356272706
 11
200.1445559534
 21
715.3528289442
  0
LINE
  5
26F
100
AcDbEntity
  8
00_COMPONENTS_7
100
AcDbLine
 62
7
  6
CONTINUOUS
 10
200.1445559534
 20
599.4356272706
 11
200.1445559534
 21
598.3528289442
  0
LINE
  5
270
100
AcDbEntity
  8
00_COMPONENTS_7
100
AcDbLine
 62
7
  6
CONTINUOUS
 10
200.1445559534
 20
601.2635548563
 11
200.1445559534
 21
602.3463526828
  0
LINE
  5
271
100
AcDbEntity
  8
00_COMPONENTS_7
100
AcDbLine
 62
7
  6
CONTINUOUS
 10
200.1445559534
 20
718.2635548563
 11
200.1445559534
 21
719.3463526828
  0
LINE
  5
272
100
AcDbEntity
  8
00_COMPONENTS_7
100
AcDbLine
 62
7
  6
CONTINUOUS
 10
198.8072765549
 20
718.0108068581
 11
198.8127189877
 21
718.1664277793
  0
LINE
  5
273
100
AcDbEntity
  8
00_COMPONENTS_7
100
AcDbLine
 62
7
  6
CONTINUOUS
 10
200.4463929192
 20
716.5327538478
 11
200.4518353519
 21
716.688374769
  0
LINE
  5
274
100
AcDbEntity
  8
00_COMPONENTS_7
100
AcDbLine
 62
7
  6
CONTINUOUS
 10
198.8072765549
 20
601.0108068581
 11
198.8127189877
 21
601.1664277793
  0
LINE
  5
275
100
AcDbEntity
  8
00_COMPONENTS_7
100
AcDbLine
 62
7
  6
CONTINUOUS
 10
200.4463929192
 20
599.5327538478
 11
200.4518353519
 21
599.688374769
  0
LINE
  5
276
100
AcDbEntity
  8
00_COMPONENTS_7
100
AcDbLine
 62
7
  6
CONTINUOUS
 10
200.2586546612
 20
599.5507864782
 11
200.2821480289
 21
599.5272931106
  0
LINE
  5
277
100
AcDbEntity
  8
00_COMPONENTS_7
100
AcDbLine
 62
7
  6
CONTINUOUS
 10
198.8307513711
 20
600.9786897684
 11
198.8072582504
 21
601.002182889
  0
LINE
  5
278
100
AcDbEntity
  8
00_COMPONENTS_7
100
AcDbLine
 62
7
  6
CONTINUOUS
 10
198.2397914725
 20
601.7393552945
 11
198.8287713622
 21
601.1503754047
  0
LINE
  5
279
100
AcDbEntity
  8
00_COMPONENTS_7
100
AcDbLine
 62
7
  6
CONTINUOUS
 10
201.0193204344
 20
598.9598263326
 11
200.4303405446
 21
599.5488062224
  0
LINE
  5
27A
100
AcDbEntity
  8
00_COMPONENTS_7
100
AcDbLine
 62
7
  6
CONTINUOUS
 10
200.4283605357
 20
599.7204918587
 11
200.4518536564
 21
599.696998738
  0
LINE
  5
27B
100
AcDbEntity
  8
00_COMPONENTS_7
100
AcDbLine
 62
7
  6
CONTINUOUS
 10
199.0004572456
 20
601.1483951488
 11
198.9769638779
 21
601.1718885165
  0
LINE
  5
27C
100
AcDbEntity
  8
00_COMPONENTS_7
100
AcDbLine
 62
7
  6
CONTINUOUS
 10
154.2586546612
 20
658.0507864782
 11
154.2821480289
 21
658.0272931106
  0
LINE
  5
27D
100
AcDbEntity
  8
00_COMPONENTS_7
100
AcDbLine
 62
7
  6
CONTINUOUS
 10
152.8307513711
 20
659.4786897684
 11
152.8072582504
 21
659.502182889
  0
LINE
  5
27E
100
AcDbEntity
  8
00_COMPONENTS_7
100
AcDbLine
 62
7
  6
CONTINUOUS
 10
152.2397914725
 20
660.2393552945
 11
152.8287713622
 21
659.6503754047
  0
LINE
  5
27F
100
AcDbEntity
  8
00_COMPONENTS_7
100
AcDbLine
 62
7
  6
CONTINUOUS
 10
155.0193204344
 20
657.4598263326
 11
154.4303405446
 21
658.0488062224
  0
LINE
  5
280
100
AcDbEntity
  8
00_COMPONENTS_7
100
AcDbLine
 62
7
  6
CONTINUOUS
 10
154.4283605357
 20
658.2204918587
 11
154.4518536564
 21
658.196998738
  0
LINE
  5
281
100
AcDbEntity
  8
00_COMPONENTS_7
100
AcDbLine
 62
7
  6
CONTINUOUS
 10
153.0004572456
 20
659.6483951488
 11
152.9769638779
 21
659.6718885165
  0
LINE
  5
282
100
AcDbEntity
  8
00_COMPONENTS_25
100
AcDbLine
 62
7
  6
CONTINUOUS
 10
183.7406254365
 20
873.3250896468
 11
183.5661321612
 21
873.2658174579
  0
LINE
  5
283
100
AcDbEntity
  8
00_COMPONENTS_25
100
AcDbLine
 62
7
  6
CONTINUOUS
 10
183.7410289497
 20
873.3249945331
 11
183.5661321612
 21
873.2658174579
  0
LINE
  5
284
100
AcDbEntity
  8
00_COMPONENTS_7
100
AcDbLine
 62
7
  6
CONTINUOUS
 10
198.8307516181
 20
716.7204921057
 11
198.8072582504
 21
716.696998738
  0
LINE
  5
285
100
AcDbEntity
  8
00_COMPONENTS_7
100
AcDbLine
 62
7
  6
CONTINUOUS
 10
200.2586549083
 20
718.1483953959
 11
200.2821480289
 21
718.1718885165
  0
LINE
  5
286
100
AcDbEntity
  8
00_COMPONENTS_7
100
AcDbLine
 62
7
  6
CONTINUOUS
 10
198.3845032437
 20
716.1045381038
 11
198.8287713622
 21
716.5488062224
  0
LINE
  5
287
100
AcDbEntity
  8
00_COMPONENTS_7
100
AcDbLine
 62
7
  6
CONTINUOUS
 10
200.4303405446
 20
718.1503754047
 11
200.8746086631
 21
718.5946435232
  0
LINE
  5
288
100
AcDbEntity
  8
00_COMPONENTS_7
100
AcDbLine
 62
7
  6
CONTINUOUS
 10
199.0004569986
 20
716.5507862312
 11
198.9769638779
 21
716.5272931106
  0
LINE
  5
289
100
AcDbEntity
  8
00_COMPONENTS_7
100
AcDbLine
 62
7
  6
CONTINUOUS
 10
200.4283602887
 20
717.9786895213
 11
200.4518536564
 21
718.002182889
  0
LINE
  5
28A
100
AcDbEntity
  8
00_COMPONENTS_7
100
AcDbLine
 62
7
  6
CONTINUOUS
 10
200.2586546612
 20
716.5507864782
 11
200.2821480289
 21
716.5272931106
  0
LINE
  5
28B
100
AcDbEntity
  8
00_COMPONENTS_7
100
AcDbLine
 62
7
  6
CONTINUOUS
 10
198.8307513711
 20
717.9786897684
 11
198.8072582504
 21
718.002182889
  0
LINE
  5
28C
100
AcDbEntity
  8
00_COMPONENTS_7
100
AcDbLine
 62
7
  6
CONTINUOUS
 10
198.2397914725
 20
718.7393552945
 11
198.8287713622
 21
718.1503754047
  0
LINE
  5
28D
100
AcDbEntity
  8
00_COMPONENTS_7
100
AcDbLine
 62
7
  6
CONTINUOUS
 10
201.0193204344
 20
715.9598263326
 11
200.4303405446
 21
716.5488062224
  0
LINE
  5
28E
100
AcDbEntity
  8
00_COMPONENTS_7
100
AcDbLine
 62
7
  6
CONTINUOUS
 10
200.4283605357
 20
716.7204918587
 11
200.4518536564
 21
716.696998738
  0
LINE
  5
28F
100
AcDbEntity
  8
00_COMPONENTS_7
100
AcDbLine
 62
7
  6
CONTINUOUS
 10
199.0004572456
 20
718.1483951488
 11
198.9769638779
 21
718.1718885165
  0
LINE
  5
290
100
AcDbEntity
  8
00_COMPONENTS_7
100
AcDbLine
 62
7
  6
CONTINUOUS
 10
318.8307513711
 20
600.9786897684
 11
318.8072582504
 21
601.002182889
  0
LINE
  5
291
100
AcDbEntity
  8
00_COMPONENTS_7
100
AcDbLine
 62
7
  6
CONTINUOUS
 10
320.2586546612
 20
599.5507864782
 11
320.2821480289
 21
599.5272931106
  0
LINE
  5
292
100
AcDbEntity
  8
00_COMPONENTS_7
100
AcDbLine
 62
7
  6
CONTINUOUS
 10
318.2397914725
 20
601.7393552945
 11
318.8287713622
 21
601.1503754047
  0
LINE
  5
293
100
AcDbEntity
  8
00_COMPONENTS_7
100
AcDbLine
 62
7
  6
CONTINUOUS
 10
320.4303405446
 20
599.5488062224
 11
321.0193204344
 21
598.9598263326
  0
LINE
  5
294
100
AcDbEntity
  8
00_COMPONENTS_7
100
AcDbLine
 62
7
  6
CONTINUOUS
 10
319.0004572456
 20
601.1483951488
 11
318.9769638779
 21
601.1718885165
  0
LINE
  5
295
100
AcDbEntity
  8
00_COMPONENTS_7
100
AcDbLine
 62
7
  6
CONTINUOUS
 10
320.4283605357
 20
599.7204918587
 11
320.4518536564
 21
599.696998738
  0
LINE
  5
296
100
AcDbEntity
  8
00_COMPONENTS_11
100
AcDbLine
 62
7
  6
CONTINUOUS
 10
127.2160485302
 20
864.1598874249
 11
128.0764131847
 21
862.9311593585
  0
LINE
  5
297
100
AcDbEntity
  8
00_COMPONENTS_11
100
AcDbLine
 62
7
  6
CONTINUOUS
 10
131.2662532346
 20
866.3432758607
 11
130.9596336799
 21
866.7811739666
  0
LINE
  5
298
100
AcDbEntity
  8
00_COMPONENTS_7
100
AcDbLine
 62
7
  6
CONTINUOUS
 10
318.8073857252
 20
599.6395704497
 11
318.8111753402
 21
599.5312102003
  0
LINE
  5
299
100
AcDbEntity
  8
00_COMPONENTS_7
100
AcDbLine
 62
7
  6
CONTINUOUS
 10
320.4517261816
 20
601.0596111773
 11
320.4479365666
 21
601.1679714267
  0
LINE
  5
29A
100
AcDbEntity
  8
00_COMPONENTS_7
100
AcDbLine
 62
7
  6
CONTINUOUS
 10
318.8073857252
 20
716.6395704497
 11
318.8111753402
 21
716.5312102003
  0
LINE
  5
29B
100
AcDbEntity
  8
00_COMPONENTS_7
100
AcDbLine
 62
7
  6
CONTINUOUS
 10
320.4517261816
 20
718.0596111773
 11
320.4479365666
 21
718.1679714267
  0
LINE
  5
29C
100
AcDbEntity
  8
00_COMPONENTS_7
100
AcDbLine
 62
7
  6
CONTINUOUS
 10
319.1145559534
 20
598.3528289442
 11
319.1145559534
 21
599.4356267709
  0
LINE
  5
29D
100
AcDbEntity
  8
00_COMPONENTS_7
100
AcDbLine
 62
7
  6
CONTINUOUS
 10
319.1145559534
 20
601.2635543565
 11
319.1145559534
 21
602.3463526828
  0
LINE
  5
29E
100
AcDbEntity
  8
00_COMPONENTS_7
100
AcDbLine
 62
7
  6
CONTINUOUS
 10
319.1145559534
 20
715.3528289442
 11
319.1145559534
 21
716.4356267709
  0
LINE
  5
29F
100
AcDbEntity
  8
00_COMPONENTS_7
100
AcDbLine
 62
7
  6
CONTINUOUS
 10
319.1145559534
 20
718.2635543565
 11
319.1145559534
 21
719.3463526828
  0
LINE
  5
2A0
100
AcDbEntity
  8
00_COMPONENTS_7
100
AcDbLine
 62
7
  6
CONTINUOUS
 10
320.1445559534
 20
716.4356272706
 11
320.1445559534
 21
715.3528289442
  0
LINE
  5
2A1
100
AcDbEntity
  8
00_COMPONENTS_7
100
AcDbLine
 62
7
  6
CONTINUOUS
 10
320.1445559534
 20
599.4356272706
 11
320.1445559534
 21
598.3528289442
  0
LINE
  5
2A2
100
AcDbEntity
  8
00_COMPONENTS_7
100
AcDbLine
 62
7
  6
CONTINUOUS
 10
320.1445559534
 20
601.2635548563
 11
320.1445559534
 21
602.3463526828
  0
LINE
  5
2A3
100
AcDbEntity
  8
00_COMPONENTS_7
100
AcDbLine
 62
7
  6
CONTINUOUS
 10
320.1445559534
 20
718.2635548563
 11
320.1445559534
 21
719.3463526828
  0
LINE
  5
2A4
100
AcDbEntity
  8
00_COMPONENTS_7
100
AcDbLine
 62
7
  6
CONTINUOUS
 10
318.8072765549
 20
718.0108068581
 11
318.8127189877
 21
718.1664277793
  0
LINE
  5
2A5
100
AcDbEntity
  8
00_COMPONENTS_7
100
AcDbLine
 62
7
  6
CONTINUOUS
 10
320.4463929192
 20
716.5327538478
 11
320.4518353519
 21
716.688374769
  0
LINE
  5
2A6
100
AcDbEntity
  8
00_COMPONENTS_7
100
AcDbLine
 62
7
  6
CONTINUOUS
 10
318.8072765549
 20
601.0108068581
 11
318.8127189877
 21
601.1664277793
  0
LINE
  5
2A7
100
AcDbEntity
  8
00_COMPONENTS_7
100
AcDbLine
 62
7
  6
CONTINUOUS
 10
152.8307516181
 20
658.2204921057
 11
152.8072582504
 21
658.196998738
  0
LINE
  5
2A8
100
AcDbEntity
  8
00_COMPONENTS_7
100
AcDbLine
 62
7
  6
CONTINUOUS
 10
154.2586549083
 20
659.6483953959
 11
154.2821480289
 21
659.6718885165
  0
LINE
  5
2A9
100
AcDbEntity
  8
00_COMPONENTS_7
100
AcDbLine
 62
7
  6
CONTINUOUS
 10
152.3845032437
 20
657.6045381038
 11
152.8287713622
 21
658.0488062224
  0
LINE
  5
2AA
100
AcDbEntity
  8
00_COMPONENTS_7
100
AcDbLine
 62
7
  6
CONTINUOUS
 10
154.4303405446
 20
659.6503754047
 11
154.8746086631
 21
660.0946435232
  0
LINE
  5
2AB
100
AcDbEntity
  8
00_COMPONENTS_7
100
AcDbLine
 62
7
  6
CONTINUOUS
 10
153.0004569986
 20
658.0507862312
 11
152.9769638779
 21
658.0272931106
  0
LINE
  5
2AC
100
AcDbEntity
  8
00_COMPONENTS_7
100
AcDbLine
 62
7
  6
CONTINUOUS
 10
154.4283602887
 20
659.4786895213
 11
154.4518536564
 21
659.502182889
  0
LINE
  5
2AD
100
AcDbEntity
  8
00_COMPONENTS_7
100
AcDbLine
 62
7
  6
CONTINUOUS
 10
320.4463929192
 20
599.5327538478
 11
320.4518353519
 21
599.688374769
  0
LINE
  5
2AE
100
AcDbEntity
  8
00_COMPONENTS_7
100
AcDbLine
 62
7
  6
CONTINUOUS
 10
198.8307516181
 20
599.7204921057
 11
198.8072582504
 21
599.696998738
  0
LINE
  5
2AF
100
AcDbEntity
  8
00_COMPONENTS_7
100
AcDbLine
 62
7
  6
CONTINUOUS
 10
200.2586549083
 20
601.1483953959
 11
200.2821480289
 21
601.1718885165
  0
LINE
  5
2B0
100
AcDbEntity
  8
00_COMPONENTS_7
100
AcDbLine
 62
7
  6
CONTINUOUS
 10
198.3845032437
 20
599.1045381038
 11
198.8287713622
 21
599.5488062224
  0
LINE
  5
2B1
100
AcDbEntity
  8
00_COMPONENTS_7
100
AcDbLine
 62
7
  6
CONTINUOUS
 10
200.4303405446
 20
601.1503754047
 11
200.8746086631
 21
601.5946435232
  0
LINE
  5
2B2
100
AcDbEntity
  8
00_COMPONENTS_7
100
AcDbLine
 62
7
  6
CONTINUOUS
 10
199.0004569986
 20
599.5507862312
 11
198.9769638779
 21
599.5272931106
  0
LINE
  5
2B3
100
AcDbEntity
  8
00_COMPONENTS_7
100
AcDbLine
 62
7
  6
CONTINUOUS
 10
200.4283602887
 20
600.9786895213
 11
200.4518536564
 21
601.002182889
  0
LINE
  5
2B4
100
AcDbEntity
  8
00_COMPONENTS_7
100
AcDbLine
 62
7
  6
CONTINUOUS
 10
318.8307516181
 20
716.7204921057
 11
318.8072582504
 21
716.696998738
  0
LINE
  5
2B5
100
AcDbEntity
  8
00_COMPONENTS_7
100
AcDbLine
 62
7
  6
CONTINUOUS
 10
320.2586549083
 20
718.1483953959
 11
320.2821480289
 21
718.1718885165
  0
LINE
  5
2B6
100
AcDbEntity
  8
00_COMPONENTS_7
100
AcDbLine
 62
7
  6
CONTINUOUS
 10
318.3845032437
 20
716.1045381038
 11
318.8287713622
 21
716.5488062224
  0
LINE
  5
2B7
100
AcDbEntity
  8
00_COMPONENTS_7
100
AcDbLine
 62
7
  6
CONTINUOUS
 10
320.4303405446
 20
718.1503754047
 11
320.8746086631
 21
718.5946435232
  0
LINE
  5
2B8
100
AcDbEntity
  8
00_COMPONENTS_7
100
AcDbLine
 62
7
  6
CONTINUOUS
 10
319.0004569986
 20
716.5507862312
 11
318.9769638779
 21
716.5272931106
  0
LINE
  5
2B9
100
AcDbEntity
  8
00_COMPONENTS_7
100
AcDbLine
 62
7
  6
CONTINUOUS
 10
320.4283602887
 20
717.9786895213
 11
320.4518536564
 21
718.002182889
  0
LINE
  5
2BA
100
AcDbEntity
  8
00_COMPONENTS_51
100
AcDbLine
 62
7
  6
CONTINUOUS
 10
916.4295559534
 20
563.8495908135
 11
122.8295559534
 21
563.8495908135
  0
LINE
  5
2BB
100
AcDbEntity
  8
00_COMPONENTS_51
100
AcDbLine
 62
7
  6
CONTINUOUS
 10
119.6295559534
 20
567.0495908135
 11
919.6295559534
 21
567.0495908135
  0
LINE
  5
2BC
100
AcDbEntity
  8
00_COMPONENTS_7
100
AcDbLine
 62
7
  6
CONTINUOUS
 10
320.2586546612
 20
716.5507864782
 11
320.2821480289
 21
716.5272931106
  0
LINE
  5
2BD
100
AcDbEntity
  8
00_COMPONENTS_7
100
AcDbLine
 62
7
  6
CONTINUOUS
 10
318.8307513711
 20
717.9786897684
 11
318.8072582504
 21
718.002182889
  0
LINE
  5
2BE
100
AcDbEntity
  8
00_COMPONENTS_7
100
AcDbLine
 62
7
  6
CONTINUOUS
 10
318.2397914725
 20
718.7393552945
 11
318.8287713622
 21
718.1503754047
  0
LINE
  5
2BF
100
AcDbEntity
  8
00_COMPONENTS_7
100
AcDbLine
 62
7
  6
CONTINUOUS
 10
321.0193204344
 20
715.9598263326
 11
320.4303405446
 21
716.5488062224
  0
LINE
  5
2C0
100
AcDbEntity
  8
00_COMPONENTS_7
100
AcDbLine
 62
7
  6
CONTINUOUS
 10
320.4283605357
 20
716.7204918587
 11
320.4518536564
 21
716.696998738
  0
LINE
  5
2C1
100
AcDbEntity
  8
00_COMPONENTS_7
100
AcDbLine
 62
7
  6
CONTINUOUS
 10
319.0004572456
 20
718.1483951488
 11
318.9769638779
 21
718.1718885165
  0
LINE
  5
2C2
100
AcDbEntity
  8
00_COMPONENTS_7
100
AcDbLine
 62
7
  6
CONTINUOUS
 10
438.8307513711
 20
600.9786897684
 11
438.8072582504
 21
601.002182889
  0
LINE
  5
2C3
100
AcDbEntity
  8
00_COMPONENTS_7
100
AcDbLine
 62
7
  6
CONTINUOUS
 10
440.2586546612
 20
599.5507864782
 11
440.2821480289
 21
599.5272931106
  0
LINE
  5
2C4
100
AcDbEntity
  8
00_COMPONENTS_7
100
AcDbLine
 62
7
  6
CONTINUOUS
 10
438.2397914725
 20
601.7393552945
 11
438.8287713622
 21
601.1503754047
  0
LINE
  5
2C5
100
AcDbEntity
  8
00_COMPONENTS_7
100
AcDbLine
 62
7
  6
CONTINUOUS
 10
440.4303405446
 20
599.5488062224
 11
441.0193204344
 21
598.9598263326
  0
LINE
  5
2C6
100
AcDbEntity
  8
00_COMPONENTS_7
100
AcDbLine
 62
7
  6
CONTINUOUS
 10
439.0004572456
 20
601.1483951488
 11
438.9769638779
 21
601.1718885165
  0
LINE
  5
2C7
100
AcDbEntity
  8
00_COMPONENTS_7
100
AcDbLine
 62
7
  6
CONTINUOUS
 10
440.4283605357
 20
599.7204918587
 11
440.4518536564
 21
599.696998738
  0
LINE
  5
2C8
100
AcDbEntity
  8
00_COMPONENTS_7
100
AcDbLine
 62
7
  6
CONTINUOUS
 10
840.2907719979
 20
599.527311415
 11
840.4463929192
 21
599.5327538478
  0
LINE
  5
2C9
100
AcDbEntity
  8
00_COMPONENTS_7
100
AcDbLine
 62
7
  6
CONTINUOUS
 10
838.9683399089
 20
601.1718702121
 11
838.8127189877
 21
601.1664277793
  0
LINE
  5
2CA
100
AcDbEntity
  8
00_COMPONENTS_7
100
AcDbLine
 62
7
  6
CONTINUOUS
 10
720.2907719979
 20
599.527311415
 11
720.4463929192
 21
599.5327538478
  0
LINE
  5
2CB
100
AcDbEntity
  8
00_COMPONENTS_7
100
AcDbLine
 62
7
  6
CONTINUOUS
 10
718.9683399089
 20
601.1718702121
 11
718.8127189877
 21
601.1664277793
  0
LINE
  5
2CC
100
AcDbEntity
  8
00_COMPONENTS_7
100
AcDbLine
 62
7
  6
CONTINUOUS
 10
600.2907719979
 20
599.527311415
 11
600.4463929192
 21
599.5327538478
  0
LINE
  5
2CD
100
AcDbEntity
  8
00_COMPONENTS_7
100
AcDbLine
 62
7
  6
CONTINUOUS
 10
598.9683399089
 20
601.1718702121
 11
598.8127189877
 21
601.1664277793
  0
LINE
  5
2CE
100
AcDbEntity
  8
00_COMPONENTS_7
100
AcDbLine
 62
7
  6
CONTINUOUS
 10
440.2907719979
 20
599.527311415
 11
440.4463929192
 21
599.5327538478
  0
LINE
  5
2CF
100
AcDbEntity
  8
00_COMPONENTS_7
100
AcDbLine
 62
7
  6
CONTINUOUS
 10
438.9683399089
 20
601.1718702121
 11
438.8127189877
 21
601.1664277793
  0
LINE
  5
2D0
100
AcDbEntity
  8
00_COMPONENTS_7
100
AcDbLine
 62
7
  6
CONTINUOUS
 10
320.2907719979
 20
599.527311415
 11
320.4463929192
 21
599.5327538478
  0
LINE
  5
2D1
100
AcDbEntity
  8
00_COMPONENTS_51
100
AcDbLine
 62
7
  6
CONTINUOUS
 10
870.3795559534
 20
588.5995908135
 11
568.8795559534
 21
588.5995908135
  0
LINE
  5
2D2
100
AcDbEntity
  8
00_COMPONENTS_51
100
AcDbLine
 62
7
  6
CONTINUOUS
 10
470.3795559534
 20
588.5995908135
 11
168.8795559534
 21
588.5995908135
  0
LINE
  5
2D3
100
AcDbEntity
  8
00_COMPONENTS_51
100
AcDbLine
 62
7
  6
CONTINUOUS
 10
870.3795559534
 20
589.0995908135
 11
568.8795559534
 21
589.0995908135
  0
LINE
  5
2D4
100
AcDbEntity
  8
00_COMPONENTS_51
100
AcDbLine
 62
7
  6
CONTINUOUS
 10
470.3795559534
 20
589.0995908135
 11
168.8795559534
 21
589.0995908135
  0
LINE
  5
2D5
100
AcDbEntity
  8
00_COMPONENTS_51
100
AcDbLine
 62
7
  6
CONTINUOUS
 10
869.3795559534
 20
589.9213915512
 11
569.8795559534
 21
589.9213915512
  0
LINE
  5
2D6
100
AcDbEntity
  8
00_COMPONENTS_51
100
AcDbLine
 62
7
  6
CONTINUOUS
 10
469.3795559534
 20
589.9213915512
 11
169.8795559534
 21
589.9213915512
  0
LINE
  5
2D7
100
AcDbEntity
  8
00_COMPONENTS_51
100
AcDbLine
 62
7
  6
CONTINUOUS
 10
169.8795559534
 20
591.8910070572
 11
469.3795559529
 21
591.8910070572
  0
LINE
  5
2D8
100
AcDbEntity
  8
00_COMPONENTS_51
100
AcDbLine
 62
7
  6
CONTINUOUS
 10
569.8795559534
 20
591.8910070572
 11
869.3795559529
 21
591.8910070572
  0
LINE
  5
2D9
100
AcDbEntity
  8
00_COMPONENTS_51
100
AcDbLine
 62
7
  6
CONTINUOUS
 10
869.379555952
 20
591.9828636339
 11
569.8795559517
 21
591.9828636339
  0
LINE
  5
2DA
100
AcDbEntity
  8
00_COMPONENTS_51
100
AcDbLine
 62
7
  6
CONTINUOUS
 10
469.379555952
 20
591.9828636339
 11
169.8795559517
 21
591.9828636339
  0
LINE
  5
2DB
100
AcDbEntity
  8
00_COMPONENTS_51
100
AcDbLine
 62
7
  6
CONTINUOUS
 10
169.8795559534
 20
592.9676713868
 11
469.3795559534
 21
592.9676713868
  0
LINE
  5
2DC
100
AcDbEntity
  8
00_COMPONENTS_51
100
AcDbLine
 62
7
  6
CONTINUOUS
 10
569.8795559534
 20
592.9676713868
 11
869.3795559534
 21
592.9676713868
  0
LINE
  5
2DD
100
AcDbEntity
  8
00_COMPONENTS_3
100
AcDbLine
 62
7
  6
CONTINUOUS
 10
867.1295559534
 20
593.8495908135
 11
572.1295559534
 21
593.8495908135
  0
LINE
  5
2DE
100
AcDbEntity
  8
00_COMPONENTS_3
100
AcDbLine
 62
7
  6
CONTINUOUS
 10
467.1295559534
 20
593.8495908135
 11
172.1295559534
 21
593.8495908135
  0
LINE
  5
2DF
100
AcDbEntity
  8
00_COMPONENTS_7
100
AcDbLine
 62
7
  6
CONTINUOUS
 10
197.6327940841
 20
599.8345908135
 11
198.7155924105
 21
599.8345908135
  0
LINE
  5
2E0
100
AcDbEntity
  8
00_COMPONENTS_7
100
AcDbLine
 62
7
  6
CONTINUOUS
 10
200.5435199962
 20
599.8345908135
 11
201.6263178227
 21
599.8345908135
  0
LINE
  5
2E1
100
AcDbEntity
  8
00_COMPONENTS_7
100
AcDbLine
 62
7
  6
CONTINUOUS
 10
317.6327940841
 20
599.8345908135
 11
318.7155924105
 21
599.8345908135
  0
LINE
  5
2E2
100
AcDbEntity
  8
00_COMPONENTS_7
100
AcDbLine
 62
7
  6
CONTINUOUS
 10
320.5435199962
 20
599.8345908135
 11
321.6263178227
 21
599.8345908135
  0
LINE
  5
2E3
100
AcDbEntity
  8
00_COMPONENTS_7
100
AcDbLine
 62
7
  6
CONTINUOUS
 10
437.6327940841
 20
599.8345908135
 11
438.7155924105
 21
599.8345908135
  0
LINE
  5
2E4
100
AcDbEntity
  8
00_COMPONENTS_7
100
AcDbLine
 62
7
  6
CONTINUOUS
 10
440.5435199962
 20
599.8345908135
 11
441.6263178227
 21
599.8345908135
  0
LINE
  5
2E5
100
AcDbEntity
  8
00_COMPONENTS_7
100
AcDbLine
 62
7
  6
CONTINUOUS
 10
597.6327940841
 20
599.8345908135
 11
598.7155924105
 21
599.8345908135
  0
LINE
  5
2E6
100
AcDbEntity
  8
00_COMPONENTS_7
100
AcDbLine
 62
7
  6
CONTINUOUS
 10
600.5435199962
 20
599.8345908135
 11
601.6263178227
 21
599.8345908135
  0
LINE
  5
2E7
100
AcDbEntity
  8
00_COMPONENTS_7
100
AcDbLine
 62
7
  6
CONTINUOUS
 10
717.6327940841
 20
599.8345908135
 11
718.7155924105
 21
599.8345908135
  0
LINE
  5
2E8
100
AcDbEntity
  8
00_COMPONENTS_7
100
AcDbLine
 62
7
  6
CONTINUOUS
 10
720.5435199962
 20
599.8345908135
 11
721.6263178227
 21
599.8345908135
  0
LINE
  5
2E9
100
AcDbEntity
  8
00_COMPONENTS_7
100
AcDbLine
 62
7
  6
CONTINUOUS
 10
837.6327940841
 20
599.8345908135
 11
838.7155924105
 21
599.8345908135
  0
LINE
  5
2EA
100
AcDbEntity
  8
00_COMPONENTS_7
100
AcDbLine
 62
7
  6
CONTINUOUS
 10
840.5435199962
 20
599.8345908135
 11
841.6263178227
 21
599.8345908135
  0
LINE
  5
2EB
100
AcDbEntity
  8
00_COMPONENTS_7
100
AcDbLine
 62
7
  6
CONTINUOUS
 10
838.7155919107
 20
600.8645908135
 11
837.6327940841
 21
600.8645908135
  0
LINE
  5
2EC
100
AcDbEntity
  8
00_COMPONENTS_7
100
AcDbLine
 62
7
  6
CONTINUOUS
 10
718.7155919107
 20
600.8645908135
 11
717.6327940841
 21
600.8645908135
  0
LINE
  5
2ED
100
AcDbEntity
  8
00_COMPONENTS_7
100
AcDbLine
 62
7
  6
CONTINUOUS
 10
598.7155919107
 20
600.8645908135
 11
597.6327940841
 21
600.8645908135
  0
LINE
  5
2EE
100
AcDbEntity
  8
00_COMPONENTS_7
100
AcDbLine
 62
7
  6
CONTINUOUS
 10
438.7155919107
 20
600.8645908135
 11
437.6327940841
 21
600.8645908135
  0
LINE
  5
2EF
100
AcDbEntity
  8
00_COMPONENTS_7
100
AcDbLine
 62
7
  6
CONTINUOUS
 10
318.7155919107
 20
600.8645908135
 11
317.6327940841
 21
600.8645908135
  0
LINE
  5
2F0
100
AcDbEntity
  8
00_COMPONENTS_7
100
AcDbLine
 62
7
  6
CONTINUOUS
 10
198.7155919107
 20
600.8645908135
 11
197.6327940841
 21
600.8645908135
  0
LINE
  5
2F1
100
AcDbEntity
  8
00_COMPONENTS_7
100
AcDbLine
 62
7
  6
CONTINUOUS
 10
200.5435194963
 20
600.8645908135
 11
201.6263178227
 21
600.8645908135
  0
LINE
  5
2F2
100
AcDbEntity
  8
00_COMPONENTS_7
100
AcDbLine
 62
7
  6
CONTINUOUS
 10
320.5435194963
 20
600.8645908135
 11
321.6263178227
 21
600.8645908135
  0
LINE
  5
2F3
100
AcDbEntity
  8
00_COMPONENTS_7
100
AcDbLine
 62
7
  6
CONTINUOUS
 10
440.5435194963
 20
600.8645908135
 11
441.6263178227
 21
600.8645908135
  0
LINE
  5
2F4
100
AcDbEntity
  8
00_COMPONENTS_7
100
AcDbLine
 62
7
  6
CONTINUOUS
 10
600.5435194963
 20
600.8645908135
 11
601.6263178227
 21
600.8645908135
  0
LINE
  5
2F5
100
AcDbEntity
  8
00_COMPONENTS_7
100
AcDbLine
 62
7
  6
CONTINUOUS
 10
720.5435194963
 20
600.8645908135
 11
721.6263178227
 21
600.8645908135
  0
LINE
  5
2F6
100
AcDbEntity
  8
00_COMPONENTS_7
100
AcDbLine
 62
7
  6
CONTINUOUS
 10
840.5435194963
 20
600.8645908135
 11
841.6263178227
 21
600.8645908135
  0
LINE
  5
2F7
100
AcDbEntity
  8
00_COMPONENTS_7
100
AcDbLine
 62
7
  6
CONTINUOUS
 10
198.9195355896
 20
599.5274205854
 11
198.8111753402
 21
599.5312102003
  0
LINE
  5
2F8
100
AcDbEntity
  8
00_COMPONENTS_7
100
AcDbLine
 62
7
  6
CONTINUOUS
 10
200.3395763172
 20
601.1717610417
 11
200.4479365666
 21
601.1679714267
  0
LINE
  5
2F9
100
AcDbEntity
  8
00_COMPONENTS_7
100
AcDbLine
 62
7
  6
CONTINUOUS
 10
318.9195355896
 20
599.5274205854
 11
318.8111753402
 21
599.5312102003
  0
LINE
  5
2FA
100
AcDbEntity
  8
00_COMPONENTS_7
100
AcDbLine
 62
7
  6
CONTINUOUS
 10
320.3395763172
 20
601.1717610417
 11
320.4479365666
 21
601.1679714267
  0
LINE
  5
2FB
100
AcDbEntity
  8
00_COMPONENTS_7
100
AcDbLine
 62
7
  6
CONTINUOUS
 10
438.9195355896
 20
599.5274205854
 11
438.8111753402
 21
599.5312102003
  0
LINE
  5
2FC
100
AcDbEntity
  8
00_COMPONENTS_7
100
AcDbLine
 62
7
  6
CONTINUOUS
 10
440.3395763172
 20
601.1717610417
 11
440.4479365666
 21
601.1679714267
  0
LINE
  5
2FD
100
AcDbEntity
  8
00_COMPONENTS_7
100
AcDbLine
 62
7
  6
CONTINUOUS
 10
598.9195355896
 20
599.5274205854
 11
598.8111753402
 21
599.5312102003
  0
LINE
  5
2FE
100
AcDbEntity
  8
00_COMPONENTS_7
100
AcDbLine
 62
7
  6
CONTINUOUS
 10
600.3395763172
 20
601.1717610417
 11
600.4479365666
 21
601.1679714267
  0
LINE
  5
2FF
100
AcDbEntity
  8
00_COMPONENTS_7
100
AcDbLine
 62
7
  6
CONTINUOUS
 10
718.9195355896
 20
599.5274205854
 11
718.8111753402
 21
599.5312102003
  0
LINE
  5
300
100
AcDbEntity
  8
00_COMPONENTS_7
100
AcDbLine
 62
7
  6
CONTINUOUS
 10
438.8073857252
 20
599.6395704497
 11
438.8111753402
 21
599.5312102003
  0
LINE
  5
301
100
AcDbEntity
  8
00_COMPONENTS_7
100
AcDbLine
 62
7
  6
CONTINUOUS
 10
440.4517261816
 20
601.0596111773
 11
440.4479365666
 21
601.1679714267
  0
LINE
  5
302
100
AcDbEntity
  8
00_COMPONENTS_7
100
AcDbLine
 62
7
  6
CONTINUOUS
 10
318.9683399089
 20
601.1718702121
 11
318.8127189877
 21
601.1664277793
  0
LINE
  5
303
100
AcDbEntity
  8
00_COMPONENTS_7
100
AcDbLine
 62
7
  6
CONTINUOUS
 10
200.2907719979
 20
599.527311415
 11
200.4463929192
 21
599.5327538478
  0
LINE
  5
304
100
AcDbEntity
  8
00_COMPONENTS_7
100
AcDbLine
 62
7
  6
CONTINUOUS
 10
198.9683399089
 20
601.1718702121
 11
198.8127189877
 21
601.1664277793
  0
LINE
  5
305
100
AcDbEntity
  8
00_COMPONENTS_51
100
AcDbLine
 62
7
  6
CONTINUOUS
 10
141.8795559534
 20
615.5995908135
 11
142.3795559534
 21
615.5995908135
  0
LINE
  5
306
100
AcDbEntity
  8
00_COMPONENTS_51
100
AcDbLine
 62
7
  6
CONTINUOUS
 10
496.8795559534
 20
615.5995908135
 11
497.3795559534
 21
615.5995908135
  0
LINE
  5
307
100
AcDbEntity
  8
00_COMPONENTS_51
100
AcDbLine
 62
7
  6
CONTINUOUS
 10
541.8795559534
 20
615.5995908135
 11
542.3795559534
 21
615.5995908135
  0
LINE
  5
308
100
AcDbEntity
  8
00_COMPONENTS_51
100
AcDbLine
 62
7
  6
CONTINUOUS
 10
896.8795559534
 20
615.5995908135
 11
897.3795559534
 21
615.5995908135
  0
LINE
  5
309
100
AcDbEntity
  8
00_COMPONENTS_51
100
AcDbLine
 62
7
  6
CONTINUOUS
 10
493.0114753801
 20
616.599590808
 11
496.0577552158
 21
616.5995908135
  0
LINE
  5
30A
100
AcDbEntity
  8
00_COMPONENTS_51
100
AcDbLine
 62
7
  6
CONTINUOUS
 10
543.2013566911
 20
616.5995908135
 11
546.2476365267
 21
616.5995908135
  0
LINE
  5
30B
100
AcDbEntity
  8
00_COMPONENTS_51
100
AcDbLine
 62
7
  6
CONTINUOUS
 10
893.0114753801
 20
616.599590808
 11
896.0577552158
 21
616.5995908135
  0
LINE
  5
30C
100
AcDbEntity
  8
00_COMPONENTS_51
100
AcDbLine
 62
7
  6
CONTINUOUS
 10
143.201356691
 20
616.5995908135
 11
146.2476365267
 21
616.5995908135
  0
LINE
  5
30D
100
AcDbEntity
  8
00_COMPONENTS_7
100
AcDbLine
 62
7
  6
CONTINUOUS
 10
720.3395763172
 20
601.1717610417
 11
720.4479365666
 21
601.1679714267
  0
LINE
  5
30E
100
AcDbEntity
  8
00_COMPONENTS_7
100
AcDbLine
 62
7
  6
CONTINUOUS
 10
838.9195355896
 20
599.5274205854
 11
838.8111753402
 21
599.5312102003
  0
LINE
  5
30F
100
AcDbEntity
  8
00_COMPONENTS_7
100
AcDbLine
 62
7
  6
CONTINUOUS
 10
840.3395763172
 20
601.1717610417
 11
840.4479365666
 21
601.1679714267
  0
LINE
  5
310
100
AcDbEntity
  8
00_COMPONENTS_7
100
AcDbLine
 62
7
  6
CONTINUOUS
 10
438.8073857252
 20
716.6395704497
 11
438.8111753402
 21
716.5312102003
  0
LINE
  5
311
100
AcDbEntity
  8
00_COMPONENTS_7
100
AcDbLine
 62
7
  6
CONTINUOUS
 10
440.4517261816
 20
718.0596111773
 11
440.4479365666
 21
718.1679714267
  0
LINE
  5
312
100
AcDbEntity
  8
00_COMPONENTS_7
100
AcDbLine
 62
7
  6
CONTINUOUS
 10
439.1145559534
 20
598.3528289442
 11
439.1145559534
 21
599.4356267709
  0
LINE
  5
313
100
AcDbEntity
  8
00_COMPONENTS_7
100
AcDbLine
 62
7
  6
CONTINUOUS
 10
439.1145559534
 20
601.2635543565
 11
439.1145559534
 21
602.3463526828
  0
LINE
  5
314
100
AcDbEntity
  8
00_COMPONENTS_7
100
AcDbLine
 62
7
  6
CONTINUOUS
 10
439.1145559534
 20
715.3528289442
 11
439.1145559534
 21
716.4356267709
  0
LINE
  5
315
100
AcDbEntity
  8
00_COMPONENTS_7
100
AcDbLine
 62
7
  6
CONTINUOUS
 10
439.1145559534
 20
718.2635543565
 11
439.1145559534
 21
719.3463526828
  0
LINE
  5
316
100
AcDbEntity
  8
00_COMPONENTS_7
100
AcDbLine
 62
7
  6
CONTINUOUS
 10
440.1445559534
 20
716.4356272706
 11
440.1445559534
 21
715.3528289442
  0
LINE
  5
317
100
AcDbEntity
  8
00_COMPONENTS_7
100
AcDbLine
 62
7
  6
CONTINUOUS
 10
440.1445559534
 20
599.4356272706
 11
440.1445559534
 21
598.3528289442
  0
LINE
  5
318
100
AcDbEntity
  8
00_COMPONENTS_7
100
AcDbLine
 62
7
  6
CONTINUOUS
 10
440.1445559534
 20
601.2635548563
 11
440.1445559534
 21
602.3463526828
  0
LINE
  5
319
100
AcDbEntity
  8
00_COMPONENTS_7
100
AcDbLine
 62
7
  6
CONTINUOUS
 10
440.1445559534
 20
718.2635548563
 11
440.1445559534
 21
719.3463526828
  0
LINE
  5
31A
100
AcDbEntity
  8
00_COMPONENTS_7
100
AcDbLine
 62
7
  6
CONTINUOUS
 10
438.8072765549
 20
718.0108068581
 11
438.8127189877
 21
718.1664277793
  0
LINE
  5
31B
100
AcDbEntity
  8
00_COMPONENTS_7
100
AcDbLine
 62
7
  6
CONTINUOUS
 10
440.4463929192
 20
716.5327538478
 11
440.4518353519
 21
716.688374769
  0
LINE
  5
31C
100
AcDbEntity
  8
00_COMPONENTS_7
100
AcDbLine
 62
7
  6
CONTINUOUS
 10
438.8072765549
 20
601.0108068581
 11
438.8127189877
 21
601.1664277793
  0
LINE
  5
31D
100
AcDbEntity
  8
00_COMPONENTS_7
100
AcDbLine
 62
7
  6
CONTINUOUS
 10
440.4463929192
 20
599.5327538478
 11
440.4518353519
 21
599.688374769
  0
LINE
  5
31E
100
AcDbEntity
  8
00_COMPONENTS_7
100
AcDbLine
 62
7
  6
CONTINUOUS
 10
318.8307516181
 20
599.7204921057
 11
318.8072582504
 21
599.696998738
  0
LINE
  5
31F
100
AcDbEntity
  8
00_COMPONENTS_7
100
AcDbLine
 62
7
  6
CONTINUOUS
 10
320.2586549083
 20
601.1483953959
 11
320.2821480289
 21
601.1718885165
  0
LINE
  5
320
100
AcDbEntity
  8
00_COMPONENTS_7
100
AcDbLine
 62
7
  6
CONTINUOUS
 10
318.3845032437
 20
599.1045381038
 11
318.8287713622
 21
599.5488062224
  0
LINE
  5
321
100
AcDbEntity
  8
00_COMPONENTS_7
100
AcDbLine
 62
7
  6
CONTINUOUS
 10
320.4303405446
 20
601.1503754047
 11
320.8746086631
 21
601.5946435232
  0
LINE
  5
322
100
AcDbEntity
  8
00_COMPONENTS_7
100
AcDbLine
 62
7
  6
CONTINUOUS
 10
319.0004569986
 20
599.5507862312
 11
318.9769638779
 21
599.5272931106
  0
LINE
  5
323
100
AcDbEntity
  8
00_COMPONENTS_7
100
AcDbLine
 62
7
  6
CONTINUOUS
 10
320.4283602887
 20
600.9786895213
 11
320.4518536564
 21
601.002182889
  0
LINE
  5
324
100
AcDbEntity
  8
00_COMPONENTS_7
100
AcDbLine
 62
7
  6
CONTINUOUS
 10
438.8307516181
 20
716.7204921057
 11
438.8072582504
 21
716.696998738
  0
LINE
  5
325
100
AcDbEntity
  8
00_COMPONENTS_7
100
AcDbLine
 62
7
  6
CONTINUOUS
 10
440.2586549083
 20
718.1483953959
 11
440.2821480289
 21
718.1718885165
  0
LINE
  5
326
100
AcDbEntity
  8
00_COMPONENTS_7
100
AcDbLine
 62
7
  6
CONTINUOUS
 10
438.3845032437
 20
716.1045381038
 11
438.8287713622
 21
716.5488062224
  0
LINE
  5
327
100
AcDbEntity
  8
00_COMPONENTS_7
100
AcDbLine
 62
7
  6
CONTINUOUS
 10
440.4303405446
 20
718.1503754047
 11
440.8746086631
 21
718.5946435232
  0
LINE
  5
328
100
AcDbEntity
  8
00_COMPONENTS_7
100
AcDbLine
 62
7
  6
CONTINUOUS
 10
439.0004569986
 20
716.5507862312
 11
438.9769638779
 21
716.5272931106
  0
LINE
  5
329
100
AcDbEntity
  8
00_COMPONENTS_7
100
AcDbLine
 62
7
  6
CONTINUOUS
 10
440.4283602887
 20
717.9786895213
 11
440.4518536564
 21
718.002182889
  0
LINE
  5
32A
100
AcDbEntity
  8
00_COMPONENTS_7
100
AcDbLine
 62
7
  6
CONTINUOUS
 10
886.290771998
 20
658.027311415
 11
886.4463929192
 21
658.0327538478
  0
LINE
  5
32B
100
AcDbEntity
  8
00_COMPONENTS_7
100
AcDbLine
 62
7
  6
CONTINUOUS
 10
884.9683399089
 20
659.6718702121
 11
884.8127189877
 21
659.6664277793
  0
LINE
  5
32C
100
AcDbEntity
  8
00_COMPONENTS_7
100
AcDbLine
 62
7
  6
CONTINUOUS
 10
554.2907719979
 20
658.027311415
 11
554.4463929192
 21
658.0327538478
  0
LINE
  5
32D
100
AcDbEntity
  8
00_COMPONENTS_7
100
AcDbLine
 62
7
  6
CONTINUOUS
 10
552.9683399089
 20
659.6718702121
 11
552.8127189877
 21
659.6664277793
  0
LINE
  5
32E
100
AcDbEntity
  8
00_COMPONENTS_7
100
AcDbLine
 62
7
  6
CONTINUOUS
 10
486.2907719979
 20
658.027311415
 11
486.4463929192
 21
658.0327538478
  0
LINE
  5
32F
100
AcDbEntity
  8
00_COMPONENTS_7
100
AcDbLine
 62
7
  6
CONTINUOUS
 10
484.9683399089
 20
659.6718702121
 11
484.8127189877
 21
659.6664277793
  0
LINE
  5
330
100
AcDbEntity
  8
00_COMPONENTS_7
100
AcDbLine
 62
7
  6
CONTINUOUS
 10
151.6327940841
 20
658.3345908135
 11
152.7155924105
 21
658.3345908135
  0
LINE
  5
331
100
AcDbEntity
  8
00_COMPONENTS_7
100
AcDbLine
 62
7
  6
CONTINUOUS
 10
154.5435199962
 20
658.3345908135
 11
155.6263178227
 21
658.3345908135
  0
LINE
  5
332
100
AcDbEntity
  8
00_COMPONENTS_7
100
AcDbLine
 62
7
  6
CONTINUOUS
 10
483.6327940841
 20
658.3345908135
 11
484.7155924105
 21
658.3345908135
  0
LINE
  5
333
100
AcDbEntity
  8
00_COMPONENTS_7
100
AcDbLine
 62
7
  6
CONTINUOUS
 10
486.5435199962
 20
658.3345908135
 11
487.6263178227
 21
658.3345908135
  0
LINE
  5
334
100
AcDbEntity
  8
00_COMPONENTS_7
100
AcDbLine
 62
7
  6
CONTINUOUS
 10
551.6327940841
 20
658.3345908135
 11
552.7155924105
 21
658.3345908135
  0
LINE
  5
335
100
AcDbEntity
  8
00_COMPONENTS_7
100
AcDbLine
 62
7
  6
CONTINUOUS
 10
554.5435199962
 20
658.3345908135
 11
555.6263178227
 21
658.3345908135
  0
LINE
  5
336
100
AcDbEntity
  8
00_COMPONENTS_7
100
AcDbLine
 62
7
  6
CONTINUOUS
 10
883.6327940841
 20
658.3345908135
 11
884.7155924105
 21
658.3345908135
  0
LINE
  5
337
100
AcDbEntity
  8
00_COMPONENTS_7
100
AcDbLine
 62
7
  6
CONTINUOUS
 10
886.5435199962
 20
658.3345908135
 11
887.6263178227
 21
658.3345908135
  0
LINE
  5
338
100
AcDbEntity
  8
00_COMPONENTS_7
100
AcDbLine
 62
7
  6
CONTINUOUS
 10
884.7155919107
 20
659.3645908135
 11
883.6327940841
 21
659.3645908135
  0
LINE
  5
339
100
AcDbEntity
  8
00_COMPONENTS_7
100
AcDbLine
 62
7
  6
CONTINUOUS
 10
552.7155919107
 20
659.3645908135
 11
551.6327940841
 21
659.3645908135
  0
LINE
  5
33A
100
AcDbEntity
  8
00_COMPONENTS_7
100
AcDbLine
 62
7
  6
CONTINUOUS
 10
484.7155919107
 20
659.3645908135
 11
483.6327940841
 21
659.3645908135
  0
LINE
  5
33B
100
AcDbEntity
  8
00_COMPONENTS_7
100
AcDbLine
 62
7
  6
CONTINUOUS
 10
152.7155919107
 20
659.3645908135
 11
151.6327940841
 21
659.3645908135
  0
LINE
  5
33C
100
AcDbEntity
  8
00_COMPONENTS_7
100
AcDbLine
 62
7
  6
CONTINUOUS
 10
154.5435194963
 20
659.3645908135
 11
155.6263178227
 21
659.3645908135
  0
LINE
  5
33D
100
AcDbEntity
  8
00_COMPONENTS_7
100
AcDbLine
 62
7
  6
CONTINUOUS
 10
486.5435194963
 20
659.3645908135
 11
487.6263178227
 21
659.3645908135
  0
LINE
  5
33E
100
AcDbEntity
  8
00_COMPONENTS_7
100
AcDbLine
 62
7
  6
CONTINUOUS
 10
554.5435194963
 20
659.3645908135
 11
555.6263178227
 21
659.3645908135
  0
LINE
  5
33F
100
AcDbEntity
  8
00_COMPONENTS_7
100
AcDbLine
 62
7
  6
CONTINUOUS
 10
886.5435194963
 20
659.3645908135
 11
887.6263178227
 21
659.3645908135
  0
LINE
  5
340
100
AcDbEntity
  8
00_COMPONENTS_7
100
AcDbLine
 62
7
  6
CONTINUOUS
 10
152.9195355896
 20
658.0274205854
 11
152.8111753402
 21
658.0312102003
  0
LINE
  5
341
100
AcDbEntity
  8
00_COMPONENTS_7
100
AcDbLine
 62
7
  6
CONTINUOUS
 10
154.3395763172
 20
659.6717610417
 11
154.4479365666
 21
659.6679714267
  0
LINE
  5
342
100
AcDbEntity
  8
00_COMPONENTS_7
100
AcDbLine
 62
7
  6
CONTINUOUS
 10
484.9195355896
 20
658.0274205854
 11
484.8111753402
 21
658.0312102003
  0
LINE
  5
343
100
AcDbEntity
  8
00_COMPONENTS_7
100
AcDbLine
 62
7
  6
CONTINUOUS
 10
486.3395763172
 20
659.6717610417
 11
486.4479365666
 21
659.6679714267
  0
LINE
  5
344
100
AcDbEntity
  8
00_COMPONENTS_7
100
AcDbLine
 62
7
  6
CONTINUOUS
 10
552.9195355896
 20
658.0274205854
 11
552.8111753402
 21
658.0312102003
  0
LINE
  5
345
100
AcDbEntity
  8
00_COMPONENTS_7
100
AcDbLine
 62
7
  6
CONTINUOUS
 10
554.3395763172
 20
659.6717610417
 11
554.4479365666
 21
659.6679714267
  0
LINE
  5
346
100
AcDbEntity
  8
00_COMPONENTS_7
100
AcDbLine
 62
7
  6
CONTINUOUS
 10
484.8307513711
 20
659.4786897684
 11
484.8072582504
 21
659.502182889
  0
LINE
  5
347
100
AcDbEntity
  8
00_COMPONENTS_7
100
AcDbLine
 62
7
  6
CONTINUOUS
 10
486.2586546612
 20
658.0507864782
 11
486.2821480289
 21
658.0272931106
  0
LINE
  5
348
100
AcDbEntity
  8
00_COMPONENTS_7
100
AcDbLine
 62
7
  6
CONTINUOUS
 10
484.2397914725
 20
660.2393552945
 11
484.8287713622
 21
659.6503754047
  0
LINE
  5
349
100
AcDbEntity
  8
00_COMPONENTS_7
100
AcDbLine
 62
7
  6
CONTINUOUS
 10
486.4303405446
 20
658.0488062224
 11
487.0193204344
 21
657.4598263326
  0
LINE
  5
34A
100
AcDbEntity
  8
00_COMPONENTS_7
100
AcDbLine
 62
7
  6
CONTINUOUS
 10
485.0004572456
 20
659.6483951488
 11
484.9769638779
 21
659.6718885165
  0
LINE
  5
34B
100
AcDbEntity
  8
00_COMPONENTS_7
100
AcDbLine
 62
7
  6
CONTINUOUS
 10
486.4283605357
 20
658.2204918587
 11
486.4518536564
 21
658.196998738
  0
LINE
  5
34C
100
AcDbEntity
  8
00_COMPONENTS_7
100
AcDbLine
 62
7
  6
CONTINUOUS
 10
438.8307513711
 20
717.9786897684
 11
438.8072582504
 21
718.002182889
  0
LINE
  5
34D
100
AcDbEntity
  8
00_COMPONENTS_7
100
AcDbLine
 62
7
  6
CONTINUOUS
 10
440.2586546612
 20
716.5507864782
 11
440.2821480289
 21
716.5272931106
  0
LINE
  5
34E
100
AcDbEntity
  8
00_COMPONENTS_7
100
AcDbLine
 62
7
  6
CONTINUOUS
 10
438.2397914725
 20
718.7393552945
 11
438.8287713622
 21
718.1503754047
  0
LINE
  5
34F
100
AcDbEntity
  8
00_COMPONENTS_7
100
AcDbLine
 62
7
  6
CONTINUOUS
 10
440.4303405446
 20
716.5488062224
 11
441.0193204344
 21
715.9598263326
  0
LINE
  5
350
100
AcDbEntity
  8
00_COMPONENTS_7
100
AcDbLine
 62
7
  6
CONTINUOUS
 10
439.0004572456
 20
718.1483951488
 11
438.9769638779
 21
718.1718885165
  0
LINE
  5
351
100
AcDbEntity
  8
00_COMPONENTS_7
100
AcDbLine
 62
7
  6
CONTINUOUS
 10
440.4283605357
 20
716.7204918587
 11
440.4518536564
 21
716.696998738
  0
LINE
  5
352
100
AcDbEntity
  8
00_COMPONENTS_7
100
AcDbLine
 62
7
  6
CONTINUOUS
 10
484.8073857252
 20
658.1395704497
 11
484.8111753402
 21
658.0312102003
  0
LINE
  5
353
100
AcDbEntity
  8
00_COMPONENTS_7
100
AcDbLine
 62
7
  6
CONTINUOUS
 10
486.4517261816
 20
659.5596111773
 11
486.4479365666
 21
659.6679714267
  0
LINE
  5
354
100
AcDbEntity
  8
00_COMPONENTS_51
100
AcDbLine
 62
7
  6
CONTINUOUS
 10
469.3795559534
 20
589.9213915512
 11
469.3795559534
 21
592.9676713868
  0
LINE
  5
355
100
AcDbEntity
  8
00_COMPONENTS_51
100
AcDbLine
 62
7
  6
CONTINUOUS
 10
469.379555959
 20
724.7315102402
 11
469.3795559534
 21
727.7777900759
  0
LINE
  5
356
100
AcDbEntity
  8
00_COMPONENTS_51
100
AcDbLine
 62
7
  6
CONTINUOUS
 10
470.3795559534
 20
588.5995908135
 11
470.3795559534
 21
589.0995908135
  0
LINE
  5
357
100
AcDbEntity
  8
00_COMPONENTS_51
100
AcDbLine
 62
7
  6
CONTINUOUS
 10
470.3795559534
 20
728.5995908135
 11
470.3795559534
 21
729.0995908135
  0
LINE
  5
358
100
AcDbEntity
  8
00_COMPONENTS_7
100
AcDbLine
 62
7
  6
CONTINUOUS
 10
485.1145559534
 20
656.8528289442
 11
485.1145559534
 21
657.9356267709
  0
LINE
  5
359
100
AcDbEntity
  8
00_COMPONENTS_7
100
AcDbLine
 62
7
  6
CONTINUOUS
 10
485.1145559534
 20
659.7635543565
 11
485.1145559534
 21
660.8463526828
  0
LINE
  5
35A
100
AcDbEntity
  8
00_COMPONENTS_7
100
AcDbLine
 62
7
  6
CONTINUOUS
 10
486.1445559534
 20
657.9356272706
 11
486.1445559534
 21
656.8528289442
  0
LINE
  5
35B
100
AcDbEntity
  8
00_COMPONENTS_7
100
AcDbLine
 62
7
  6
CONTINUOUS
 10
486.1445559534
 20
659.7635548563
 11
486.1445559534
 21
660.8463526828
  0
LINE
  5
35C
100
AcDbEntity
  8
00_COMPONENTS_3
100
AcDbLine
 62
7
  6
CONTINUOUS
 10
492.1295559534
 20
698.8495908135
 11
492.1295559534
 21
618.8495908135
  0
LINE
  5
35D
100
AcDbEntity
  8
00_COMPONENTS_51
100
AcDbLine
 62
7
  6
CONTINUOUS
 10
493.0114753801
 20
616.5995908099
 11
493.0114753801
 21
701.0995908135
  0
LINE
  5
35E
100
AcDbEntity
  8
00_COMPONENTS_51
100
AcDbLine
 62
7
  6
CONTINUOUS
 10
493.9962831331
 20
701.0995908121
 11
493.9962831331
 21
616.5995908118
  0
LINE
  5
35F
100
AcDbEntity
  8
00_COMPONENTS_51
100
AcDbLine
 62
7
  6
CONTINUOUS
 10
494.0881397097
 20
616.5995908135
 11
494.0881397097
 21
701.0995908131
  0
LINE
  5
360
100
AcDbEntity
  8
00_COMPONENTS_7
100
AcDbLine
 62
7
  6
CONTINUOUS
 10
484.8072765549
 20
659.5108068581
 11
484.8127189877
 21
659.6664277793
  0
LINE
  5
361
100
AcDbEntity
  8
00_COMPONENTS_7
100
AcDbLine
 62
7
  6
CONTINUOUS
 10
486.4463929192
 20
658.0327538478
 11
486.4518353519
 21
658.188374769
  0
LINE
  5
362
100
AcDbEntity
  8
00_COMPONENTS_7
100
AcDbLine
 62
7
  6
CONTINUOUS
 10
154.2907719979
 20
658.027311415
 11
154.4463929192
 21
658.0327538478
  0
LINE
  5
363
100
AcDbEntity
  8
00_COMPONENTS_7
100
AcDbLine
 62
7
  6
CONTINUOUS
 10
152.9683399089
 20
659.6718702121
 11
152.8127189877
 21
659.6664277793
  0
LINE
  5
364
100
AcDbEntity
  8
00_COMPONENTS_7
100
AcDbLine
 62
7
  6
CONTINUOUS
 10
884.9195355896
 20
658.0274205854
 11
884.8111753402
 21
658.0312102003
  0
LINE
  5
365
100
AcDbEntity
  8
00_COMPONENTS_7
100
AcDbLine
 62
7
  6
CONTINUOUS
 10
886.3395763172
 20
659.6717610417
 11
886.4479365666
 21
659.6679714267
  0
LINE
  5
366
100
AcDbEntity
  8
00_COMPONENTS_7
100
AcDbLine
 62
7
  6
CONTINUOUS
 10
598.8307513711
 20
600.9786897684
 11
598.8072582504
 21
601.002182889
  0
LINE
  5
367
100
AcDbEntity
  8
00_COMPONENTS_7
100
AcDbLine
 62
7
  6
CONTINUOUS
 10
600.2586546612
 20
599.5507864782
 11
600.2821480289
 21
599.5272931106
  0
LINE
  5
368
100
AcDbEntity
  8
00_COMPONENTS_7
100
AcDbLine
 62
7
  6
CONTINUOUS
 10
598.2397914725
 20
601.7393552945
 11
598.8287713622
 21
601.1503754047
  0
LINE
  5
369
100
AcDbEntity
  8
00_COMPONENTS_7
100
AcDbLine
 62
7
  6
CONTINUOUS
 10
600.4303405446
 20
599.5488062224
 11
601.0193204344
 21
598.9598263326
  0
LINE
  5
36A
100
AcDbEntity
  8
00_COMPONENTS_7
100
AcDbLine
 62
7
  6
CONTINUOUS
 10
599.0004572456
 20
601.1483951488
 11
598.9769638779
 21
601.1718885165
  0
LINE
  5
36B
100
AcDbEntity
  8
00_COMPONENTS_7
100
AcDbLine
 62
7
  6
CONTINUOUS
 10
600.4283605357
 20
599.7204918587
 11
600.4518536564
 21
599.696998738
  0
LINE
  5
36C
100
AcDbEntity
  8
00_COMPONENTS_51
100
AcDbLine
 62
7
  6
CONTINUOUS
 10
496.0577552158
 20
701.0995908135
 11
496.0577552158
 21
616.5995908135
  0
LINE
  5
36D
100
AcDbEntity
  8
00_COMPONENTS_51
100
AcDbLine
 62
7
  6
CONTINUOUS
 10
496.8795559534
 20
702.0995908135
 11
496.8795559534
 21
615.5995908135
  0
LINE
  5
36E
100
AcDbEntity
  8
00_COMPONENTS_51
100
AcDbLine
 62
7
  6
CONTINUOUS
 10
497.3795559534
 20
702.0995908135
 11
497.3795559534
 21
615.5995908135
  0
LINE
  5
36F
100
AcDbEntity
  8
00_COMPONENTS_7
100
AcDbLine
 62
7
  6
CONTINUOUS
 10
840.2907719979
 20
716.527311415
 11
840.4463929192
 21
716.5327538478
  0
LINE
  5
370
100
AcDbEntity
  8
00_COMPONENTS_7
100
AcDbLine
 62
7
  6
CONTINUOUS
 10
838.9683399089
 20
718.1718702121
 11
838.8127189877
 21
718.1664277793
  0
LINE
  5
371
100
AcDbEntity
  8
00_COMPONENTS_7
100
AcDbLine
 62
7
  6
CONTINUOUS
 10
720.2907719979
 20
716.527311415
 11
720.4463929192
 21
716.5327538478
  0
LINE
  5
372
100
AcDbEntity
  8
00_COMPONENTS_7
100
AcDbLine
 62
7
  6
CONTINUOUS
 10
718.9683399089
 20
718.1718702121
 11
718.8127189877
 21
718.1664277793
  0
LINE
  5
373
100
AcDbEntity
  8
00_COMPONENTS_7
100
AcDbLine
 62
7
  6
CONTINUOUS
 10
600.2907719979
 20
716.527311415
 11
600.4463929192
 21
716.5327538478
  0
LINE
  5
374
100
AcDbEntity
  8
00_COMPONENTS_7
100
AcDbLine
 62
7
  6
CONTINUOUS
 10
598.9683399089
 20
718.1718702121
 11
598.8127189877
 21
718.1664277793
  0
LINE
  5
375
100
AcDbEntity
  8
00_COMPONENTS_7
100
AcDbLine
 62
7
  6
CONTINUOUS
 10
440.2907719979
 20
716.527311415
 11
440.4463929192
 21
716.5327538478
  0
LINE
  5
376
100
AcDbEntity
  8
00_COMPONENTS_7
100
AcDbLine
 62
7
  6
CONTINUOUS
 10
438.9683399089
 20
718.1718702121
 11
438.8127189877
 21
718.1664277793
  0
LINE
  5
377
100
AcDbEntity
  8
00_COMPONENTS_51
100
AcDbLine
 62
7
  6
CONTINUOUS
 10
896.0577552158
 20
701.0995908135
 11
893.0114753801
 21
701.0995908135
  0
LINE
  5
378
100
AcDbEntity
  8
00_COMPONENTS_51
100
AcDbLine
 62
7
  6
CONTINUOUS
 10
546.2476365267
 20
701.0995908191
 11
543.2013566911
 21
701.0995908135
  0
LINE
  5
379
100
AcDbEntity
  8
00_COMPONENTS_51
100
AcDbLine
 62
7
  6
CONTINUOUS
 10
496.0577552158
 20
701.0995908135
 11
493.0114753801
 21
701.0995908135
  0
LINE
  5
37A
100
AcDbEntity
  8
00_COMPONENTS_51
100
AcDbLine
 62
7
  6
CONTINUOUS
 10
146.2476365267
 20
701.0995908191
 11
143.201356691
 21
701.0995908135
  0
LINE
  5
37B
100
AcDbEntity
  8
00_COMPONENTS_51
100
AcDbLine
 62
7
  6
CONTINUOUS
 10
897.3795559534
 20
702.0995908135
 11
896.8795559534
 21
702.0995908135
  0
LINE
  5
37C
100
AcDbEntity
  8
00_COMPONENTS_51
100
AcDbLine
 62
7
  6
CONTINUOUS
 10
542.3795559534
 20
702.0995908135
 11
541.8795559534
 21
702.0995908135
  0
LINE
  5
37D
100
AcDbEntity
  8
00_COMPONENTS_51
100
AcDbLine
 62
7
  6
CONTINUOUS
 10
497.3795559534
 20
702.0995908135
 11
496.8795559534
 21
702.0995908135
  0
LINE
  5
37E
100
AcDbEntity
  8
00_COMPONENTS_51
100
AcDbLine
 62
7
  6
CONTINUOUS
 10
142.3795559534
 20
702.0995908135
 11
141.8795559534
 21
702.0995908135
  0
LINE
  5
37F
100
AcDbEntity
  8
00_COMPONENTS_7
100
AcDbLine
 62
7
  6
CONTINUOUS
 10
197.6327940841
 20
716.8345908135
 11
198.7155924105
 21
716.8345908135
  0
LINE
  5
380
100
AcDbEntity
  8
00_COMPONENTS_7
100
AcDbLine
 62
7
  6
CONTINUOUS
 10
200.5435199962
 20
716.8345908135
 11
201.6263178227
 21
716.8345908135
  0
LINE
  5
381
100
AcDbEntity
  8
00_COMPONENTS_7
100
AcDbLine
 62
7
  6
CONTINUOUS
 10
317.6327940841
 20
716.8345908135
 11
318.7155924105
 21
716.8345908135
  0
LINE
  5
382
100
AcDbEntity
  8
00_COMPONENTS_7
100
AcDbLine
 62
7
  6
CONTINUOUS
 10
320.5435199962
 20
716.8345908135
 11
321.6263178227
 21
716.8345908135
  0
LINE
  5
383
100
AcDbEntity
  8
00_COMPONENTS_7
100
AcDbLine
 62
7
  6
CONTINUOUS
 10
437.6327940841
 20
716.8345908135
 11
438.7155924105
 21
716.8345908135
  0
LINE
  5
384
100
AcDbEntity
  8
00_COMPONENTS_7
100
AcDbLine
 62
7
  6
CONTINUOUS
 10
440.5435199962
 20
716.8345908135
 11
441.6263178227
 21
716.8345908135
  0
LINE
  5
385
100
AcDbEntity
  8
00_COMPONENTS_7
100
AcDbLine
 62
7
  6
CONTINUOUS
 10
597.6327940841
 20
716.8345908135
 11
598.7155924105
 21
716.8345908135
  0
LINE
  5
386
100
AcDbEntity
  8
00_COMPONENTS_7
100
AcDbLine
 62
7
  6
CONTINUOUS
 10
600.5435199962
 20
716.8345908135
 11
601.6263178227
 21
716.8345908135
  0
LINE
  5
387
100
AcDbEntity
  8
00_COMPONENTS_7
100
AcDbLine
 62
7
  6
CONTINUOUS
 10
717.6327940841
 20
716.8345908135
 11
718.7155924105
 21
716.8345908135
  0
LINE
  5
388
100
AcDbEntity
  8
00_COMPONENTS_7
100
AcDbLine
 62
7
  6
CONTINUOUS
 10
720.5435199962
 20
716.8345908135
 11
721.6263178227
 21
716.8345908135
  0
LINE
  5
389
100
AcDbEntity
  8
00_COMPONENTS_7
100
AcDbLine
 62
7
  6
CONTINUOUS
 10
837.6327940841
 20
716.8345908135
 11
838.7155924105
 21
716.8345908135
  0
LINE
  5
38A
100
AcDbEntity
  8
00_COMPONENTS_7
100
AcDbLine
 62
7
  6
CONTINUOUS
 10
840.5435199962
 20
716.8345908135
 11
841.6263178227
 21
716.8345908135
  0
LINE
  5
38B
100
AcDbEntity
  8
00_COMPONENTS_7
100
AcDbLine
 62
7
  6
CONTINUOUS
 10
838.7155919107
 20
717.8645908135
 11
837.6327940841
 21
717.8645908135
  0
LINE
  5
38C
100
AcDbEntity
  8
00_COMPONENTS_7
100
AcDbLine
 62
7
  6
CONTINUOUS
 10
718.7155919107
 20
717.8645908135
 11
717.6327940841
 21
717.8645908135
  0
LINE
  5
38D
100
AcDbEntity
  8
00_COMPONENTS_7
100
AcDbLine
 62
7
  6
CONTINUOUS
 10
598.7155919107
 20
717.8645908135
 11
597.6327940841
 21
717.8645908135
  0
LINE
  5
38E
100
AcDbEntity
  8
00_COMPONENTS_7
100
AcDbLine
 62
7
  6
CONTINUOUS
 10
438.7155919107
 20
717.8645908135
 11
437.6327940841
 21
717.8645908135
  0
LINE
  5
38F
100
AcDbEntity
  8
00_COMPONENTS_7
100
AcDbLine
 62
7
  6
CONTINUOUS
 10
318.7155919107
 20
717.8645908135
 11
317.6327940841
 21
717.8645908135
  0
LINE
  5
390
100
AcDbEntity
  8
00_COMPONENTS_7
100
AcDbLine
 62
7
  6
CONTINUOUS
 10
198.7155919107
 20
717.8645908135
 11
197.6327940841
 21
717.8645908135
  0
LINE
  5
391
100
AcDbEntity
  8
00_COMPONENTS_7
100
AcDbLine
 62
7
  6
CONTINUOUS
 10
200.5435194963
 20
717.8645908135
 11
201.6263178227
 21
717.8645908135
  0
LINE
  5
392
100
AcDbEntity
  8
00_COMPONENTS_7
100
AcDbLine
 62
7
  6
CONTINUOUS
 10
320.5435194963
 20
717.8645908135
 11
321.6263178227
 21
717.8645908135
  0
LINE
  5
393
100
AcDbEntity
  8
00_COMPONENTS_7
100
AcDbLine
 62
7
  6
CONTINUOUS
 10
440.5435194963
 20
717.8645908135
 11
441.6263178227
 21
717.8645908135
  0
LINE
  5
394
100
AcDbEntity
  8
00_COMPONENTS_7
100
AcDbLine
 62
7
  6
CONTINUOUS
 10
600.5435194963
 20
717.8645908135
 11
601.6263178227
 21
717.8645908135
  0
LINE
  5
395
100
AcDbEntity
  8
00_COMPONENTS_7
100
AcDbLine
 62
7
  6
CONTINUOUS
 10
720.5435194963
 20
717.8645908135
 11
721.6263178227
 21
717.8645908135
  0
LINE
  5
396
100
AcDbEntity
  8
00_COMPONENTS_7
100
AcDbLine
 62
7
  6
CONTINUOUS
 10
840.5435194963
 20
717.8645908135
 11
841.6263178227
 21
717.8645908135
  0
LINE
  5
397
100
AcDbEntity
  8
00_COMPONENTS_7
100
AcDbLine
 62
7
  6
CONTINUOUS
 10
198.9195355896
 20
716.5274205854
 11
198.8111753402
 21
716.5312102003
  0
LINE
  5
398
100
AcDbEntity
  8
00_COMPONENTS_7
100
AcDbLine
 62
7
  6
CONTINUOUS
 10
200.3395763172
 20
718.1717610417
 11
200.4479365666
 21
718.1679714267
  0
LINE
  5
399
100
AcDbEntity
  8
00_COMPONENTS_7
100
AcDbLine
 62
7
  6
CONTINUOUS
 10
318.9195355896
 20
716.5274205854
 11
318.8111753402
 21
716.5312102003
  0
LINE
  5
39A
100
AcDbEntity
  8
00_COMPONENTS_7
100
AcDbLine
 62
7
  6
CONTINUOUS
 10
320.3395763172
 20
718.1717610417
 11
320.4479365666
 21
718.1679714267
  0
LINE
  5
39B
100
AcDbEntity
  8
00_COMPONENTS_7
100
AcDbLine
 62
7
  6
CONTINUOUS
 10
438.9195355896
 20
716.5274205854
 11
438.8111753402
 21
716.5312102003
  0
LINE
  5
39C
100
AcDbEntity
  8
00_COMPONENTS_7
100
AcDbLine
 62
7
  6
CONTINUOUS
 10
440.3395763172
 20
718.1717610417
 11
440.4479365666
 21
718.1679714267
  0
LINE
  5
39D
100
AcDbEntity
  8
00_COMPONENTS_7
100
AcDbLine
 62
7
  6
CONTINUOUS
 10
598.9195355896
 20
716.5274205854
 11
598.8111753402
 21
716.5312102003
  0
LINE
  5
39E
100
AcDbEntity
  8
00_COMPONENTS_7
100
AcDbLine
 62
7
  6
CONTINUOUS
 10
600.3395763172
 20
718.1717610417
 11
600.4479365666
 21
718.1679714267
  0
LINE
  5
39F
100
AcDbEntity
  8
00_COMPONENTS_7
100
AcDbLine
 62
7
  6
CONTINUOUS
 10
552.8307513711
 20
659.4786897684
 11
552.8072582504
 21
659.502182889
  0
LINE
  5
3A0
100
AcDbEntity
  8
00_COMPONENTS_7
100
AcDbLine
 62
7
  6
CONTINUOUS
 10
554.2586546612
 20
658.0507864782
 11
554.2821480289
 21
658.0272931106
  0
LINE
  5
3A1
100
AcDbEntity
  8
00_COMPONENTS_7
100
AcDbLine
 62
7
  6
CONTINUOUS
 10
552.2397914725
 20
660.2393552945
 11
552.8287713622
 21
659.6503754047
  0
LINE
  5
3A2
100
AcDbEntity
  8
00_COMPONENTS_7
100
AcDbLine
 62
7
  6
CONTINUOUS
 10
554.4303405446
 20
658.0488062224
 11
555.0193204344
 21
657.4598263326
  0
LINE
  5
3A3
100
AcDbEntity
  8
00_COMPONENTS_7
100
AcDbLine
 62
7
  6
CONTINUOUS
 10
553.0004572456
 20
659.6483951488
 11
552.9769638779
 21
659.6718885165
  0
LINE
  5
3A4
100
AcDbEntity
  8
00_COMPONENTS_7
100
AcDbLine
 62
7
  6
CONTINUOUS
 10
554.4283605357
 20
658.2204918587
 11
554.4518536564
 21
658.196998738
  0
LINE
  5
3A5
100
AcDbEntity
  8
00_COMPONENTS_7
100
AcDbLine
 62
7
  6
CONTINUOUS
 10
552.8073857252
 20
658.1395704497
 11
552.8111753402
 21
658.0312102003
  0
LINE
  5
3A6
100
AcDbEntity
  8
00_COMPONENTS_51
100
AcDbLine
 62
7
  6
CONTINUOUS
 10
541.8795559534
 20
615.5995908135
 11
541.8795559534
 21
702.0995908135
  0
LINE
  5
3A7
100
AcDbEntity
  8
00_COMPONENTS_51
100
AcDbLine
 62
7
  6
CONTINUOUS
 10
542.3795559534
 20
615.5995908135
 11
542.3795559534
 21
702.0995908135
  0
LINE
  5
3A8
100
AcDbEntity
  8
00_COMPONENTS_51
100
AcDbLine
 62
7
  6
CONTINUOUS
 10
543.2013566911
 20
616.5995908135
 11
543.2013566911
 21
701.0995908135
  0
LINE
  5
3A9
100
AcDbEntity
  8
00_COMPONENTS_51
100
AcDbLine
 62
7
  6
CONTINUOUS
 10
545.1709721971
 20
701.0995908135
 11
545.1709721971
 21
616.599590814
  0
LINE
  5
3AA
100
AcDbEntity
  8
00_COMPONENTS_51
100
AcDbLine
 62
7
  6
CONTINUOUS
 10
545.2628287737
 20
616.5995908149
 11
545.2628287737
 21
701.0995908152
  0
LINE
  5
3AB
100
AcDbEntity
  8
00_COMPONENTS_51
100
AcDbLine
 62
7
  6
CONTINUOUS
 10
546.2476365267
 20
701.0995908135
 11
546.2476365267
 21
616.5995908135
  0
LINE
  5
3AC
100
AcDbEntity
  8
00_COMPONENTS_3
100
AcDbLine
 62
7
  6
CONTINUOUS
 10
547.1295559534
 20
618.8495908135
 11
547.1295559534
 21
698.8495908135
  0
LINE
  5
3AD
100
AcDbEntity
  8
00_COMPONENTS_7
100
AcDbLine
 62
7
  6
CONTINUOUS
 10
484.8307516181
 20
658.2204921057
 11
484.8072582504
 21
658.196998738
  0
LINE
  5
3AE
100
AcDbEntity
  8
00_COMPONENTS_7
100
AcDbLine
 62
7
  6
CONTINUOUS
 10
486.2586549083
 20
659.6483953959
 11
486.2821480289
 21
659.6718885165
  0
LINE
  5
3AF
100
AcDbEntity
  8
00_COMPONENTS_7
100
AcDbLine
 62
7
  6
CONTINUOUS
 10
484.3845032437
 20
657.6045381038
 11
484.8287713622
 21
658.0488062224
  0
LINE
  5
3B0
100
AcDbEntity
  8
00_COMPONENTS_7
100
AcDbLine
 62
7
  6
CONTINUOUS
 10
486.4303405446
 20
659.6503754047
 11
486.8746086631
 21
660.0946435232
  0
LINE
  5
3B1
100
AcDbEntity
  8
00_COMPONENTS_7
100
AcDbLine
 62
7
  6
CONTINUOUS
 10
485.0004569986
 20
658.0507862312
 11
484.9769638779
 21
658.0272931106
  0
LINE
  5
3B2
100
AcDbEntity
  8
00_COMPONENTS_7
100
AcDbLine
 62
7
  6
CONTINUOUS
 10
486.4283602887
 20
659.4786895213
 11
486.4518536564
 21
659.502182889
  0
LINE
  5
3B3
100
AcDbEntity
  8
00_COMPONENTS_7
100
AcDbLine
 62
7
  6
CONTINUOUS
 10
438.8307516181
 20
599.7204921057
 11
438.8072582504
 21
599.696998738
  0
LINE
  5
3B4
100
AcDbEntity
  8
00_COMPONENTS_7
100
AcDbLine
 62
7
  6
CONTINUOUS
 10
440.2586549083
 20
601.1483953959
 11
440.2821480289
 21
601.1718885165
  0
LINE
  5
3B5
100
AcDbEntity
  8
00_COMPONENTS_7
100
AcDbLine
 62
7
  6
CONTINUOUS
 10
438.3845032437
 20
599.1045381038
 11
438.8287713622
 21
599.5488062224
  0
LINE
  5
3B6
100
AcDbEntity
  8
00_COMPONENTS_7
100
AcDbLine
 62
7
  6
CONTINUOUS
 10
440.4303405446
 20
601.1503754047
 11
440.8746086631
 21
601.5946435232
  0
LINE
  5
3B7
100
AcDbEntity
  8
00_COMPONENTS_7
100
AcDbLine
 62
7
  6
CONTINUOUS
 10
439.0004569986
 20
599.5507862312
 11
438.9769638779
 21
599.5272931106
  0
LINE
  5
3B8
100
AcDbEntity
  8
00_COMPONENTS_7
100
AcDbLine
 62
7
  6
CONTINUOUS
 10
440.4283602887
 20
600.9786895213
 11
440.4518536564
 21
601.002182889
  0
LINE
  5
3B9
100
AcDbEntity
  8
00_COMPONENTS_7
100
AcDbLine
 62
7
  6
CONTINUOUS
 10
320.2907719979
 20
716.527311415
 11
320.4463929192
 21
716.5327538478
  0
LINE
  5
3BA
100
AcDbEntity
  8
00_COMPONENTS_7
100
AcDbLine
 62
7
  6
CONTINUOUS
 10
318.9683399089
 20
718.1718702121
 11
318.8127189877
 21
718.1664277793
  0
LINE
  5
3BB
100
AcDbEntity
  8
00_COMPONENTS_7
100
AcDbLine
 62
7
  6
CONTINUOUS
 10
200.2907719979
 20
716.527311415
 11
200.4463929192
 21
716.5327538478
  0
LINE
  5
3BC
100
AcDbEntity
  8
00_COMPONENTS_7
100
AcDbLine
 62
7
  6
CONTINUOUS
 10
198.9683399089
 20
718.1718702121
 11
198.8127189877
 21
718.1664277793
  0
LINE
  5
3BD
100
AcDbEntity
  8
00_COMPONENTS_3
100
AcDbLine
 62
7
  6
CONTINUOUS
 10
172.1295559534
 20
723.8495908135
 11
467.1295559534
 21
723.8495908135
  0
LINE
  5
3BE
100
AcDbEntity
  8
00_COMPONENTS_3
100
AcDbLine
 62
7
  6
CONTINUOUS
 10
572.1295559534
 20
723.8495908135
 11
867.1295559534
 21
723.8495908135
  0
LINE
  5
3BF
100
AcDbEntity
  8
00_COMPONENTS_51
100
AcDbLine
 62
7
  6
CONTINUOUS
 10
869.3795559534
 20
724.7315102402
 11
569.8795559534
 21
724.7315102402
  0
LINE
  5
3C0
100
AcDbEntity
  8
00_COMPONENTS_51
100
AcDbLine
 62
7
  6
CONTINUOUS
 10
469.3795559534
 20
724.7315102402
 11
169.8795559534
 21
724.7315102402
  0
LINE
  5
3C1
100
AcDbEntity
  8
00_COMPONENTS_51
100
AcDbLine
 62
7
  6
CONTINUOUS
 10
169.8795559548
 20
725.7163179932
 11
469.3795559551
 21
725.7163179932
  0
LINE
  5
3C2
100
AcDbEntity
  8
00_COMPONENTS_51
100
AcDbLine
 62
7
  6
CONTINUOUS
 10
569.8795559548
 20
725.7163179932
 11
869.3795559551
 21
725.7163179932
  0
LINE
  5
3C3
100
AcDbEntity
  8
00_COMPONENTS_51
100
AcDbLine
 62
7
  6
CONTINUOUS
 10
869.3795559534
 20
725.8081745698
 11
569.8795559539
 21
725.8081745698
  0
LINE
  5
3C4
100
AcDbEntity
  8
00_COMPONENTS_51
100
AcDbLine
 62
7
  6
CONTINUOUS
 10
469.3795559534
 20
725.8081745698
 11
169.8795559539
 21
725.8081745698
  0
LINE
  5
3C5
100
AcDbEntity
  8
00_COMPONENTS_51
100
AcDbLine
 62
7
  6
CONTINUOUS
 10
169.8795559542
 20
727.7777900759
 11
469.3795559526
 21
727.7777900759
  0
LINE
  5
3C6
100
AcDbEntity
  8
00_COMPONENTS_51
100
AcDbLine
 62
7
  6
CONTINUOUS
 10
569.8795559542
 20
727.7777900759
 11
869.3795559526
 21
727.7777900759
  0
LINE
  5
3C7
100
AcDbEntity
  8
00_COMPONENTS_51
100
AcDbLine
 62
7
  6
CONTINUOUS
 10
168.8795559534
 20
728.5995908135
 11
470.3795559534
 21
728.5995908135
  0
LINE
  5
3C8
100
AcDbEntity
  8
00_COMPONENTS_51
100
AcDbLine
 62
7
  6
CONTINUOUS
 10
568.8795559534
 20
728.5995908135
 11
870.3795559534
 21
728.5995908135
  0
LINE
  5
3C9
100
AcDbEntity
  8
00_COMPONENTS_51
100
AcDbLine
 62
7
  6
CONTINUOUS
 10
168.8795559534
 20
729.0995908135
 11
470.3795559534
 21
729.0995908135
  0
LINE
  5
3CA
100
AcDbEntity
  8
00_COMPONENTS_51
100
AcDbLine
 62
7
  6
CONTINUOUS
 10
568.8795559534
 20
729.0995908135
 11
870.3795559534
 21
729.0995908135
  0
LINE
  5
3CB
100
AcDbEntity
  8
00_COMPONENTS_7
100
AcDbLine
 62
7
  6
CONTINUOUS
 10
718.9195355896
 20
716.5274205854
 11
718.8111753402
 21
716.5312102003
  0
LINE
  5
3CC
100
AcDbEntity
  8
00_COMPONENTS_7
100
AcDbLine
 62
7
  6
CONTINUOUS
 10
720.3395763172
 20
718.1717610417
 11
720.4479365666
 21
718.1679714267
  0
LINE
  5
3CD
100
AcDbEntity
  8
00_COMPONENTS_7
100
AcDbLine
 62
7
  6
CONTINUOUS
 10
838.9195355896
 20
716.5274205854
 11
838.8111753402
 21
716.5312102003
  0
LINE
  5
3CE
100
AcDbEntity
  8
00_COMPONENTS_7
100
AcDbLine
 62
7
  6
CONTINUOUS
 10
840.3395763172
 20
718.1717610417
 11
840.4479365666
 21
718.1679714267
  0
LINE
  5
3CF
100
AcDbEntity
  8
00_COMPONENTS_25
100
AcDbLine
 62
7
  6
CONTINUOUS
 10
159.0080778603
 20
873.2651917014
 11
158.8374545124
 21
873.3229761537
  0
LINE
  5
3D0
100
AcDbEntity
  8
00_COMPONENTS_25
100
AcDbLine
 62
7
  6
CONTINUOUS
 10
158.8374545124
 20
873.3229761537
 11
158.8316188671
 21
873.3250896469
  0
LINE
  5
3D1
100
AcDbEntity
  8
00_COMPONENTS_7
100
AcDbLine
 62
7
  6
CONTINUOUS
 10
554.4517261816
 20
659.5596111773
 11
554.4479365666
 21
659.6679714267
  0
LINE
  5
3D2
100
AcDbEntity
  8
00_COMPONENTS_7
100
AcDbLine
 62
7
  6
CONTINUOUS
 10
553.1145559534
 20
656.8528289442
 11
553.1145559534
 21
657.9356267709
  0
LINE
  5
3D3
100
AcDbEntity
  8
00_COMPONENTS_7
100
AcDbLine
 62
7
  6
CONTINUOUS
 10
553.1145559534
 20
659.7635543565
 11
553.1145559534
 21
660.8463526828
  0
LINE
  5
3D4
100
AcDbEntity
  8
00_COMPONENTS_7
100
AcDbLine
 62
7
  6
CONTINUOUS
 10
554.1445559534
 20
657.9356272706
 11
554.1445559534
 21
656.8528289442
  0
LINE
  5
3D5
100
AcDbEntity
  8
00_COMPONENTS_7
100
AcDbLine
 62
7
  6
CONTINUOUS
 10
554.1445559534
 20
659.7635548563
 11
554.1445559534
 21
660.8463526828
  0
LINE
  5
3D6
100
AcDbEntity
  8
00_COMPONENTS_51
100
AcDbLine
 62
7
  6
CONTINUOUS
 10
568.8795559534
 20
729.0995908135
 11
568.8795559534
 21
728.5995908135
  0
LINE
  5
3D7
100
AcDbEntity
  8
00_COMPONENTS_51
100
AcDbLine
 62
7
  6
CONTINUOUS
 10
568.8795559534
 20
589.0995908135
 11
568.8795559534
 21
588.5995908135
  0
LINE
  5
3D8
100
AcDbEntity
  8
00_COMPONENTS_51
100
AcDbLine
 62
7
  6
CONTINUOUS
 10
569.8795559534
 20
727.7777900759
 11
569.8795559534
 21
724.7315102402
  0
LINE
  5
3D9
100
AcDbEntity
  8
00_COMPONENTS_51
100
AcDbLine
 62
7
  6
CONTINUOUS
 10
569.8795559479
 20
592.9676713868
 11
569.8795559534
 21
589.9213915512
  0
LINE
  5
3DA
100
AcDbEntity
  8
00_COMPONENTS_7
100
AcDbLine
 62
7
  6
CONTINUOUS
 10
552.8072765549
 20
659.5108068581
 11
552.8127189877
 21
659.6664277793
  0
LINE
  5
3DB
100
AcDbEntity
  8
00_COMPONENTS_7
100
AcDbLine
 62
7
  6
CONTINUOUS
 10
554.4463929192
 20
658.0327538478
 11
554.4518353519
 21
658.188374769
  0
LINE
  5
3DC
100
AcDbEntity
  8
00_COMPONENTS_7
100
AcDbLine
 62
7
  6
CONTINUOUS
 10
598.8307516181
 20
716.7204921057
 11
598.8072582504
 21
716.696998738
  0
LINE
  5
3DD
100
AcDbEntity
  8
00_COMPONENTS_7
100
AcDbLine
 62
7
  6
CONTINUOUS
 10
600.2586549083
 20
718.1483953959
 11
600.2821480289
 21
718.1718885165
  0
LINE
  5
3DE
100
AcDbEntity
  8
00_COMPONENTS_7
100
AcDbLine
 62
7
  6
CONTINUOUS
 10
598.3845032437
 20
716.1045381038
 11
598.8287713622
 21
716.5488062224
  0
LINE
  5
3DF
100
AcDbEntity
  8
00_COMPONENTS_7
100
AcDbLine
 62
7
  6
CONTINUOUS
 10
600.4303405446
 20
718.1503754047
 11
600.8746086631
 21
718.5946435232
  0
LINE
  5
3E0
100
AcDbEntity
  8
00_COMPONENTS_7
100
AcDbLine
 62
7
  6
CONTINUOUS
 10
599.0004569986
 20
716.5507862312
 11
598.9769638779
 21
716.5272931106
  0
LINE
  5
3E1
100
AcDbEntity
  8
00_COMPONENTS_7
100
AcDbLine
 62
7
  6
CONTINUOUS
 10
600.4283602887
 20
717.9786895213
 11
600.4518536564
 21
718.002182889
  0
LINE
  5
3E2
100
AcDbEntity
  8
00_COMPONENTS_25
100
AcDbLine
 62
7
  6
CONTINUOUS
 10
163.9553912081
 20
873.3061172126
 11
163.8340850169
 21
873.3420311119
  0
LINE
  5
3E3
100
AcDbEntity
  8
00_COMPONENTS_25
100
AcDbLine
 62
7
  6
CONTINUOUS
 10
178.7920487721
 20
873.3488858953
 11
178.8447221114
 21
873.3327092295
  0
LINE
  5
3E4
100
AcDbEntity
  8
00_COMPONENTS_25
100
AcDbLine
 62
7
  6
CONTINUOUS
 10
163.9556578915
 20
873.306287205
 11
163.8454838751
 21
873.3406483667
  0
LINE
  5
3E5
100
AcDbEntity
  8
00_COMPONENTS_25
100
AcDbLine
 62
7
  6
CONTINUOUS
 10
173.7875721493
 20
873.3493709629
 11
173.7900510209
 21
873.3485919405
  0
LINE
  5
3E6
100
AcDbEntity
  8
00_COMPONENTS_25
100
AcDbLine
 62
7
  6
CONTINUOUS
 10
173.7875721493
 20
873.3493709629
 11
173.7890829312
 21
873.3488858268
  0
LINE
  5
3E7
100
AcDbEntity
  8
00_COMPONENTS_25
100
AcDbLine
 62
7
  6
CONTINUOUS
 10
158.8374545124
 20
873.3229761537
 11
158.8312153537
 21
873.3249945331
  0
LINE
  5
3E8
100
AcDbEntity
  8
00_COMPONENTS_7
100
AcDbLine
 62
7
  6
CONTINUOUS
 10
598.8307513711
 20
717.9786897684
 11
598.8072582504
 21
718.002182889
  0
LINE
  5
3E9
100
AcDbEntity
  8
00_COMPONENTS_7
100
AcDbLine
 62
7
  6
CONTINUOUS
 10
600.2586546612
 20
716.5507864782
 11
600.2821480289
 21
716.5272931106
  0
LINE
  5
3EA
100
AcDbEntity
  8
00_COMPONENTS_7
100
AcDbLine
 62
7
  6
CONTINUOUS
 10
598.2397914725
 20
718.7393552945
 11
598.8287713622
 21
718.1503754047
  0
LINE
  5
3EB
100
AcDbEntity
  8
00_COMPONENTS_7
100
AcDbLine
 62
7
  6
CONTINUOUS
 10
600.4303405446
 20
716.5488062224
 11
601.0193204344
 21
715.9598263326
  0
LINE
  5
3EC
100
AcDbEntity
  8
00_COMPONENTS_7
100
AcDbLine
 62
7
  6
CONTINUOUS
 10
599.0004572456
 20
718.1483951488
 11
598.9769638779
 21
718.1718885165
  0
LINE
  5
3ED
100
AcDbEntity
  8
00_COMPONENTS_7
100
AcDbLine
 62
7
  6
CONTINUOUS
 10
600.4283605357
 20
716.7204918587
 11
600.4518536564
 21
716.696998738
  0
LINE
  5
3EE
100
AcDbEntity
  8
00_COMPONENTS_7
100
AcDbLine
 62
7
  6
CONTINUOUS
 10
718.8307513711
 20
600.9786897684
 11
718.8072582504
 21
601.002182889
  0
LINE
  5
3EF
100
AcDbEntity
  8
00_COMPONENTS_7
100
AcDbLine
 62
7
  6
CONTINUOUS
 10
720.2586546612
 20
599.5507864782
 11
720.2821480289
 21
599.5272931106
  0
LINE
  5
3F0
100
AcDbEntity
  8
00_COMPONENTS_7
100
AcDbLine
 62
7
  6
CONTINUOUS
 10
718.2397914725
 20
601.7393552945
 11
718.8287713622
 21
601.1503754047
  0
LINE
  5
3F1
100
AcDbEntity
  8
00_COMPONENTS_7
100
AcDbLine
 62
7
  6
CONTINUOUS
 10
720.4303405446
 20
599.5488062224
 11
721.0193204344
 21
598.9598263326
  0
LINE
  5
3F2
100
AcDbEntity
  8
00_COMPONENTS_7
100
AcDbLine
 62
7
  6
CONTINUOUS
 10
719.0004572456
 20
601.1483951488
 11
718.9769638779
 21
601.1718885165
  0
LINE
  5
3F3
100
AcDbEntity
  8
00_COMPONENTS_7
100
AcDbLine
 62
7
  6
CONTINUOUS
 10
720.4283605357
 20
599.7204918587
 11
720.4518536564
 21
599.696998738
  0
LINE
  5
3F4
100
AcDbEntity
  8
00_COMPONENTS_7
100
AcDbLine
 62
7
  6
CONTINUOUS
 10
598.8073857252
 20
599.6395704497
 11
598.8111753402
 21
599.5312102003
  0
LINE
  5
3F5
100
AcDbEntity
  8
00_COMPONENTS_7
100
AcDbLine
 62
7
  6
CONTINUOUS
 10
600.4517261816
 20
601.0596111773
 11
600.4479365666
 21
601.1679714267
  0
LINE
  5
3F6
100
AcDbEntity
  8
00_COMPONENTS_7
100
AcDbLine
 62
7
  6
CONTINUOUS
 10
598.8073857252
 20
716.6395704497
 11
598.8111753402
 21
716.5312102003
  0
LINE
  5
3F7
100
AcDbEntity
  8
00_COMPONENTS_7
100
AcDbLine
 62
7
  6
CONTINUOUS
 10
600.4517261816
 20
718.0596111773
 11
600.4479365666
 21
718.1679714267
  0
LINE
  5
3F8
100
AcDbEntity
  8
00_COMPONENTS_7
100
AcDbLine
 62
7
  6
CONTINUOUS
 10
599.1145559534
 20
598.3528289442
 11
599.1145559534
 21
599.4356267709
  0
LINE
  5
3F9
100
AcDbEntity
  8
00_COMPONENTS_7
100
AcDbLine
 62
7
  6
CONTINUOUS
 10
599.1145559534
 20
601.2635543565
 11
599.1145559534
 21
602.3463526828
  0
LINE
  5
3FA
100
AcDbEntity
  8
00_COMPONENTS_7
100
AcDbLine
 62
7
  6
CONTINUOUS
 10
599.1145559534
 20
715.3528289442
 11
599.1145559534
 21
716.4356267709
  0
LINE
  5
3FB
100
AcDbEntity
  8
00_COMPONENTS_7
100
AcDbLine
 62
7
  6
CONTINUOUS
 10
599.1145559534
 20
718.2635543565
 11
599.1145559534
 21
719.3463526828
  0
LINE
  5
3FC
100
AcDbEntity
  8
00_COMPONENTS_7
100
AcDbLine
 62
7
  6
CONTINUOUS
 10
600.1445559534
 20
716.4356272706
 11
600.1445559534
 21
715.3528289442
  0
LINE
  5
3FD
100
AcDbEntity
  8
00_COMPONENTS_7
100
AcDbLine
 62
7
  6
CONTINUOUS
 10
600.1445559534
 20
599.4356272706
 11
600.1445559534
 21
598.3528289442
  0
LINE
  5
3FE
100
AcDbEntity
  8
00_COMPONENTS_7
100
AcDbLine
 62
7
  6
CONTINUOUS
 10
600.1445559534
 20
601.2635548563
 11
600.1445559534
 21
602.3463526828
  0
LINE
  5
3FF
100
AcDbEntity
  8
00_COMPONENTS_7
100
AcDbLine
 62
7
  6
CONTINUOUS
 10
600.1445559534
 20
718.2635548563
 11
600.1445559534
 21
719.3463526828
  0
LINE
  5
400
100
AcDbEntity
  8
00_COMPONENTS_7
100
AcDbLine
 62
7
  6
CONTINUOUS
 10
598.8072765549
 20
718.0108068581
 11
598.8127189877
 21
718.1664277793
  0
LINE
  5
401
100
AcDbEntity
  8
00_COMPONENTS_7
100
AcDbLine
 62
7
  6
CONTINUOUS
 10
600.4463929192
 20
716.5327538478
 11
600.4518353519
 21
716.688374769
  0
LINE
  5
402
100
AcDbEntity
  8
00_COMPONENTS_7
100
AcDbLine
 62
7
  6
CONTINUOUS
 10
598.8072765549
 20
601.0108068581
 11
598.8127189877
 21
601.1664277793
  0
LINE
  5
403
100
AcDbEntity
  8
00_COMPONENTS_7
100
AcDbLine
 62
7
  6
CONTINUOUS
 10
600.4463929192
 20
599.5327538478
 11
600.4518353519
 21
599.688374769
  0
LINE
  5
404
100
AcDbEntity
  8
00_COMPONENTS_7
100
AcDbLine
 62
7
  6
CONTINUOUS
 10
552.8307516181
 20
658.2204921057
 11
552.8072582504
 21
658.196998738
  0
LINE
  5
405
100
AcDbEntity
  8
00_COMPONENTS_7
100
AcDbLine
 62
7
  6
CONTINUOUS
 10
554.2586549083
 20
659.6483953959
 11
554.2821480289
 21
659.6718885165
  0
LINE
  5
406
100
AcDbEntity
  8
00_COMPONENTS_7
100
AcDbLine
 62
7
  6
CONTINUOUS
 10
552.3845032437
 20
657.6045381038
 11
552.8287713622
 21
658.0488062224
  0
LINE
  5
407
100
AcDbEntity
  8
00_COMPONENTS_7
100
AcDbLine
 62
7
  6
CONTINUOUS
 10
554.4303405446
 20
659.6503754047
 11
554.8746086631
 21
660.0946435232
  0
LINE
  5
408
100
AcDbEntity
  8
00_COMPONENTS_7
100
AcDbLine
 62
7
  6
CONTINUOUS
 10
553.0004569986
 20
658.0507862312
 11
552.9769638779
 21
658.0272931106
  0
LINE
  5
409
100
AcDbEntity
  8
00_COMPONENTS_7
100
AcDbLine
 62
7
  6
CONTINUOUS
 10
554.4283602887
 20
659.4786895213
 11
554.4518536564
 21
659.502182889
  0
LWPOLYLINE
  5
40A
100
AcDbEntity
  8
00_COMPONENTS_25
100
AcDbPolyline
 62
7
  6
CONTINUOUS
 90
3
 70
0
 10
158.9170467449
 20
873.3181386319
 10
158.8492159148
 20
873.3268917716
 10
158.8313257649
 20
873.3253060389
  0
LINE
  5
40B
100
AcDbEntity
  8
00_COMPONENTS_7
100
AcDbLine
 62
7
  6
CONTINUOUS
 10
598.8307516181
 20
599.7204921057
 11
598.8072582504
 21
599.696998738
  0
LINE
  5
40C
100
AcDbEntity
  8
00_COMPONENTS_7
100
AcDbLine
 62
7
  6
CONTINUOUS
 10
600.2586549083
 20
601.1483953959
 11
600.2821480289
 21
601.1718885165
  0
LINE
  5
40D
100
AcDbEntity
  8
00_COMPONENTS_7
100
AcDbLine
 62
7
  6
CONTINUOUS
 10
598.3845032437
 20
599.1045381038
 11
598.8287713622
 21
599.5488062224
  0
LINE
  5
40E
100
AcDbEntity
  8
00_COMPONENTS_7
100
AcDbLine
 62
7
  6
CONTINUOUS
 10
600.4303405446
 20
601.1503754047
 11
600.8746086631
 21
601.5946435232
  0
LINE
  5
40F
100
AcDbEntity
  8
00_COMPONENTS_7
100
AcDbLine
 62
7
  6
CONTINUOUS
 10
599.0004569986
 20
599.5507862312
 11
598.9769638779
 21
599.5272931106
  0
LINE
  5
410
100
AcDbEntity
  8
00_COMPONENTS_7
100
AcDbLine
 62
7
  6
CONTINUOUS
 10
600.4283602887
 20
600.9786895213
 11
600.4518536564
 21
601.002182889
  0
LINE
  5
411
100
AcDbEntity
  8
00_COMPONENTS_7
100
AcDbLine
 62
7
  6
CONTINUOUS
 10
718.8307516181
 20
716.7204921057
 11
718.8072582504
 21
716.696998738
  0
LINE
  5
412
100
AcDbEntity
  8
00_COMPONENTS_7
100
AcDbLine
 62
7
  6
CONTINUOUS
 10
720.2586549083
 20
718.1483953959
 11
720.2821480289
 21
718.1718885165
  0
LINE
  5
413
100
AcDbEntity
  8
00_COMPONENTS_7
100
AcDbLine
 62
7
  6
CONTINUOUS
 10
718.3845032437
 20
716.1045381038
 11
718.8287713622
 21
716.5488062224
  0
LINE
  5
414
100
AcDbEntity
  8
00_COMPONENTS_7
100
AcDbLine
 62
7
  6
CONTINUOUS
 10
720.4303405446
 20
718.1503754047
 11
720.8746086631
 21
718.5946435232
  0
LINE
  5
415
100
AcDbEntity
  8
00_COMPONENTS_7
100
AcDbLine
 62
7
  6
CONTINUOUS
 10
719.0004569986
 20
716.5507862312
 11
718.9769638779
 21
716.5272931106
  0
LINE
  5
416
100
AcDbEntity
  8
00_COMPONENTS_7
100
AcDbLine
 62
7
  6
CONTINUOUS
 10
720.4283602887
 20
717.9786895213
 11
720.4518536564
 21
718.002182889
  0
LINE
  5
417
100
AcDbEntity
  8
00_COMPONENTS_51
100
AcDbLine
 62
7
  6
CONTINUOUS
 10
919.6295559534
 20
837.6495908135
 11
119.6295559534
 21
837.6495884453
  0
LINE
  5
418
100
AcDbEntity
  8
00_COMPONENTS_51
100
AcDbLine
 62
7
  6
CONTINUOUS
 10
122.8295559534
 20
840.8495908135
 11
916.4295559534
 21
840.8495908135
  0
LINE
  5
419
100
AcDbEntity
  8
00_COMPONENTS_14
100
AcDbLine
 62
7
  6
CONTINUOUS
 10
902.1295559534
 20
842.3495908135
 11
915.8295559534
 21
842.3495908135
  0
LINE
  5
41A
100
AcDbEntity
  8
00_COMPONENTS_14
100
AcDbLine
 62
7
  6
CONTINUOUS
 10
908.1981038343
 20
843.0495908135
 11
914.9931586276
 21
843.0495908135
  0
LINE
  5
41B
100
AcDbEntity
  8
00_COMPONENTS_51
100
AcDbLine
 62
7
  6
CONTINUOUS
 10
140.6390570873
 20
843.2312088043
 11
898.6200548195
 21
843.2312088043
  0
LINE
  5
41C
100
AcDbEntity
  8
00_COMPONENTS_11
100
AcDbLine
 62
7
  6
CONTINUOUS
 10
124.2665743035
 20
847.3598874249
 11
916.3056700001
 21
847.3598874249
  0
LINE
  5
41D
100
AcDbEntity
  8
00_COMPONENTS_11
100
AcDbLine
 62
7
  6
CONTINUOUS
 10
121.7861221518
 20
849.0598874249
 11
918.7861221518
 21
849.0598874249
  0
LINE
  5
41E
100
AcDbEntity
  8
00_COMPONENTS_11
100
AcDbLine
 62
7
  6
CONTINUOUS
 10
910.7410255799
 20
864.1598874249
 11
129.8312187237
 21
864.1598874249
  0
LWPOLYLINE
  5
41F
100
AcDbEntity
  8
00_COMPONENTS_25
100
AcDbPolyline
 62
7
  6
CONTINUOUS
 90
3
 70
0
 10
183.7409185387
 20
873.3253060389
 10
183.7230273073
 20
873.3268918186
 10
183.6551975587
 20
873.3181386319
  0
LINE
  5
420
100
AcDbEntity
  8
00_COMPONENTS_7
100
AcDbLine
 62
7
  6
CONTINUOUS
 10
718.8307513711
 20
717.9786897684
 11
718.8072582504
 21
718.002182889
  0
LINE
  5
421
100
AcDbEntity
  8
00_COMPONENTS_7
100
AcDbLine
 62
7
  6
CONTINUOUS
 10
720.2586546612
 20
716.5507864782
 11
720.2821480289
 21
716.5272931106
  0
LINE
  5
422
100
AcDbEntity
  8
00_COMPONENTS_7
100
AcDbLine
 62
7
  6
CONTINUOUS
 10
718.2397914725
 20
718.7393552945
 11
718.8287713622
 21
718.1503754047
  0
LINE
  5
423
100
AcDbEntity
  8
00_COMPONENTS_7
100
AcDbLine
 62
7
  6
CONTINUOUS
 10
720.4303405446
 20
716.5488062224
 11
721.0193204344
 21
715.9598263326
  0
LINE
  5
424
100
AcDbEntity
  8
00_COMPONENTS_7
100
AcDbLine
 62
7
  6
CONTINUOUS
 10
719.0004572456
 20
718.1483951488
 11
718.9769638779
 21
718.1718885165
  0
LINE
  5
425
100
AcDbEntity
  8
00_COMPONENTS_7
100
AcDbLine
 62
7
  6
CONTINUOUS
 10
720.4283605357
 20
716.7204918587
 11
720.4518536564
 21
716.696998738
  0
LINE
  5
426
100
AcDbEntity
  8
00_COMPONENTS_7
100
AcDbLine
 62
7
  6
CONTINUOUS
 10
838.8307513711
 20
600.9786897684
 11
838.8072582504
 21
601.002182889
  0
LINE
  5
427
100
AcDbEntity
  8
00_COMPONENTS_7
100
AcDbLine
 62
7
  6
CONTINUOUS
 10
840.2586546612
 20
599.5507864782
 11
840.2821480289
 21
599.5272931106
  0
LINE
  5
428
100
AcDbEntity
  8
00_COMPONENTS_7
100
AcDbLine
 62
7
  6
CONTINUOUS
 10
838.2397914725
 20
601.7393552945
 11
838.8287713622
 21
601.1503754047
  0
LINE
  5
429
100
AcDbEntity
  8
00_COMPONENTS_7
100
AcDbLine
 62
7
  6
CONTINUOUS
 10
840.4303405446
 20
599.5488062224
 11
841.0193204344
 21
598.9598263326
  0
LINE
  5
42A
100
AcDbEntity
  8
00_COMPONENTS_7
100
AcDbLine
 62
7
  6
CONTINUOUS
 10
839.0004572456
 20
601.1483951488
 11
838.9769638779
 21
601.1718885165
  0
LINE
  5
42B
100
AcDbEntity
  8
00_COMPONENTS_7
100
AcDbLine
 62
7
  6
CONTINUOUS
 10
840.4283605357
 20
599.7204918587
 11
840.4518536564
 21
599.696998738
  0
LINE
  5
42C
100
AcDbEntity
  8
00_COMPONENTS_11
100
AcDbLine
 62
7
  6
CONTINUOUS
 10
132.7950782762
 20
867.3598874249
 11
907.7771660274
 21
867.3598874249
  0
LINE
  5
42D
100
AcDbEntity
  8
00_COMPONENTS_25
100
AcDbLine
 62
7
  6
CONTINUOUS
 10
182.9069930877
 20
868.1985027088
 11
159.6652475807
 21
868.1985027088
  0
LINE
  5
42E
100
AcDbEntity
  8
00_COMPONENTS_25
100
AcDbLine
 62
7
  6
CONTINUOUS
 10
159.7448346971
 20
868.9409546169
 11
182.827416551
 21
868.9409546169
  0
LINE
  5
42F
100
AcDbEntity
  8
00_COMPONENTS_25
100
AcDbLine
 62
7
  6
CONTINUOUS
 10
187.2114057375
 20
869.4994855898
 11
185.8540333776
 21
869.4994855898
  0
LINE
  5
430
100
AcDbEntity
  8
00_COMPONENTS_25
100
AcDbLine
 62
7
  6
CONTINUOUS
 10
156.7182111059
 20
869.4994855898
 11
155.3608385661
 21
869.4994855898
  0
LINE
  5
431
100
AcDbEntity
  8
00_COMPONENTS_7
100
AcDbLine
 62
7
  6
CONTINUOUS
 10
718.8073857252
 20
599.6395704497
 11
718.8111753402
 21
599.5312102003
  0
LINE
  5
432
100
AcDbEntity
  8
00_COMPONENTS_7
100
AcDbLine
 62
7
  6
CONTINUOUS
 10
720.4517261816
 20
601.0596111773
 11
720.4479365666
 21
601.1679714267
  0
LINE
  5
433
100
AcDbEntity
  8
00_COMPONENTS_7
100
AcDbLine
 62
7
  6
CONTINUOUS
 10
718.8073857252
 20
716.6395704497
 11
718.8111753402
 21
716.5312102003
  0
LINE
  5
434
100
AcDbEntity
  8
00_COMPONENTS_7
100
AcDbLine
 62
7
  6
CONTINUOUS
 10
720.4517261816
 20
718.0596111773
 11
720.4479365666
 21
718.1679714267
  0
LINE
  5
435
100
AcDbEntity
  8
00_COMPONENTS_7
100
AcDbLine
 62
7
  6
CONTINUOUS
 10
719.1145559534
 20
598.3528289442
 11
719.1145559534
 21
599.4356267709
  0
LINE
  5
436
100
AcDbEntity
  8
00_COMPONENTS_7
100
AcDbLine
 62
7
  6
CONTINUOUS
 10
719.1145559534
 20
601.2635543565
 11
719.1145559534
 21
602.3463526828
  0
LINE
  5
437
100
AcDbEntity
  8
00_COMPONENTS_7
100
AcDbLine
 62
7
  6
CONTINUOUS
 10
719.1145559534
 20
715.3528289442
 11
719.1145559534
 21
716.4356267709
  0
LINE
  5
438
100
AcDbEntity
  8
00_COMPONENTS_7
100
AcDbLine
 62
7
  6
CONTINUOUS
 10
719.1145559534
 20
718.2635543565
 11
719.1145559534
 21
719.3463526828
  0
LINE
  5
439
100
AcDbEntity
  8
00_COMPONENTS_7
100
AcDbLine
 62
7
  6
CONTINUOUS
 10
720.1445559534
 20
716.4356272706
 11
720.1445559534
 21
715.3528289442
  0
LINE
  5
43A
100
AcDbEntity
  8
00_COMPONENTS_7
100
AcDbLine
 62
7
  6
CONTINUOUS
 10
720.1445559534
 20
599.4356272706
 11
720.1445559534
 21
598.3528289442
  0
LINE
  5
43B
100
AcDbEntity
  8
00_COMPONENTS_7
100
AcDbLine
 62
7
  6
CONTINUOUS
 10
720.1445559534
 20
601.2635548563
 11
720.1445559534
 21
602.3463526828
  0
LINE
  5
43C
100
AcDbEntity
  8
00_COMPONENTS_7
100
AcDbLine
 62
7
  6
CONTINUOUS
 10
720.1445559534
 20
718.2635548563
 11
720.1445559534
 21
719.3463526828
  0
LINE
  5
43D
100
AcDbEntity
  8
00_COMPONENTS_7
100
AcDbLine
 62
7
  6
CONTINUOUS
 10
718.8072765549
 20
718.0108068581
 11
718.8127189877
 21
718.1664277793
  0
LINE
  5
43E
100
AcDbEntity
  8
00_COMPONENTS_7
100
AcDbLine
 62
7
  6
CONTINUOUS
 10
720.4463929192
 20
716.5327538478
 11
720.4518353519
 21
716.688374769
  0
LINE
  5
43F
100
AcDbEntity
  8
00_COMPONENTS_7
100
AcDbLine
 62
7
  6
CONTINUOUS
 10
718.8072765549
 20
601.0108068581
 11
718.8127189877
 21
601.1664277793
  0
LINE
  5
440
100
AcDbEntity
  8
00_COMPONENTS_51
100
AcDbLine
 62
7
  6
CONTINUOUS
 10
139.1666163121
 20
843.2312088042
 11
140.6390570873
 21
843.5174222973
  0
LINE
  5
441
100
AcDbEntity
  8
00_COMPONENTS_51
100
AcDbLine
 62
7
  6
CONTINUOUS
 10
898.6200548195
 20
843.5174222973
 11
900.0924955948
 21
843.2312088043
  0
LINE
  5
442
100
AcDbEntity
  8
00_COMPONENTS_7
100
AcDbLine
 62
7
  6
CONTINUOUS
 10
720.4463929192
 20
599.5327538478
 11
720.4518353519
 21
599.688374769
  0
LINE
  5
443
100
AcDbEntity
  8
00_COMPONENTS_7
100
AcDbLine
 62
7
  6
CONTINUOUS
 10
718.8307516181
 20
599.7204921057
 11
718.8072582504
 21
599.696998738
  0
LINE
  5
444
100
AcDbEntity
  8
00_COMPONENTS_7
100
AcDbLine
 62
7
  6
CONTINUOUS
 10
720.2586549083
 20
601.1483953959
 11
720.2821480289
 21
601.1718885165
  0
LINE
  5
445
100
AcDbEntity
  8
00_COMPONENTS_7
100
AcDbLine
 62
7
  6
CONTINUOUS
 10
718.3845032437
 20
599.1045381038
 11
718.8287713622
 21
599.5488062224
  0
LINE
  5
446
100
AcDbEntity
  8
00_COMPONENTS_7
100
AcDbLine
 62
7
  6
CONTINUOUS
 10
720.4303405446
 20
601.1503754047
 11
720.8746086631
 21
601.5946435232
  0
LINE
  5
447
100
AcDbEntity
  8
00_COMPONENTS_7
100
AcDbLine
 62
7
  6
CONTINUOUS
 10
719.0004569986
 20
599.5507862312
 11
718.9769638779
 21
599.5272931106
  0
LINE
  5
448
100
AcDbEntity
  8
00_COMPONENTS_7
100
AcDbLine
 62
7
  6
CONTINUOUS
 10
720.4283602887
 20
600.9786895213
 11
720.4518536564
 21
601.002182889
  0
LINE
  5
449
100
AcDbEntity
  8
00_COMPONENTS_7
100
AcDbLine
 62
7
  6
CONTINUOUS
 10
838.8307516181
 20
716.7204921057
 11
838.8072582504
 21
716.696998738
  0
LINE
  5
44A
100
AcDbEntity
  8
00_COMPONENTS_7
100
AcDbLine
 62
7
  6
CONTINUOUS
 10
840.2586549083
 20
718.1483953959
 11
840.2821480289
 21
718.1718885165
  0
LINE
  5
44B
100
AcDbEntity
  8
00_COMPONENTS_7
100
AcDbLine
 62
7
  6
CONTINUOUS
 10
838.3845032437
 20
716.1045381038
 11
838.8287713622
 21
716.5488062224
  0
LINE
  5
44C
100
AcDbEntity
  8
00_COMPONENTS_7
100
AcDbLine
 62
7
  6
CONTINUOUS
 10
840.4303405446
 20
718.1503754047
 11
840.8746086631
 21
718.5946435232
  0
LINE
  5
44D
100
AcDbEntity
  8
00_COMPONENTS_7
100
AcDbLine
 62
7
  6
CONTINUOUS
 10
839.0004569986
 20
716.5507862312
 11
838.9769638779
 21
716.5272931106
  0
LINE
  5
44E
100
AcDbEntity
  8
00_COMPONENTS_7
100
AcDbLine
 62
7
  6
CONTINUOUS
 10
840.4283602887
 20
717.9786895213
 11
840.4518536564
 21
718.002182889
  0
LINE
  5
44F
100
AcDbEntity
  8
00_COMPONENTS_7
100
AcDbLine
 62
7
  6
CONTINUOUS
 10
884.8307513711
 20
659.4786897684
 11
884.8072582504
 21
659.502182889
  0
LINE
  5
450
100
AcDbEntity
  8
00_COMPONENTS_7
100
AcDbLine
 62
7
  6
CONTINUOUS
 10
886.2586546612
 20
658.0507864782
 11
886.2821480289
 21
658.0272931106
  0
LINE
  5
451
100
AcDbEntity
  8
00_COMPONENTS_7
100
AcDbLine
 62
7
  6
CONTINUOUS
 10
884.2397914725
 20
660.2393552945
 11
884.8287713622
 21
659.6503754047
  0
LINE
  5
452
100
AcDbEntity
  8
00_COMPONENTS_7
100
AcDbLine
 62
7
  6
CONTINUOUS
 10
886.4303405446
 20
658.0488062224
 11
887.0193204344
 21
657.4598263326
  0
LINE
  5
453
100
AcDbEntity
  8
00_COMPONENTS_7
100
AcDbLine
 62
7
  6
CONTINUOUS
 10
885.0004572456
 20
659.6483951488
 11
884.9769638779
 21
659.6718885165
  0
LINE
  5
454
100
AcDbEntity
  8
00_COMPONENTS_7
100
AcDbLine
 62
7
  6
CONTINUOUS
 10
886.4283605357
 20
658.2204918587
 11
886.4518536564
 21
658.196998738
  0
LINE
  5
455
100
AcDbEntity
  8
00_COMPONENTS_7
100
AcDbLine
 62
7
  6
CONTINUOUS
 10
838.8307513711
 20
717.9786897684
 11
838.8072582504
 21
718.002182889
  0
LINE
  5
456
100
AcDbEntity
  8
00_COMPONENTS_7
100
AcDbLine
 62
7
  6
CONTINUOUS
 10
840.2586546612
 20
716.5507864782
 11
840.2821480289
 21
716.5272931106
  0
LINE
  5
457
100
AcDbEntity
  8
00_COMPONENTS_7
100
AcDbLine
 62
7
  6
CONTINUOUS
 10
838.2397914725
 20
718.7393552945
 11
838.8287713622
 21
718.1503754047
  0
LINE
  5
458
100
AcDbEntity
  8
00_COMPONENTS_7
100
AcDbLine
 62
7
  6
CONTINUOUS
 10
840.4303405446
 20
716.5488062224
 11
841.0193204344
 21
715.9598263326
  0
LINE
  5
459
100
AcDbEntity
  8
00_COMPONENTS_7
100
AcDbLine
 62
7
  6
CONTINUOUS
 10
839.0004572456
 20
718.1483951488
 11
838.9769638779
 21
718.1718885165
  0
LINE
  5
45A
100
AcDbEntity
  8
00_COMPONENTS_7
100
AcDbLine
 62
7
  6
CONTINUOUS
 10
840.4283605357
 20
716.7204918587
 11
840.4518536564
 21
716.696998738
  0
LINE
  5
45B
100
AcDbEntity
  8
00_COMPONENTS_11
100
AcDbLine
 62
7
  6
CONTINUOUS
 10
909.6126106237
 20
866.7811739666
 11
909.2806742207
 21
866.3071196543
  0
LINE
  5
45C
100
AcDbEntity
  8
00_COMPONENTS_11
100
AcDbLine
 62
7
  6
CONTINUOUS
 10
913.3561957734
 20
864.1598874249
 11
912.4958311189
 21
862.9311593584
  0
LINE
  5
45D
100
AcDbEntity
  8
00_COMPONENTS_7
100
AcDbLine
 62
7
  6
CONTINUOUS
 10
838.8073857252
 20
599.6395704497
 11
838.8111753402
 21
599.5312102003
  0
LINE
  5
45E
100
AcDbEntity
  8
00_COMPONENTS_7
100
AcDbLine
 62
7
  6
CONTINUOUS
 10
840.4517261816
 20
601.0596111773
 11
840.4479365666
 21
601.1679714267
  0
LINE
  5
45F
100
AcDbEntity
  8
00_COMPONENTS_7
100
AcDbLine
 62
7
  6
CONTINUOUS
 10
884.8307516181
 20
658.2204921057
 11
884.8072582504
 21
658.196998738
  0
LINE
  5
460
100
AcDbEntity
  8
00_COMPONENTS_7
100
AcDbLine
 62
7
  6
CONTINUOUS
 10
886.2586549083
 20
659.6483953959
 11
886.2821480289
 21
659.6718885165
  0
LINE
  5
461
100
AcDbEntity
  8
00_COMPONENTS_7
100
AcDbLine
 62
7
  6
CONTINUOUS
 10
884.3845032437
 20
657.6045381038
 11
884.8287713622
 21
658.0488062224
  0
LINE
  5
462
100
AcDbEntity
  8
00_COMPONENTS_7
100
AcDbLine
 62
7
  6
CONTINUOUS
 10
886.4303405446
 20
659.6503754047
 11
886.8746086631
 21
660.0946435232
  0
LINE
  5
463
100
AcDbEntity
  8
00_COMPONENTS_7
100
AcDbLine
 62
7
  6
CONTINUOUS
 10
885.0004569986
 20
658.0507862312
 11
884.9769638779
 21
658.0272931106
  0
LINE
  5
464
100
AcDbEntity
  8
00_COMPONENTS_7
100
AcDbLine
 62
7
  6
CONTINUOUS
 10
886.4283602887
 20
659.4786895213
 11
886.4518536564
 21
659.502182889
  0
LINE
  5
465
100
AcDbEntity
  8
00_COMPONENTS_7
100
AcDbLine
 62
7
  6
CONTINUOUS
 10
838.8307516181
 20
599.7204921057
 11
838.8072582504
 21
599.696998738
  0
LINE
  5
466
100
AcDbEntity
  8
00_COMPONENTS_7
100
AcDbLine
 62
7
  6
CONTINUOUS
 10
840.2586549083
 20
601.1483953959
 11
840.2821480289
 21
601.1718885165
  0
LINE
  5
467
100
AcDbEntity
  8
00_COMPONENTS_7
100
AcDbLine
 62
7
  6
CONTINUOUS
 10
838.3845032437
 20
599.1045381038
 11
838.8287713622
 21
599.5488062224
  0
LINE
  5
468
100
AcDbEntity
  8
00_COMPONENTS_7
100
AcDbLine
 62
7
  6
CONTINUOUS
 10
840.4303405446
 20
601.1503754047
 11
840.8746086631
 21
601.5946435232
  0
LINE
  5
469
100
AcDbEntity
  8
00_COMPONENTS_7
100
AcDbLine
 62
7
  6
CONTINUOUS
 10
839.0004569986
 20
599.5507862312
 11
838.9769638779
 21
599.5272931106
  0
LINE
  5
46A
100
AcDbEntity
  8
00_COMPONENTS_7
100
AcDbLine
 62
7
  6
CONTINUOUS
 10
840.4283602887
 20
600.9786895213
 11
840.4518536564
 21
601.002182889
  0
LINE
  5
46B
100
AcDbEntity
  8
00_COMPONENTS_7
100
AcDbLine
 62
7
  6
CONTINUOUS
 10
838.8073857252
 20
716.6395704497
 11
838.8111753402
 21
716.5312102003
  0
LINE
  5
46C
100
AcDbEntity
  8
00_COMPONENTS_7
100
AcDbLine
 62
7
  6
CONTINUOUS
 10
840.4517261816
 20
718.0596111773
 11
840.4479365666
 21
718.1679714267
  0
LINE
  5
46D
100
AcDbEntity
  8
00_COMPONENTS_7
100
AcDbLine
 62
7
  6
CONTINUOUS
 10
839.1145559534
 20
598.3528289442
 11
839.1145559534
 21
599.4356267709
  0
LINE
  5
46E
100
AcDbEntity
  8
00_COMPONENTS_7
100
AcDbLine
 62
7
  6
CONTINUOUS
 10
839.1145559534
 20
601.2635543565
 11
839.1145559534
 21
602.3463526828
  0
LINE
  5
46F
100
AcDbEntity
  8
00_COMPONENTS_7
100
AcDbLine
 62
7
  6
CONTINUOUS
 10
839.1145559534
 20
715.3528289442
 11
839.1145559534
 21
716.4356267709
  0
LINE
  5
470
100
AcDbEntity
  8
00_COMPONENTS_7
100
AcDbLine
 62
7
  6
CONTINUOUS
 10
839.1145559534
 20
718.2635543565
 11
839.1145559534
 21
719.3463526828
  0
LINE
  5
471
100
AcDbEntity
  8
00_COMPONENTS_7
100
AcDbLine
 62
7
  6
CONTINUOUS
 10
840.1445559534
 20
716.4356272706
 11
840.1445559534
 21
715.3528289442
  0
LINE
  5
472
100
AcDbEntity
  8
00_COMPONENTS_7
100
AcDbLine
 62
7
  6
CONTINUOUS
 10
840.1445559534
 20
599.4356272706
 11
840.1445559534
 21
598.3528289442
  0
LINE
  5
473
100
AcDbEntity
  8
00_COMPONENTS_7
100
AcDbLine
 62
7
  6
CONTINUOUS
 10
840.1445559534
 20
601.2635548563
 11
840.1445559534
 21
602.3463526828
  0
LINE
  5
474
100
AcDbEntity
  8
00_COMPONENTS_7
100
AcDbLine
 62
7
  6
CONTINUOUS
 10
840.1445559534
 20
718.2635548563
 11
840.1445559534
 21
719.3463526828
  0
LINE
  5
475
100
AcDbEntity
  8
00_COMPONENTS_7
100
AcDbLine
 62
7
  6
CONTINUOUS
 10
838.8072765549
 20
718.0108068581
 11
838.8127189877
 21
718.1664277793
  0
LINE
  5
476
100
AcDbEntity
  8
00_COMPONENTS_7
100
AcDbLine
 62
7
  6
CONTINUOUS
 10
840.4463929192
 20
716.5327538478
 11
840.4518353519
 21
716.688374769
  0
LINE
  5
477
100
AcDbEntity
  8
00_COMPONENTS_7
100
AcDbLine
 62
7
  6
CONTINUOUS
 10
838.8072765549
 20
601.0108068581
 11
838.8127189877
 21
601.1664277793
  0
LINE
  5
478
100
AcDbEntity
  8
00_COMPONENTS_7
100
AcDbLine
 62
7
  6
CONTINUOUS
 10
840.4463929192
 20
599.5327538478
 11
840.4518353519
 21
599.688374769
  0
LINE
  5
479
100
AcDbEntity
  8
00_COMPONENTS_14
100
AcDbLine
 62
7
  6
CONTINUOUS
 10
907.9981038343
 20
842.3495908135
 11
908.1981038343
 21
843.0495908135
  0
LINE
  5
47A
100
AcDbEntity
  8
00_COMPONENTS_11
100
AcDbLine
 62
7
  6
CONTINUOUS
 10
910.7410255799
 20
864.1598874249
 11
916.5612020936
 21
860.0845559564
  0
LINE
  5
47B
100
AcDbEntity
  8
00_COMPONENTS_11
100
AcDbLine
 62
7
  6
CONTINUOUS
 10
917.4215667481
 20
861.3132840228
 11
909.6126106237
 21
866.7811739666
  0
LINE
  5
47C
100
AcDbEntity
  8
00_COMPONENTS_7
100
AcDbLine
 62
7
  6
CONTINUOUS
 10
884.8073857252
 20
658.1395704497
 11
884.8111753402
 21
658.0312102003
  0
LINE
  5
47D
100
AcDbEntity
  8
00_COMPONENTS_7
100
AcDbLine
 62
7
  6
CONTINUOUS
 10
886.4517261816
 20
659.5596111773
 11
886.4479365666
 21
659.6679714267
  0
LINE
  5
47E
100
AcDbEntity
  8
00_COMPONENTS_51
100
AcDbLine
 62
7
  6
CONTINUOUS
 10
869.3795559534
 20
589.9213915512
 11
869.3795559534
 21
592.9676713868
  0
LINE
  5
47F
100
AcDbEntity
  8
00_COMPONENTS_51
100
AcDbLine
 62
7
  6
CONTINUOUS
 10
869.379555959
 20
724.7315102402
 11
869.3795559534
 21
727.7777900759
  0
LINE
  5
480
100
AcDbEntity
  8
00_COMPONENTS_51
100
AcDbLine
 62
7
  6
CONTINUOUS
 10
870.3795559534
 20
588.5995908135
 11
870.3795559534
 21
589.0995908135
  0
LINE
  5
481
100
AcDbEntity
  8
00_COMPONENTS_51
100
AcDbLine
 62
7
  6
CONTINUOUS
 10
870.3795559534
 20
728.5995908135
 11
870.3795559534
 21
729.0995908135
  0
LINE
  5
482
100
AcDbEntity
  8
00_COMPONENTS_7
100
AcDbLine
 62
7
  6
CONTINUOUS
 10
885.1145559534
 20
656.8528289442
 11
885.1145559534
 21
657.9356267709
  0
LINE
  5
483
100
AcDbEntity
  8
00_COMPONENTS_7
100
AcDbLine
 62
7
  6
CONTINUOUS
 10
885.1145559534
 20
659.7635543565
 11
885.1145559534
 21
660.8463526828
  0
LINE
  5
484
100
AcDbEntity
  8
00_COMPONENTS_7
100
AcDbLine
 62
7
  6
CONTINUOUS
 10
886.1445559534
 20
657.9356272706
 11
886.1445559534
 21
656.8528289442
  0
LINE
  5
485
100
AcDbEntity
  8
00_COMPONENTS_7
100
AcDbLine
 62
7
  6
CONTINUOUS
 10
886.1445559534
 20
659.7635548563
 11
886.1445559534
 21
660.8463526828
  0
LINE
  5
486
100
AcDbEntity
  8
00_COMPONENTS_3
100
AcDbLine
 62
7
  6
CONTINUOUS
 10
892.1295559534
 20
698.8495908135
 11
892.1295559534
 21
618.8495908135
  0
LINE
  5
487
100
AcDbEntity
  8
00_COMPONENTS_51
100
AcDbLine
 62
7
  6
CONTINUOUS
 10
893.0114753801
 20
616.5995908099
 11
893.0114753801
 21
701.0995908135
  0
LINE
  5
488
100
AcDbEntity
  8
00_COMPONENTS_51
100
AcDbLine
 62
7
  6
CONTINUOUS
 10
893.9962831331
 20
701.0995908121
 11
893.9962831331
 21
616.5995908118
  0
LINE
  5
489
100
AcDbEntity
  8
00_COMPONENTS_51
100
AcDbLine
 62
7
  6
CONTINUOUS
 10
894.0881397097
 20
616.5995908135
 11
894.0881397097
 21
701.0995908131
  0
LINE
  5
48A
100
AcDbEntity
  8
00_COMPONENTS_7
100
AcDbLine
 62
7
  6
CONTINUOUS
 10
884.8072765549
 20
659.5108068581
 11
884.8127189877
 21
659.6664277793
  0
LINE
  5
48B
100
AcDbEntity
  8
00_COMPONENTS_7
100
AcDbLine
 62
7
  6
CONTINUOUS
 10
886.4463929192
 20
658.0327538478
 11
886.4518353519
 21
658.188374769
  0
LINE
  5
48C
100
AcDbEntity
  8
00_COMPONENTS_51
100
AcDbLine
 62
7
  6
CONTINUOUS
 10
899.4226082652
 20
847.3598874249
 11
898.6200548195
 21
843.2312088043
  0
LINE
  5
48D
100
AcDbEntity
  8
00_COMPONENTS_51
100
AcDbLine
 62
7
  6
CONTINUOUS
 10
900.0924955947
 20
843.2312088043
 11
900.8950294213
 21
847.3598874249
  0
LINE
  5
48E
100
AcDbEntity
  8
00_COMPONENTS_14
100
AcDbLine
 62
7
  6
CONTINUOUS
 10
900.4842405747
 20
841.7464415707
 11
901.5753839152
 21
847.3598874249
  0
LINE
  5
48F
100
AcDbEntity
  8
00_COMPONENTS_14
100
AcDbLine
 62
7
  6
CONTINUOUS
 10
903.1034589576
 20
847.3598874249
 11
902.1295559534
 21
842.3495908135
  0
LINE
  5
490
100
AcDbEntity
  8
00_COMPONENTS_14
100
AcDbLine
 62
7
  6
CONTINUOUS
 10
915.7931586276
 20
842.3495908135
 11
914.9931586276
 21
843.0495908135
  0
LINE
  5
491
100
AcDbEntity
  8
00_COMPONENTS_51
100
AcDbLine
 62
7
  6
CONTINUOUS
 10
898.6200548195
 20
843.2312088043
 11
898.9942250747
 21
842.8496054682
  0
LINE
  5
492
100
AcDbEntity
  8
00_COMPONENTS_51
100
AcDbLine
 62
7
  6
CONTINUOUS
 10
896.0577552158
 20
701.099590813
 11
896.0577552158
 21
616.5995908143
  0
LINE
  5
493
100
AcDbEntity
  8
00_COMPONENTS_51
100
AcDbLine
 62
7
  6
CONTINUOUS
 10
896.8795559534
 20
702.0995908135
 11
896.8795559534
 21
615.5995908135
  0
LINE
  5
494
100
AcDbEntity
  8
00_COMPONENTS_51
100
AcDbLine
 62
7
  6
CONTINUOUS
 10
897.3795559534
 20
702.0995908135
 11
897.3795559534
 21
615.5995908135
  0
LINE
  5
495
100
AcDbEntity
  8
00_COMPONENTS_11
100
AcDbLine
 62
7
  6
CONTINUOUS
 10
917.2861221518
 20
858.6919974811
 11
917.2861221518
 21
849.0598874249
  0
LINE
  5
496
100
AcDbEntity
  8
00_COMPONENTS_14
100
AcDbLine
 62
7
  6
CONTINUOUS
 10
917.6295559534
 20
841.3495908135
 11
917.6295559534
 21
840.8495908135
  0
LINE
  5
497
100
AcDbEntity
  8
00_COMPONENTS_51
100
AcDbLine
 62
7
  6
CONTINUOUS
 10
918.1295559534
 20
567.0495931817
 11
918.1295559534
 21
837.6495908135
  0
LINE
  5
498
100
AcDbEntity
  8
00_COMPONENTS_11
100
AcDbLine
 62
7
  6
CONTINUOUS
 10
918.7861221518
 20
858.6919974811
 11
918.7861221518
 21
849.0598874249
  0
LINE
  5
499
100
AcDbEntity
  8
00_COMPONENTS_51
100
AcDbLine
 62
7
  6
CONTINUOUS
 10
919.6295559534
 20
567.0495908135
 11
919.6295559534
 21
837.6495908135
  0
LINE
  5
49A
100
AcDbEntity
  8
00_COMPONENTS_11
100
AcDbLine
 62
7
  6
CONTINUOUS
 10
916.5612020936
 20
860.0845559564
 11
917.2861221518
 21
858.6919974811
  0
ARC
  5
49B
100
AcDbEntity
  8
00_COMPONENTS_7
100
AcDbCircle
 62
7
  6
CONTINUOUS
 10
166.9105986715
 20
567.6188537111
 40
45.2704246915
100
AcDbArc
 50
45.162418485
 51
45.3675923527
  0
ARC
  5
49C
100
AcDbEntity
  8
00_COMPONENTS_7
100
AcDbCircle
 62
7
  6
CONTINUOUS
 10
166.9001802226
 20
567.6319832703
 40
45.2685071948
100
AcDbArc
 50
44.6324019286
 51
44.8375850463
  0
ARC
  5
49D
100
AcDbEntity
  8
00_COMPONENTS_7
100
AcDbCircle
 62
7
  6
CONTINUOUS
 10
207.9776606182
 20
592.0579345588
 40
11.8912642284
100
AcDbArc
 50
126.6791702633
 51
129.9655842409
  0
ARC
  5
49E
100
AcDbEntity
  8
00_COMPONENTS_7
100
AcDbCircle
 62
7
  6
CONTINUOUS
 10
207.8475152442
 20
592.0597352531
 40
11.7973659487
100
AcDbArc
 50
140.0213334208
 51
143.333912075
  0
ARC
  5
49F
100
AcDbEntity
  8
00_COMPONENTS_51
100
AcDbCircle
 62
7
  6
CONTINUOUS
 10
122.8295559534
 20
567.0495908135
 40
3.2
100
AcDbArc
 50
180.0000000001
 51
270.0
  0
ARC
  5
4A0
100
AcDbEntity
  8
00_COMPONENTS_7
100
AcDbCircle
 62
7
  6
CONTINUOUS
 10
166.8988185326
 20
633.0685486039
 40
45.2704252759
100
AcDbArc
 50
315.1624183128
 51
315.3675921772
  0
ARC
  5
4A1
100
AcDbEntity
  8
00_COMPONENTS_7
100
AcDbCircle
 62
7
  6
CONTINUOUS
 10
186.3602933603
 20
626.130633023
 40
45.2704252661
100
AcDbArc
 50
135.1624183003
 51
135.3675921647
  0
ARC
  5
4A2
100
AcDbEntity
  8
00_COMPONENTS_7
100
AcDbCircle
 62
7
  6
CONTINUOUS
 10
120.9105986715
 20
626.1188537111
 40
45.2704246915
100
AcDbArc
 50
45.162418485
 51
45.3675923527
  0
ARC
  5
4A3
100
AcDbEntity
  8
00_COMPONENTS_7
100
AcDbCircle
 62
7
  6
CONTINUOUS
 10
186.3471642244
 20
626.1202141108
 40
45.2685083976
100
AcDbArc
 50
134.6324017197
 51
134.8375848321
  0
ARC
  5
4A4
100
AcDbEntity
  8
00_COMPONENTS_7
100
AcDbCircle
 62
7
  6
CONTINUOUS
 10
166.9119477123
 20
633.0789674719
 40
45.268508345
100
AcDbArc
 50
314.6324017322
 51
314.8375848449
  0
ARC
  5
4A5
100
AcDbEntity
  8
00_COMPONENTS_7
100
AcDbCircle
 62
7
  6
CONTINUOUS
 10
120.9001802526
 20
626.1319833001
 40
45.2685071525
100
AcDbArc
 50
44.6324019285
 51
44.8375850464
  0
ARC
  5
4A6
100
AcDbEntity
  8
00_COMPONENTS_51
100
AcDbCircle
 62
7
  6
CONTINUOUS
 10
168.8795559534
 20
615.5995908135
 40
27.0
100
AcDbArc
 50
180.0
 51
270.0
  0
ARC
  5
4A7
100
AcDbEntity
  8
00_COMPONENTS_51
100
AcDbCircle
 62
7
  6
CONTINUOUS
 10
169.8795559534
 20
616.5995908135
 40
26.6781992623
100
AcDbArc
 50
179.9999999984
 51
270.0
  0
ARC
  5
4A8
100
AcDbEntity
  8
00_COMPONENTS_51
100
AcDbCircle
 62
7
  6
CONTINUOUS
 10
168.8795559534
 20
615.5995908135
 40
26.5
100
AcDbArc
 50
180.0
 51
270.0
  0
ARC
  5
4A9
100
AcDbEntity
  8
00_COMPONENTS_3
100
AcDbCircle
 62
7
  6
CONTINUOUS
 10
172.1295559534
 20
618.8495908135
 40
25.0
100
AcDbArc
 50
180.0
 51
270.0
  0
ARC
  5
4AA
100
AcDbEntity
  8
00_COMPONENTS_51
100
AcDbCircle
 62
7
  6
CONTINUOUS
 10
169.8795559534
 20
616.5995908135
 40
24.7085837563
100
AcDbArc
 50
179.9999999978
 51
270.0
  0
ARC
  5
4AB
100
AcDbEntity
  8
00_COMPONENTS_51
100
AcDbCircle
 62
7
  6
CONTINUOUS
 10
169.8795559534
 20
616.5995908135
 40
24.6167271797
100
AcDbArc
 50
179.9999999978
 51
270.0
  0
ARC
  5
4AC
100
AcDbEntity
  8
00_COMPONENTS_51
100
AcDbCircle
 62
7
  6
CONTINUOUS
 10
169.8795559534
 20
616.5995908135
 40
23.6319194267
100
AcDbArc
 50
180.0
 51
270.0
  0
ARC
  5
4AD
100
AcDbEntity
  8
00_COMPONENTS_7
100
AcDbCircle
 62
7
  6
CONTINUOUS
 10
191.2814512886
 20
608.6412470682
 40
11.8912642284
100
AcDbArc
 50
306.6791702634
 51
309.9655842409
  0
ARC
  5
4AE
100
AcDbEntity
  8
00_COMPONENTS_7
100
AcDbCircle
 62
7
  6
CONTINUOUS
 10
191.4115966627
 20
608.6394463739
 40
11.7973659486
100
AcDbArc
 50
320.0213334207
 51
323.333912075
  0
CIRCLE
  5
4AF
100
AcDbEntity
  8
00_COMPONENTS_7
100
AcDbCircle
 62
7
  6
CONTINUOUS
 10
199.6295559534
 20
600.3495908135
 40
4.75
  0
ARC
  5
4B0
100
AcDbEntity
  8
00_COMPONENTS_7
100
AcDbCircle
 62
7
  6
CONTINUOUS
 10
199.6295559534
 20
600.3495908135
 40
2.0621064383
100
AcDbArc
 50
255.5375990462
 51
284.4624009538
  0
ARC
  5
4B1
100
AcDbEntity
  8
00_COMPONENTS_7
100
AcDbCircle
 62
7
  6
CONTINUOUS
 10
199.6295559534
 20
600.3495908135
 40
2.0621064383
100
AcDbArc
 50
345.5375990462
 51
14.4624009538
  0
ARC
  5
4B2
100
AcDbEntity
  8
00_COMPONENTS_7
100
AcDbCircle
 62
7
  6
CONTINUOUS
 10
199.6295559534
 20
600.3495908135
 40
2.0621064383
100
AcDbArc
 50
75.5375990462
 51
104.4624009538
  0
ARC
  5
4B3
100
AcDbEntity
  8
00_COMPONENTS_7
100
AcDbCircle
 62
7
  6
CONTINUOUS
 10
199.6295559534
 20
600.3495908135
 40
2.0621064383
100
AcDbArc
 50
165.5375990462
 51
194.4624009538
  0
ARC
  5
4B4
100
AcDbEntity
  8
00_COMPONENTS_7
100
AcDbCircle
 62
7
  6
CONTINUOUS
 10
232.3602933904
 20
567.6306329932
 40
45.2704253084
100
AcDbArc
 50
135.1624183004
 51
135.3675921646
  0
ARC
  5
4B5
100
AcDbEntity
  8
00_COMPONENTS_7
100
AcDbCircle
 62
7
  6
CONTINUOUS
 10
286.9105986715
 20
567.6188537111
 40
45.2704246915
100
AcDbArc
 50
45.162418485
 51
45.3675923527
  0
ARC
  5
4B6
100
AcDbEntity
  8
00_COMPONENTS_7
100
AcDbCircle
 62
7
  6
CONTINUOUS
 10
232.3471642244
 20
567.6202141108
 40
45.2685083976
100
AcDbArc
 50
134.6324017197
 51
134.8375848321
  0
ARC
  5
4B7
100
AcDbEntity
  8
00_COMPONENTS_7
100
AcDbCircle
 62
7
  6
CONTINUOUS
 10
286.9001802226
 20
567.6319832703
 40
45.2685071948
100
AcDbArc
 50
44.6324019286
 51
44.8375850463
  0
ARC
  5
4B8
100
AcDbEntity
  8
00_COMPONENTS_7
100
AcDbCircle
 62
7
  6
CONTINUOUS
 10
232.3485137587
 20
633.0803282494
 40
45.2704252971
100
AcDbArc
 50
225.1624183129
 51
225.3675921772
  0
ARC
  5
4B9
100
AcDbEntity
  8
00_COMPONENTS_7
100
AcDbCircle
 62
7
  6
CONTINUOUS
 10
286.8988185326
 20
633.0685486039
 40
45.2704252759
100
AcDbArc
 50
315.1624183128
 51
315.3675921772
  0
ARC
  5
4BA
100
AcDbEntity
  8
00_COMPONENTS_7
100
AcDbCircle
 62
7
  6
CONTINUOUS
 10
232.358932657
 20
633.0671990994
 40
45.2685084086
100
AcDbArc
 50
224.6324017324
 51
224.8375848448
  0
ARC
  5
4BB
100
AcDbEntity
  8
00_COMPONENTS_7
100
AcDbCircle
 62
7
  6
CONTINUOUS
 10
286.9119477123
 20
633.0789674719
 40
45.268508345
100
AcDbArc
 50
314.6324017322
 51
314.8375848449
  0
ARC
  5
4BC
100
AcDbEntity
  8
00_COMPONENTS_7
100
AcDbCircle
 62
7
  6
CONTINUOUS
 10
311.2814512886
 20
608.6412470682
 40
11.8912642284
100
AcDbArc
 50
306.6791702634
 51
309.9655842409
  0
ARC
  5
4BD
100
AcDbEntity
  8
00_COMPONENTS_7
100
AcDbCircle
 62
7
  6
CONTINUOUS
 10
311.4115966627
 20
608.6394463739
 40
11.7973659486
100
AcDbArc
 50
320.0213334207
 51
323.333912075
  0
ARC
  5
4BE
100
AcDbEntity
  8
00_COMPONENTS_7
100
AcDbCircle
 62
7
  6
CONTINUOUS
 10
166.9105986715
 20
684.6188537111
 40
45.2704246915
100
AcDbArc
 50
45.162418485
 51
45.3675923527
  0
ARC
  5
4BF
100
AcDbEntity
  8
00_COMPONENTS_7
100
AcDbCircle
 62
7
  6
CONTINUOUS
 10
166.9001802526
 20
684.6319833001
 40
45.2685071525
100
AcDbArc
 50
44.6324019285
 51
44.8375850464
  0
ARC
  5
4C0
100
AcDbEntity
  8
00_COMPONENTS_7
100
AcDbCircle
 62
7
  6
CONTINUOUS
 10
161.9776606183
 20
650.5579345587
 40
11.8912642286
100
AcDbArc
 50
126.6791702634
 51
129.9655842409
  0
ARC
  5
4C1
100
AcDbEntity
  8
00_COMPONENTS_7
100
AcDbCircle
 62
7
  6
CONTINUOUS
 10
145.2814512884
 20
667.1412470684
 40
11.8912642286
100
AcDbArc
 50
306.6791702634
 51
309.9655842409
  0
ARC
  5
4C2
100
AcDbEntity
  8
00_COMPONENTS_7
100
AcDbCircle
 62
7
  6
CONTINUOUS
 10
145.4115966627
 20
667.1394463739
 40
11.7973659486
100
AcDbArc
 50
320.0213334207
 51
323.333912075
  0
ARC
  5
4C3
100
AcDbEntity
  8
00_COMPONENTS_7
100
AcDbCircle
 62
7
  6
CONTINUOUS
 10
161.8475152442
 20
650.5597352531
 40
11.7973659487
100
AcDbArc
 50
140.0213334208
 51
143.333912075
  0
CIRCLE
  5
4C4
100
AcDbEntity
  8
00_COMPONENTS_7
100
AcDbCircle
 62
7
  6
CONTINUOUS
 10
153.6295559534
 20
658.8495908135
 40
4.75
  0
ARC
  5
4C5
100
AcDbEntity
  8
00_COMPONENTS_7
100
AcDbCircle
 62
7
  6
CONTINUOUS
 10
153.6295559534
 20
658.8495908135
 40
2.0621064383
100
AcDbArc
 50
255.5375990462
 51
284.4624009538
  0
ARC
  5
4C6
100
AcDbEntity
  8
00_COMPONENTS_7
100
AcDbCircle
 62
7
  6
CONTINUOUS
 10
153.6295559534
 20
658.8495908135
 40
2.0621064383
100
AcDbArc
 50
345.5375990462
 51
14.4624009538
  0
ARC
  5
4C7
100
AcDbEntity
  8
00_COMPONENTS_7
100
AcDbCircle
 62
7
  6
CONTINUOUS
 10
153.6295559534
 20
658.8495908135
 40
2.0621064383
100
AcDbArc
 50
75.5375990462
 51
104.4624009538
  0
ARC
  5
4C8
100
AcDbEntity
  8
00_COMPONENTS_7
100
AcDbCircle
 62
7
  6
CONTINUOUS
 10
153.6295559534
 20
658.8495908135
 40
2.0621064383
100
AcDbArc
 50
165.5375990462
 51
194.4624009538
  0
ARC
  5
4C9
100
AcDbEntity
  8
00_COMPONENTS_7
100
AcDbCircle
 62
7
  6
CONTINUOUS
 10
186.3485137587
 20
691.5803282494
 40
45.2704252971
100
AcDbArc
 50
225.1624183129
 51
225.3675921772
  0
ARC
  5
4CA
100
AcDbEntity
  8
00_COMPONENTS_7
100
AcDbCircle
 62
7
  6
CONTINUOUS
 10
120.8988185326
 20
691.5685486039
 40
45.2704252759
100
AcDbArc
 50
315.1624183128
 51
315.3675921772
  0
ARC
  5
4CB
100
AcDbEntity
  8
00_COMPONENTS_7
100
AcDbCircle
 62
7
  6
CONTINUOUS
 10
120.9119476823
 20
691.5789675022
 40
45.2685083877
100
AcDbArc
 50
314.6324017323
 51
314.8375848448
  0
ARC
  5
4CC
100
AcDbEntity
  8
00_COMPONENTS_7
100
AcDbCircle
 62
7
  6
CONTINUOUS
 10
186.3589326269
 20
691.5671990696
 40
45.2685083663
100
AcDbArc
 50
224.6324017323
 51
224.8375848449
  0
ARC
  5
4CD
100
AcDbEntity
  8
00_COMPONENTS_51
100
AcDbCircle
 62
7
  6
CONTINUOUS
 10
168.8795559534
 20
702.0995908135
 40
27.0
100
AcDbArc
 50
90.0
 51
180.0
  0
ARC
  5
4CE
100
AcDbEntity
  8
00_COMPONENTS_51
100
AcDbCircle
 62
7
  6
CONTINUOUS
 10
169.8795559534
 20
701.0995908135
 40
26.6781992624
100
AcDbArc
 50
89.9999999983
 51
180.0000000016
  0
ARC
  5
4CF
100
AcDbEntity
  8
00_COMPONENTS_51
100
AcDbCircle
 62
7
  6
CONTINUOUS
 10
168.8795559534
 20
702.0995908135
 40
26.5
100
AcDbArc
 50
90.0
 51
180.0
  0
ARC
  5
4D0
100
AcDbEntity
  8
00_COMPONENTS_3
100
AcDbCircle
 62
7
  6
CONTINUOUS
 10
172.1295559534
 20
698.8495908135
 40
25.0
100
AcDbArc
 50
90.0
 51
180.0
  0
ARC
  5
4D1
100
AcDbEntity
  8
00_COMPONENTS_51
100
AcDbCircle
 62
7
  6
CONTINUOUS
 10
169.8795559534
 20
701.0995908135
 40
24.7085837563
100
AcDbArc
 50
89.9999999978
 51
180.0
  0
ARC
  5
4D2
100
AcDbEntity
  8
00_COMPONENTS_51
100
AcDbCircle
 62
7
  6
CONTINUOUS
 10
169.8795559534
 20
701.0995908135
 40
24.6167271797
100
AcDbArc
 50
89.9999999978
 51
180.0
  0
ARC
  5
4D3
100
AcDbEntity
  8
00_COMPONENTS_51
100
AcDbCircle
 62
7
  6
CONTINUOUS
 10
169.8795559534
 20
701.0995908135
 40
23.6319194267
100
AcDbArc
 50
90.0
 51
180.0
  0
ARC
  5
4D4
100
AcDbEntity
  8
00_COMPONENTS_7
100
AcDbCircle
 62
7
  6
CONTINUOUS
 10
207.9776606182
 20
709.0579345588
 40
11.8912642284
100
AcDbArc
 50
126.6791702633
 51
129.9655842409
  0
ARC
  5
4D5
100
AcDbEntity
  8
00_COMPONENTS_7
100
AcDbCircle
 62
7
  6
CONTINUOUS
 10
191.2814512884
 20
725.6412470684
 40
11.8912642286
100
AcDbArc
 50
306.6791702634
 51
309.9655842409
  0
ARC
  5
4D6
100
AcDbEntity
  8
00_COMPONENTS_7
100
AcDbCircle
 62
7
  6
CONTINUOUS
 10
191.4115966627
 20
725.6394463739
 40
11.7973659486
100
AcDbArc
 50
320.0213334207
 51
323.333912075
  0
ARC
  5
4D7
100
AcDbEntity
  8
00_COMPONENTS_7
100
AcDbCircle
 62
7
  6
CONTINUOUS
 10
207.8475152441
 20
709.0597352532
 40
11.7973659485
100
AcDbArc
 50
140.0213334207
 51
143.333912075
  0
CIRCLE
  5
4D8
100
AcDbEntity
  8
00_COMPONENTS_7
100
AcDbCircle
 62
7
  6
CONTINUOUS
 10
199.6295559534
 20
717.3495908135
 40
4.75
  0
ARC
  5
4D9
100
AcDbEntity
  8
00_COMPONENTS_7
100
AcDbCircle
 62
7
  6
CONTINUOUS
 10
199.6295559534
 20
717.3495908135
 40
2.0621064383
100
AcDbArc
 50
255.5375990462
 51
284.4624009538
  0
ARC
  5
4DA
100
AcDbEntity
  8
00_COMPONENTS_7
100
AcDbCircle
 62
7
  6
CONTINUOUS
 10
199.6295559534
 20
717.3495908135
 40
2.0621064383
100
AcDbArc
 50
345.5375990462
 51
14.4624009538
  0
ARC
  5
4DB
100
AcDbEntity
  8
00_COMPONENTS_7
100
AcDbCircle
 62
7
  6
CONTINUOUS
 10
199.6295559534
 20
717.3495908135
 40
2.0621064383
100
AcDbArc
 50
75.5375990462
 51
104.4624009538
  0
ARC
  5
4DC
100
AcDbEntity
  8
00_COMPONENTS_7
100
AcDbCircle
 62
7
  6
CONTINUOUS
 10
199.6295559534
 20
717.3495908135
 40
2.0621064383
100
AcDbArc
 50
165.5375990462
 51
194.4624009538
  0
ARC
  5
4DD
100
AcDbEntity
  8
00_COMPONENTS_7
100
AcDbCircle
 62
7
  6
CONTINUOUS
 10
232.3602933603
 20
684.630633023
 40
45.2704252661
100
AcDbArc
 50
135.1624183003
 51
135.3675921647
  0
ARC
  5
4DE
100
AcDbEntity
  8
00_COMPONENTS_7
100
AcDbCircle
 62
7
  6
CONTINUOUS
 10
286.9105986715
 20
684.6188537111
 40
45.2704246915
100
AcDbArc
 50
45.162418485
 51
45.3675923527
  0
ARC
  5
4DF
100
AcDbEntity
  8
00_COMPONENTS_7
100
AcDbCircle
 62
7
  6
CONTINUOUS
 10
232.3471642244
 20
684.6202141108
 40
45.2685083976
100
AcDbArc
 50
134.6324017197
 51
134.8375848321
  0
ARC
  5
4E0
100
AcDbEntity
  8
00_COMPONENTS_7
100
AcDbCircle
 62
7
  6
CONTINUOUS
 10
286.9001802526
 20
684.6319833001
 40
45.2685071525
100
AcDbArc
 50
44.6324019285
 51
44.8375850464
  0
ARC
  5
4E1
100
AcDbEntity
  8
00_COMPONENTS_7
100
AcDbCircle
 62
7
  6
CONTINUOUS
 10
311.2814512884
 20
725.6412470684
 40
11.8912642286
100
AcDbArc
 50
306.6791702634
 51
309.9655842409
  0
ARC
  5
4E2
100
AcDbEntity
  8
00_COMPONENTS_7
100
AcDbCircle
 62
7
  6
CONTINUOUS
 10
311.4115966627
 20
725.6394463739
 40
11.7973659486
100
AcDbArc
 50
320.0213334207
 51
323.333912075
  0
ARC
  5
4E3
100
AcDbEntity
  8
00_COMPONENTS_7
100
AcDbCircle
 62
7
  6
CONTINUOUS
 10
352.3602933904
 20
567.6306329932
 40
45.2704253084
100
AcDbArc
 50
135.1624183004
 51
135.3675921646
  0
ARC
  5
4E4
100
AcDbEntity
  8
00_COMPONENTS_7
100
AcDbCircle
 62
7
  6
CONTINUOUS
 10
406.9105986715
 20
567.6188537111
 40
45.2704246915
100
AcDbArc
 50
45.162418485
 51
45.3675923527
  0
ARC
  5
4E5
100
AcDbEntity
  8
00_COMPONENTS_7
100
AcDbCircle
 62
7
  6
CONTINUOUS
 10
352.3471642244
 20
567.6202141108
 40
45.2685083976
100
AcDbArc
 50
134.6324017197
 51
134.8375848321
  0
ARC
  5
4E6
100
AcDbEntity
  8
00_COMPONENTS_7
100
AcDbCircle
 62
7
  6
CONTINUOUS
 10
406.9001802226
 20
567.6319832703
 40
45.2685071948
100
AcDbArc
 50
44.6324019286
 51
44.8375850463
  0
ARC
  5
4E7
100
AcDbEntity
  8
00_COMPONENTS_7
100
AcDbCircle
 62
7
  6
CONTINUOUS
 10
327.9776606183
 20
592.0579345587
 40
11.8912642286
100
AcDbArc
 50
126.6791702634
 51
129.9655842409
  0
ARC
  5
4E8
100
AcDbEntity
  8
00_COMPONENTS_7
100
AcDbCircle
 62
7
  6
CONTINUOUS
 10
327.8475152442
 20
592.0597352531
 40
11.7973659487
100
AcDbArc
 50
140.0213334208
 51
143.333912075
  0
CIRCLE
  5
4E9
100
AcDbEntity
  8
00_COMPONENTS_7
100
AcDbCircle
 62
7
  6
CONTINUOUS
 10
319.6295559534
 20
600.3495908135
 40
4.75
  0
ARC
  5
4EA
100
AcDbEntity
  8
00_COMPONENTS_7
100
AcDbCircle
 62
7
  6
CONTINUOUS
 10
319.6295559534
 20
600.3495908135
 40
2.0621064383
100
AcDbArc
 50
255.5375990462
 51
284.4624009538
  0
ARC
  5
4EB
100
AcDbEntity
  8
00_COMPONENTS_7
100
AcDbCircle
 62
7
  6
CONTINUOUS
 10
319.6295559534
 20
600.3495908135
 40
2.0621064383
100
AcDbArc
 50
345.5375990462
 51
14.4624009538
  0
ARC
  5
4EC
100
AcDbEntity
  8
00_COMPONENTS_7
100
AcDbCircle
 62
7
  6
CONTINUOUS
 10
319.6295559534
 20
600.3495908135
 40
2.0621064383
100
AcDbArc
 50
75.5375990462
 51
104.4624009538
  0
ARC
  5
4ED
100
AcDbEntity
  8
00_COMPONENTS_7
100
AcDbCircle
 62
7
  6
CONTINUOUS
 10
319.6295559534
 20
600.3495908135
 40
2.0621064383
100
AcDbArc
 50
165.5375990462
 51
194.4624009538
  0
ARC
  5
4EE
100
AcDbEntity
  8
00_COMPONENTS_7
100
AcDbCircle
 62
7
  6
CONTINUOUS
 10
352.3485137587
 20
633.0803282494
 40
45.2704252971
100
AcDbArc
 50
225.1624183129
 51
225.3675921772
  0
ARC
  5
4EF
100
AcDbEntity
  8
00_COMPONENTS_7
100
AcDbCircle
 62
7
  6
CONTINUOUS
 10
406.8988185326
 20
633.0685486039
 40
45.2704252759
100
AcDbArc
 50
315.1624183128
 51
315.3675921772
  0
ARC
  5
4F0
100
AcDbEntity
  8
00_COMPONENTS_7
100
AcDbCircle
 62
7
  6
CONTINUOUS
 10
352.358932657
 20
633.0671990994
 40
45.2685084086
100
AcDbArc
 50
224.6324017324
 51
224.8375848448
  0
ARC
  5
4F1
100
AcDbEntity
  8
00_COMPONENTS_7
100
AcDbCircle
 62
7
  6
CONTINUOUS
 10
406.9119477123
 20
633.0789674719
 40
45.268508345
100
AcDbArc
 50
314.6324017322
 51
314.8375848449
  0
ARC
  5
4F2
100
AcDbEntity
  8
00_COMPONENTS_7
100
AcDbCircle
 62
7
  6
CONTINUOUS
 10
472.3602933904
 20
567.6306329932
 40
45.2704253084
100
AcDbArc
 50
135.1624183004
 51
135.3675921646
  0
ARC
  5
4F3
100
AcDbEntity
  8
00_COMPONENTS_7
100
AcDbCircle
 62
7
  6
CONTINUOUS
 10
472.3471642244
 20
567.6202141108
 40
45.2685083976
100
AcDbArc
 50
134.6324017197
 51
134.8375848321
  0
ARC
  5
4F4
100
AcDbEntity
  8
00_COMPONENTS_7
100
AcDbCircle
 62
7
  6
CONTINUOUS
 10
447.9776606183
 20
592.0579345587
 40
11.8912642286
100
AcDbArc
 50
126.6791702634
 51
129.9655842409
  0
ARC
  5
4F5
100
AcDbEntity
  8
00_COMPONENTS_7
100
AcDbCircle
 62
7
  6
CONTINUOUS
 10
447.8475152441
 20
592.0597352532
 40
11.7973659485
100
AcDbArc
 50
140.0213334207
 51
143.333912075
  0
CIRCLE
  5
4F6
100
AcDbEntity
  8
00_COMPONENTS_7
100
AcDbCircle
 62
7
  6
CONTINUOUS
 10
439.6295559534
 20
600.3495908135
 40
4.75
  0
ARC
  5
4F7
100
AcDbEntity
  8
00_COMPONENTS_7
100
AcDbCircle
 62
7
  6
CONTINUOUS
 10
439.6295559534
 20
600.3495908135
 40
2.0621064383
100
AcDbArc
 50
255.5375990462
 51
284.4624009538
  0
ARC
  5
4F8
100
AcDbEntity
  8
00_COMPONENTS_7
100
AcDbCircle
 62
7
  6
CONTINUOUS
 10
439.6295559534
 20
600.3495908135
 40
2.0621064383
100
AcDbArc
 50
345.5375990462
 51
14.4624009538
  0
ARC
  5
4F9
100
AcDbEntity
  8
00_COMPONENTS_7
100
AcDbCircle
 62
7
  6
CONTINUOUS
 10
439.6295559534
 20
600.3495908135
 40
2.0621064383
100
AcDbArc
 50
75.5375990462
 51
104.4624009538
  0
ARC
  5
4FA
100
AcDbEntity
  8
00_COMPONENTS_7
100
AcDbCircle
 62
7
  6
CONTINUOUS
 10
439.6295559534
 20
600.3495908135
 40
2.0621064383
100
AcDbArc
 50
165.5375990462
 51
194.4624009538
  0
ARC
  5
4FB
100
AcDbEntity
  8
00_COMPONENTS_7
100
AcDbCircle
 62
7
  6
CONTINUOUS
 10
472.3485137587
 20
633.0803282494
 40
45.2704252971
100
AcDbArc
 50
225.1624183129
 51
225.3675921772
  0
ARC
  5
4FC
100
AcDbEntity
  8
00_COMPONENTS_7
100
AcDbCircle
 62
7
  6
CONTINUOUS
 10
518.3602933603
 20
626.130633023
 40
45.2704252661
100
AcDbArc
 50
135.1624183003
 51
135.3675921647
  0
ARC
  5
4FD
100
AcDbEntity
  8
00_COMPONENTS_7
100
AcDbCircle
 62
7
  6
CONTINUOUS
 10
452.9105986715
 20
626.1188537111
 40
45.2704246915
100
AcDbArc
 50
45.162418485
 51
45.3675923527
  0
ARC
  5
4FE
100
AcDbEntity
  8
00_COMPONENTS_7
100
AcDbCircle
 62
7
  6
CONTINUOUS
 10
472.358932657
 20
633.0671990994
 40
45.2685084086
100
AcDbArc
 50
224.6324017324
 51
224.8375848448
  0
ARC
  5
4FF
100
AcDbEntity
  8
00_COMPONENTS_7
100
AcDbCircle
 62
7
  6
CONTINUOUS
 10
518.3471642244
 20
626.1202141108
 40
45.2685083976
100
AcDbArc
 50
134.6324017197
 51
134.8375848321
  0
ARC
  5
500
100
AcDbEntity
  8
00_COMPONENTS_7
100
AcDbCircle
 62
7
  6
CONTINUOUS
 10
452.9001802526
 20
626.1319833001
 40
45.2685071525
100
AcDbArc
 50
44.6324019285
 51
44.8375850464
  0
ARC
  5
501
100
AcDbEntity
  8
00_COMPONENTS_51
100
AcDbCircle
 62
7
  6
CONTINUOUS
 10
470.3795559534
 20
615.5995908135
 40
27.0
100
AcDbArc
 50
270.0
 51
360.0
  0
ARC
  5
502
100
AcDbEntity
  8
00_COMPONENTS_51
100
AcDbCircle
 62
7
  6
CONTINUOUS
 10
469.3795559534
 20
616.5995908135
 40
26.6781992623
100
AcDbArc
 50
270.0
 51
360.0
  0
ARC
  5
503
100
AcDbEntity
  8
00_COMPONENTS_51
100
AcDbCircle
 62
7
  6
CONTINUOUS
 10
470.3795559534
 20
615.5995908135
 40
26.5
100
AcDbArc
 50
270.0
 51
360.0
  0
ARC
  5
504
100
AcDbEntity
  8
00_COMPONENTS_3
100
AcDbCircle
 62
7
  6
CONTINUOUS
 10
467.1295559534
 20
618.8495908135
 40
25.0
100
AcDbArc
 50
270.0
 51
360.0
  0
ARC
  5
505
100
AcDbEntity
  8
00_COMPONENTS_51
100
AcDbCircle
 62
7
  6
CONTINUOUS
 10
469.3795559534
 20
616.5995908135
 40
24.7085837563
100
AcDbArc
 50
269.9999999978
 51
360.0
  0
ARC
  5
506
100
AcDbEntity
  8
00_COMPONENTS_51
100
AcDbCircle
 62
7
  6
CONTINUOUS
 10
469.3795559534
 20
616.5995908135
 40
24.6167271797
100
AcDbArc
 50
269.9999999978
 51
360.0
  0
ARC
  5
507
100
AcDbEntity
  8
00_COMPONENTS_51
100
AcDbCircle
 62
7
  6
CONTINUOUS
 10
469.3795559534
 20
616.5995908135
 40
23.6319194267
100
AcDbArc
 50
270.0
 51
359.9999999912
  0
ARC
  5
508
100
AcDbEntity
  8
00_COMPONENTS_7
100
AcDbCircle
 62
7
  6
CONTINUOUS
 10
431.2814512886
 20
608.6412470682
 40
11.8912642284
100
AcDbArc
 50
306.6791702634
 51
309.9655842409
  0
ARC
  5
509
100
AcDbEntity
  8
00_COMPONENTS_7
100
AcDbCircle
 62
7
  6
CONTINUOUS
 10
431.4115966627
 20
608.6394463739
 40
11.7973659486
100
AcDbArc
 50
320.0213334207
 51
323.333912075
  0
ARC
  5
50A
100
AcDbEntity
  8
00_COMPONENTS_7
100
AcDbCircle
 62
7
  6
CONTINUOUS
 10
352.3602933603
 20
684.630633023
 40
45.2704252661
100
AcDbArc
 50
135.1624183003
 51
135.3675921647
  0
ARC
  5
50B
100
AcDbEntity
  8
00_COMPONENTS_7
100
AcDbCircle
 62
7
  6
CONTINUOUS
 10
406.9105986715
 20
684.6188537111
 40
45.2704246915
100
AcDbArc
 50
45.162418485
 51
45.3675923527
  0
ARC
  5
50C
100
AcDbEntity
  8
00_COMPONENTS_7
100
AcDbCircle
 62
7
  6
CONTINUOUS
 10
352.3471642244
 20
684.6202141108
 40
45.2685083976
100
AcDbArc
 50
134.6324017197
 51
134.8375848321
  0
ARC
  5
50D
100
AcDbEntity
  8
00_COMPONENTS_7
100
AcDbCircle
 62
7
  6
CONTINUOUS
 10
406.9001802526
 20
684.6319833001
 40
45.2685071525
100
AcDbArc
 50
44.6324019285
 51
44.8375850464
  0
ARC
  5
50E
100
AcDbEntity
  8
00_COMPONENTS_7
100
AcDbCircle
 62
7
  6
CONTINUOUS
 10
327.9776606183
 20
709.0579345587
 40
11.8912642286
100
AcDbArc
 50
126.6791702634
 51
129.9655842409
  0
ARC
  5
50F
100
AcDbEntity
  8
00_COMPONENTS_7
100
AcDbCircle
 62
7
  6
CONTINUOUS
 10
327.8475152441
 20
709.0597352532
 40
11.7973659485
100
AcDbArc
 50
140.0213334207
 51
143.333912075
  0
CIRCLE
  5
510
100
AcDbEntity
  8
00_COMPONENTS_7
100
AcDbCircle
 62
7
  6
CONTINUOUS
 10
319.6295559534
 20
717.3495908135
 40
4.75
  0
ARC
  5
511
100
AcDbEntity
  8
00_COMPONENTS_7
100
AcDbCircle
 62
7
  6
CONTINUOUS
 10
319.6295559534
 20
717.3495908135
 40
2.0621064383
100
AcDbArc
 50
255.5375990462
 51
284.4624009538
  0
ARC
  5
512
100
AcDbEntity
  8
00_COMPONENTS_7
100
AcDbCircle
 62
7
  6
CONTINUOUS
 10
319.6295559534
 20
717.3495908135
 40
2.0621064383
100
AcDbArc
 50
345.5375990462
 51
14.4624009538
  0
ARC
  5
513
100
AcDbEntity
  8
00_COMPONENTS_7
100
AcDbCircle
 62
7
  6
CONTINUOUS
 10
319.6295559534
 20
717.3495908135
 40
2.0621064383
100
AcDbArc
 50
75.5375990462
 51
104.4624009538
  0
ARC
  5
514
100
AcDbEntity
  8
00_COMPONENTS_7
100
AcDbCircle
 62
7
  6
CONTINUOUS
 10
319.6295559534
 20
717.3495908135
 40
2.0621064383
100
AcDbArc
 50
165.5375990462
 51
194.4624009538
  0
ARC
  5
515
100
AcDbEntity
  8
00_COMPONENTS_7
100
AcDbCircle
 62
7
  6
CONTINUOUS
 10
472.3602933603
 20
684.630633023
 40
45.2704252661
100
AcDbArc
 50
135.1624183003
 51
135.3675921647
  0
ARC
  5
516
100
AcDbEntity
  8
00_COMPONENTS_7
100
AcDbCircle
 62
7
  6
CONTINUOUS
 10
472.3471642244
 20
684.6202141108
 40
45.2685083976
100
AcDbArc
 50
134.6324017197
 51
134.8375848321
  0
ARC
  5
517
100
AcDbEntity
  8
00_COMPONENTS_7
100
AcDbCircle
 62
7
  6
CONTINUOUS
 10
493.9776606183
 20
650.5579345587
 40
11.8912642286
100
AcDbArc
 50
126.6791702634
 51
129.9655842409
  0
ARC
  5
518
100
AcDbEntity
  8
00_COMPONENTS_7
100
AcDbCircle
 62
7
  6
CONTINUOUS
 10
477.2814512884
 20
667.1412470684
 40
11.8912642286
100
AcDbArc
 50
306.6791702634
 51
309.9655842409
  0
ARC
  5
519
100
AcDbEntity
  8
00_COMPONENTS_7
100
AcDbCircle
 62
7
  6
CONTINUOUS
 10
477.4115966627
 20
667.1394463739
 40
11.7973659486
100
AcDbArc
 50
320.0213334207
 51
323.333912075
  0
ARC
  5
51A
100
AcDbEntity
  8
00_COMPONENTS_7
100
AcDbCircle
 62
7
  6
CONTINUOUS
 10
493.8475152444
 20
650.5597352529
 40
11.797365949
100
AcDbArc
 50
140.0213334208
 51
143.3339120749
  0
CIRCLE
  5
51B
100
AcDbEntity
  8
00_COMPONENTS_7
100
AcDbCircle
 62
7
  6
CONTINUOUS
 10
485.6295559534
 20
658.8495908135
 40
4.75
  0
ARC
  5
51C
100
AcDbEntity
  8
00_COMPONENTS_7
100
AcDbCircle
 62
7
  6
CONTINUOUS
 10
485.6295559534
 20
658.8495908135
 40
2.0621064383
100
AcDbArc
 50
255.5375990462
 51
284.4624009538
  0
ARC
  5
51D
100
AcDbEntity
  8
00_COMPONENTS_7
100
AcDbCircle
 62
7
  6
CONTINUOUS
 10
485.6295559534
 20
658.8495908135
 40
2.0621064383
100
AcDbArc
 50
345.5375990462
 51
14.4624009538
  0
ARC
  5
51E
100
AcDbEntity
  8
00_COMPONENTS_7
100
AcDbCircle
 62
7
  6
CONTINUOUS
 10
485.6295559534
 20
658.8495908135
 40
2.0621064383
100
AcDbArc
 50
75.5375990462
 51
104.4624009538
  0
ARC
  5
51F
100
AcDbEntity
  8
00_COMPONENTS_7
100
AcDbCircle
 62
7
  6
CONTINUOUS
 10
485.6295559534
 20
658.8495908135
 40
2.0621064383
100
AcDbArc
 50
165.5375990462
 51
194.4624009538
  0
ARC
  5
520
100
AcDbEntity
  8
00_COMPONENTS_7
100
AcDbCircle
 62
7
  6
CONTINUOUS
 10
518.3485137587
 20
691.5803282494
 40
45.2704252971
100
AcDbArc
 50
225.1624183129
 51
225.3675921772
  0
ARC
  5
521
100
AcDbEntity
  8
00_COMPONENTS_7
100
AcDbCircle
 62
7
  6
CONTINUOUS
 10
452.8988185326
 20
691.5685486039
 40
45.2704252759
100
AcDbArc
 50
315.1624183128
 51
315.3675921772
  0
ARC
  5
522
100
AcDbEntity
  8
00_COMPONENTS_7
100
AcDbCircle
 62
7
  6
CONTINUOUS
 10
452.9119476823
 20
691.5789675022
 40
45.2685083877
100
AcDbArc
 50
314.6324017323
 51
314.8375848448
  0
ARC
  5
523
100
AcDbEntity
  8
00_COMPONENTS_7
100
AcDbCircle
 62
7
  6
CONTINUOUS
 10
518.3589326269
 20
691.5671990696
 40
45.2685083663
100
AcDbArc
 50
224.6324017323
 51
224.8375848449
  0
ARC
  5
524
100
AcDbEntity
  8
00_COMPONENTS_51
100
AcDbCircle
 62
7
  6
CONTINUOUS
 10
470.3795559534
 20
702.0995908135
 40
27.0
100
AcDbArc
 50
0.0
 51
90.0
  0
ARC
  5
525
100
AcDbEntity
  8
00_COMPONENTS_51
100
AcDbCircle
 62
7
  6
CONTINUOUS
 10
469.3795559534
 20
701.0995908135
 40
26.6781992624
100
AcDbArc
 50
0.0
 51
90.0000000016
  0
ARC
  5
526
100
AcDbEntity
  8
00_COMPONENTS_51
100
AcDbCircle
 62
7
  6
CONTINUOUS
 10
470.3795559534
 20
702.0995908135
 40
26.5
100
AcDbArc
 50
0.0
 51
90.0
  0
ARC
  5
527
100
AcDbEntity
  8
00_COMPONENTS_3
100
AcDbCircle
 62
7
  6
CONTINUOUS
 10
467.1295559534
 20
698.8495908135
 40
25.0
100
AcDbArc
 50
0.0
 51
90.0
  0
ARC
  5
528
100
AcDbEntity
  8
00_COMPONENTS_51
100
AcDbCircle
 62
7
  6
CONTINUOUS
 10
469.3795559534
 20
701.0995908135
 40
24.7085837563
100
AcDbArc
 50
0.0
 51
90.0
  0
ARC
  5
529
100
AcDbEntity
  8
00_COMPONENTS_51
100
AcDbCircle
 62
7
  6
CONTINUOUS
 10
469.3795559534
 20
701.0995908135
 40
24.6167271797
100
AcDbArc
 50
0.0
 51
90.0
  0
ARC
  5
52A
100
AcDbEntity
  8
00_COMPONENTS_51
100
AcDbCircle
 62
7
  6
CONTINUOUS
 10
469.3795559534
 20
701.0995908135
 40
23.6319194267
100
AcDbArc
 50
0.0
 51
90.0
  0
ARC
  5
52B
100
AcDbEntity
  8
00_COMPONENTS_7
100
AcDbCircle
 62
7
  6
CONTINUOUS
 10
447.9776606183
 20
709.0579345587
 40
11.8912642286
100
AcDbArc
 50
126.6791702634
 51
129.9655842409
  0
ARC
  5
52C
100
AcDbEntity
  8
00_COMPONENTS_7
100
AcDbCircle
 62
7
  6
CONTINUOUS
 10
431.2814512884
 20
725.6412470684
 40
11.8912642286
100
AcDbArc
 50
306.6791702634
 51
309.9655842409
  0
ARC
  5
52D
100
AcDbEntity
  8
00_COMPONENTS_7
100
AcDbCircle
 62
7
  6
CONTINUOUS
 10
431.4115966627
 20
725.6394463739
 40
11.7973659486
100
AcDbArc
 50
320.0213334207
 51
323.333912075
  0
ARC
  5
52E
100
AcDbEntity
  8
00_COMPONENTS_7
100
AcDbCircle
 62
7
  6
CONTINUOUS
 10
447.8475152439
 20
709.0597352533
 40
11.7973659483
100
AcDbArc
 50
140.0213334207
 51
143.333912075
  0
CIRCLE
  5
52F
100
AcDbEntity
  8
00_COMPONENTS_7
100
AcDbCircle
 62
7
  6
CONTINUOUS
 10
439.6295559534
 20
717.3495908135
 40
4.75
  0
ARC
  5
530
100
AcDbEntity
  8
00_COMPONENTS_7
100
AcDbCircle
 62
7
  6
CONTINUOUS
 10
439.6295559534
 20
717.3495908135
 40
2.0621064383
100
AcDbArc
 50
255.5375990462
 51
284.4624009538
  0
ARC
  5
531
100
AcDbEntity
  8
00_COMPONENTS_7
100
AcDbCircle
 62
7
  6
CONTINUOUS
 10
439.6295559534
 20
717.3495908135
 40
2.0621064383
100
AcDbArc
 50
345.5375990462
 51
14.4624009538
  0
ARC
  5
532
100
AcDbEntity
  8
00_COMPONENTS_7
100
AcDbCircle
 62
7
  6
CONTINUOUS
 10
439.6295559534
 20
717.3495908135
 40
2.0621064383
100
AcDbArc
 50
75.5375990462
 51
104.4624009538
  0
ARC
  5
533
100
AcDbEntity
  8
00_COMPONENTS_7
100
AcDbCircle
 62
7
  6
CONTINUOUS
 10
439.6295559534
 20
717.3495908135
 40
2.0621064383
100
AcDbArc
 50
165.5375990462
 51
194.4624009538
  0
ARC
  5
534
100
AcDbEntity
  8
00_COMPONENTS_7
100
AcDbCircle
 62
7
  6
CONTINUOUS
 10
232.3485137587
 20
750.0803282494
 40
45.2704252971
100
AcDbArc
 50
225.1624183129
 51
225.3675921772
  0
ARC
  5
535
100
AcDbEntity
  8
00_COMPONENTS_7
100
AcDbCircle
 62
7
  6
CONTINUOUS
 10
286.8988185326
 20
750.0685486039
 40
45.2704252759
100
AcDbArc
 50
315.1624183128
 51
315.3675921772
  0
ARC
  5
536
100
AcDbEntity
  8
00_COMPONENTS_7
100
AcDbCircle
 62
7
  6
CONTINUOUS
 10
166.8988185326
 20
750.0685486039
 40
45.2704252759
100
AcDbArc
 50
315.1624183128
 51
315.3675921772
  0
ARC
  5
537
100
AcDbEntity
  8
00_COMPONENTS_7
100
AcDbCircle
 62
7
  6
CONTINUOUS
 10
286.9119476823
 20
750.0789675022
 40
45.2685083877
100
AcDbArc
 50
314.6324017323
 51
314.8375848448
  0
ARC
  5
538
100
AcDbEntity
  8
00_COMPONENTS_7
100
AcDbCircle
 62
7
  6
CONTINUOUS
 10
166.9119476823
 20
750.0789675022
 40
45.2685083877
100
AcDbArc
 50
314.6324017323
 51
314.8375848448
  0
ARC
  5
539
100
AcDbEntity
  8
00_COMPONENTS_7
100
AcDbCircle
 62
7
  6
CONTINUOUS
 10
232.3589326269
 20
750.0671990696
 40
45.2685083663
100
AcDbArc
 50
224.6324017323
 51
224.8375848449
  0
ARC
  5
53A
100
AcDbEntity
  8
00_COMPONENTS_11
100
AcDbCircle
 62
7
  6
CONTINUOUS
 10
143.7498217574
 20
856.3446232803
 40
21.720341485
100
AcDbArc
 50
200.3002316536
 51
201.1765367246
  0
ARC
  5
53B
100
AcDbEntity
  8
00_COMPONENTS_11
100
AcDbCircle
 62
7
  6
CONTINUOUS
 10
137.1374288298
 20
861.1252487832
 40
7.7235377341
100
AcDbArc
 50
137.5246220009
 51
139.7492498322
  0
ARC
  5
53C
100
AcDbEntity
  8
00_COMPONENTS_11
100
AcDbCircle
 62
7
  6
CONTINUOUS
 10
124.9861221518
 20
858.6919974811
 40
3.2
100
AcDbArc
 50
124.9999999998
 51
180.0
  0
ARC
  5
53D
100
AcDbEntity
  8
00_COMPONENTS_51
100
AcDbCircle
 62
7
  6
CONTINUOUS
 10
122.8295559534
 20
837.6495908135
 40
3.2
100
AcDbArc
 50
89.9999787986
 51
180.0
  0
ARC
  5
53E
100
AcDbEntity
  8
00_COMPONENTS_51
100
AcDbCircle
 62
7
  6
CONTINUOUS
 10
137.2033619452
 20
842.8495908135
 40
2.0
100
AcDbArc
 50
270.0
 51
11.0
  0
ARC
  5
53F
100
AcDbEntity
  8
00_COMPONENTS_11
100
AcDbCircle
 62
7
  6
CONTINUOUS
 10
124.9861221518
 20
858.6919974811
 40
1.7
100
AcDbArc
 50
124.9999999999
 51
180.0
  0
ARC
  5
540
100
AcDbEntity
  8
00_COMPONENTS_11
100
AcDbCircle
 62
7
  6
CONTINUOUS
 10
123.4861221518
 20
849.0598874249
 40
1.7
100
AcDbArc
 50
180.0
 51
289.5551547567
  0
ARC
  5
541
100
AcDbEntity
  8
00_COMPONENTS_11
100
AcDbCircle
 62
7
  6
CONTINUOUS
 10
132.7950782762
 20
864.1598874249
 40
3.2
100
AcDbArc
 50
90.0
 51
124.9999999996
  0
ARC
  5
542
100
AcDbEntity
  8
00_COMPONENTS_25
100
AcDbCircle
 62
7
  6
CONTINUOUS
 10
170.7088043805
 20
879.0991326565
 40
6.0631749602
100
AcDbArc
 50
251.4973251762
 51
251.7994489271
  0
ARC
  5
543
100
AcDbEntity
  8
00_COMPONENTS_25
100
AcDbCircle
 62
7
  6
CONTINUOUS
 10
172.0232982826
 20
878.6117267834
 40
5.5502298203
100
AcDbArc
 50
288.2080939843
 51
288.5344032636
  0
ARC
  5
544
100
AcDbEntity
  8
00_COMPONENTS_25
100
AcDbCircle
 62
7
  6
CONTINUOUS
 10
160.5077204305
 20
877.8559287924
 40
4.8299962006
100
AcDbArc
 50
256.7982423004
 51
257.5805094745
  0
ARC
  5
545
100
AcDbEntity
  8
00_COMPONENTS_25
100
AcDbCircle
 62
7
  6
CONTINUOUS
 10
159.358401868
 20
869.3598874249
 40
4.0
100
AcDbArc
 50
97.5734249628
 51
177.9999974478
  0
ARC
  5
546
100
AcDbEntity
  8
00_COMPONENTS_25
100
AcDbCircle
 62
7
  6
CONTINUOUS
 10
163.3227273948
 20
871.7683065539
 40
1.6452188936
100
AcDbArc
 50
72.5683515028
 51
72.8437297266
  0
ARC
  5
547
100
AcDbEntity
  8
00_COMPONENTS_25
100
AcDbCircle
 62
7
  6
CONTINUOUS
 10
164.1852872015
 20
871.9071451448
 40
1.497703598
100
AcDbArc
 50
106.6053719176
 51
106.8248350798
  0
ARC
  5
548
100
AcDbEntity
  8
00_COMPONENTS_25
100
AcDbCircle
 62
7
  6
CONTINUOUS
 10
163.432895519
 20
872.1255028243
 40
1.2714192435
100
AcDbArc
 50
72.8392551393
 51
73.2769128434
  0
ARC
  5
549
100
AcDbEntity
  8
00_COMPONENTS_25
100
AcDbCircle
 62
7
  6
CONTINUOUS
 10
163.5601889571
 20
872.5519062876
 40
0.8264219607
100
AcDbArc
 50
73.2223978111
 51
74.6165236634
  0
ARC
  5
54A
100
AcDbEntity
  8
00_COMPONENTS_25
100
AcDbCircle
 62
7
  6
CONTINUOUS
 10
173.7861221518
 20
873.149654127
 40
0.2
100
AcDbArc
 50
72.2746664755
 51
107.7229124086
  0
ARC
  5
54B
100
AcDbEntity
  8
00_COMPONENTS_25
100
AcDbCircle
 62
7
  6
CONTINUOUS
 10
168.7861221518
 20
873.149654127
 40
0.2
100
AcDbArc
 50
72.2770875914
 51
107.7269036741
  0
ARC
  5
54C
100
AcDbEntity
  8
00_COMPONENTS_25
100
AcDbCircle
 62
7
  6
CONTINUOUS
 10
163.7861221518
 20
873.149654127
 40
0.2
100
AcDbArc
 50
72.7361021169
 51
107.7158853033
  0
ARC
  5
54D
100
AcDbEntity
  8
00_COMPONENTS_25
100
AcDbCircle
 62
7
  6
CONTINUOUS
 10
168.787569874
 20
873.1533747034
 40
0.1959924014
100
AcDbArc
 50
72.3486613958
 51
90.8428678746
  0
ARC
  5
54E
100
AcDbEntity
  8
00_COMPONENTS_25
100
AcDbCircle
 62
7
  6
CONTINUOUS
 10
173.7846760308
 20
873.1534012795
 40
0.1959823534
100
AcDbArc
 50
89.1533921258
 51
107.6541404076
  0
ARC
  5
54F
100
AcDbEntity
  8
00_COMPONENTS_25
100
AcDbCircle
 62
7
  6
CONTINUOUS
 10
168.7845054047
 20
873.1539994057
 40
0.1953553606
100
AcDbArc
 50
89.9461789712
 51
107.6550948047
  0
ARC
  5
550
100
AcDbEntity
  8
00_COMPONENTS_25
100
AcDbCircle
 62
7
  6
CONTINUOUS
 10
173.7877334911
 20
873.1540171568
 40
0.1953534087
100
AcDbArc
 50
72.3244357977
 51
90.0484045312
  0
ARC
  5
551
100
AcDbEntity
  8
00_COMPONENTS_25
100
AcDbCircle
 62
7
  6
CONTINUOUS
 10
163.7893798824
 20
873.1650219575
 40
0.1842975386
100
AcDbArc
 50
81.0320067129
 51
89.3925381861
  0
ARC
  5
552
100
AcDbEntity
  8
00_COMPONENTS_25
100
AcDbCircle
 62
7
  6
CONTINUOUS
 10
163.7893652987
 20
873.1722932483
 40
0.1770268349
100
AcDbArc
 50
89.3628676122
 51
93.03832445
  0
ARC
  5
553
100
AcDbEntity
  8
00_COMPONENTS_25
100
AcDbCircle
 62
7
  6
CONTINUOUS
 10
162.1611971039
 20
889.3726043729
 40
16.4719380616
100
AcDbArc
 50
263.3784879903
 51
263.5516410531
  0
ARC
  5
554
100
AcDbEntity
  8
00_COMPONENTS_25
100
AcDbCircle
 62
7
  6
CONTINUOUS
 10
176.6527214164
 20
882.2196939836
 40
9.3215401926
100
AcDbArc
 50
252.380609177
 51
252.9828250211
  0
ARC
  5
555
100
AcDbEntity
  8
00_COMPONENTS_25
100
AcDbCircle
 62
7
  6
CONTINUOUS
 10
166.247427379
 20
881.2077097595
 40
8.2600001759
100
AcDbArc
 50
275.8307994923
 51
278.0487675104
  0
ARC
  5
556
100
AcDbEntity
  8
00_COMPONENTS_25
100
AcDbCircle
 62
7
  6
CONTINUOUS
 10
166.2743040394
 20
881.0511559027
 40
8.1023631012
100
AcDbArc
 50
263.2573541345
 51
268.0692246326
  0
ARC
  5
557
100
AcDbEntity
  8
00_COMPONENTS_25
100
AcDbCircle
 62
7
  6
CONTINUOUS
 10
161.2861221518
 20
880.9723874249
 40
8.0125
100
AcDbArc
 50
252.8019423374
 51
287.7231703539
  0
ARC
  5
558
100
AcDbEntity
  8
00_COMPONENTS_25
100
AcDbCircle
 62
7
  6
CONTINUOUS
 10
171.2861221518
 20
880.9723874249
 40
8.0125
100
AcDbArc
 50
252.2771806117
 51
287.7229068928
  0
ARC
  5
559
100
AcDbEntity
  8
00_COMPONENTS_25
100
AcDbCircle
 62
7
  6
CONTINUOUS
 10
166.2861221518
 20
880.9723874249
 40
8.0125
100
AcDbArc
 50
253.0909348521
 51
287.7227666612
  0
ARC
  5
55A
100
AcDbEntity
  8
00_COMPONENTS_25
100
AcDbCircle
 62
7
  6
CONTINUOUS
 10
176.2861221518
 20
880.9723874249
 40
8.0125
100
AcDbArc
 50
252.2771480249
 51
287.7229652337
  0
ARC
  5
55B
100
AcDbEntity
  8
00_COMPONENTS_25
100
AcDbCircle
 62
7
  6
CONTINUOUS
 10
166.2721700152
 20
880.9321708077
 40
7.9833738793
100
AcDbArc
 50
268.0557605444
 51
275.8550407004
  0
ARC
  5
55C
100
AcDbEntity
  8
00_COMPONENTS_11
100
AcDbCircle
 62
7
  6
CONTINUOUS
 10
194.2659374721
 20
875.0742471269
 40
75.5968325633
100
AcDbArc
 50
200.1280685404
 51
200.330735816
  0
ARC
  5
55D
100
AcDbEntity
  8
00_COMPONENTS_25
100
AcDbCircle
 62
7
  6
CONTINUOUS
 10
176.8241638541
 20
879.0986656347
 40
6.0764253387
100
AcDbArc
 50
287.1553216011
 51
288.4373362985
  0
ARC
  5
55E
100
AcDbEntity
  8
00_COMPONENTS_25
100
AcDbCircle
 62
7
  6
CONTINUOUS
 10
181.9693500239
 20
878.2842590944
 40
5.2687448521
100
AcDbArc
 50
282.4262709921
 51
283.1456041629
  0
ARC
  5
55F
100
AcDbEntity
  8
00_COMPONENTS_25
100
AcDbCircle
 62
7
  6
CONTINUOUS
 10
183.2138424356
 20
869.3598874249
 40
4.0
100
AcDbArc
 50
2.0000025522
 51
82.4265750372
  0
ARC
  5
560
100
AcDbEntity
  8
00_COMPONENTS_25
100
AcDbCircle
 62
7
  6
CONTINUOUS
 10
178.7861221518
 20
873.149654127
 40
0.2
100
AcDbArc
 50
72.2754017183
 51
107.7229124086
  0
ARC
  5
561
100
AcDbEntity
  8
00_COMPONENTS_25
100
AcDbCircle
 62
7
  6
CONTINUOUS
 10
178.7850393341
 20
873.1521900034
 40
0.1972550176
100
AcDbArc
 50
88.42085219
 51
107.6486434996
  0
ARC
  5
562
100
AcDbEntity
  8
00_COMPONENTS_25
100
AcDbCircle
 62
7
  6
CONTINUOUS
 10
178.7876379466
 20
873.1538244064
 40
0.1955662824
100
AcDbArc
 50
72.3255085556
 51
89.1687137202
  0
ARC
  5
563
100
AcDbEntity
  8
00_COMPONENTS_25
100
AcDbCircle
 62
7
  6
CONTINUOUS
 10
177.9689759851
 20
886.3603931691
 40
13.6664124502
100
AcDbArc
 50
252.1905991384
 51
252.3757947335
  0
ARC
  5
564
100
AcDbEntity
  8
00_COMPONENTS_25
100
AcDbCircle
 62
7
  6
CONTINUOUS
 10
182.8654707628
 20
886.3611215208
 40
13.6348422606
100
AcDbArc
 50
252.7951770595
 51
253.1687846766
  0
ARC
  5
565
100
AcDbEntity
  8
00_COMPONENTS_25
100
AcDbCircle
 62
7
  6
CONTINUOUS
 10
181.2861221518
 20
880.9723874249
 40
8.0125
100
AcDbArc
 50
252.2771296725
 51
287.1980576626
  0
ARC
  5
566
100
AcDbEntity
  8
00_COMPONENTS_25
100
AcDbCircle
 62
7
  6
CONTINUOUS
 10
181.3298328459
 20
880.8384374672
 40
7.8890699684
100
AcDbArc
 50
276.7671733325
 51
277.1404979191
  0
ARC
  5
567
100
AcDbEntity
  8
00_COMPONENTS_7
100
AcDbCircle
 62
7
  6
CONTINUOUS
 10
352.3485137587
 20
750.0803282494
 40
45.2704252971
100
AcDbArc
 50
225.1624183129
 51
225.3675921772
  0
ARC
  5
568
100
AcDbEntity
  8
00_COMPONENTS_7
100
AcDbCircle
 62
7
  6
CONTINUOUS
 10
472.3485137587
 20
750.0803282494
 40
45.2704252971
100
AcDbArc
 50
225.1624183129
 51
225.3675921772
  0
ARC
  5
569
100
AcDbEntity
  8
00_COMPONENTS_7
100
AcDbCircle
 62
7
  6
CONTINUOUS
 10
406.8988185326
 20
750.0685486039
 40
45.2704252759
100
AcDbArc
 50
315.1624183128
 51
315.3675921772
  0
ARC
  5
56A
100
AcDbEntity
  8
00_COMPONENTS_7
100
AcDbCircle
 62
7
  6
CONTINUOUS
 10
406.9119476823
 20
750.0789675022
 40
45.2685083877
100
AcDbArc
 50
314.6324017323
 51
314.8375848448
  0
ARC
  5
56B
100
AcDbEntity
  8
00_COMPONENTS_7
100
AcDbCircle
 62
7
  6
CONTINUOUS
 10
352.3589326269
 20
750.0671990696
 40
45.2685083663
100
AcDbArc
 50
224.6324017323
 51
224.8375848449
  0
ARC
  5
56C
100
AcDbEntity
  8
00_COMPONENTS_7
100
AcDbCircle
 62
7
  6
CONTINUOUS
 10
472.3589326269
 20
750.0671990696
 40
45.2685083663
100
AcDbArc
 50
224.6324017323
 51
224.8375848449
  0
ARC
  5
56D
100
AcDbEntity
  8
00_COMPONENTS_7
100
AcDbCircle
 62
7
  6
CONTINUOUS
 10
632.3485137438
 20
633.0803282344
 40
45.2704252759
100
AcDbArc
 50
225.1624183128
 51
225.3675921772
  0
ARC
  5
56E
100
AcDbEntity
  8
00_COMPONENTS_7
100
AcDbCircle
 62
7
  6
CONTINUOUS
 10
566.8988185326
 20
633.0685486039
 40
45.2704252759
100
AcDbArc
 50
315.1624183128
 51
315.3675921772
  0
ARC
  5
56F
100
AcDbEntity
  8
00_COMPONENTS_7
100
AcDbCircle
 62
7
  6
CONTINUOUS
 10
686.8988185326
 20
633.0685486039
 40
45.2704252759
100
AcDbArc
 50
315.1624183128
 51
315.3675921772
  0
ARC
  5
570
100
AcDbEntity
  8
00_COMPONENTS_7
100
AcDbCircle
 62
7
  6
CONTINUOUS
 10
632.3602933602
 20
567.6306330231
 40
45.2704252659
100
AcDbArc
 50
135.1624183002
 51
135.3675921647
  0
ARC
  5
571
100
AcDbEntity
  8
00_COMPONENTS_7
100
AcDbCircle
 62
7
  6
CONTINUOUS
 10
586.3602933602
 20
626.1306330231
 40
45.2704252659
100
AcDbArc
 50
135.1624183002
 51
135.3675921647
  0
ARC
  5
572
100
AcDbEntity
  8
00_COMPONENTS_7
100
AcDbCircle
 62
7
  6
CONTINUOUS
 10
520.9105986715
 20
626.1188537111
 40
45.2704246915
100
AcDbArc
 50
45.162418485
 51
45.3675923527
  0
ARC
  5
573
100
AcDbEntity
  8
00_COMPONENTS_7
100
AcDbCircle
 62
7
  6
CONTINUOUS
 10
566.910598731
 20
567.6188537712
 40
45.2704246069
100
AcDbArc
 50
45.1624184848
 51
45.3675923529
  0
ARC
  5
574
100
AcDbEntity
  8
00_COMPONENTS_7
100
AcDbCircle
 62
7
  6
CONTINUOUS
 10
686.910598731
 20
567.6188537712
 40
45.2704246069
100
AcDbArc
 50
45.1624184848
 51
45.3675923529
  0
ARC
  5
575
100
AcDbEntity
  8
00_COMPONENTS_7
100
AcDbCircle
 62
7
  6
CONTINUOUS
 10
632.3471642541
 20
567.6202140807
 40
45.2685084399
100
AcDbArc
 50
134.6324017197
 51
134.837584832
  0
ARC
  5
576
100
AcDbEntity
  8
00_COMPONENTS_7
100
AcDbCircle
 62
7
  6
CONTINUOUS
 10
566.9119476824
 20
633.0789675021
 40
45.2685083875
100
AcDbArc
 50
314.6324017323
 51
314.8375848448
  0
ARC
  5
577
100
AcDbEntity
  8
00_COMPONENTS_7
100
AcDbCircle
 62
7
  6
CONTINUOUS
 10
686.9119476824
 20
633.0789675021
 40
45.2685083875
100
AcDbArc
 50
314.6324017323
 51
314.8375848448
  0
ARC
  5
578
100
AcDbEntity
  8
00_COMPONENTS_7
100
AcDbCircle
 62
7
  6
CONTINUOUS
 10
586.3471641946
 20
626.1202141408
 40
45.2685083553
100
AcDbArc
 50
134.6324017196
 51
134.8375848322
  0
ARC
  5
579
100
AcDbEntity
  8
00_COMPONENTS_7
100
AcDbCircle
 62
7
  6
CONTINUOUS
 10
632.3589325813
 20
633.0671990244
 40
45.268508302
100
AcDbArc
 50
224.6324017321
 51
224.837584845
  0
ARC
  5
57A
100
AcDbEntity
  8
00_COMPONENTS_7
100
AcDbCircle
 62
7
  6
CONTINUOUS
 10
520.9001802376
 20
626.1319832852
 40
45.2685071736
100
AcDbArc
 50
44.6324019286
 51
44.8375850464
  0
ARC
  5
57B
100
AcDbEntity
  8
00_COMPONENTS_7
100
AcDbCircle
 62
7
  6
CONTINUOUS
 10
566.9001802983
 20
567.6319833453
 40
45.2685070882
100
AcDbArc
 50
44.6324019284
 51
44.8375850466
  0
ARC
  5
57C
100
AcDbEntity
  8
00_COMPONENTS_7
100
AcDbCircle
 62
7
  6
CONTINUOUS
 10
686.9001802983
 20
567.6319833453
 40
45.2685070882
100
AcDbArc
 50
44.6324019284
 51
44.8375850466
  0
ARC
  5
57D
100
AcDbEntity
  8
00_COMPONENTS_51
100
AcDbCircle
 62
7
  6
CONTINUOUS
 10
568.8795559534
 20
615.5995908135
 40
27.0
100
AcDbArc
 50
180.0
 51
270.0
  0
ARC
  5
57E
100
AcDbEntity
  8
00_COMPONENTS_51
100
AcDbCircle
 62
7
  6
CONTINUOUS
 10
569.8795559534
 20
616.5995908135
 40
26.6781992623
100
AcDbArc
 50
180.0
 51
270.0
  0
ARC
  5
57F
100
AcDbEntity
  8
00_COMPONENTS_51
100
AcDbCircle
 62
7
  6
CONTINUOUS
 10
568.8795559534
 20
615.5995908135
 40
26.5
100
AcDbArc
 50
180.0
 51
270.0
  0
ARC
  5
580
100
AcDbEntity
  8
00_COMPONENTS_3
100
AcDbCircle
 62
7
  6
CONTINUOUS
 10
572.1295559534
 20
618.8495908135
 40
25.0
100
AcDbArc
 50
180.0
 51
270.0
  0
ARC
  5
581
100
AcDbEntity
  8
00_COMPONENTS_51
100
AcDbCircle
 62
7
  6
CONTINUOUS
 10
569.8795559534
 20
616.5995908135
 40
24.7085837563
100
AcDbArc
 50
179.9999999978
 51
270.0
  0
ARC
  5
582
100
AcDbEntity
  8
00_COMPONENTS_51
100
AcDbCircle
 62
7
  6
CONTINUOUS
 10
569.8795559534
 20
616.5995908135
 40
24.6167271797
100
AcDbArc
 50
179.9999999978
 51
270.0
  0
ARC
  5
583
100
AcDbEntity
  8
00_COMPONENTS_51
100
AcDbCircle
 62
7
  6
CONTINUOUS
 10
569.8795559534
 20
616.5995908135
 40
23.6319194267
100
AcDbArc
 50
180.0
 51
270.0
  0
ARC
  5
584
100
AcDbEntity
  8
00_COMPONENTS_7
100
AcDbCircle
 62
7
  6
CONTINUOUS
 10
607.9776606185
 20
592.0579345585
 40
11.8912642288
100
AcDbArc
 50
126.6791702634
 51
129.9655842409
  0
ARC
  5
585
100
AcDbEntity
  8
00_COMPONENTS_7
100
AcDbCircle
 62
7
  6
CONTINUOUS
 10
591.2814512889
 20
608.6412470678
 40
11.8912642278
100
AcDbArc
 50
306.6791702633
 51
309.965584241
  0
ARC
  5
586
100
AcDbEntity
  8
00_COMPONENTS_7
100
AcDbCircle
 62
7
  6
CONTINUOUS
 10
711.2814512887
 20
608.6412470681
 40
11.8912642282
100
AcDbArc
 50
306.6791702633
 51
309.9655842409
  0
ARC
  5
587
100
AcDbEntity
  8
00_COMPONENTS_7
100
AcDbCircle
 62
7
  6
CONTINUOUS
 10
591.4115966624
 20
608.6394463741
 40
11.7973659489
100
AcDbArc
 50
320.0213334208
 51
323.333912075
  0
ARC
  5
588
100
AcDbEntity
  8
00_COMPONENTS_7
100
AcDbCircle
 62
7
  6
CONTINUOUS
 10
607.8475152439
 20
592.0597352533
 40
11.7973659483
100
AcDbArc
 50
140.0213334207
 51
143.333912075
  0
ARC
  5
589
100
AcDbEntity
  8
00_COMPONENTS_7
100
AcDbCircle
 62
7
  6
CONTINUOUS
 10
711.4115966621
 20
608.6394463744
 40
11.7973659494
100
AcDbArc
 50
320.0213334209
 51
323.3339120749
  0
CIRCLE
  5
58A
100
AcDbEntity
  8
00_COMPONENTS_7
100
AcDbCircle
 62
7
  6
CONTINUOUS
 10
599.6295559534
 20
600.3495908135
 40
4.75
  0
ARC
  5
58B
100
AcDbEntity
  8
00_COMPONENTS_7
100
AcDbCircle
 62
7
  6
CONTINUOUS
 10
599.6295559534
 20
600.3495908135
 40
2.0621064383
100
AcDbArc
 50
255.5375990462
 51
284.4624009538
  0
ARC
  5
58C
100
AcDbEntity
  8
00_COMPONENTS_7
100
AcDbCircle
 62
7
  6
CONTINUOUS
 10
599.6295559534
 20
600.3495908135
 40
2.0621064383
100
AcDbArc
 50
345.5375990462
 51
14.4624009538
  0
ARC
  5
58D
100
AcDbEntity
  8
00_COMPONENTS_7
100
AcDbCircle
 62
7
  6
CONTINUOUS
 10
599.6295559534
 20
600.3495908135
 40
2.0621064383
100
AcDbArc
 50
75.5375990462
 51
104.4624009538
  0
ARC
  5
58E
100
AcDbEntity
  8
00_COMPONENTS_7
100
AcDbCircle
 62
7
  6
CONTINUOUS
 10
599.6295559534
 20
600.3495908135
 40
2.0621064383
100
AcDbArc
 50
165.5375990462
 51
194.4624009538
  0
ARC
  5
58F
100
AcDbEntity
  8
00_COMPONENTS_7
100
AcDbCircle
 62
7
  6
CONTINUOUS
 10
566.910598731
 20
684.6188537712
 40
45.2704246069
100
AcDbArc
 50
45.1624184848
 51
45.3675923529
  0
ARC
  5
590
100
AcDbEntity
  8
00_COMPONENTS_7
100
AcDbCircle
 62
7
  6
CONTINUOUS
 10
566.9001802983
 20
684.6319833453
 40
45.2685070882
100
AcDbArc
 50
44.6324019284
 51
44.8375850466
  0
ARC
  5
591
100
AcDbEntity
  8
00_COMPONENTS_7
100
AcDbCircle
 62
7
  6
CONTINUOUS
 10
561.9776606183
 20
650.5579345587
 40
11.8912642286
100
AcDbArc
 50
126.6791702634
 51
129.9655842409
  0
ARC
  5
592
100
AcDbEntity
  8
00_COMPONENTS_7
100
AcDbCircle
 62
7
  6
CONTINUOUS
 10
545.2814512886
 20
667.1412470683
 40
11.8912642284
100
AcDbArc
 50
306.6791702634
 51
309.9655842409
  0
ARC
  5
593
100
AcDbEntity
  8
00_COMPONENTS_7
100
AcDbCircle
 62
7
  6
CONTINUOUS
 10
545.4115966624
 20
667.1394463741
 40
11.7973659489
100
AcDbArc
 50
320.0213334208
 51
323.333912075
  0
ARC
  5
594
100
AcDbEntity
  8
00_COMPONENTS_7
100
AcDbCircle
 62
7
  6
CONTINUOUS
 10
561.8475152439
 20
650.5597352533
 40
11.7973659483
100
AcDbArc
 50
140.0213334207
 51
143.333912075
  0
CIRCLE
  5
595
100
AcDbEntity
  8
00_COMPONENTS_7
100
AcDbCircle
 62
7
  6
CONTINUOUS
 10
553.6295559534
 20
658.8495908135
 40
4.75
  0
ARC
  5
596
100
AcDbEntity
  8
00_COMPONENTS_7
100
AcDbCircle
 62
7
  6
CONTINUOUS
 10
553.6295559534
 20
658.8495908135
 40
2.0621064383
100
AcDbArc
 50
255.5375990462
 51
284.4624009538
  0
ARC
  5
597
100
AcDbEntity
  8
00_COMPONENTS_7
100
AcDbCircle
 62
7
  6
CONTINUOUS
 10
553.6295559534
 20
658.8495908135
 40
2.0621064383
100
AcDbArc
 50
345.5375990462
 51
14.4624009538
  0
ARC
  5
598
100
AcDbEntity
  8
00_COMPONENTS_7
100
AcDbCircle
 62
7
  6
CONTINUOUS
 10
553.6295559534
 20
658.8495908135
 40
2.0621064383
100
AcDbArc
 50
75.5375990462
 51
104.4624009538
  0
ARC
  5
599
100
AcDbEntity
  8
00_COMPONENTS_7
100
AcDbCircle
 62
7
  6
CONTINUOUS
 10
553.6295559534
 20
658.8495908135
 40
2.0621064383
100
AcDbArc
 50
165.5375990462
 51
194.4624009538
  0
ARC
  5
59A
100
AcDbEntity
  8
00_COMPONENTS_7
100
AcDbCircle
 62
7
  6
CONTINUOUS
 10
520.8988185326
 20
691.5685486039
 40
45.2704252759
100
AcDbArc
 50
315.1624183128
 51
315.3675921772
  0
ARC
  5
59B
100
AcDbEntity
  8
00_COMPONENTS_7
100
AcDbCircle
 62
7
  6
CONTINUOUS
 10
586.3485136843
 20
691.5803281743
 40
45.2704251913
100
AcDbArc
 50
225.1624183126
 51
225.3675921774
  0
ARC
  5
59C
100
AcDbEntity
  8
00_COMPONENTS_7
100
AcDbCircle
 62
7
  6
CONTINUOUS
 10
520.9119476824
 20
691.5789675021
 40
45.2685083875
100
AcDbArc
 50
314.6324017323
 51
314.8375848448
  0
ARC
  5
59D
100
AcDbEntity
  8
00_COMPONENTS_7
100
AcDbCircle
 62
7
  6
CONTINUOUS
 10
586.3589326419
 20
691.5671990845
 40
45.2685083874
100
AcDbArc
 50
224.6324017323
 51
224.8375848448
  0
ARC
  5
59E
100
AcDbEntity
  8
00_COMPONENTS_51
100
AcDbCircle
 62
7
  6
CONTINUOUS
 10
568.8795559534
 20
702.0995908135
 40
27.0
100
AcDbArc
 50
90.0
 51
180.0
  0
ARC
  5
59F
100
AcDbEntity
  8
00_COMPONENTS_51
100
AcDbCircle
 62
7
  6
CONTINUOUS
 10
569.8795559534
 20
701.0995908135
 40
26.6781992623
100
AcDbArc
 50
89.9999999984
 51
180.0
  0
ARC
  5
5A0
100
AcDbEntity
  8
00_COMPONENTS_51
100
AcDbCircle
 62
7
  6
CONTINUOUS
 10
568.8795559534
 20
702.0995908135
 40
26.5
100
AcDbArc
 50
90.0
 51
180.0
  0
ARC
  5
5A1
100
AcDbEntity
  8
00_COMPONENTS_3
100
AcDbCircle
 62
7
  6
CONTINUOUS
 10
572.1295559534
 20
698.8495908135
 40
25.0
100
AcDbArc
 50
90.0
 51
180.0
  0
ARC
  5
5A2
100
AcDbEntity
  8
00_COMPONENTS_51
100
AcDbCircle
 62
7
  6
CONTINUOUS
 10
569.8795559534
 20
701.0995908135
 40
24.7085837563
100
AcDbArc
 50
89.9999999978
 51
180.0
  0
ARC
  5
5A3
100
AcDbEntity
  8
00_COMPONENTS_51
100
AcDbCircle
 62
7
  6
CONTINUOUS
 10
569.8795559534
 20
701.0995908135
 40
24.6167271797
100
AcDbArc
 50
89.9999999978
 51
180.0
  0
ARC
  5
5A4
100
AcDbEntity
  8
00_COMPONENTS_51
100
AcDbCircle
 62
7
  6
CONTINUOUS
 10
569.8795559534
 20
701.0995908135
 40
23.6319194267
100
AcDbArc
 50
90.0
 51
180.0
  0
ARC
  5
5A5
100
AcDbEntity
  8
00_COMPONENTS_7
100
AcDbCircle
 62
7
  6
CONTINUOUS
 10
607.9776606183
 20
709.0579345587
 40
11.8912642286
100
AcDbArc
 50
126.6791702634
 51
129.9655842409
  0
ARC
  5
5A6
100
AcDbEntity
  8
00_COMPONENTS_7
100
AcDbCircle
 62
7
  6
CONTINUOUS
 10
591.2814512888
 20
725.6412470679
 40
11.891264228
100
AcDbArc
 50
306.6791702633
 51
309.965584241
  0
ARC
  5
5A7
100
AcDbEntity
  8
00_COMPONENTS_7
100
AcDbCircle
 62
7
  6
CONTINUOUS
 10
591.4115966624
 20
725.6394463741
 40
11.7973659489
100
AcDbArc
 50
320.0213334208
 51
323.333912075
  0
ARC
  5
5A8
100
AcDbEntity
  8
00_COMPONENTS_7
100
AcDbCircle
 62
7
  6
CONTINUOUS
 10
607.8475152439
 20
709.0597352533
 40
11.7973659483
100
AcDbArc
 50
140.0213334207
 51
143.333912075
  0
CIRCLE
  5
5A9
100
AcDbEntity
  8
00_COMPONENTS_7
100
AcDbCircle
 62
7
  6
CONTINUOUS
 10
599.6295559534
 20
717.3495908135
 40
4.75
  0
ARC
  5
5AA
100
AcDbEntity
  8
00_COMPONENTS_7
100
AcDbCircle
 62
7
  6
CONTINUOUS
 10
599.6295559534
 20
717.3495908135
 40
2.0621064383
100
AcDbArc
 50
255.5375990462
 51
284.4624009538
  0
ARC
  5
5AB
100
AcDbEntity
  8
00_COMPONENTS_7
100
AcDbCircle
 62
7
  6
CONTINUOUS
 10
599.6295559534
 20
717.3495908135
 40
2.0621064383
100
AcDbArc
 50
345.5375990462
 51
14.4624009538
  0
ARC
  5
5AC
100
AcDbEntity
  8
00_COMPONENTS_7
100
AcDbCircle
 62
7
  6
CONTINUOUS
 10
599.6295559534
 20
717.3495908135
 40
2.0621064383
100
AcDbArc
 50
75.5375990462
 51
104.4624009538
  0
ARC
  5
5AD
100
AcDbEntity
  8
00_COMPONENTS_7
100
AcDbCircle
 62
7
  6
CONTINUOUS
 10
599.6295559534
 20
717.3495908135
 40
2.0621064383
100
AcDbArc
 50
165.5375990462
 51
194.4624009538
  0
ARC
  5
5AE
100
AcDbEntity
  8
00_COMPONENTS_7
100
AcDbCircle
 62
7
  6
CONTINUOUS
 10
632.3602933602
 20
684.6306330231
 40
45.2704252659
100
AcDbArc
 50
135.1624183002
 51
135.3675921647
  0
ARC
  5
5AF
100
AcDbEntity
  8
00_COMPONENTS_7
100
AcDbCircle
 62
7
  6
CONTINUOUS
 10
686.910598731
 20
684.6188537712
 40
45.2704246069
100
AcDbArc
 50
45.1624184848
 51
45.3675923529
  0
ARC
  5
5B0
100
AcDbEntity
  8
00_COMPONENTS_7
100
AcDbCircle
 62
7
  6
CONTINUOUS
 10
632.3471642541
 20
684.6202140807
 40
45.2685084399
100
AcDbArc
 50
134.6324017197
 51
134.837584832
  0
ARC
  5
5B1
100
AcDbEntity
  8
00_COMPONENTS_7
100
AcDbCircle
 62
7
  6
CONTINUOUS
 10
686.9001802983
 20
684.6319833453
 40
45.2685070882
100
AcDbArc
 50
44.6324019284
 51
44.8375850466
  0
ARC
  5
5B2
100
AcDbEntity
  8
00_COMPONENTS_7
100
AcDbCircle
 62
7
  6
CONTINUOUS
 10
711.2814512886
 20
725.6412470683
 40
11.8912642284
100
AcDbArc
 50
306.6791702634
 51
309.9655842409
  0
ARC
  5
5B3
100
AcDbEntity
  8
00_COMPONENTS_7
100
AcDbCircle
 62
7
  6
CONTINUOUS
 10
711.4115966621
 20
725.6394463744
 40
11.7973659494
100
AcDbArc
 50
320.0213334209
 51
323.3339120749
  0
ARC
  5
5B4
100
AcDbEntity
  8
00_COMPONENTS_7
100
AcDbCircle
 62
7
  6
CONTINUOUS
 10
752.3602933602
 20
567.6306330231
 40
45.2704252659
100
AcDbArc
 50
135.1624183002
 51
135.3675921647
  0
ARC
  5
5B5
100
AcDbEntity
  8
00_COMPONENTS_7
100
AcDbCircle
 62
7
  6
CONTINUOUS
 10
806.910598731
 20
567.6188537712
 40
45.2704246069
100
AcDbArc
 50
45.1624184848
 51
45.3675923529
  0
ARC
  5
5B6
100
AcDbEntity
  8
00_COMPONENTS_7
100
AcDbCircle
 62
7
  6
CONTINUOUS
 10
752.3471642541
 20
567.6202140807
 40
45.2685084399
100
AcDbArc
 50
134.6324017197
 51
134.837584832
  0
ARC
  5
5B7
100
AcDbEntity
  8
00_COMPONENTS_7
100
AcDbCircle
 62
7
  6
CONTINUOUS
 10
806.9001802983
 20
567.6319833453
 40
45.2685070882
100
AcDbArc
 50
44.6324019284
 51
44.8375850466
  0
ARC
  5
5B8
100
AcDbEntity
  8
00_COMPONENTS_7
100
AcDbCircle
 62
7
  6
CONTINUOUS
 10
727.9776606185
 20
592.0579345585
 40
11.8912642288
100
AcDbArc
 50
126.6791702634
 51
129.9655842409
  0
ARC
  5
5B9
100
AcDbEntity
  8
00_COMPONENTS_7
100
AcDbCircle
 62
7
  6
CONTINUOUS
 10
727.8475152443
 20
592.059735253
 40
11.7973659488
100
AcDbArc
 50
140.0213334208
 51
143.333912075
  0
ARC
  5
5BA
100
AcDbEntity
  8
00_COMPONENTS_7
100
AcDbCircle
 62
7
  6
CONTINUOUS
 10
806.8988185326
 20
633.0685486039
 40
45.2704252759
100
AcDbArc
 50
315.1624183128
 51
315.3675921772
  0
ARC
  5
5BB
100
AcDbEntity
  8
00_COMPONENTS_7
100
AcDbCircle
 62
7
  6
CONTINUOUS
 10
752.3485137438
 20
633.0803282344
 40
45.2704252759
100
AcDbArc
 50
225.1624183128
 51
225.3675921772
  0
ARC
  5
5BC
100
AcDbEntity
  8
00_COMPONENTS_7
100
AcDbCircle
 62
7
  6
CONTINUOUS
 10
806.9119476824
 20
633.0789675021
 40
45.2685083875
100
AcDbArc
 50
314.6324017323
 51
314.8375848448
  0
ARC
  5
5BD
100
AcDbEntity
  8
00_COMPONENTS_7
100
AcDbCircle
 62
7
  6
CONTINUOUS
 10
752.3589325813
 20
633.0671990244
 40
45.268508302
100
AcDbArc
 50
224.6324017321
 51
224.837584845
  0
CIRCLE
  5
5BE
100
AcDbEntity
  8
00_COMPONENTS_7
100
AcDbCircle
 62
7
  6
CONTINUOUS
 10
719.6295559534
 20
600.3495908135
 40
4.75
  0
ARC
  5
5BF
100
AcDbEntity
  8
00_COMPONENTS_7
100
AcDbCircle
 62
7
  6
CONTINUOUS
 10
719.6295559534
 20
600.3495908135
 40
2.0621064383
100
AcDbArc
 50
255.5375990462
 51
284.4624009538
  0
ARC
  5
5C0
100
AcDbEntity
  8
00_COMPONENTS_7
100
AcDbCircle
 62
7
  6
CONTINUOUS
 10
719.6295559534
 20
600.3495908135
 40
2.0621064383
100
AcDbArc
 50
345.5375990462
 51
14.4624009538
  0
ARC
  5
5C1
100
AcDbEntity
  8
00_COMPONENTS_7
100
AcDbCircle
 62
7
  6
CONTINUOUS
 10
719.6295559534
 20
600.3495908135
 40
2.0621064383
100
AcDbArc
 50
75.5375990462
 51
104.4624009538
  0
ARC
  5
5C2
100
AcDbEntity
  8
00_COMPONENTS_7
100
AcDbCircle
 62
7
  6
CONTINUOUS
 10
719.6295559534
 20
600.3495908135
 40
2.0621064383
100
AcDbArc
 50
165.5375990462
 51
194.4624009538
  0
ARC
  5
5C3
100
AcDbEntity
  8
00_COMPONENTS_7
100
AcDbCircle
 62
7
  6
CONTINUOUS
 10
872.3602933602
 20
567.6306330231
 40
45.2704252659
100
AcDbArc
 50
135.1624183002
 51
135.3675921647
  0
ARC
  5
5C4
100
AcDbEntity
  8
00_COMPONENTS_7
100
AcDbCircle
 62
7
  6
CONTINUOUS
 10
872.3471642541
 20
567.6202140807
 40
45.2685084399
100
AcDbArc
 50
134.6324017197
 51
134.837584832
  0
ARC
  5
5C5
100
AcDbEntity
  8
00_COMPONENTS_7
100
AcDbCircle
 62
7
  6
CONTINUOUS
 10
847.9776606185
 20
592.0579345585
 40
11.8912642288
100
AcDbArc
 50
126.6791702634
 51
129.9655842409
  0
ARC
  5
5C6
100
AcDbEntity
  8
00_COMPONENTS_7
100
AcDbCircle
 62
7
  6
CONTINUOUS
 10
847.8475152439
 20
592.0597352533
 40
11.7973659483
100
AcDbArc
 50
140.0213334207
 51
143.333912075
  0
ARC
  5
5C7
100
AcDbEntity
  8
00_COMPONENTS_51
100
AcDbCircle
 62
7
  6
CONTINUOUS
 10
916.4295559534
 20
567.0495908135
 40
3.2
100
AcDbArc
 50
270.0
 51
359.9999999999
  0
ARC
  5
5C8
100
AcDbEntity
  8
00_COMPONENTS_7
100
AcDbCircle
 62
7
  6
CONTINUOUS
 10
872.3485137438
 20
633.0803282344
 40
45.2704252759
100
AcDbArc
 50
225.1624183128
 51
225.3675921772
  0
ARC
  5
5C9
100
AcDbEntity
  8
00_COMPONENTS_7
100
AcDbCircle
 62
7
  6
CONTINUOUS
 10
918.3602933602
 20
626.1306330231
 40
45.2704252659
100
AcDbArc
 50
135.1624183002
 51
135.3675921647
  0
ARC
  5
5CA
100
AcDbEntity
  8
00_COMPONENTS_7
100
AcDbCircle
 62
7
  6
CONTINUOUS
 10
852.9105986715
 20
626.1188537111
 40
45.2704246915
100
AcDbArc
 50
45.162418485
 51
45.3675923527
  0
ARC
  5
5CB
100
AcDbEntity
  8
00_COMPONENTS_7
100
AcDbCircle
 62
7
  6
CONTINUOUS
 10
918.3471642541
 20
626.1202140807
 40
45.2685084399
100
AcDbArc
 50
134.6324017197
 51
134.837584832
  0
ARC
  5
5CC
100
AcDbEntity
  8
00_COMPONENTS_7
100
AcDbCircle
 62
7
  6
CONTINUOUS
 10
872.3589325813
 20
633.0671990244
 40
45.268508302
100
AcDbArc
 50
224.6324017321
 51
224.837584845
  0
ARC
  5
5CD
100
AcDbEntity
  8
00_COMPONENTS_7
100
AcDbCircle
 62
7
  6
CONTINUOUS
 10
852.9001802983
 20
626.1319833453
 40
45.2685070882
100
AcDbArc
 50
44.6324019284
 51
44.8375850466
  0
ARC
  5
5CE
100
AcDbEntity
  8
00_COMPONENTS_51
100
AcDbCircle
 62
7
  6
CONTINUOUS
 10
870.3795559534
 20
615.5995908135
 40
27.0
100
AcDbArc
 50
270.0
 51
360.0
  0
ARC
  5
5CF
100
AcDbEntity
  8
00_COMPONENTS_51
100
AcDbCircle
 62
7
  6
CONTINUOUS
 10
869.3795559534
 20
616.5995908135
 40
26.6781992624
100
AcDbArc
 50
270.0
 51
360.0
  0
ARC
  5
5D0
100
AcDbEntity
  8
00_COMPONENTS_51
100
AcDbCircle
 62
7
  6
CONTINUOUS
 10
870.3795559534
 20
615.5995908135
 40
26.5
100
AcDbArc
 50
270.0
 51
360.0
  0
ARC
  5
5D1
100
AcDbEntity
  8
00_COMPONENTS_3
100
AcDbCircle
 62
7
  6
CONTINUOUS
 10
867.1295559534
 20
618.8495908135
 40
25.0
100
AcDbArc
 50
270.0
 51
360.0
  0
ARC
  5
5D2
100
AcDbEntity
  8
00_COMPONENTS_51
100
AcDbCircle
 62
7
  6
CONTINUOUS
 10
869.3795559534
 20
616.5995908135
 40
24.7085837563
100
AcDbArc
 50
269.9999999978
 51
360.0
  0
ARC
  5
5D3
100
AcDbEntity
  8
00_COMPONENTS_51
100
AcDbCircle
 62
7
  6
CONTINUOUS
 10
869.3795559534
 20
616.5995908135
 40
24.6167271797
100
AcDbArc
 50
269.9999999978
 51
360.0
  0
ARC
  5
5D4
100
AcDbEntity
  8
00_COMPONENTS_51
100
AcDbCircle
 62
7
  6
CONTINUOUS
 10
869.3795559534
 20
616.5995908135
 40
23.6319194267
100
AcDbArc
 50
270.0
 51
359.9999999912
  0
ARC
  5
5D5
100
AcDbEntity
  8
00_COMPONENTS_7
100
AcDbCircle
 62
7
  6
CONTINUOUS
 10
831.2814512887
 20
608.6412470681
 40
11.8912642282
100
AcDbArc
 50
306.6791702633
 51
309.9655842409
  0
ARC
  5
5D6
100
AcDbEntity
  8
00_COMPONENTS_7
100
AcDbCircle
 62
7
  6
CONTINUOUS
 10
831.4115966624
 20
608.6394463741
 40
11.7973659489
100
AcDbArc
 50
320.0213334208
 51
323.333912075
  0
CIRCLE
  5
5D7
100
AcDbEntity
  8
00_COMPONENTS_7
100
AcDbCircle
 62
7
  6
CONTINUOUS
 10
839.6295559534
 20
600.3495908135
 40
4.75
  0
ARC
  5
5D8
100
AcDbEntity
  8
00_COMPONENTS_7
100
AcDbCircle
 62
7
  6
CONTINUOUS
 10
839.6295559534
 20
600.3495908135
 40
2.0621064383
100
AcDbArc
 50
255.5375990462
 51
284.4624009538
  0
ARC
  5
5D9
100
AcDbEntity
  8
00_COMPONENTS_7
100
AcDbCircle
 62
7
  6
CONTINUOUS
 10
839.6295559534
 20
600.3495908135
 40
2.0621064383
100
AcDbArc
 50
345.5375990462
 51
14.4624009538
  0
ARC
  5
5DA
100
AcDbEntity
  8
00_COMPONENTS_7
100
AcDbCircle
 62
7
  6
CONTINUOUS
 10
839.6295559534
 20
600.3495908135
 40
2.0621064383
100
AcDbArc
 50
75.5375990462
 51
104.4624009538
  0
ARC
  5
5DB
100
AcDbEntity
  8
00_COMPONENTS_7
100
AcDbCircle
 62
7
  6
CONTINUOUS
 10
839.6295559534
 20
600.3495908135
 40
2.0621064383
100
AcDbArc
 50
165.5375990462
 51
194.4624009538
  0
ARC
  5
5DC
100
AcDbEntity
  8
00_COMPONENTS_7
100
AcDbCircle
 62
7
  6
CONTINUOUS
 10
752.3602933602
 20
684.6306330231
 40
45.2704252659
100
AcDbArc
 50
135.1624183002
 51
135.3675921647
  0
ARC
  5
5DD
100
AcDbEntity
  8
00_COMPONENTS_7
100
AcDbCircle
 62
7
  6
CONTINUOUS
 10
806.910598731
 20
684.6188537712
 40
45.2704246069
100
AcDbArc
 50
45.1624184848
 51
45.3675923529
  0
ARC
  5
5DE
100
AcDbEntity
  8
00_COMPONENTS_7
100
AcDbCircle
 62
7
  6
CONTINUOUS
 10
752.3471642541
 20
684.6202140807
 40
45.2685084399
100
AcDbArc
 50
134.6324017197
 51
134.837584832
  0
ARC
  5
5DF
100
AcDbEntity
  8
00_COMPONENTS_7
100
AcDbCircle
 62
7
  6
CONTINUOUS
 10
806.9001802983
 20
684.6319833453
 40
45.2685070882
100
AcDbArc
 50
44.6324019284
 51
44.8375850466
  0
ARC
  5
5E0
100
AcDbEntity
  8
00_COMPONENTS_7
100
AcDbCircle
 62
7
  6
CONTINUOUS
 10
727.9776606183
 20
709.0579345587
 40
11.8912642286
100
AcDbArc
 50
126.6791702634
 51
129.9655842409
  0
ARC
  5
5E1
100
AcDbEntity
  8
00_COMPONENTS_7
100
AcDbCircle
 62
7
  6
CONTINUOUS
 10
727.8475152443
 20
709.059735253
 40
11.7973659488
100
AcDbArc
 50
140.0213334208
 51
143.333912075
  0
CIRCLE
  5
5E2
100
AcDbEntity
  8
00_COMPONENTS_7
100
AcDbCircle
 62
7
  6
CONTINUOUS
 10
719.6295559534
 20
717.3495908135
 40
4.75
  0
ARC
  5
5E3
100
AcDbEntity
  8
00_COMPONENTS_7
100
AcDbCircle
 62
7
  6
CONTINUOUS
 10
719.6295559534
 20
717.3495908135
 40
2.0621064383
100
AcDbArc
 50
255.5375990462
 51
284.4624009538
  0
ARC
  5
5E4
100
AcDbEntity
  8
00_COMPONENTS_7
100
AcDbCircle
 62
7
  6
CONTINUOUS
 10
719.6295559534
 20
717.3495908135
 40
2.0621064383
100
AcDbArc
 50
345.5375990462
 51
14.4624009538
  0
ARC
  5
5E5
100
AcDbEntity
  8
00_COMPONENTS_7
100
AcDbCircle
 62
7
  6
CONTINUOUS
 10
719.6295559534
 20
717.3495908135
 40
2.0621064383
100
AcDbArc
 50
75.5375990462
 51
104.4624009538
  0
ARC
  5
5E6
100
AcDbEntity
  8
00_COMPONENTS_7
100
AcDbCircle
 62
7
  6
CONTINUOUS
 10
719.6295559534
 20
717.3495908135
 40
2.0621064383
100
AcDbArc
 50
165.5375990462
 51
194.4624009538
  0
ARC
  5
5E7
100
AcDbEntity
  8
00_COMPONENTS_7
100
AcDbCircle
 62
7
  6
CONTINUOUS
 10
872.3602933602
 20
684.6306330231
 40
45.2704252659
100
AcDbArc
 50
135.1624183002
 51
135.3675921647
  0
ARC
  5
5E8
100
AcDbEntity
  8
00_COMPONENTS_7
100
AcDbCircle
 62
7
  6
CONTINUOUS
 10
872.3471642541
 20
684.6202140807
 40
45.2685084399
100
AcDbArc
 50
134.6324017197
 51
134.837584832
  0
ARC
  5
5E9
100
AcDbEntity
  8
00_COMPONENTS_7
100
AcDbCircle
 62
7
  6
CONTINUOUS
 10
893.9776606182
 20
650.5579345589
 40
11.8912642283
100
AcDbArc
 50
126.6791702633
 51
129.9655842409
  0
ARC
  5
5EA
100
AcDbEntity
  8
00_COMPONENTS_7
100
AcDbCircle
 62
7
  6
CONTINUOUS
 10
877.2814512886
 20
667.1412470682
 40
11.8912642283
100
AcDbArc
 50
306.6791702634
 51
309.9655842409
  0
ARC
  5
5EB
100
AcDbEntity
  8
00_COMPONENTS_7
100
AcDbCircle
 62
7
  6
CONTINUOUS
 10
877.4115966624
 20
667.1394463741
 40
11.7973659489
100
AcDbArc
 50
320.0213334208
 51
323.333912075
  0
ARC
  5
5EC
100
AcDbEntity
  8
00_COMPONENTS_7
100
AcDbCircle
 62
7
  6
CONTINUOUS
 10
893.8475152443
 20
650.559735253
 40
11.7973659488
100
AcDbArc
 50
140.0213334208
 51
143.333912075
  0
CIRCLE
  5
5ED
100
AcDbEntity
  8
00_COMPONENTS_7
100
AcDbCircle
 62
7
  6
CONTINUOUS
 10
885.6295559534
 20
658.8495908135
 40
4.75
  0
ARC
  5
5EE
100
AcDbEntity
  8
00_COMPONENTS_7
100
AcDbCircle
 62
7
  6
CONTINUOUS
 10
885.6295559534
 20
658.8495908135
 40
2.0621064383
100
AcDbArc
 50
255.5375990462
 51
284.4624009538
  0
ARC
  5
5EF
100
AcDbEntity
  8
00_COMPONENTS_7
100
AcDbCircle
 62
7
  6
CONTINUOUS
 10
885.6295559534
 20
658.8495908135
 40
2.0621064383
100
AcDbArc
 50
345.5375990462
 51
14.4624009538
  0
ARC
  5
5F0
100
AcDbEntity
  8
00_COMPONENTS_7
100
AcDbCircle
 62
7
  6
CONTINUOUS
 10
885.6295559534
 20
658.8495908135
 40
2.0621064383
100
AcDbArc
 50
75.5375990462
 51
104.4624009538
  0
ARC
  5
5F1
100
AcDbEntity
  8
00_COMPONENTS_7
100
AcDbCircle
 62
7
  6
CONTINUOUS
 10
885.6295559534
 20
658.8495908135
 40
2.0621064383
100
AcDbArc
 50
165.5375990462
 51
194.4624009538
  0
ARC
  5
5F2
100
AcDbEntity
  8
00_COMPONENTS_7
100
AcDbCircle
 62
7
  6
CONTINUOUS
 10
918.3485137438
 20
691.5803282344
 40
45.2704252759
100
AcDbArc
 50
225.1624183128
 51
225.3675921772
  0
ARC
  5
5F3
100
AcDbEntity
  8
00_COMPONENTS_7
100
AcDbCircle
 62
7
  6
CONTINUOUS
 10
852.8988185326
 20
691.5685486039
 40
45.2704252759
100
AcDbArc
 50
315.1624183128
 51
315.3675921772
  0
ARC
  5
5F4
100
AcDbEntity
  8
00_COMPONENTS_7
100
AcDbCircle
 62
7
  6
CONTINUOUS
 10
852.9119476824
 20
691.5789675021
 40
45.2685083875
100
AcDbArc
 50
314.6324017323
 51
314.8375848448
  0
ARC
  5
5F5
100
AcDbEntity
  8
00_COMPONENTS_7
100
AcDbCircle
 62
7
  6
CONTINUOUS
 10
918.3589326419
 20
691.5671990845
 40
45.2685083874
100
AcDbArc
 50
224.6324017323
 51
224.8375848448
  0
ARC
  5
5F6
100
AcDbEntity
  8
00_COMPONENTS_51
100
AcDbCircle
 62
7
  6
CONTINUOUS
 10
870.3795559534
 20
702.0995908135
 40
27.0
100
AcDbArc
 50
0.0
 51
90.0
  0
ARC
  5
5F7
100
AcDbEntity
  8
00_COMPONENTS_51
100
AcDbCircle
 62
7
  6
CONTINUOUS
 10
869.3795559534
 20
701.0995908135
 40
26.6781992623
100
AcDbArc
 50
0.0
 51
90.0000000016
  0
ARC
  5
5F8
100
AcDbEntity
  8
00_COMPONENTS_51
100
AcDbCircle
 62
7
  6
CONTINUOUS
 10
870.3795559534
 20
702.0995908135
 40
26.5
100
AcDbArc
 50
0.0
 51
90.0
  0
ARC
  5
5F9
100
AcDbEntity
  8
00_COMPONENTS_3
100
AcDbCircle
 62
7
  6
CONTINUOUS
 10
867.1295559534
 20
698.8495908135
 40
25.0
100
AcDbArc
 50
0.0
 51
90.0
  0
ARC
  5
5FA
100
AcDbEntity
  8
00_COMPONENTS_51
100
AcDbCircle
 62
7
  6
CONTINUOUS
 10
869.3795559534
 20
701.0995908135
 40
24.7085837563
100
AcDbArc
 50
0.0
 51
90.0
  0
ARC
  5
5FB
100
AcDbEntity
  8
00_COMPONENTS_51
100
AcDbCircle
 62
7
  6
CONTINUOUS
 10
869.3795559534
 20
701.0995908135
 40
24.6167271797
100
AcDbArc
 50
0.0
 51
90.0
  0
ARC
  5
5FC
100
AcDbEntity
  8
00_COMPONENTS_51
100
AcDbCircle
 62
7
  6
CONTINUOUS
 10
869.3795559534
 20
701.0995908135
 40
23.6319194267
100
AcDbArc
 50
0.0
 51
90.0
  0
ARC
  5
5FD
100
AcDbEntity
  8
00_COMPONENTS_7
100
AcDbCircle
 62
7
  6
CONTINUOUS
 10
847.9776606183
 20
709.0579345587
 40
11.8912642286
100
AcDbArc
 50
126.6791702634
 51
129.9655842409
  0
ARC
  5
5FE
100
AcDbEntity
  8
00_COMPONENTS_7
100
AcDbCircle
 62
7
  6
CONTINUOUS
 10
831.2814512886
 20
725.6412470683
 40
11.8912642284
100
AcDbArc
 50
306.6791702634
 51
309.9655842409
  0
ARC
  5
5FF
100
AcDbEntity
  8
00_COMPONENTS_7
100
AcDbCircle
 62
7
  6
CONTINUOUS
 10
831.4115966624
 20
725.6394463741
 40
11.7973659489
100
AcDbArc
 50
320.0213334208
 51
323.333912075
  0
ARC
  5
600
100
AcDbEntity
  8
00_COMPONENTS_7
100
AcDbCircle
 62
7
  6
CONTINUOUS
 10
847.8475152439
 20
709.0597352533
 40
11.7973659483
100
AcDbArc
 50
140.0213334207
 51
143.333912075
  0
CIRCLE
  5
601
100
AcDbEntity
  8
00_COMPONENTS_7
100
AcDbCircle
 62
7
  6
CONTINUOUS
 10
839.6295559534
 20
717.3495908135
 40
4.75
  0
ARC
  5
602
100
AcDbEntity
  8
00_COMPONENTS_7
100
AcDbCircle
 62
7
  6
CONTINUOUS
 10
839.6295559534
 20
717.3495908135
 40
2.0621064383
100
AcDbArc
 50
255.5375990462
 51
284.4624009538
  0
ARC
  5
603
100
AcDbEntity
  8
00_COMPONENTS_7
100
AcDbCircle
 62
7
  6
CONTINUOUS
 10
839.6295559534
 20
717.3495908135
 40
2.0621064383
100
AcDbArc
 50
345.5375990462
 51
14.4624009538
  0
ARC
  5
604
100
AcDbEntity
  8
00_COMPONENTS_7
100
AcDbCircle
 62
7
  6
CONTINUOUS
 10
839.6295559534
 20
717.3495908135
 40
2.0621064383
100
AcDbArc
 50
75.5375990462
 51
104.4624009538
  0
ARC
  5
605
100
AcDbEntity
  8
00_COMPONENTS_7
100
AcDbCircle
 62
7
  6
CONTINUOUS
 10
839.6295559534
 20
717.3495908135
 40
2.0621064383
100
AcDbArc
 50
165.5375990462
 51
194.4624009538
  0
ARC
  5
606
100
AcDbEntity
  8
00_COMPONENTS_11
100
AcDbCircle
 62
7
  6
CONTINUOUS
 10
843.1766955146
 20
876.2203108617
 40
78.9296884433
100
AcDbArc
 50
339.6784376997
 51
339.8725790657
  0
ARC
  5
607
100
AcDbEntity
  8
00_COMPONENTS_7
100
AcDbCircle
 62
7
  6
CONTINUOUS
 10
872.3485137438
 20
750.0803282344
 40
45.2704252759
100
AcDbArc
 50
225.1624183128
 51
225.3675921772
  0
ARC
  5
608
100
AcDbEntity
  8
00_COMPONENTS_7
100
AcDbCircle
 62
7
  6
CONTINUOUS
 10
806.8988185326
 20
750.0685486039
 40
45.2704252759
100
AcDbArc
 50
315.1624183128
 51
315.3675921772
  0
ARC
  5
609
100
AcDbEntity
  8
00_COMPONENTS_7
100
AcDbCircle
 62
7
  6
CONTINUOUS
 10
632.3485137438
 20
750.0803282344
 40
45.2704252759
100
AcDbArc
 50
225.1624183128
 51
225.3675921772
  0
ARC
  5
60A
100
AcDbEntity
  8
00_COMPONENTS_7
100
AcDbCircle
 62
7
  6
CONTINUOUS
 10
566.8988185326
 20
750.0685486039
 40
45.2704252759
100
AcDbArc
 50
315.1624183128
 51
315.3675921772
  0
ARC
  5
60B
100
AcDbEntity
  8
00_COMPONENTS_7
100
AcDbCircle
 62
7
  6
CONTINUOUS
 10
752.3485137438
 20
750.0803282344
 40
45.2704252759
100
AcDbArc
 50
225.1624183128
 51
225.3675921772
  0
ARC
  5
60C
100
AcDbEntity
  8
00_COMPONENTS_7
100
AcDbCircle
 62
7
  6
CONTINUOUS
 10
686.8988185326
 20
750.0685486039
 40
45.2704252759
100
AcDbArc
 50
315.1624183128
 51
315.3675921772
  0
ARC
  5
60D
100
AcDbEntity
  8
00_COMPONENTS_7
100
AcDbCircle
 62
7
  6
CONTINUOUS
 10
806.9119476824
 20
750.0789675021
 40
45.2685083875
100
AcDbArc
 50
314.6324017323
 51
314.8375848448
  0
ARC
  5
60E
100
AcDbEntity
  8
00_COMPONENTS_7
100
AcDbCircle
 62
7
  6
CONTINUOUS
 10
566.9119476824
 20
750.0789675021
 40
45.2685083875
100
AcDbArc
 50
314.6324017323
 51
314.8375848448
  0
ARC
  5
60F
100
AcDbEntity
  8
00_COMPONENTS_7
100
AcDbCircle
 62
7
  6
CONTINUOUS
 10
686.9119476824
 20
750.0789675021
 40
45.2685083875
100
AcDbArc
 50
314.6324017323
 51
314.8375848448
  0
ARC
  5
610
100
AcDbEntity
  8
00_COMPONENTS_7
100
AcDbCircle
 62
7
  6
CONTINUOUS
 10
872.3589325813
 20
750.0671990244
 40
45.268508302
100
AcDbArc
 50
224.6324017321
 51
224.837584845
  0
ARC
  5
611
100
AcDbEntity
  8
00_COMPONENTS_7
100
AcDbCircle
 62
7
  6
CONTINUOUS
 10
632.3589325813
 20
750.0671990244
 40
45.268508302
100
AcDbArc
 50
224.6324017321
 51
224.837584845
  0
ARC
  5
612
100
AcDbEntity
  8
00_COMPONENTS_7
100
AcDbCircle
 62
7
  6
CONTINUOUS
 10
752.3589325813
 20
750.0671990244
 40
45.268508302
100
AcDbArc
 50
224.6324017321
 51
224.837584845
  0
ARC
  5
613
100
AcDbEntity
  8
00_COMPONENTS_11
100
AcDbCircle
 62
7
  6
CONTINUOUS
 10
896.8266531973
 20
856.3391257111
 40
21.714489568
100
AcDbArc
 50
338.832348729
 51
339.7093846382
  0
ARC
  5
614
100
AcDbEntity
  8
00_COMPONENTS_11
100
AcDbCircle
 62
7
  6
CONTINUOUS
 10
907.7771660274
 20
864.1598874249
 40
3.2
100
AcDbArc
 50
55.0000000004
 51
90.0
  0
ARC
  5
615
100
AcDbEntity
  8
00_COMPONENTS_11
100
AcDbCircle
 62
7
  6
CONTINUOUS
 10
915.5861221518
 20
858.6919974811
 40
3.2
100
AcDbArc
 50
0.0
 51
55.0000000004
  0
ARC
  5
616
100
AcDbEntity
  8
00_COMPONENTS_51
100
AcDbCircle
 62
7
  6
CONTINUOUS
 10
916.4295559534
 20
837.6495908135
 40
3.2
100
AcDbArc
 50
0.0
 51
90.0
  0
ARC
  5
617
100
AcDbEntity
  8
00_COMPONENTS_14
100
AcDbCircle
 62
7
  6
CONTINUOUS
 10
915.8295559534
 20
840.2295908135
 40
2.12
100
AcDbArc
 50
31.8907918018
 51
90.0000000001
  0
ARC
  5
618
100
AcDbEntity
  8
00_COMPONENTS_51
100
AcDbCircle
 62
7
  6
CONTINUOUS
 10
902.0557499616
 20
842.8495908135
 40
2.0
100
AcDbArc
 50
168.9999999987
 51
270.0
  0
ARC
  5
619
100
AcDbEntity
  8
00_COMPONENTS_11
100
AcDbCircle
 62
7
  6
CONTINUOUS
 10
917.0861221518
 20
849.0598874249
 40
1.7
100
AcDbArc
 50
250.5368018493
 51
360.0
  0
ARC
  5
61A
100
AcDbEntity
  8
00_COMPONENTS_11
100
AcDbCircle
 62
7
  6
CONTINUOUS
 10
915.5861221518
 20
858.6919974811
 40
1.7
100
AcDbArc
 50
0.0
 51
55.0000000004
  0
LINE
  5
61B
100
AcDbEntity
  8
00_COMPONENTS_7
100
AcDbLine
 62
7
  6
CONTINUOUS
 10
598.8287713622
 20
601.1503754047
 11
598.8307513711
 21
600.9786897684
  0
LINE
  5
61C
100
AcDbEntity
  8
00_COMPONENTS_7
100
AcDbLine
 62
7
  6
CONTINUOUS
 10
598.6699993097
 20
600.8645908135
 11
598.8072582504
 21
601.002182889
  0
LINE
  5
61D
100
AcDbEntity
  8
00_COMPONENTS_7
100
AcDbLine
 62
7
  6
CONTINUOUS
 10
598.8072582504
 20
599.696998738
 11
598.6699993097
 21
599.8345908135
  0
LINE
  5
61E
100
AcDbEntity
  8
00_COMPONENTS_7
100
AcDbLine
 62
7
  6
CONTINUOUS
 10
598.8307513711
 20
599.7204918587
 11
598.8287713622
 21
599.5488062224
  0
LINE
  5
61F
100
AcDbEntity
  8
00_COMPONENTS_7
100
AcDbLine
 62
7
  6
CONTINUOUS
 10
598.8287713622
 20
599.5488062224
 11
599.0004569986
 21
599.5507862312
  0
LINE
  5
620
100
AcDbEntity
  8
00_COMPONENTS_7
100
AcDbLine
 62
7
  6
CONTINUOUS
 10
599.1145559534
 20
599.3900341698
 11
598.9769638779
 21
599.5272931106
  0
LINE
  5
621
100
AcDbEntity
  8
00_COMPONENTS_7
100
AcDbLine
 62
7
  6
CONTINUOUS
 10
600.2821480289
 20
601.1718885165
 11
600.3395763172
 21
601.1717610417
  0
LINE
  5
622
100
AcDbEntity
  8
00_COMPONENTS_7
100
AcDbLine
 62
7
  6
CONTINUOUS
 10
600.4303405446
 20
601.1503754047
 11
600.2586549083
 21
601.1483953959
  0
LINE
  5
623
100
AcDbEntity
  8
00_COMPONENTS_7
100
AcDbLine
 62
7
  6
CONTINUOUS
 10
600.1445559534
 20
601.3091474572
 11
600.2821480289
 21
601.1718885165
  0
LINE
  5
624
100
AcDbEntity
  8
00_COMPONENTS_7
100
AcDbLine
 62
7
  6
CONTINUOUS
 10
600.2821480289
 20
599.5272931106
 11
600.1445559534
 21
599.3900341698
  0
LINE
  5
625
100
AcDbEntity
  8
00_COMPONENTS_7
100
AcDbLine
 62
7
  6
CONTINUOUS
 10
600.2586549083
 20
599.5507862312
 11
600.4303405446
 21
599.5488062224
  0
SPLINE
  5
626
100
AcDbEntity
  8
00_COMPONENTS_7
100
AcDbSpline
 62
7
  6
CONTINUOUS
 70
0
 71
3
 72
9
 73
5
 74
0
 42
0.0000001
 43
0.0000001
 44
0.0000000001
 40
0.0
 40
0.0
 40
0.0
 40
0.0
 40
0.2477832942
 40
1.0
 40
1.0
 40
1.0
 40
1.0
 10
601.0193204344
 20
598.9598263326
 30
0.0
 10
600.9573277415
 20
599.0042830973
 30
0.0
 10
600.7089526395
 20
599.1862196333
 30
0.0
 10
600.467825536
 20
599.3780315844
 30
0.0
 10
600.2907719979
 20
599.527311415
 30
0.0
  0
LINE
  5
627
100
AcDbEntity
  8
00_COMPONENTS_7
100
AcDbLine
 62
7
  6
CONTINUOUS
 10
600.4303405446
 20
599.5488062224
 11
600.4283605357
 21
599.7204918587
  0
LINE
  5
628
100
AcDbEntity
  8
00_COMPONENTS_7
100
AcDbLine
 62
7
  6
CONTINUOUS
 10
600.5891125971
 20
599.8345908135
 11
600.4518536564
 21
599.696998738
  0
LINE
  5
629
100
AcDbEntity
  8
00_COMPONENTS_7
100
AcDbLine
 62
7
  6
CONTINUOUS
 10
600.4518536564
 20
601.002182889
 11
600.5891125971
 21
600.8645908135
  0
LINE
  5
62A
100
AcDbEntity
  8
00_COMPONENTS_7
100
AcDbLine
 62
7
  6
CONTINUOUS
 10
598.8072582504
 20
599.696998738
 11
598.8073857252
 21
599.6395704497
  0
LINE
  5
62B
100
AcDbEntity
  8
00_COMPONENTS_7
100
AcDbLine
 62
7
  6
CONTINUOUS
 10
598.9195355896
 20
599.5274205854
 11
598.9769638779
 21
599.5272931106
  0
LINE
  5
62C
100
AcDbEntity
  8
00_COMPONENTS_7
100
AcDbLine
 62
7
  6
CONTINUOUS
 10
600.2821480289
 20
599.5272931106
 11
600.2907716066
 21
599.5273114979
  0
SPLINE
  5
62D
100
AcDbEntity
  8
00_COMPONENTS_7
100
AcDbSpline
 62
7
  6
CONTINUOUS
 70
0
 71
3
 72
9
 73
5
 74
0
 42
0.0000001
 43
0.0000001
 44
0.0000000001
 40
0.0
 40
0.0
 40
0.0
 40
0.0
 40
0.2477850579
 40
1.0
 40
1.0
 40
1.0
 40
1.0
 10
601.0193204344
 20
598.9598263326
 30
0.0
 10
600.9748633528
 20
599.0218194672
 30
0.0
 10
600.792927208
 20
599.270194861
 30
0.0
 10
600.6011148339
 20
599.5113216445
 30
0.0
 10
600.4518353519
 20
599.688374769
 30
0.0
  0
LINE
  5
62E
100
AcDbEntity
  8
00_COMPONENTS_7
100
AcDbLine
 62
7
  6
CONTINUOUS
 10
600.4518353519
 20
599.688374769
 11
600.4518535938
 21
599.6969990291
  0
LINE
  5
62F
100
AcDbEntity
  8
00_COMPONENTS_7
100
AcDbLine
 62
7
  6
CONTINUOUS
 10
598.9769638779
 20
601.1718885165
 11
599.1145559534
 21
601.3091474572
  0
LINE
  5
630
100
AcDbEntity
  8
00_COMPONENTS_7
100
AcDbLine
 62
7
  6
CONTINUOUS
 10
598.9769638779
 20
601.1718885165
 11
598.9683403032
 21
601.1718701286
  0
SPLINE
  5
631
100
AcDbEntity
  8
00_COMPONENTS_7
100
AcDbSpline
 62
7
  6
CONTINUOUS
 70
0
 71
3
 72
9
 73
5
 74
0
 42
0.0000001
 43
0.0000001
 44
0.0000000001
 40
0.0
 40
0.0
 40
0.0
 40
0.0
 40
0.2477850901
 40
1.0
 40
1.0
 40
1.0
 40
1.0
 10
598.2397914725
 20
601.7393552945
 30
0.0
 10
598.284248561
 20
601.67736215
 30
0.0
 10
598.4661832737
 20
601.4289856912
 30
0.0
 10
598.6579970751
 20
601.18785998
 30
0.0
 10
598.8072765549
 20
601.0108068581
 30
0.0
  0
LINE
  5
632
100
AcDbEntity
  8
00_COMPONENTS_7
100
AcDbLine
 62
7
  6
CONTINUOUS
 10
598.8072765549
 20
601.0108068581
 11
598.8072583115
 21
601.0021826053
  0
LINE
  5
633
100
AcDbEntity
  8
00_COMPONENTS_7
100
AcDbLine
 62
7
  6
CONTINUOUS
 10
599.0004569986
 20
601.1483953959
 11
598.8287713622
 21
601.1503754047
  0
SPLINE
  5
634
100
AcDbEntity
  8
00_COMPONENTS_7
100
AcDbSpline
 62
7
  6
CONTINUOUS
 70
0
 71
3
 72
9
 73
5
 74
0
 42
0.0000001
 43
0.0000001
 44
0.0000000001
 40
0.0
 40
0.0
 40
0.0
 40
0.0
 40
0.2477832942
 40
1.0
 40
1.0
 40
1.0
 40
1.0
 10
598.2397914725
 20
601.7393552945
 30
0.0
 10
598.3017841653
 20
601.6948985297
 30
0.0
 10
598.5501592673
 20
601.5129619937
 30
0.0
 10
598.7912863708
 20
601.3211500427
 30
0.0
 10
598.9683399089
 20
601.1718702121
 30
0.0
  0
LINE
  5
635
100
AcDbEntity
  8
00_COMPONENTS_7
100
AcDbLine
 62
7
  6
CONTINUOUS
 10
600.4517261816
 20
601.0596111773
 11
600.4518536564
 21
601.002182889
  0
LINE
  5
636
100
AcDbEntity
  8
00_COMPONENTS_7
100
AcDbLine
 62
7
  6
CONTINUOUS
 10
600.4283605357
 20
600.9786897684
 11
600.4303405446
 21
601.1503754047
  0
LINE
  5
637
100
AcDbEntity
  8
00_COMPONENTS_7
100
AcDbLine
 62
7
  6
CONTINUOUS
 10
838.8287713622
 20
601.1503754047
 11
838.8307513711
 21
600.9786897684
  0
LINE
  5
638
100
AcDbEntity
  8
00_COMPONENTS_7
100
AcDbLine
 62
7
  6
CONTINUOUS
 10
838.6699993097
 20
600.8645908135
 11
838.8072582504
 21
601.002182889
  0
LINE
  5
639
100
AcDbEntity
  8
00_COMPONENTS_7
100
AcDbLine
 62
7
  6
CONTINUOUS
 10
838.8072582504
 20
599.696998738
 11
838.6699993097
 21
599.8345908135
  0
LINE
  5
63A
100
AcDbEntity
  8
00_COMPONENTS_7
100
AcDbLine
 62
7
  6
CONTINUOUS
 10
838.8307513711
 20
599.7204918587
 11
838.8287713622
 21
599.5488062224
  0
LINE
  5
63B
100
AcDbEntity
  8
00_COMPONENTS_7
100
AcDbLine
 62
7
  6
CONTINUOUS
 10
838.8287713622
 20
599.5488062224
 11
839.0004569986
 21
599.5507862312
  0
LINE
  5
63C
100
AcDbEntity
  8
00_COMPONENTS_7
100
AcDbLine
 62
7
  6
CONTINUOUS
 10
839.1145559534
 20
599.3900341698
 11
838.9769638779
 21
599.5272931106
  0
LINE
  5
63D
100
AcDbEntity
  8
00_COMPONENTS_7
100
AcDbLine
 62
7
  6
CONTINUOUS
 10
840.2821480289
 20
601.1718885165
 11
840.3395763172
 21
601.1717610417
  0
LINE
  5
63E
100
AcDbEntity
  8
00_COMPONENTS_7
100
AcDbLine
 62
7
  6
CONTINUOUS
 10
840.4303405446
 20
601.1503754047
 11
840.2586549083
 21
601.1483953959
  0
LINE
  5
63F
100
AcDbEntity
  8
00_COMPONENTS_7
100
AcDbLine
 62
7
  6
CONTINUOUS
 10
840.1445559534
 20
601.3091474572
 11
840.2821480289
 21
601.1718885165
  0
LINE
  5
640
100
AcDbEntity
  8
00_COMPONENTS_7
100
AcDbLine
 62
7
  6
CONTINUOUS
 10
840.2821480289
 20
599.5272931106
 11
840.1445559534
 21
599.3900341698
  0
LINE
  5
641
100
AcDbEntity
  8
00_COMPONENTS_7
100
AcDbLine
 62
7
  6
CONTINUOUS
 10
840.2586549083
 20
599.5507862312
 11
840.4303405446
 21
599.5488062224
  0
SPLINE
  5
642
100
AcDbEntity
  8
00_COMPONENTS_7
100
AcDbSpline
 62
7
  6
CONTINUOUS
 70
0
 71
3
 72
9
 73
5
 74
0
 42
0.0000001
 43
0.0000001
 44
0.0000000001
 40
0.0
 40
0.0
 40
0.0
 40
0.0
 40
0.2477832942
 40
1.0
 40
1.0
 40
1.0
 40
1.0
 10
841.0193204344
 20
598.9598263326
 30
0.0
 10
840.9573277415
 20
599.0042830973
 30
0.0
 10
840.7089526395
 20
599.1862196333
 30
0.0
 10
840.467825536
 20
599.3780315844
 30
0.0
 10
840.2907719979
 20
599.527311415
 30
0.0
  0
LINE
  5
643
100
AcDbEntity
  8
00_COMPONENTS_7
100
AcDbLine
 62
7
  6
CONTINUOUS
 10
840.4303405446
 20
599.5488062224
 11
840.4283605357
 21
599.7204918587
  0
LINE
  5
644
100
AcDbEntity
  8
00_COMPONENTS_7
100
AcDbLine
 62
7
  6
CONTINUOUS
 10
840.5891125971
 20
599.8345908135
 11
840.4518536564
 21
599.696998738
  0
LINE
  5
645
100
AcDbEntity
  8
00_COMPONENTS_7
100
AcDbLine
 62
7
  6
CONTINUOUS
 10
840.4518536564
 20
601.002182889
 11
840.5891125971
 21
600.8645908135
  0
LINE
  5
646
100
AcDbEntity
  8
00_COMPONENTS_7
100
AcDbLine
 62
7
  6
CONTINUOUS
 10
838.8072582504
 20
599.696998738
 11
838.8073857252
 21
599.6395704497
  0
LINE
  5
647
100
AcDbEntity
  8
00_COMPONENTS_7
100
AcDbLine
 62
7
  6
CONTINUOUS
 10
838.9195355896
 20
599.5274205854
 11
838.9769638779
 21
599.5272931106
  0
LINE
  5
648
100
AcDbEntity
  8
00_COMPONENTS_7
100
AcDbLine
 62
7
  6
CONTINUOUS
 10
840.2821480289
 20
599.5272931106
 11
840.2907716066
 21
599.5273114979
  0
SPLINE
  5
649
100
AcDbEntity
  8
00_COMPONENTS_7
100
AcDbSpline
 62
7
  6
CONTINUOUS
 70
0
 71
3
 72
9
 73
5
 74
0
 42
0.0000001
 43
0.0000001
 44
0.0000000001
 40
0.0
 40
0.0
 40
0.0
 40
0.0
 40
0.2477850579
 40
1.0
 40
1.0
 40
1.0
 40
1.0
 10
841.0193204344
 20
598.9598263326
 30
0.0
 10
840.9748633528
 20
599.0218194672
 30
0.0
 10
840.792927208
 20
599.270194861
 30
0.0
 10
840.6011148339
 20
599.5113216445
 30
0.0
 10
840.4518353519
 20
599.688374769
 30
0.0
  0
LINE
  5
64A
100
AcDbEntity
  8
00_COMPONENTS_7
100
AcDbLine
 62
7
  6
CONTINUOUS
 10
840.4518353519
 20
599.688374769
 11
840.4518535938
 21
599.6969990291
  0
LINE
  5
64B
100
AcDbEntity
  8
00_COMPONENTS_7
100
AcDbLine
 62
7
  6
CONTINUOUS
 10
838.9769638779
 20
601.1718885165
 11
839.1145559534
 21
601.3091474572
  0
LINE
  5
64C
100
AcDbEntity
  8
00_COMPONENTS_7
100
AcDbLine
 62
7
  6
CONTINUOUS
 10
838.9769638779
 20
601.1718885165
 11
838.9683403032
 21
601.1718701286
  0
SPLINE
  5
64D
100
AcDbEntity
  8
00_COMPONENTS_7
100
AcDbSpline
 62
7
  6
CONTINUOUS
 70
0
 71
3
 72
9
 73
5
 74
0
 42
0.0000001
 43
0.0000001
 44
0.0000000001
 40
0.0
 40
0.0
 40
0.0
 40
0.0
 40
0.2477850901
 40
1.0
 40
1.0
 40
1.0
 40
1.0
 10
838.2397914725
 20
601.7393552945
 30
0.0
 10
838.284248561
 20
601.67736215
 30
0.0
 10
838.4661832737
 20
601.4289856912
 30
0.0
 10
838.6579970751
 20
601.18785998
 30
0.0
 10
838.8072765549
 20
601.0108068581
 30
0.0
  0
LINE
  5
64E
100
AcDbEntity
  8
00_COMPONENTS_7
100
AcDbLine
 62
7
  6
CONTINUOUS
 10
838.8072765549
 20
601.0108068581
 11
838.8072583115
 21
601.0021826053
  0
LINE
  5
64F
100
AcDbEntity
  8
00_COMPONENTS_7
100
AcDbLine
 62
7
  6
CONTINUOUS
 10
839.0004569986
 20
601.1483953959
 11
838.8287713622
 21
601.1503754047
  0
SPLINE
  5
650
100
AcDbEntity
  8
00_COMPONENTS_7
100
AcDbSpline
 62
7
  6
CONTINUOUS
 70
0
 71
3
 72
9
 73
5
 74
0
 42
0.0000001
 43
0.0000001
 44
0.0000000001
 40
0.0
 40
0.0
 40
0.0
 40
0.0
 40
0.2477832942
 40
1.0
 40
1.0
 40
1.0
 40
1.0
 10
838.2397914725
 20
601.7393552945
 30
0.0
 10
838.3017841653
 20
601.6948985297
 30
0.0
 10
838.5501592673
 20
601.5129619937
 30
0.0
 10
838.7912863708
 20
601.3211500427
 30
0.0
 10
838.9683399089
 20
601.1718702121
 30
0.0
  0
LINE
  5
651
100
AcDbEntity
  8
00_COMPONENTS_7
100
AcDbLine
 62
7
  6
CONTINUOUS
 10
840.4517261816
 20
601.0596111773
 11
840.4518536564
 21
601.002182889
  0
LINE
  5
652
100
AcDbEntity
  8
00_COMPONENTS_7
100
AcDbLine
 62
7
  6
CONTINUOUS
 10
840.4283605357
 20
600.9786897684
 11
840.4303405446
 21
601.1503754047
  0
LINE
  5
653
100
AcDbEntity
  8
00_COMPONENTS_7
100
AcDbLine
 62
7
  6
CONTINUOUS
 10
718.8287713622
 20
601.1503754047
 11
718.8307513711
 21
600.9786897684
  0
LINE
  5
654
100
AcDbEntity
  8
00_COMPONENTS_7
100
AcDbLine
 62
7
  6
CONTINUOUS
 10
718.6699993097
 20
600.8645908135
 11
718.8072582504
 21
601.002182889
  0
LINE
  5
655
100
AcDbEntity
  8
00_COMPONENTS_7
100
AcDbLine
 62
7
  6
CONTINUOUS
 10
718.8072582504
 20
599.696998738
 11
718.6699993097
 21
599.8345908135
  0
LINE
  5
656
100
AcDbEntity
  8
00_COMPONENTS_7
100
AcDbLine
 62
7
  6
CONTINUOUS
 10
718.8307513711
 20
599.7204918587
 11
718.8287713622
 21
599.5488062224
  0
LINE
  5
657
100
AcDbEntity
  8
00_COMPONENTS_7
100
AcDbLine
 62
7
  6
CONTINUOUS
 10
718.8287713622
 20
599.5488062224
 11
719.0004569986
 21
599.5507862312
  0
LINE
  5
658
100
AcDbEntity
  8
00_COMPONENTS_7
100
AcDbLine
 62
7
  6
CONTINUOUS
 10
719.1145559534
 20
599.3900341698
 11
718.9769638779
 21
599.5272931106
  0
LINE
  5
659
100
AcDbEntity
  8
00_COMPONENTS_7
100
AcDbLine
 62
7
  6
CONTINUOUS
 10
720.2821480289
 20
601.1718885165
 11
720.3395763172
 21
601.1717610417
  0
LINE
  5
65A
100
AcDbEntity
  8
00_COMPONENTS_7
100
AcDbLine
 62
7
  6
CONTINUOUS
 10
720.4303405446
 20
601.1503754047
 11
720.2586549083
 21
601.1483953959
  0
LINE
  5
65B
100
AcDbEntity
  8
00_COMPONENTS_7
100
AcDbLine
 62
7
  6
CONTINUOUS
 10
720.1445559534
 20
601.3091474572
 11
720.2821480289
 21
601.1718885165
  0
LINE
  5
65C
100
AcDbEntity
  8
00_COMPONENTS_7
100
AcDbLine
 62
7
  6
CONTINUOUS
 10
720.2821480289
 20
599.5272931106
 11
720.1445559534
 21
599.3900341698
  0
LINE
  5
65D
100
AcDbEntity
  8
00_COMPONENTS_7
100
AcDbLine
 62
7
  6
CONTINUOUS
 10
720.2586549083
 20
599.5507862312
 11
720.4303405446
 21
599.5488062224
  0
SPLINE
  5
65E
100
AcDbEntity
  8
00_COMPONENTS_7
100
AcDbSpline
 62
7
  6
CONTINUOUS
 70
0
 71
3
 72
9
 73
5
 74
0
 42
0.0000001
 43
0.0000001
 44
0.0000000001
 40
0.0
 40
0.0
 40
0.0
 40
0.0
 40
0.2477832942
 40
1.0
 40
1.0
 40
1.0
 40
1.0
 10
721.0193204344
 20
598.9598263326
 30
0.0
 10
720.9573277415
 20
599.0042830973
 30
0.0
 10
720.7089526395
 20
599.1862196333
 30
0.0
 10
720.467825536
 20
599.3780315844
 30
0.0
 10
720.2907719979
 20
599.527311415
 30
0.0
  0
LINE
  5
65F
100
AcDbEntity
  8
00_COMPONENTS_7
100
AcDbLine
 62
7
  6
CONTINUOUS
 10
720.4303405446
 20
599.5488062224
 11
720.4283605357
 21
599.7204918587
  0
LINE
  5
660
100
AcDbEntity
  8
00_COMPONENTS_7
100
AcDbLine
 62
7
  6
CONTINUOUS
 10
720.5891125971
 20
599.8345908135
 11
720.4518536564
 21
599.696998738
  0
LINE
  5
661
100
AcDbEntity
  8
00_COMPONENTS_7
100
AcDbLine
 62
7
  6
CONTINUOUS
 10
720.4518536564
 20
601.002182889
 11
720.5891125971
 21
600.8645908135
  0
LINE
  5
662
100
AcDbEntity
  8
00_COMPONENTS_7
100
AcDbLine
 62
7
  6
CONTINUOUS
 10
718.8072582504
 20
599.696998738
 11
718.8073857252
 21
599.6395704497
  0
LINE
  5
663
100
AcDbEntity
  8
00_COMPONENTS_7
100
AcDbLine
 62
7
  6
CONTINUOUS
 10
718.9195355896
 20
599.5274205854
 11
718.9769638779
 21
599.5272931106
  0
LINE
  5
664
100
AcDbEntity
  8
00_COMPONENTS_7
100
AcDbLine
 62
7
  6
CONTINUOUS
 10
720.2821480289
 20
599.5272931106
 11
720.2907716066
 21
599.5273114979
  0
SPLINE
  5
665
100
AcDbEntity
  8
00_COMPONENTS_7
100
AcDbSpline
 62
7
  6
CONTINUOUS
 70
0
 71
3
 72
9
 73
5
 74
0
 42
0.0000001
 43
0.0000001
 44
0.0000000001
 40
0.0
 40
0.0
 40
0.0
 40
0.0
 40
0.2477850579
 40
1.0
 40
1.0
 40
1.0
 40
1.0
 10
721.0193204344
 20
598.9598263326
 30
0.0
 10
720.9748633528
 20
599.0218194672
 30
0.0
 10
720.792927208
 20
599.270194861
 30
0.0
 10
720.6011148339
 20
599.5113216445
 30
0.0
 10
720.4518353519
 20
599.688374769
 30
0.0
  0
LINE
  5
666
100
AcDbEntity
  8
00_COMPONENTS_7
100
AcDbLine
 62
7
  6
CONTINUOUS
 10
720.4518353519
 20
599.688374769
 11
720.4518535938
 21
599.6969990291
  0
LINE
  5
667
100
AcDbEntity
  8
00_COMPONENTS_7
100
AcDbLine
 62
7
  6
CONTINUOUS
 10
718.9769638779
 20
601.1718885165
 11
719.1145559534
 21
601.3091474572
  0
LINE
  5
668
100
AcDbEntity
  8
00_COMPONENTS_7
100
AcDbLine
 62
7
  6
CONTINUOUS
 10
718.9769638779
 20
601.1718885165
 11
718.9683403032
 21
601.1718701286
  0
SPLINE
  5
669
100
AcDbEntity
  8
00_COMPONENTS_7
100
AcDbSpline
 62
7
  6
CONTINUOUS
 70
0
 71
3
 72
9
 73
5
 74
0
 42
0.0000001
 43
0.0000001
 44
0.0000000001
 40
0.0
 40
0.0
 40
0.0
 40
0.0
 40
0.2477850901
 40
1.0
 40
1.0
 40
1.0
 40
1.0
 10
718.2397914725
 20
601.7393552945
 30
0.0
 10
718.284248561
 20
601.67736215
 30
0.0
 10
718.4661832737
 20
601.4289856912
 30
0.0
 10
718.6579970751
 20
601.18785998
 30
0.0
 10
718.8072765549
 20
601.0108068581
 30
0.0
  0
LINE
  5
66A
100
AcDbEntity
  8
00_COMPONENTS_7
100
AcDbLine
 62
7
  6
CONTINUOUS
 10
718.8072765549
 20
601.0108068581
 11
718.8072583115
 21
601.0021826053
  0
LINE
  5
66B
100
AcDbEntity
  8
00_COMPONENTS_7
100
AcDbLine
 62
7
  6
CONTINUOUS
 10
719.0004569986
 20
601.1483953959
 11
718.8287713622
 21
601.1503754047
  0
SPLINE
  5
66C
100
AcDbEntity
  8
00_COMPONENTS_7
100
AcDbSpline
 62
7
  6
CONTINUOUS
 70
0
 71
3
 72
9
 73
5
 74
0
 42
0.0000001
 43
0.0000001
 44
0.0000000001
 40
0.0
 40
0.0
 40
0.0
 40
0.0
 40
0.2477832942
 40
1.0
 40
1.0
 40
1.0
 40
1.0
 10
718.2397914725
 20
601.7393552945
 30
0.0
 10
718.3017841653
 20
601.6948985297
 30
0.0
 10
718.5501592673
 20
601.5129619937
 30
0.0
 10
718.7912863708
 20
601.3211500427
 30
0.0
 10
718.9683399089
 20
601.1718702121
 30
0.0
  0
LINE
  5
66D
100
AcDbEntity
  8
00_COMPONENTS_7
100
AcDbLine
 62
7
  6
CONTINUOUS
 10
720.4517261816
 20
601.0596111773
 11
720.4518536564
 21
601.002182889
  0
LINE
  5
66E
100
AcDbEntity
  8
00_COMPONENTS_7
100
AcDbLine
 62
7
  6
CONTINUOUS
 10
720.4283605357
 20
600.9786897684
 11
720.4303405446
 21
601.1503754047
  0
LINE
  5
66F
100
AcDbEntity
  8
00_COMPONENTS_7
100
AcDbLine
 62
7
  6
CONTINUOUS
 10
318.8287713622
 20
601.1503754047
 11
318.8307513711
 21
600.9786897684
  0
LINE
  5
670
100
AcDbEntity
  8
00_COMPONENTS_7
100
AcDbLine
 62
7
  6
CONTINUOUS
 10
318.6699993097
 20
600.8645908135
 11
318.8072582504
 21
601.002182889
  0
LINE
  5
671
100
AcDbEntity
  8
00_COMPONENTS_7
100
AcDbLine
 62
7
  6
CONTINUOUS
 10
318.8072582504
 20
599.696998738
 11
318.6699993097
 21
599.8345908135
  0
LINE
  5
672
100
AcDbEntity
  8
00_COMPONENTS_7
100
AcDbLine
 62
7
  6
CONTINUOUS
 10
318.8307513711
 20
599.7204918587
 11
318.8287713622
 21
599.5488062224
  0
LINE
  5
673
100
AcDbEntity
  8
00_COMPONENTS_7
100
AcDbLine
 62
7
  6
CONTINUOUS
 10
318.8287713622
 20
599.5488062224
 11
319.0004569986
 21
599.5507862312
  0
LINE
  5
674
100
AcDbEntity
  8
00_COMPONENTS_7
100
AcDbLine
 62
7
  6
CONTINUOUS
 10
319.1145559534
 20
599.3900341698
 11
318.9769638779
 21
599.5272931106
  0
LINE
  5
675
100
AcDbEntity
  8
00_COMPONENTS_7
100
AcDbLine
 62
7
  6
CONTINUOUS
 10
320.2821480289
 20
601.1718885165
 11
320.3395763172
 21
601.1717610417
  0
LINE
  5
676
100
AcDbEntity
  8
00_COMPONENTS_7
100
AcDbLine
 62
7
  6
CONTINUOUS
 10
320.4303405446
 20
601.1503754047
 11
320.2586549083
 21
601.1483953959
  0
LINE
  5
677
100
AcDbEntity
  8
00_COMPONENTS_7
100
AcDbLine
 62
7
  6
CONTINUOUS
 10
320.1445559534
 20
601.3091474572
 11
320.2821480289
 21
601.1718885165
  0
LINE
  5
678
100
AcDbEntity
  8
00_COMPONENTS_7
100
AcDbLine
 62
7
  6
CONTINUOUS
 10
320.2821480289
 20
599.5272931106
 11
320.1445559534
 21
599.3900341698
  0
LINE
  5
679
100
AcDbEntity
  8
00_COMPONENTS_7
100
AcDbLine
 62
7
  6
CONTINUOUS
 10
320.2586549083
 20
599.5507862312
 11
320.4303405446
 21
599.5488062224
  0
SPLINE
  5
67A
100
AcDbEntity
  8
00_COMPONENTS_7
100
AcDbSpline
 62
7
  6
CONTINUOUS
 70
0
 71
3
 72
9
 73
5
 74
0
 42
0.0000001
 43
0.0000001
 44
0.0000000001
 40
0.0
 40
0.0
 40
0.0
 40
0.0
 40
0.2477832942
 40
1.0
 40
1.0
 40
1.0
 40
1.0
 10
321.0193204344
 20
598.9598263326
 30
0.0
 10
320.9573277415
 20
599.0042830973
 30
0.0
 10
320.7089526395
 20
599.1862196333
 30
0.0
 10
320.467825536
 20
599.3780315844
 30
0.0
 10
320.2907719979
 20
599.527311415
 30
0.0
  0
LINE
  5
67B
100
AcDbEntity
  8
00_COMPONENTS_7
100
AcDbLine
 62
7
  6
CONTINUOUS
 10
320.4303405446
 20
599.5488062224
 11
320.4283605357
 21
599.7204918587
  0
LINE
  5
67C
100
AcDbEntity
  8
00_COMPONENTS_7
100
AcDbLine
 62
7
  6
CONTINUOUS
 10
320.5891125971
 20
599.8345908135
 11
320.4518536564
 21
599.696998738
  0
LINE
  5
67D
100
AcDbEntity
  8
00_COMPONENTS_7
100
AcDbLine
 62
7
  6
CONTINUOUS
 10
320.4518536564
 20
601.002182889
 11
320.5891125971
 21
600.8645908135
  0
LINE
  5
67E
100
AcDbEntity
  8
00_COMPONENTS_7
100
AcDbLine
 62
7
  6
CONTINUOUS
 10
318.8072582504
 20
599.696998738
 11
318.8073857252
 21
599.6395704497
  0
LINE
  5
67F
100
AcDbEntity
  8
00_COMPONENTS_7
100
AcDbLine
 62
7
  6
CONTINUOUS
 10
318.9195355896
 20
599.5274205854
 11
318.9769638779
 21
599.5272931106
  0
LINE
  5
680
100
AcDbEntity
  8
00_COMPONENTS_7
100
AcDbLine
 62
7
  6
CONTINUOUS
 10
320.2821480289
 20
599.5272931106
 11
320.2907716066
 21
599.5273114979
  0
SPLINE
  5
681
100
AcDbEntity
  8
00_COMPONENTS_7
100
AcDbSpline
 62
7
  6
CONTINUOUS
 70
0
 71
3
 72
9
 73
5
 74
0
 42
0.0000001
 43
0.0000001
 44
0.0000000001
 40
0.0
 40
0.0
 40
0.0
 40
0.0
 40
0.2477850579
 40
1.0
 40
1.0
 40
1.0
 40
1.0
 10
321.0193204344
 20
598.9598263326
 30
0.0
 10
320.9748633528
 20
599.0218194672
 30
0.0
 10
320.792927208
 20
599.270194861
 30
0.0
 10
320.6011148339
 20
599.5113216445
 30
0.0
 10
320.4518353519
 20
599.688374769
 30
0.0
  0
LINE
  5
682
100
AcDbEntity
  8
00_COMPONENTS_7
100
AcDbLine
 62
7
  6
CONTINUOUS
 10
320.4518353519
 20
599.688374769
 11
320.4518535938
 21
599.6969990291
  0
LINE
  5
683
100
AcDbEntity
  8
00_COMPONENTS_7
100
AcDbLine
 62
7
  6
CONTINUOUS
 10
318.9769638779
 20
601.1718885165
 11
319.1145559534
 21
601.3091474572
  0
LINE
  5
684
100
AcDbEntity
  8
00_COMPONENTS_7
100
AcDbLine
 62
7
  6
CONTINUOUS
 10
318.9769638779
 20
601.1718885165
 11
318.9683403032
 21
601.1718701286
  0
SPLINE
  5
685
100
AcDbEntity
  8
00_COMPONENTS_7
100
AcDbSpline
 62
7
  6
CONTINUOUS
 70
0
 71
3
 72
9
 73
5
 74
0
 42
0.0000001
 43
0.0000001
 44
0.0000000001
 40
0.0
 40
0.0
 40
0.0
 40
0.0
 40
0.2477850901
 40
1.0
 40
1.0
 40
1.0
 40
1.0
 10
318.2397914725
 20
601.7393552945
 30
0.0
 10
318.284248561
 20
601.67736215
 30
0.0
 10
318.4661832737
 20
601.4289856912
 30
0.0
 10
318.6579970751
 20
601.18785998
 30
0.0
 10
318.8072765549
 20
601.0108068581
 30
0.0
  0
LINE
  5
686
100
AcDbEntity
  8
00_COMPONENTS_7
100
AcDbLine
 62
7
  6
CONTINUOUS
 10
318.8072765549
 20
601.0108068581
 11
318.8072583115
 21
601.0021826053
  0
LINE
  5
687
100
AcDbEntity
  8
00_COMPONENTS_7
100
AcDbLine
 62
7
  6
CONTINUOUS
 10
319.0004569986
 20
601.1483953959
 11
318.8287713622
 21
601.1503754047
  0
SPLINE
  5
688
100
AcDbEntity
  8
00_COMPONENTS_7
100
AcDbSpline
 62
7
  6
CONTINUOUS
 70
0
 71
3
 72
9
 73
5
 74
0
 42
0.0000001
 43
0.0000001
 44
0.0000000001
 40
0.0
 40
0.0
 40
0.0
 40
0.0
 40
0.2477832942
 40
1.0
 40
1.0
 40
1.0
 40
1.0
 10
318.2397914725
 20
601.7393552945
 30
0.0
 10
318.3017841653
 20
601.6948985297
 30
0.0
 10
318.5501592673
 20
601.5129619937
 30
0.0
 10
318.7912863708
 20
601.3211500427
 30
0.0
 10
318.9683399089
 20
601.1718702121
 30
0.0
  0
LINE
  5
689
100
AcDbEntity
  8
00_COMPONENTS_7
100
AcDbLine
 62
7
  6
CONTINUOUS
 10
320.4517261816
 20
601.0596111773
 11
320.4518536564
 21
601.002182889
  0
LINE
  5
68A
100
AcDbEntity
  8
00_COMPONENTS_7
100
AcDbLine
 62
7
  6
CONTINUOUS
 10
320.4283605357
 20
600.9786897684
 11
320.4303405446
 21
601.1503754047
  0
LINE
  5
68B
100
AcDbEntity
  8
00_COMPONENTS_7
100
AcDbLine
 62
7
  6
CONTINUOUS
 10
438.8287713622
 20
601.1503754047
 11
438.8307513711
 21
600.9786897684
  0
LINE
  5
68C
100
AcDbEntity
  8
00_COMPONENTS_7
100
AcDbLine
 62
7
  6
CONTINUOUS
 10
438.6699993097
 20
600.8645908135
 11
438.8072582504
 21
601.002182889
  0
LINE
  5
68D
100
AcDbEntity
  8
00_COMPONENTS_7
100
AcDbLine
 62
7
  6
CONTINUOUS
 10
438.8072582504
 20
599.696998738
 11
438.6699993097
 21
599.8345908135
  0
LINE
  5
68E
100
AcDbEntity
  8
00_COMPONENTS_7
100
AcDbLine
 62
7
  6
CONTINUOUS
 10
438.8307513711
 20
599.7204918587
 11
438.8287713622
 21
599.5488062224
  0
LINE
  5
68F
100
AcDbEntity
  8
00_COMPONENTS_7
100
AcDbLine
 62
7
  6
CONTINUOUS
 10
438.8287713622
 20
599.5488062224
 11
439.0004569986
 21
599.5507862312
  0
LINE
  5
690
100
AcDbEntity
  8
00_COMPONENTS_7
100
AcDbLine
 62
7
  6
CONTINUOUS
 10
439.1145559534
 20
599.3900341698
 11
438.9769638779
 21
599.5272931106
  0
LINE
  5
691
100
AcDbEntity
  8
00_COMPONENTS_7
100
AcDbLine
 62
7
  6
CONTINUOUS
 10
440.2821480289
 20
601.1718885165
 11
440.3395763172
 21
601.1717610417
  0
LINE
  5
692
100
AcDbEntity
  8
00_COMPONENTS_7
100
AcDbLine
 62
7
  6
CONTINUOUS
 10
440.4303405446
 20
601.1503754047
 11
440.2586549083
 21
601.1483953959
  0
LINE
  5
693
100
AcDbEntity
  8
00_COMPONENTS_7
100
AcDbLine
 62
7
  6
CONTINUOUS
 10
440.1445559534
 20
601.3091474572
 11
440.2821480289
 21
601.1718885165
  0
LINE
  5
694
100
AcDbEntity
  8
00_COMPONENTS_7
100
AcDbLine
 62
7
  6
CONTINUOUS
 10
440.2821480289
 20
599.5272931106
 11
440.1445559534
 21
599.3900341698
  0
LINE
  5
695
100
AcDbEntity
  8
00_COMPONENTS_7
100
AcDbLine
 62
7
  6
CONTINUOUS
 10
440.2586549083
 20
599.5507862312
 11
440.4303405446
 21
599.5488062224
  0
SPLINE
  5
696
100
AcDbEntity
  8
00_COMPONENTS_7
100
AcDbSpline
 62
7
  6
CONTINUOUS
 70
0
 71
3
 72
9
 73
5
 74
0
 42
0.0000001
 43
0.0000001
 44
0.0000000001
 40
0.0
 40
0.0
 40
0.0
 40
0.0
 40
0.2477832942
 40
1.0
 40
1.0
 40
1.0
 40
1.0
 10
441.0193204344
 20
598.9598263326
 30
0.0
 10
440.9573277415
 20
599.0042830973
 30
0.0
 10
440.7089526395
 20
599.1862196333
 30
0.0
 10
440.467825536
 20
599.3780315844
 30
0.0
 10
440.2907719979
 20
599.527311415
 30
0.0
  0
LINE
  5
697
100
AcDbEntity
  8
00_COMPONENTS_7
100
AcDbLine
 62
7
  6
CONTINUOUS
 10
440.4303405446
 20
599.5488062224
 11
440.4283605357
 21
599.7204918587
  0
LINE
  5
698
100
AcDbEntity
  8
00_COMPONENTS_7
100
AcDbLine
 62
7
  6
CONTINUOUS
 10
440.5891125971
 20
599.8345908135
 11
440.4518536564
 21
599.696998738
  0
LINE
  5
699
100
AcDbEntity
  8
00_COMPONENTS_7
100
AcDbLine
 62
7
  6
CONTINUOUS
 10
440.4518536564
 20
601.002182889
 11
440.5891125971
 21
600.8645908135
  0
LINE
  5
69A
100
AcDbEntity
  8
00_COMPONENTS_7
100
AcDbLine
 62
7
  6
CONTINUOUS
 10
438.8072582504
 20
599.696998738
 11
438.8073857252
 21
599.6395704497
  0
LINE
  5
69B
100
AcDbEntity
  8
00_COMPONENTS_7
100
AcDbLine
 62
7
  6
CONTINUOUS
 10
438.9195355896
 20
599.5274205854
 11
438.9769638779
 21
599.5272931106
  0
LINE
  5
69C
100
AcDbEntity
  8
00_COMPONENTS_7
100
AcDbLine
 62
7
  6
CONTINUOUS
 10
440.2821480289
 20
599.5272931106
 11
440.2907716066
 21
599.5273114979
  0
SPLINE
  5
69D
100
AcDbEntity
  8
00_COMPONENTS_7
100
AcDbSpline
 62
7
  6
CONTINUOUS
 70
0
 71
3
 72
9
 73
5
 74
0
 42
0.0000001
 43
0.0000001
 44
0.0000000001
 40
0.0
 40
0.0
 40
0.0
 40
0.0
 40
0.2477850579
 40
1.0
 40
1.0
 40
1.0
 40
1.0
 10
441.0193204344
 20
598.9598263326
 30
0.0
 10
440.9748633528
 20
599.0218194672
 30
0.0
 10
440.792927208
 20
599.270194861
 30
0.0
 10
440.6011148339
 20
599.5113216445
 30
0.0
 10
440.4518353519
 20
599.688374769
 30
0.0
  0
LINE
  5
69E
100
AcDbEntity
  8
00_COMPONENTS_7
100
AcDbLine
 62
7
  6
CONTINUOUS
 10
440.4518353519
 20
599.688374769
 11
440.4518535938
 21
599.6969990291
  0
LINE
  5
69F
100
AcDbEntity
  8
00_COMPONENTS_7
100
AcDbLine
 62
7
  6
CONTINUOUS
 10
438.9769638779
 20
601.1718885165
 11
439.1145559534
 21
601.3091474572
  0
LINE
  5
6A0
100
AcDbEntity
  8
00_COMPONENTS_7
100
AcDbLine
 62
7
  6
CONTINUOUS
 10
438.9769638779
 20
601.1718885165
 11
438.9683403032
 21
601.1718701286
  0
SPLINE
  5
6A1
100
AcDbEntity
  8
00_COMPONENTS_7
100
AcDbSpline
 62
7
  6
CONTINUOUS
 70
0
 71
3
 72
9
 73
5
 74
0
 42
0.0000001
 43
0.0000001
 44
0.0000000001
 40
0.0
 40
0.0
 40
0.0
 40
0.0
 40
0.2477850901
 40
1.0
 40
1.0
 40
1.0
 40
1.0
 10
438.2397914725
 20
601.7393552945
 30
0.0
 10
438.284248561
 20
601.67736215
 30
0.0
 10
438.4661832737
 20
601.4289856912
 30
0.0
 10
438.6579970751
 20
601.18785998
 30
0.0
 10
438.8072765549
 20
601.0108068581
 30
0.0
  0
LINE
  5
6A2
100
AcDbEntity
  8
00_COMPONENTS_7
100
AcDbLine
 62
7
  6
CONTINUOUS
 10
438.8072765549
 20
601.0108068581
 11
438.8072583115
 21
601.0021826053
  0
LINE
  5
6A3
100
AcDbEntity
  8
00_COMPONENTS_7
100
AcDbLine
 62
7
  6
CONTINUOUS
 10
439.0004569986
 20
601.1483953959
 11
438.8287713622
 21
601.1503754047
  0
SPLINE
  5
6A4
100
AcDbEntity
  8
00_COMPONENTS_7
100
AcDbSpline
 62
7
  6
CONTINUOUS
 70
0
 71
3
 72
9
 73
5
 74
0
 42
0.0000001
 43
0.0000001
 44
0.0000000001
 40
0.0
 40
0.0
 40
0.0
 40
0.0
 40
0.2477832942
 40
1.0
 40
1.0
 40
1.0
 40
1.0
 10
438.2397914725
 20
601.7393552945
 30
0.0
 10
438.3017841653
 20
601.6948985297
 30
0.0
 10
438.5501592673
 20
601.5129619937
 30
0.0
 10
438.7912863708
 20
601.3211500427
 30
0.0
 10
438.9683399089
 20
601.1718702121
 30
0.0
  0
LINE
  5
6A5
100
AcDbEntity
  8
00_COMPONENTS_7
100
AcDbLine
 62
7
  6
CONTINUOUS
 10
440.4517261816
 20
601.0596111773
 11
440.4518536564
 21
601.002182889
  0
LINE
  5
6A6
100
AcDbEntity
  8
00_COMPONENTS_7
100
AcDbLine
 62
7
  6
CONTINUOUS
 10
440.4283605357
 20
600.9786897684
 11
440.4303405446
 21
601.1503754047
  0
LINE
  5
6A7
100
AcDbEntity
  8
00_COMPONENTS_7
100
AcDbLine
 62
7
  6
CONTINUOUS
 10
198.8287713622
 20
601.1503754047
 11
198.8307513711
 21
600.9786897684
  0
LINE
  5
6A8
100
AcDbEntity
  8
00_COMPONENTS_7
100
AcDbLine
 62
7
  6
CONTINUOUS
 10
198.6699993097
 20
600.8645908135
 11
198.8072582504
 21
601.002182889
  0
LINE
  5
6A9
100
AcDbEntity
  8
00_COMPONENTS_7
100
AcDbLine
 62
7
  6
CONTINUOUS
 10
198.8072582504
 20
599.696998738
 11
198.6699993097
 21
599.8345908135
  0
LINE
  5
6AA
100
AcDbEntity
  8
00_COMPONENTS_7
100
AcDbLine
 62
7
  6
CONTINUOUS
 10
198.8307513711
 20
599.7204918587
 11
198.8287713622
 21
599.5488062224
  0
LINE
  5
6AB
100
AcDbEntity
  8
00_COMPONENTS_7
100
AcDbLine
 62
7
  6
CONTINUOUS
 10
198.8287713622
 20
599.5488062224
 11
199.0004569986
 21
599.5507862312
  0
LINE
  5
6AC
100
AcDbEntity
  8
00_COMPONENTS_7
100
AcDbLine
 62
7
  6
CONTINUOUS
 10
199.1145559534
 20
599.3900341698
 11
198.9769638779
 21
599.5272931106
  0
LINE
  5
6AD
100
AcDbEntity
  8
00_COMPONENTS_7
100
AcDbLine
 62
7
  6
CONTINUOUS
 10
200.2821480289
 20
601.1718885165
 11
200.3395763172
 21
601.1717610417
  0
LINE
  5
6AE
100
AcDbEntity
  8
00_COMPONENTS_7
100
AcDbLine
 62
7
  6
CONTINUOUS
 10
200.4303405446
 20
601.1503754047
 11
200.2586549083
 21
601.1483953959
  0
LINE
  5
6AF
100
AcDbEntity
  8
00_COMPONENTS_7
100
AcDbLine
 62
7
  6
CONTINUOUS
 10
200.1445559534
 20
601.3091474572
 11
200.2821480289
 21
601.1718885165
  0
LINE
  5
6B0
100
AcDbEntity
  8
00_COMPONENTS_7
100
AcDbLine
 62
7
  6
CONTINUOUS
 10
200.2821480289
 20
599.5272931106
 11
200.1445559534
 21
599.3900341698
  0
LINE
  5
6B1
100
AcDbEntity
  8
00_COMPONENTS_7
100
AcDbLine
 62
7
  6
CONTINUOUS
 10
200.2586549083
 20
599.5507862312
 11
200.4303405446
 21
599.5488062224
  0
SPLINE
  5
6B2
100
AcDbEntity
  8
00_COMPONENTS_7
100
AcDbSpline
 62
7
  6
CONTINUOUS
 70
0
 71
3
 72
9
 73
5
 74
0
 42
0.0000001
 43
0.0000001
 44
0.0000000001
 40
0.0
 40
0.0
 40
0.0
 40
0.0
 40
0.2477832942
 40
1.0
 40
1.0
 40
1.0
 40
1.0
 10
201.0193204344
 20
598.9598263326
 30
0.0
 10
200.9573277415
 20
599.0042830973
 30
0.0
 10
200.7089526395
 20
599.1862196333
 30
0.0
 10
200.467825536
 20
599.3780315844
 30
0.0
 10
200.2907719979
 20
599.527311415
 30
0.0
  0
LINE
  5
6B3
100
AcDbEntity
  8
00_COMPONENTS_7
100
AcDbLine
 62
7
  6
CONTINUOUS
 10
200.4303405446
 20
599.5488062224
 11
200.4283605357
 21
599.7204918587
  0
LINE
  5
6B4
100
AcDbEntity
  8
00_COMPONENTS_7
100
AcDbLine
 62
7
  6
CONTINUOUS
 10
200.5891125971
 20
599.8345908135
 11
200.4518536564
 21
599.696998738
  0
LINE
  5
6B5
100
AcDbEntity
  8
00_COMPONENTS_7
100
AcDbLine
 62
7
  6
CONTINUOUS
 10
200.4518536564
 20
601.002182889
 11
200.5891125971
 21
600.8645908135
  0
LINE
  5
6B6
100
AcDbEntity
  8
00_COMPONENTS_7
100
AcDbLine
 62
7
  6
CONTINUOUS
 10
198.8072582504
 20
599.696998738
 11
198.8073857252
 21
599.6395704497
  0
LINE
  5
6B7
100
AcDbEntity
  8
00_COMPONENTS_7
100
AcDbLine
 62
7
  6
CONTINUOUS
 10
198.9195355896
 20
599.5274205854
 11
198.9769638779
 21
599.5272931106
  0
LINE
  5
6B8
100
AcDbEntity
  8
00_COMPONENTS_7
100
AcDbLine
 62
7
  6
CONTINUOUS
 10
200.2821480289
 20
599.5272931106
 11
200.2907716066
 21
599.5273114979
  0
SPLINE
  5
6B9
100
AcDbEntity
  8
00_COMPONENTS_7
100
AcDbSpline
 62
7
  6
CONTINUOUS
 70
0
 71
3
 72
9
 73
5
 74
0
 42
0.0000001
 43
0.0000001
 44
0.0000000001
 40
0.0
 40
0.0
 40
0.0
 40
0.0
 40
0.2477850579
 40
1.0
 40
1.0
 40
1.0
 40
1.0
 10
201.0193204344
 20
598.9598263326
 30
0.0
 10
200.9748633528
 20
599.0218194672
 30
0.0
 10
200.792927208
 20
599.270194861
 30
0.0
 10
200.6011148339
 20
599.5113216445
 30
0.0
 10
200.4518353519
 20
599.688374769
 30
0.0
  0
LINE
  5
6BA
100
AcDbEntity
  8
00_COMPONENTS_7
100
AcDbLine
 62
7
  6
CONTINUOUS
 10
200.4518353519
 20
599.688374769
 11
200.4518535938
 21
599.6969990291
  0
LINE
  5
6BB
100
AcDbEntity
  8
00_COMPONENTS_7
100
AcDbLine
 62
7
  6
CONTINUOUS
 10
198.9769638779
 20
601.1718885165
 11
199.1145559534
 21
601.3091474572
  0
LINE
  5
6BC
100
AcDbEntity
  8
00_COMPONENTS_7
100
AcDbLine
 62
7
  6
CONTINUOUS
 10
198.9769638779
 20
601.1718885165
 11
198.9683403032
 21
601.1718701286
  0
SPLINE
  5
6BD
100
AcDbEntity
  8
00_COMPONENTS_7
100
AcDbSpline
 62
7
  6
CONTINUOUS
 70
0
 71
3
 72
9
 73
5
 74
0
 42
0.0000001
 43
0.0000001
 44
0.0000000001
 40
0.0
 40
0.0
 40
0.0
 40
0.0
 40
0.2477850901
 40
1.0
 40
1.0
 40
1.0
 40
1.0
 10
198.2397914725
 20
601.7393552945
 30
0.0
 10
198.284248561
 20
601.67736215
 30
0.0
 10
198.4661832737
 20
601.4289856912
 30
0.0
 10
198.6579970751
 20
601.18785998
 30
0.0
 10
198.8072765549
 20
601.0108068581
 30
0.0
  0
LINE
  5
6BE
100
AcDbEntity
  8
00_COMPONENTS_7
100
AcDbLine
 62
7
  6
CONTINUOUS
 10
198.8072765549
 20
601.0108068581
 11
198.8072583115
 21
601.0021826053
  0
LINE
  5
6BF
100
AcDbEntity
  8
00_COMPONENTS_7
100
AcDbLine
 62
7
  6
CONTINUOUS
 10
199.0004569986
 20
601.1483953959
 11
198.8287713622
 21
601.1503754047
  0
SPLINE
  5
6C0
100
AcDbEntity
  8
00_COMPONENTS_7
100
AcDbSpline
 62
7
  6
CONTINUOUS
 70
0
 71
3
 72
9
 73
5
 74
0
 42
0.0000001
 43
0.0000001
 44
0.0000000001
 40
0.0
 40
0.0
 40
0.0
 40
0.0
 40
0.2477832942
 40
1.0
 40
1.0
 40
1.0
 40
1.0
 10
198.2397914725
 20
601.7393552945
 30
0.0
 10
198.3017841653
 20
601.6948985297
 30
0.0
 10
198.5501592673
 20
601.5129619937
 30
0.0
 10
198.7912863708
 20
601.3211500427
 30
0.0
 10
198.9683399089
 20
601.1718702121
 30
0.0
  0
LINE
  5
6C1
100
AcDbEntity
  8
00_COMPONENTS_7
100
AcDbLine
 62
7
  6
CONTINUOUS
 10
200.4517261816
 20
601.0596111773
 11
200.4518536564
 21
601.002182889
  0
LINE
  5
6C2
100
AcDbEntity
  8
00_COMPONENTS_7
100
AcDbLine
 62
7
  6
CONTINUOUS
 10
200.4283605357
 20
600.9786897684
 11
200.4303405446
 21
601.1503754047
  0
LINE
  5
6C3
100
AcDbEntity
  8
00_COMPONENTS_7
100
AcDbLine
 62
7
  6
CONTINUOUS
 10
152.8287713622
 20
659.6503754047
 11
152.8307513711
 21
659.4786897684
  0
LINE
  5
6C4
100
AcDbEntity
  8
00_COMPONENTS_7
100
AcDbLine
 62
7
  6
CONTINUOUS
 10
152.6699993097
 20
659.3645908135
 11
152.8072582504
 21
659.502182889
  0
LINE
  5
6C5
100
AcDbEntity
  8
00_COMPONENTS_7
100
AcDbLine
 62
7
  6
CONTINUOUS
 10
152.8072582504
 20
658.196998738
 11
152.6699993097
 21
658.3345908135
  0
LINE
  5
6C6
100
AcDbEntity
  8
00_COMPONENTS_7
100
AcDbLine
 62
7
  6
CONTINUOUS
 10
152.8307513711
 20
658.2204918587
 11
152.8287713622
 21
658.0488062224
  0
LINE
  5
6C7
100
AcDbEntity
  8
00_COMPONENTS_7
100
AcDbLine
 62
7
  6
CONTINUOUS
 10
152.8287713622
 20
658.0488062224
 11
153.0004569986
 21
658.0507862312
  0
LINE
  5
6C8
100
AcDbEntity
  8
00_COMPONENTS_7
100
AcDbLine
 62
7
  6
CONTINUOUS
 10
153.1145559534
 20
657.8900341698
 11
152.9769638779
 21
658.0272931106
  0
LINE
  5
6C9
100
AcDbEntity
  8
00_COMPONENTS_7
100
AcDbLine
 62
7
  6
CONTINUOUS
 10
154.2821480289
 20
659.6718885165
 11
154.3395763172
 21
659.6717610417
  0
LINE
  5
6CA
100
AcDbEntity
  8
00_COMPONENTS_7
100
AcDbLine
 62
7
  6
CONTINUOUS
 10
154.4303405446
 20
659.6503754047
 11
154.2586549083
 21
659.6483953959
  0
LINE
  5
6CB
100
AcDbEntity
  8
00_COMPONENTS_7
100
AcDbLine
 62
7
  6
CONTINUOUS
 10
154.1445559534
 20
659.8091474572
 11
154.2821480289
 21
659.6718885165
  0
LINE
  5
6CC
100
AcDbEntity
  8
00_COMPONENTS_7
100
AcDbLine
 62
7
  6
CONTINUOUS
 10
154.2821480289
 20
658.0272931106
 11
154.1445559534
 21
657.8900341698
  0
LINE
  5
6CD
100
AcDbEntity
  8
00_COMPONENTS_7
100
AcDbLine
 62
7
  6
CONTINUOUS
 10
154.2586549083
 20
658.0507862312
 11
154.4303405446
 21
658.0488062224
  0
SPLINE
  5
6CE
100
AcDbEntity
  8
00_COMPONENTS_7
100
AcDbSpline
 62
7
  6
CONTINUOUS
 70
0
 71
3
 72
9
 73
5
 74
0
 42
0.0000001
 43
0.0000001
 44
0.0000000001
 40
0.0
 40
0.0
 40
0.0
 40
0.0
 40
0.2477832942
 40
1.0
 40
1.0
 40
1.0
 40
1.0
 10
155.0193204344
 20
657.4598263326
 30
0.0
 10
154.9573277415
 20
657.5042830973
 30
0.0
 10
154.7089526395
 20
657.6862196333
 30
0.0
 10
154.467825536
 20
657.8780315844
 30
0.0
 10
154.2907719979
 20
658.027311415
 30
0.0
  0
LINE
  5
6CF
100
AcDbEntity
  8
00_COMPONENTS_7
100
AcDbLine
 62
7
  6
CONTINUOUS
 10
154.4303405446
 20
658.0488062224
 11
154.4283605357
 21
658.2204918587
  0
LINE
  5
6D0
100
AcDbEntity
  8
00_COMPONENTS_7
100
AcDbLine
 62
7
  6
CONTINUOUS
 10
154.5891125971
 20
658.3345908135
 11
154.4518536564
 21
658.196998738
  0
LINE
  5
6D1
100
AcDbEntity
  8
00_COMPONENTS_7
100
AcDbLine
 62
7
  6
CONTINUOUS
 10
154.4518536564
 20
659.502182889
 11
154.5891125971
 21
659.3645908135
  0
LINE
  5
6D2
100
AcDbEntity
  8
00_COMPONENTS_7
100
AcDbLine
 62
7
  6
CONTINUOUS
 10
152.8072582504
 20
658.196998738
 11
152.8073857252
 21
658.1395704497
  0
LINE
  5
6D3
100
AcDbEntity
  8
00_COMPONENTS_7
100
AcDbLine
 62
7
  6
CONTINUOUS
 10
152.9195355896
 20
658.0274205854
 11
152.9769638779
 21
658.0272931106
  0
LINE
  5
6D4
100
AcDbEntity
  8
00_COMPONENTS_7
100
AcDbLine
 62
7
  6
CONTINUOUS
 10
154.2821480289
 20
658.0272931106
 11
154.2907716066
 21
658.0273114979
  0
SPLINE
  5
6D5
100
AcDbEntity
  8
00_COMPONENTS_7
100
AcDbSpline
 62
7
  6
CONTINUOUS
 70
0
 71
3
 72
9
 73
5
 74
0
 42
0.0000001
 43
0.0000001
 44
0.0000000001
 40
0.0
 40
0.0
 40
0.0
 40
0.0
 40
0.2477850579
 40
1.0
 40
1.0
 40
1.0
 40
1.0
 10
155.0193204344
 20
657.4598263326
 30
0.0
 10
154.9748633528
 20
657.5218194672
 30
0.0
 10
154.792927208
 20
657.770194861
 30
0.0
 10
154.6011148339
 20
658.0113216445
 30
0.0
 10
154.4518353519
 20
658.188374769
 30
0.0
  0
LINE
  5
6D6
100
AcDbEntity
  8
00_COMPONENTS_7
100
AcDbLine
 62
7
  6
CONTINUOUS
 10
154.4518353519
 20
658.188374769
 11
154.4518535938
 21
658.1969990291
  0
LINE
  5
6D7
100
AcDbEntity
  8
00_COMPONENTS_7
100
AcDbLine
 62
7
  6
CONTINUOUS
 10
152.9769638779
 20
659.6718885165
 11
153.1145559534
 21
659.8091474572
  0
LINE
  5
6D8
100
AcDbEntity
  8
00_COMPONENTS_7
100
AcDbLine
 62
7
  6
CONTINUOUS
 10
152.9769638779
 20
659.6718885165
 11
152.9683403032
 21
659.6718701286
  0
SPLINE
  5
6D9
100
AcDbEntity
  8
00_COMPONENTS_7
100
AcDbSpline
 62
7
  6
CONTINUOUS
 70
0
 71
3
 72
9
 73
5
 74
0
 42
0.0000001
 43
0.0000001
 44
0.0000000001
 40
0.0
 40
0.0
 40
0.0
 40
0.0
 40
0.2477850901
 40
1.0
 40
1.0
 40
1.0
 40
1.0
 10
152.2397914725
 20
660.2393552945
 30
0.0
 10
152.284248561
 20
660.17736215
 30
0.0
 10
152.4661832737
 20
659.9289856912
 30
0.0
 10
152.6579970751
 20
659.68785998
 30
0.0
 10
152.8072765549
 20
659.5108068581
 30
0.0
  0
LINE
  5
6DA
100
AcDbEntity
  8
00_COMPONENTS_7
100
AcDbLine
 62
7
  6
CONTINUOUS
 10
152.8072765549
 20
659.5108068581
 11
152.8072583115
 21
659.5021826053
  0
LINE
  5
6DB
100
AcDbEntity
  8
00_COMPONENTS_7
100
AcDbLine
 62
7
  6
CONTINUOUS
 10
153.0004569986
 20
659.6483953959
 11
152.8287713622
 21
659.6503754047
  0
SPLINE
  5
6DC
100
AcDbEntity
  8
00_COMPONENTS_7
100
AcDbSpline
 62
7
  6
CONTINUOUS
 70
0
 71
3
 72
9
 73
5
 74
0
 42
0.0000001
 43
0.0000001
 44
0.0000000001
 40
0.0
 40
0.0
 40
0.0
 40
0.0
 40
0.2477832942
 40
1.0
 40
1.0
 40
1.0
 40
1.0
 10
152.2397914725
 20
660.2393552945
 30
0.0
 10
152.3017841653
 20
660.1948985297
 30
0.0
 10
152.5501592673
 20
660.0129619937
 30
0.0
 10
152.7912863708
 20
659.8211500427
 30
0.0
 10
152.9683399089
 20
659.6718702121
 30
0.0
  0
LINE
  5
6DD
100
AcDbEntity
  8
00_COMPONENTS_7
100
AcDbLine
 62
7
  6
CONTINUOUS
 10
154.4517261816
 20
659.5596111773
 11
154.4518536564
 21
659.502182889
  0
LINE
  5
6DE
100
AcDbEntity
  8
00_COMPONENTS_7
100
AcDbLine
 62
7
  6
CONTINUOUS
 10
154.4283605357
 20
659.4786897684
 11
154.4303405446
 21
659.6503754047
  0
LINE
  5
6DF
100
AcDbEntity
  8
00_COMPONENTS_7
100
AcDbLine
 62
7
  6
CONTINUOUS
 10
552.8287713622
 20
659.6503754047
 11
552.8307513711
 21
659.4786897684
  0
LINE
  5
6E0
100
AcDbEntity
  8
00_COMPONENTS_7
100
AcDbLine
 62
7
  6
CONTINUOUS
 10
552.6699993097
 20
659.3645908135
 11
552.8072582504
 21
659.502182889
  0
LINE
  5
6E1
100
AcDbEntity
  8
00_COMPONENTS_7
100
AcDbLine
 62
7
  6
CONTINUOUS
 10
552.8072582504
 20
658.196998738
 11
552.6699993097
 21
658.3345908135
  0
LINE
  5
6E2
100
AcDbEntity
  8
00_COMPONENTS_7
100
AcDbLine
 62
7
  6
CONTINUOUS
 10
552.8307513711
 20
658.2204918587
 11
552.8287713622
 21
658.0488062224
  0
LINE
  5
6E3
100
AcDbEntity
  8
00_COMPONENTS_7
100
AcDbLine
 62
7
  6
CONTINUOUS
 10
552.8287713622
 20
658.0488062224
 11
553.0004569986
 21
658.0507862312
  0
LINE
  5
6E4
100
AcDbEntity
  8
00_COMPONENTS_7
100
AcDbLine
 62
7
  6
CONTINUOUS
 10
553.1145559534
 20
657.8900341698
 11
552.9769638779
 21
658.0272931106
  0
LINE
  5
6E5
100
AcDbEntity
  8
00_COMPONENTS_7
100
AcDbLine
 62
7
  6
CONTINUOUS
 10
554.2821480289
 20
659.6718885165
 11
554.3395763172
 21
659.6717610417
  0
LINE
  5
6E6
100
AcDbEntity
  8
00_COMPONENTS_7
100
AcDbLine
 62
7
  6
CONTINUOUS
 10
554.4303405446
 20
659.6503754047
 11
554.2586549083
 21
659.6483953959
  0
LINE
  5
6E7
100
AcDbEntity
  8
00_COMPONENTS_7
100
AcDbLine
 62
7
  6
CONTINUOUS
 10
554.1445559534
 20
659.8091474572
 11
554.2821480289
 21
659.6718885165
  0
LINE
  5
6E8
100
AcDbEntity
  8
00_COMPONENTS_7
100
AcDbLine
 62
7
  6
CONTINUOUS
 10
554.2821480289
 20
658.0272931106
 11
554.1445559534
 21
657.8900341698
  0
LINE
  5
6E9
100
AcDbEntity
  8
00_COMPONENTS_7
100
AcDbLine
 62
7
  6
CONTINUOUS
 10
554.2586549083
 20
658.0507862312
 11
554.4303405446
 21
658.0488062224
  0
SPLINE
  5
6EA
100
AcDbEntity
  8
00_COMPONENTS_7
100
AcDbSpline
 62
7
  6
CONTINUOUS
 70
0
 71
3
 72
9
 73
5
 74
0
 42
0.0000001
 43
0.0000001
 44
0.0000000001
 40
0.0
 40
0.0
 40
0.0
 40
0.0
 40
0.2477832942
 40
1.0
 40
1.0
 40
1.0
 40
1.0
 10
555.0193204344
 20
657.4598263326
 30
0.0
 10
554.9573277415
 20
657.5042830973
 30
0.0
 10
554.7089526395
 20
657.6862196333
 30
0.0
 10
554.467825536
 20
657.8780315844
 30
0.0
 10
554.2907719979
 20
658.027311415
 30
0.0
  0
LINE
  5
6EB
100
AcDbEntity
  8
00_COMPONENTS_7
100
AcDbLine
 62
7
  6
CONTINUOUS
 10
554.4303405446
 20
658.0488062224
 11
554.4283605357
 21
658.2204918587
  0
LINE
  5
6EC
100
AcDbEntity
  8
00_COMPONENTS_7
100
AcDbLine
 62
7
  6
CONTINUOUS
 10
554.5891125971
 20
658.3345908135
 11
554.4518536564
 21
658.196998738
  0
LINE
  5
6ED
100
AcDbEntity
  8
00_COMPONENTS_7
100
AcDbLine
 62
7
  6
CONTINUOUS
 10
554.4518536564
 20
659.502182889
 11
554.5891125971
 21
659.3645908135
  0
LINE
  5
6EE
100
AcDbEntity
  8
00_COMPONENTS_7
100
AcDbLine
 62
7
  6
CONTINUOUS
 10
552.8072582504
 20
658.196998738
 11
552.8073857252
 21
658.1395704497
  0
LINE
  5
6EF
100
AcDbEntity
  8
00_COMPONENTS_7
100
AcDbLine
 62
7
  6
CONTINUOUS
 10
552.9195355896
 20
658.0274205854
 11
552.9769638779
 21
658.0272931106
  0
LINE
  5
6F0
100
AcDbEntity
  8
00_COMPONENTS_7
100
AcDbLine
 62
7
  6
CONTINUOUS
 10
554.2821480289
 20
658.0272931106
 11
554.2907716066
 21
658.0273114979
  0
SPLINE
  5
6F1
100
AcDbEntity
  8
00_COMPONENTS_7
100
AcDbSpline
 62
7
  6
CONTINUOUS
 70
0
 71
3
 72
9
 73
5
 74
0
 42
0.0000001
 43
0.0000001
 44
0.0000000001
 40
0.0
 40
0.0
 40
0.0
 40
0.0
 40
0.2477850579
 40
1.0
 40
1.0
 40
1.0
 40
1.0
 10
555.0193204344
 20
657.4598263326
 30
0.0
 10
554.9748633528
 20
657.5218194672
 30
0.0
 10
554.792927208
 20
657.770194861
 30
0.0
 10
554.6011148339
 20
658.0113216445
 30
0.0
 10
554.4518353519
 20
658.188374769
 30
0.0
  0
LINE
  5
6F2
100
AcDbEntity
  8
00_COMPONENTS_7
100
AcDbLine
 62
7
  6
CONTINUOUS
 10
554.4518353519
 20
658.188374769
 11
554.4518535938
 21
658.1969990291
  0
LINE
  5
6F3
100
AcDbEntity
  8
00_COMPONENTS_7
100
AcDbLine
 62
7
  6
CONTINUOUS
 10
552.9769638779
 20
659.6718885165
 11
553.1145559534
 21
659.8091474572
  0
LINE
  5
6F4
100
AcDbEntity
  8
00_COMPONENTS_7
100
AcDbLine
 62
7
  6
CONTINUOUS
 10
552.9769638779
 20
659.6718885165
 11
552.9683403032
 21
659.6718701286
  0
SPLINE
  5
6F5
100
AcDbEntity
  8
00_COMPONENTS_7
100
AcDbSpline
 62
7
  6
CONTINUOUS
 70
0
 71
3
 72
9
 73
5
 74
0
 42
0.0000001
 43
0.0000001
 44
0.0000000001
 40
0.0
 40
0.0
 40
0.0
 40
0.0
 40
0.2477850901
 40
1.0
 40
1.0
 40
1.0
 40
1.0
 10
552.2397914725
 20
660.2393552945
 30
0.0
 10
552.284248561
 20
660.17736215
 30
0.0
 10
552.4661832737
 20
659.9289856912
 30
0.0
 10
552.6579970751
 20
659.68785998
 30
0.0
 10
552.8072765549
 20
659.5108068581
 30
0.0
  0
LINE
  5
6F6
100
AcDbEntity
  8
00_COMPONENTS_7
100
AcDbLine
 62
7
  6
CONTINUOUS
 10
552.8072765549
 20
659.5108068581
 11
552.8072583115
 21
659.5021826053
  0
LINE
  5
6F7
100
AcDbEntity
  8
00_COMPONENTS_7
100
AcDbLine
 62
7
  6
CONTINUOUS
 10
553.0004569986
 20
659.6483953959
 11
552.8287713622
 21
659.6503754047
  0
SPLINE
  5
6F8
100
AcDbEntity
  8
00_COMPONENTS_7
100
AcDbSpline
 62
7
  6
CONTINUOUS
 70
0
 71
3
 72
9
 73
5
 74
0
 42
0.0000001
 43
0.0000001
 44
0.0000000001
 40
0.0
 40
0.0
 40
0.0
 40
0.0
 40
0.2477832942
 40
1.0
 40
1.0
 40
1.0
 40
1.0
 10
552.2397914725
 20
660.2393552945
 30
0.0
 10
552.3017841653
 20
660.1948985297
 30
0.0
 10
552.5501592673
 20
660.0129619937
 30
0.0
 10
552.7912863708
 20
659.8211500427
 30
0.0
 10
552.9683399089
 20
659.6718702121
 30
0.0
  0
LINE
  5
6F9
100
AcDbEntity
  8
00_COMPONENTS_7
100
AcDbLine
 62
7
  6
CONTINUOUS
 10
554.4517261816
 20
659.5596111773
 11
554.4518536564
 21
659.502182889
  0
LINE
  5
6FA
100
AcDbEntity
  8
00_COMPONENTS_7
100
AcDbLine
 62
7
  6
CONTINUOUS
 10
554.4283605357
 20
659.4786897684
 11
554.4303405446
 21
659.6503754047
  0
LINE
  5
6FB
100
AcDbEntity
  8
00_COMPONENTS_7
100
AcDbLine
 62
7
  6
CONTINUOUS
 10
884.8287713622
 20
659.6503754047
 11
884.8307513711
 21
659.4786897684
  0
LINE
  5
6FC
100
AcDbEntity
  8
00_COMPONENTS_7
100
AcDbLine
 62
7
  6
CONTINUOUS
 10
884.6699993097
 20
659.3645908135
 11
884.8072582504
 21
659.502182889
  0
LINE
  5
6FD
100
AcDbEntity
  8
00_COMPONENTS_7
100
AcDbLine
 62
7
  6
CONTINUOUS
 10
884.8072582504
 20
658.196998738
 11
884.6699993097
 21
658.3345908135
  0
LINE
  5
6FE
100
AcDbEntity
  8
00_COMPONENTS_7
100
AcDbLine
 62
7
  6
CONTINUOUS
 10
884.8307513711
 20
658.2204918587
 11
884.8287713622
 21
658.0488062224
  0
LINE
  5
6FF
100
AcDbEntity
  8
00_COMPONENTS_7
100
AcDbLine
 62
7
  6
CONTINUOUS
 10
884.8287713622
 20
658.0488062224
 11
885.0004569986
 21
658.0507862312
  0
LINE
  5
700
100
AcDbEntity
  8
00_COMPONENTS_7
100
AcDbLine
 62
7
  6
CONTINUOUS
 10
885.1145559534
 20
657.8900341698
 11
884.9769638779
 21
658.0272931106
  0
LINE
  5
701
100
AcDbEntity
  8
00_COMPONENTS_7
100
AcDbLine
 62
7
  6
CONTINUOUS
 10
886.2821480289
 20
659.6718885165
 11
886.3395763172
 21
659.6717610417
  0
LINE
  5
702
100
AcDbEntity
  8
00_COMPONENTS_7
100
AcDbLine
 62
7
  6
CONTINUOUS
 10
886.4303405446
 20
659.6503754047
 11
886.2586549083
 21
659.6483953959
  0
LINE
  5
703
100
AcDbEntity
  8
00_COMPONENTS_7
100
AcDbLine
 62
7
  6
CONTINUOUS
 10
886.1445559534
 20
659.8091474572
 11
886.2821480289
 21
659.6718885165
  0
LINE
  5
704
100
AcDbEntity
  8
00_COMPONENTS_7
100
AcDbLine
 62
7
  6
CONTINUOUS
 10
886.2821480289
 20
658.0272931106
 11
886.1445559534
 21
657.8900341698
  0
LINE
  5
705
100
AcDbEntity
  8
00_COMPONENTS_7
100
AcDbLine
 62
7
  6
CONTINUOUS
 10
886.2586549083
 20
658.0507862312
 11
886.4303405446
 21
658.0488062224
  0
SPLINE
  5
706
100
AcDbEntity
  8
00_COMPONENTS_7
100
AcDbSpline
 62
7
  6
CONTINUOUS
 70
0
 71
3
 72
9
 73
5
 74
0
 42
0.0000001
 43
0.0000001
 44
0.0000000001
 40
0.0
 40
0.0
 40
0.0
 40
0.0
 40
0.2477832942
 40
1.0
 40
1.0
 40
1.0
 40
1.0
 10
887.0193204344
 20
657.4598263326
 30
0.0
 10
886.9573277415
 20
657.5042830973
 30
0.0
 10
886.7089526395
 20
657.6862196333
 30
0.0
 10
886.467825536
 20
657.8780315844
 30
0.0
 10
886.290771998
 20
658.027311415
 30
0.0
  0
LINE
  5
707
100
AcDbEntity
  8
00_COMPONENTS_7
100
AcDbLine
 62
7
  6
CONTINUOUS
 10
886.4303405446
 20
658.0488062224
 11
886.4283605357
 21
658.2204918587
  0
LINE
  5
708
100
AcDbEntity
  8
00_COMPONENTS_7
100
AcDbLine
 62
7
  6
CONTINUOUS
 10
886.5891125971
 20
658.3345908135
 11
886.4518536564
 21
658.196998738
  0
LINE
  5
709
100
AcDbEntity
  8
00_COMPONENTS_7
100
AcDbLine
 62
7
  6
CONTINUOUS
 10
886.4518536564
 20
659.502182889
 11
886.5891125971
 21
659.3645908135
  0
LINE
  5
70A
100
AcDbEntity
  8
00_COMPONENTS_7
100
AcDbLine
 62
7
  6
CONTINUOUS
 10
884.8072582504
 20
658.196998738
 11
884.8073857252
 21
658.1395704497
  0
LINE
  5
70B
100
AcDbEntity
  8
00_COMPONENTS_7
100
AcDbLine
 62
7
  6
CONTINUOUS
 10
884.9195355896
 20
658.0274205854
 11
884.9769638779
 21
658.0272931106
  0
LINE
  5
70C
100
AcDbEntity
  8
00_COMPONENTS_7
100
AcDbLine
 62
7
  6
CONTINUOUS
 10
886.2821480289
 20
658.0272931106
 11
886.2907716066
 21
658.0273114979
  0
SPLINE
  5
70D
100
AcDbEntity
  8
00_COMPONENTS_7
100
AcDbSpline
 62
7
  6
CONTINUOUS
 70
0
 71
3
 72
9
 73
5
 74
0
 42
0.0000001
 43
0.0000001
 44
0.0000000001
 40
0.0
 40
0.0
 40
0.0
 40
0.0
 40
0.2477850579
 40
1.0
 40
1.0
 40
1.0
 40
1.0
 10
887.0193204344
 20
657.4598263326
 30
0.0
 10
886.9748633528
 20
657.5218194672
 30
0.0
 10
886.792927208
 20
657.770194861
 30
0.0
 10
886.6011148339
 20
658.0113216445
 30
0.0
 10
886.4518353519
 20
658.188374769
 30
0.0
  0
LINE
  5
70E
100
AcDbEntity
  8
00_COMPONENTS_7
100
AcDbLine
 62
7
  6
CONTINUOUS
 10
886.4518353519
 20
658.188374769
 11
886.4518535938
 21
658.1969990291
  0
LINE
  5
70F
100
AcDbEntity
  8
00_COMPONENTS_7
100
AcDbLine
 62
7
  6
CONTINUOUS
 10
884.9769638779
 20
659.6718885165
 11
885.1145559534
 21
659.8091474572
  0
LINE
  5
710
100
AcDbEntity
  8
00_COMPONENTS_7
100
AcDbLine
 62
7
  6
CONTINUOUS
 10
884.9769638779
 20
659.6718885165
 11
884.9683403032
 21
659.6718701286
  0
SPLINE
  5
711
100
AcDbEntity
  8
00_COMPONENTS_7
100
AcDbSpline
 62
7
  6
CONTINUOUS
 70
0
 71
3
 72
9
 73
5
 74
0
 42
0.0000001
 43
0.0000001
 44
0.0000000001
 40
0.0
 40
0.0
 40
0.0
 40
0.0
 40
0.2477850901
 40
1.0
 40
1.0
 40
1.0
 40
1.0
 10
884.2397914725
 20
660.2393552945
 30
0.0
 10
884.284248561
 20
660.17736215
 30
0.0
 10
884.4661832737
 20
659.9289856912
 30
0.0
 10
884.6579970751
 20
659.68785998
 30
0.0
 10
884.8072765549
 20
659.5108068581
 30
0.0
  0
LINE
  5
712
100
AcDbEntity
  8
00_COMPONENTS_7
100
AcDbLine
 62
7
  6
CONTINUOUS
 10
884.8072765549
 20
659.5108068581
 11
884.8072583115
 21
659.5021826053
  0
LINE
  5
713
100
AcDbEntity
  8
00_COMPONENTS_7
100
AcDbLine
 62
7
  6
CONTINUOUS
 10
885.0004569986
 20
659.6483953959
 11
884.8287713622
 21
659.6503754047
  0
SPLINE
  5
714
100
AcDbEntity
  8
00_COMPONENTS_7
100
AcDbSpline
 62
7
  6
CONTINUOUS
 70
0
 71
3
 72
9
 73
5
 74
0
 42
0.0000001
 43
0.0000001
 44
0.0000000001
 40
0.0
 40
0.0
 40
0.0
 40
0.0
 40
0.2477832942
 40
1.0
 40
1.0
 40
1.0
 40
1.0
 10
884.2397914725
 20
660.2393552945
 30
0.0
 10
884.3017841653
 20
660.1948985297
 30
0.0
 10
884.5501592673
 20
660.0129619937
 30
0.0
 10
884.7912863708
 20
659.8211500427
 30
0.0
 10
884.9683399089
 20
659.6718702121
 30
0.0
  0
LINE
  5
715
100
AcDbEntity
  8
00_COMPONENTS_7
100
AcDbLine
 62
7
  6
CONTINUOUS
 10
886.4517261816
 20
659.5596111773
 11
886.4518536564
 21
659.502182889
  0
LINE
  5
716
100
AcDbEntity
  8
00_COMPONENTS_7
100
AcDbLine
 62
7
  6
CONTINUOUS
 10
886.4283605357
 20
659.4786897684
 11
886.4303405446
 21
659.6503754047
  0
LINE
  5
717
100
AcDbEntity
  8
00_COMPONENTS_7
100
AcDbLine
 62
7
  6
CONTINUOUS
 10
484.8287713622
 20
659.6503754047
 11
484.8307513711
 21
659.4786897684
  0
LINE
  5
718
100
AcDbEntity
  8
00_COMPONENTS_7
100
AcDbLine
 62
7
  6
CONTINUOUS
 10
484.6699993097
 20
659.3645908135
 11
484.8072582504
 21
659.502182889
  0
LINE
  5
719
100
AcDbEntity
  8
00_COMPONENTS_7
100
AcDbLine
 62
7
  6
CONTINUOUS
 10
484.8072582504
 20
658.196998738
 11
484.6699993097
 21
658.3345908135
  0
LINE
  5
71A
100
AcDbEntity
  8
00_COMPONENTS_7
100
AcDbLine
 62
7
  6
CONTINUOUS
 10
484.8307513711
 20
658.2204918587
 11
484.8287713622
 21
658.0488062224
  0
LINE
  5
71B
100
AcDbEntity
  8
00_COMPONENTS_7
100
AcDbLine
 62
7
  6
CONTINUOUS
 10
484.8287713622
 20
658.0488062224
 11
485.0004569986
 21
658.0507862312
  0
LINE
  5
71C
100
AcDbEntity
  8
00_COMPONENTS_7
100
AcDbLine
 62
7
  6
CONTINUOUS
 10
485.1145559534
 20
657.8900341698
 11
484.9769638779
 21
658.0272931106
  0
LINE
  5
71D
100
AcDbEntity
  8
00_COMPONENTS_7
100
AcDbLine
 62
7
  6
CONTINUOUS
 10
486.2821480289
 20
659.6718885165
 11
486.3395763172
 21
659.6717610417
  0
LINE
  5
71E
100
AcDbEntity
  8
00_COMPONENTS_7
100
AcDbLine
 62
7
  6
CONTINUOUS
 10
486.4303405446
 20
659.6503754047
 11
486.2586549083
 21
659.6483953959
  0
LINE
  5
71F
100
AcDbEntity
  8
00_COMPONENTS_7
100
AcDbLine
 62
7
  6
CONTINUOUS
 10
486.1445559534
 20
659.8091474572
 11
486.2821480289
 21
659.6718885165
  0
LINE
  5
720
100
AcDbEntity
  8
00_COMPONENTS_7
100
AcDbLine
 62
7
  6
CONTINUOUS
 10
486.2821480289
 20
658.0272931106
 11
486.1445559534
 21
657.8900341698
  0
LINE
  5
721
100
AcDbEntity
  8
00_COMPONENTS_7
100
AcDbLine
 62
7
  6
CONTINUOUS
 10
486.2586549083
 20
658.0507862312
 11
486.4303405446
 21
658.0488062224
  0
SPLINE
  5
722
100
AcDbEntity
  8
00_COMPONENTS_7
100
AcDbSpline
 62
7
  6
CONTINUOUS
 70
0
 71
3
 72
9
 73
5
 74
0
 42
0.0000001
 43
0.0000001
 44
0.0000000001
 40
0.0
 40
0.0
 40
0.0
 40
0.0
 40
0.2477832942
 40
1.0
 40
1.0
 40
1.0
 40
1.0
 10
487.0193204344
 20
657.4598263326
 30
0.0
 10
486.9573277415
 20
657.5042830973
 30
0.0
 10
486.7089526395
 20
657.6862196333
 30
0.0
 10
486.467825536
 20
657.8780315844
 30
0.0
 10
486.2907719979
 20
658.027311415
 30
0.0
  0
LINE
  5
723
100
AcDbEntity
  8
00_COMPONENTS_7
100
AcDbLine
 62
7
  6
CONTINUOUS
 10
486.4303405446
 20
658.0488062224
 11
486.4283605357
 21
658.2204918587
  0
LINE
  5
724
100
AcDbEntity
  8
00_COMPONENTS_7
100
AcDbLine
 62
7
  6
CONTINUOUS
 10
486.5891125971
 20
658.3345908135
 11
486.4518536564
 21
658.196998738
  0
LINE
  5
725
100
AcDbEntity
  8
00_COMPONENTS_7
100
AcDbLine
 62
7
  6
CONTINUOUS
 10
486.4518536564
 20
659.502182889
 11
486.5891125971
 21
659.3645908135
  0
LINE
  5
726
100
AcDbEntity
  8
00_COMPONENTS_7
100
AcDbLine
 62
7
  6
CONTINUOUS
 10
484.8072582504
 20
658.196998738
 11
484.8073857252
 21
658.1395704497
  0
LINE
  5
727
100
AcDbEntity
  8
00_COMPONENTS_7
100
AcDbLine
 62
7
  6
CONTINUOUS
 10
484.9195355896
 20
658.0274205854
 11
484.9769638779
 21
658.0272931106
  0
LINE
  5
728
100
AcDbEntity
  8
00_COMPONENTS_7
100
AcDbLine
 62
7
  6
CONTINUOUS
 10
486.2821480289
 20
658.0272931106
 11
486.2907716066
 21
658.0273114979
  0
SPLINE
  5
729
100
AcDbEntity
  8
00_COMPONENTS_7
100
AcDbSpline
 62
7
  6
CONTINUOUS
 70
0
 71
3
 72
9
 73
5
 74
0
 42
0.0000001
 43
0.0000001
 44
0.0000000001
 40
0.0
 40
0.0
 40
0.0
 40
0.0
 40
0.2477850579
 40
1.0
 40
1.0
 40
1.0
 40
1.0
 10
487.0193204344
 20
657.4598263326
 30
0.0
 10
486.9748633528
 20
657.5218194672
 30
0.0
 10
486.792927208
 20
657.770194861
 30
0.0
 10
486.6011148339
 20
658.0113216445
 30
0.0
 10
486.4518353519
 20
658.188374769
 30
0.0
  0
LINE
  5
72A
100
AcDbEntity
  8
00_COMPONENTS_7
100
AcDbLine
 62
7
  6
CONTINUOUS
 10
486.4518353519
 20
658.188374769
 11
486.4518535938
 21
658.1969990291
  0
LINE
  5
72B
100
AcDbEntity
  8
00_COMPONENTS_7
100
AcDbLine
 62
7
  6
CONTINUOUS
 10
484.9769638779
 20
659.6718885165
 11
485.1145559534
 21
659.8091474572
  0
LINE
  5
72C
100
AcDbEntity
  8
00_COMPONENTS_7
100
AcDbLine
 62
7
  6
CONTINUOUS
 10
484.9769638779
 20
659.6718885165
 11
484.9683403032
 21
659.6718701286
  0
SPLINE
  5
72D
100
AcDbEntity
  8
00_COMPONENTS_7
100
AcDbSpline
 62
7
  6
CONTINUOUS
 70
0
 71
3
 72
9
 73
5
 74
0
 42
0.0000001
 43
0.0000001
 44
0.0000000001
 40
0.0
 40
0.0
 40
0.0
 40
0.0
 40
0.2477850901
 40
1.0
 40
1.0
 40
1.0
 40
1.0
 10
484.2397914725
 20
660.2393552945
 30
0.0
 10
484.284248561
 20
660.17736215
 30
0.0
 10
484.4661832737
 20
659.9289856912
 30
0.0
 10
484.6579970751
 20
659.68785998
 30
0.0
 10
484.8072765549
 20
659.5108068581
 30
0.0
  0
LINE
  5
72E
100
AcDbEntity
  8
00_COMPONENTS_7
100
AcDbLine
 62
7
  6
CONTINUOUS
 10
484.8072765549
 20
659.5108068581
 11
484.8072583115
 21
659.5021826053
  0
LINE
  5
72F
100
AcDbEntity
  8
00_COMPONENTS_7
100
AcDbLine
 62
7
  6
CONTINUOUS
 10
485.0004569986
 20
659.6483953959
 11
484.8287713622
 21
659.6503754047
  0
SPLINE
  5
730
100
AcDbEntity
  8
00_COMPONENTS_7
100
AcDbSpline
 62
7
  6
CONTINUOUS
 70
0
 71
3
 72
9
 73
5
 74
0
 42
0.0000001
 43
0.0000001
 44
0.0000000001
 40
0.0
 40
0.0
 40
0.0
 40
0.0
 40
0.2477832942
 40
1.0
 40
1.0
 40
1.0
 40
1.0
 10
484.2397914725
 20
660.2393552945
 30
0.0
 10
484.3017841653
 20
660.1948985297
 30
0.0
 10
484.5501592673
 20
660.0129619937
 30
0.0
 10
484.7912863708
 20
659.8211500427
 30
0.0
 10
484.9683399089
 20
659.6718702121
 30
0.0
  0
LINE
  5
731
100
AcDbEntity
  8
00_COMPONENTS_7
100
AcDbLine
 62
7
  6
CONTINUOUS
 10
486.4517261816
 20
659.5596111773
 11
486.4518536564
 21
659.502182889
  0
LINE
  5
732
100
AcDbEntity
  8
00_COMPONENTS_7
100
AcDbLine
 62
7
  6
CONTINUOUS
 10
486.4283605357
 20
659.4786897684
 11
486.4303405446
 21
659.6503754047
  0
LINE
  5
733
100
AcDbEntity
  8
00_COMPONENTS_7
100
AcDbLine
 62
7
  6
CONTINUOUS
 10
838.8287713622
 20
718.1503754047
 11
838.8307513711
 21
717.9786897684
  0
LINE
  5
734
100
AcDbEntity
  8
00_COMPONENTS_7
100
AcDbLine
 62
7
  6
CONTINUOUS
 10
838.6699993097
 20
717.8645908135
 11
838.8072582504
 21
718.002182889
  0
LINE
  5
735
100
AcDbEntity
  8
00_COMPONENTS_7
100
AcDbLine
 62
7
  6
CONTINUOUS
 10
838.8072582504
 20
716.696998738
 11
838.6699993097
 21
716.8345908135
  0
LINE
  5
736
100
AcDbEntity
  8
00_COMPONENTS_7
100
AcDbLine
 62
7
  6
CONTINUOUS
 10
838.8307513711
 20
716.7204918587
 11
838.8287713622
 21
716.5488062224
  0
LINE
  5
737
100
AcDbEntity
  8
00_COMPONENTS_7
100
AcDbLine
 62
7
  6
CONTINUOUS
 10
838.8287713622
 20
716.5488062224
 11
839.0004569986
 21
716.5507862312
  0
LINE
  5
738
100
AcDbEntity
  8
00_COMPONENTS_7
100
AcDbLine
 62
7
  6
CONTINUOUS
 10
839.1145559534
 20
716.3900341698
 11
838.9769638779
 21
716.5272931106
  0
LINE
  5
739
100
AcDbEntity
  8
00_COMPONENTS_7
100
AcDbLine
 62
7
  6
CONTINUOUS
 10
840.2821480289
 20
718.1718885165
 11
840.3395763172
 21
718.1717610417
  0
LINE
  5
73A
100
AcDbEntity
  8
00_COMPONENTS_7
100
AcDbLine
 62
7
  6
CONTINUOUS
 10
840.4303405446
 20
718.1503754047
 11
840.2586549083
 21
718.1483953959
  0
LINE
  5
73B
100
AcDbEntity
  8
00_COMPONENTS_7
100
AcDbLine
 62
7
  6
CONTINUOUS
 10
840.1445559534
 20
718.3091474572
 11
840.2821480289
 21
718.1718885165
  0
LINE
  5
73C
100
AcDbEntity
  8
00_COMPONENTS_7
100
AcDbLine
 62
7
  6
CONTINUOUS
 10
840.2821480289
 20
716.5272931106
 11
840.1445559534
 21
716.3900341698
  0
LINE
  5
73D
100
AcDbEntity
  8
00_COMPONENTS_7
100
AcDbLine
 62
7
  6
CONTINUOUS
 10
840.2586549083
 20
716.5507862312
 11
840.4303405446
 21
716.5488062224
  0
SPLINE
  5
73E
100
AcDbEntity
  8
00_COMPONENTS_7
100
AcDbSpline
 62
7
  6
CONTINUOUS
 70
0
 71
3
 72
9
 73
5
 74
0
 42
0.0000001
 43
0.0000001
 44
0.0000000001
 40
0.0
 40
0.0
 40
0.0
 40
0.0
 40
0.2477832942
 40
1.0
 40
1.0
 40
1.0
 40
1.0
 10
841.0193204344
 20
715.9598263326
 30
0.0
 10
840.9573277415
 20
716.0042830973
 30
0.0
 10
840.7089526395
 20
716.1862196333
 30
0.0
 10
840.467825536
 20
716.3780315844
 30
0.0
 10
840.2907719979
 20
716.527311415
 30
0.0
  0
LINE
  5
73F
100
AcDbEntity
  8
00_COMPONENTS_7
100
AcDbLine
 62
7
  6
CONTINUOUS
 10
840.4303405446
 20
716.5488062224
 11
840.4283605357
 21
716.7204918587
  0
LINE
  5
740
100
AcDbEntity
  8
00_COMPONENTS_7
100
AcDbLine
 62
7
  6
CONTINUOUS
 10
840.5891125971
 20
716.8345908135
 11
840.4518536564
 21
716.696998738
  0
LINE
  5
741
100
AcDbEntity
  8
00_COMPONENTS_7
100
AcDbLine
 62
7
  6
CONTINUOUS
 10
840.4518536564
 20
718.002182889
 11
840.5891125971
 21
717.8645908135
  0
LINE
  5
742
100
AcDbEntity
  8
00_COMPONENTS_7
100
AcDbLine
 62
7
  6
CONTINUOUS
 10
838.8072582504
 20
716.696998738
 11
838.8073857252
 21
716.6395704497
  0
LINE
  5
743
100
AcDbEntity
  8
00_COMPONENTS_7
100
AcDbLine
 62
7
  6
CONTINUOUS
 10
838.9195355896
 20
716.5274205854
 11
838.9769638779
 21
716.5272931106
  0
LINE
  5
744
100
AcDbEntity
  8
00_COMPONENTS_7
100
AcDbLine
 62
7
  6
CONTINUOUS
 10
840.2821480289
 20
716.5272931106
 11
840.2907716066
 21
716.5273114979
  0
SPLINE
  5
745
100
AcDbEntity
  8
00_COMPONENTS_7
100
AcDbSpline
 62
7
  6
CONTINUOUS
 70
0
 71
3
 72
9
 73
5
 74
0
 42
0.0000001
 43
0.0000001
 44
0.0000000001
 40
0.0
 40
0.0
 40
0.0
 40
0.0
 40
0.2477850579
 40
1.0
 40
1.0
 40
1.0
 40
1.0
 10
841.0193204344
 20
715.9598263326
 30
0.0
 10
840.9748633528
 20
716.0218194672
 30
0.0
 10
840.792927208
 20
716.270194861
 30
0.0
 10
840.6011148339
 20
716.5113216445
 30
0.0
 10
840.4518353519
 20
716.688374769
 30
0.0
  0
LINE
  5
746
100
AcDbEntity
  8
00_COMPONENTS_7
100
AcDbLine
 62
7
  6
CONTINUOUS
 10
840.4518353519
 20
716.688374769
 11
840.4518535938
 21
716.6969990291
  0
LINE
  5
747
100
AcDbEntity
  8
00_COMPONENTS_7
100
AcDbLine
 62
7
  6
CONTINUOUS
 10
838.9769638779
 20
718.1718885165
 11
839.1145559534
 21
718.3091474572
  0
LINE
  5
748
100
AcDbEntity
  8
00_COMPONENTS_7
100
AcDbLine
 62
7
  6
CONTINUOUS
 10
838.9769638779
 20
718.1718885165
 11
838.9683403032
 21
718.1718701286
  0
SPLINE
  5
749
100
AcDbEntity
  8
00_COMPONENTS_7
100
AcDbSpline
 62
7
  6
CONTINUOUS
 70
0
 71
3
 72
9
 73
5
 74
0
 42
0.0000001
 43
0.0000001
 44
0.0000000001
 40
0.0
 40
0.0
 40
0.0
 40
0.0
 40
0.2477850901
 40
1.0
 40
1.0
 40
1.0
 40
1.0
 10
838.2397914725
 20
718.7393552945
 30
0.0
 10
838.284248561
 20
718.67736215
 30
0.0
 10
838.4661832737
 20
718.4289856912
 30
0.0
 10
838.6579970751
 20
718.18785998
 30
0.0
 10
838.8072765549
 20
718.0108068581
 30
0.0
  0
LINE
  5
74A
100
AcDbEntity
  8
00_COMPONENTS_7
100
AcDbLine
 62
7
  6
CONTINUOUS
 10
838.8072765549
 20
718.0108068581
 11
838.8072583115
 21
718.0021826053
  0
LINE
  5
74B
100
AcDbEntity
  8
00_COMPONENTS_7
100
AcDbLine
 62
7
  6
CONTINUOUS
 10
839.0004569986
 20
718.1483953959
 11
838.8287713622
 21
718.1503754047
  0
SPLINE
  5
74C
100
AcDbEntity
  8
00_COMPONENTS_7
100
AcDbSpline
 62
7
  6
CONTINUOUS
 70
0
 71
3
 72
9
 73
5
 74
0
 42
0.0000001
 43
0.0000001
 44
0.0000000001
 40
0.0
 40
0.0
 40
0.0
 40
0.0
 40
0.2477832942
 40
1.0
 40
1.0
 40
1.0
 40
1.0
 10
838.2397914725
 20
718.7393552945
 30
0.0
 10
838.3017841653
 20
718.6948985297
 30
0.0
 10
838.5501592673
 20
718.5129619937
 30
0.0
 10
838.7912863708
 20
718.3211500427
 30
0.0
 10
838.9683399089
 20
718.1718702121
 30
0.0
  0
LINE
  5
74D
100
AcDbEntity
  8
00_COMPONENTS_7
100
AcDbLine
 62
7
  6
CONTINUOUS
 10
840.4517261816
 20
718.0596111773
 11
840.4518536564
 21
718.002182889
  0
LINE
  5
74E
100
AcDbEntity
  8
00_COMPONENTS_7
100
AcDbLine
 62
7
  6
CONTINUOUS
 10
840.4283605357
 20
717.9786897684
 11
840.4303405446
 21
718.1503754047
  0
LINE
  5
74F
100
AcDbEntity
  8
00_COMPONENTS_7
100
AcDbLine
 62
7
  6
CONTINUOUS
 10
598.8287713622
 20
718.1503754047
 11
598.8307513711
 21
717.9786897684
  0
LINE
  5
750
100
AcDbEntity
  8
00_COMPONENTS_7
100
AcDbLine
 62
7
  6
CONTINUOUS
 10
598.6699993097
 20
717.8645908135
 11
598.8072582504
 21
718.002182889
  0
LINE
  5
751
100
AcDbEntity
  8
00_COMPONENTS_7
100
AcDbLine
 62
7
  6
CONTINUOUS
 10
598.8072582504
 20
716.696998738
 11
598.6699993097
 21
716.8345908135
  0
LINE
  5
752
100
AcDbEntity
  8
00_COMPONENTS_7
100
AcDbLine
 62
7
  6
CONTINUOUS
 10
598.8307513711
 20
716.7204918587
 11
598.8287713622
 21
716.5488062224
  0
LINE
  5
753
100
AcDbEntity
  8
00_COMPONENTS_7
100
AcDbLine
 62
7
  6
CONTINUOUS
 10
598.8287713622
 20
716.5488062224
 11
599.0004569986
 21
716.5507862312
  0
LINE
  5
754
100
AcDbEntity
  8
00_COMPONENTS_7
100
AcDbLine
 62
7
  6
CONTINUOUS
 10
599.1145559534
 20
716.3900341698
 11
598.9769638779
 21
716.5272931106
  0
LINE
  5
755
100
AcDbEntity
  8
00_COMPONENTS_7
100
AcDbLine
 62
7
  6
CONTINUOUS
 10
600.2821480289
 20
718.1718885165
 11
600.3395763172
 21
718.1717610417
  0
LINE
  5
756
100
AcDbEntity
  8
00_COMPONENTS_7
100
AcDbLine
 62
7
  6
CONTINUOUS
 10
600.4303405446
 20
718.1503754047
 11
600.2586549083
 21
718.1483953959
  0
LINE
  5
757
100
AcDbEntity
  8
00_COMPONENTS_7
100
AcDbLine
 62
7
  6
CONTINUOUS
 10
600.1445559534
 20
718.3091474572
 11
600.2821480289
 21
718.1718885165
  0
LINE
  5
758
100
AcDbEntity
  8
00_COMPONENTS_7
100
AcDbLine
 62
7
  6
CONTINUOUS
 10
600.2821480289
 20
716.5272931106
 11
600.1445559534
 21
716.3900341698
  0
LINE
  5
759
100
AcDbEntity
  8
00_COMPONENTS_7
100
AcDbLine
 62
7
  6
CONTINUOUS
 10
600.2586549083
 20
716.5507862312
 11
600.4303405446
 21
716.5488062224
  0
SPLINE
  5
75A
100
AcDbEntity
  8
00_COMPONENTS_7
100
AcDbSpline
 62
7
  6
CONTINUOUS
 70
0
 71
3
 72
9
 73
5
 74
0
 42
0.0000001
 43
0.0000001
 44
0.0000000001
 40
0.0
 40
0.0
 40
0.0
 40
0.0
 40
0.2477832942
 40
1.0
 40
1.0
 40
1.0
 40
1.0
 10
601.0193204344
 20
715.9598263326
 30
0.0
 10
600.9573277415
 20
716.0042830973
 30
0.0
 10
600.7089526395
 20
716.1862196333
 30
0.0
 10
600.467825536
 20
716.3780315844
 30
0.0
 10
600.2907719979
 20
716.527311415
 30
0.0
  0
LINE
  5
75B
100
AcDbEntity
  8
00_COMPONENTS_7
100
AcDbLine
 62
7
  6
CONTINUOUS
 10
600.4303405446
 20
716.5488062224
 11
600.4283605357
 21
716.7204918587
  0
LINE
  5
75C
100
AcDbEntity
  8
00_COMPONENTS_7
100
AcDbLine
 62
7
  6
CONTINUOUS
 10
600.5891125971
 20
716.8345908135
 11
600.4518536564
 21
716.696998738
  0
LINE
  5
75D
100
AcDbEntity
  8
00_COMPONENTS_7
100
AcDbLine
 62
7
  6
CONTINUOUS
 10
600.4518536564
 20
718.002182889
 11
600.5891125971
 21
717.8645908135
  0
LINE
  5
75E
100
AcDbEntity
  8
00_COMPONENTS_7
100
AcDbLine
 62
7
  6
CONTINUOUS
 10
598.8072582504
 20
716.696998738
 11
598.8073857252
 21
716.6395704497
  0
LINE
  5
75F
100
AcDbEntity
  8
00_COMPONENTS_7
100
AcDbLine
 62
7
  6
CONTINUOUS
 10
598.9195355896
 20
716.5274205854
 11
598.9769638779
 21
716.5272931106
  0
LINE
  5
760
100
AcDbEntity
  8
00_COMPONENTS_7
100
AcDbLine
 62
7
  6
CONTINUOUS
 10
600.2821480289
 20
716.5272931106
 11
600.2907716066
 21
716.5273114979
  0
SPLINE
  5
761
100
AcDbEntity
  8
00_COMPONENTS_7
100
AcDbSpline
 62
7
  6
CONTINUOUS
 70
0
 71
3
 72
9
 73
5
 74
0
 42
0.0000001
 43
0.0000001
 44
0.0000000001
 40
0.0
 40
0.0
 40
0.0
 40
0.0
 40
0.2477850579
 40
1.0
 40
1.0
 40
1.0
 40
1.0
 10
601.0193204344
 20
715.9598263326
 30
0.0
 10
600.9748633528
 20
716.0218194672
 30
0.0
 10
600.792927208
 20
716.270194861
 30
0.0
 10
600.6011148339
 20
716.5113216445
 30
0.0
 10
600.4518353519
 20
716.688374769
 30
0.0
  0
LINE
  5
762
100
AcDbEntity
  8
00_COMPONENTS_7
100
AcDbLine
 62
7
  6
CONTINUOUS
 10
600.4518353519
 20
716.688374769
 11
600.4518535938
 21
716.6969990291
  0
LINE
  5
763
100
AcDbEntity
  8
00_COMPONENTS_7
100
AcDbLine
 62
7
  6
CONTINUOUS
 10
598.9769638779
 20
718.1718885165
 11
599.1145559534
 21
718.3091474572
  0
LINE
  5
764
100
AcDbEntity
  8
00_COMPONENTS_7
100
AcDbLine
 62
7
  6
CONTINUOUS
 10
598.9769638779
 20
718.1718885165
 11
598.9683403032
 21
718.1718701286
  0
SPLINE
  5
765
100
AcDbEntity
  8
00_COMPONENTS_7
100
AcDbSpline
 62
7
  6
CONTINUOUS
 70
0
 71
3
 72
9
 73
5
 74
0
 42
0.0000001
 43
0.0000001
 44
0.0000000001
 40
0.0
 40
0.0
 40
0.0
 40
0.0
 40
0.2477850901
 40
1.0
 40
1.0
 40
1.0
 40
1.0
 10
598.2397914725
 20
718.7393552945
 30
0.0
 10
598.284248561
 20
718.67736215
 30
0.0
 10
598.4661832737
 20
718.4289856912
 30
0.0
 10
598.6579970751
 20
718.18785998
 30
0.0
 10
598.8072765549
 20
718.0108068581
 30
0.0
  0
LINE
  5
766
100
AcDbEntity
  8
00_COMPONENTS_7
100
AcDbLine
 62
7
  6
CONTINUOUS
 10
598.8072765549
 20
718.0108068581
 11
598.8072583115
 21
718.0021826053
  0
LINE
  5
767
100
AcDbEntity
  8
00_COMPONENTS_7
100
AcDbLine
 62
7
  6
CONTINUOUS
 10
599.0004569986
 20
718.1483953959
 11
598.8287713622
 21
718.1503754047
  0
SPLINE
  5
768
100
AcDbEntity
  8
00_COMPONENTS_7
100
AcDbSpline
 62
7
  6
CONTINUOUS
 70
0
 71
3
 72
9
 73
5
 74
0
 42
0.0000001
 43
0.0000001
 44
0.0000000001
 40
0.0
 40
0.0
 40
0.0
 40
0.0
 40
0.2477832942
 40
1.0
 40
1.0
 40
1.0
 40
1.0
 10
598.2397914725
 20
718.7393552945
 30
0.0
 10
598.3017841653
 20
718.6948985297
 30
0.0
 10
598.5501592673
 20
718.5129619937
 30
0.0
 10
598.7912863708
 20
718.3211500427
 30
0.0
 10
598.9683399089
 20
718.1718702121
 30
0.0
  0
LINE
  5
769
100
AcDbEntity
  8
00_COMPONENTS_7
100
AcDbLine
 62
7
  6
CONTINUOUS
 10
600.4517261816
 20
718.0596111773
 11
600.4518536564
 21
718.002182889
  0
LINE
  5
76A
100
AcDbEntity
  8
00_COMPONENTS_7
100
AcDbLine
 62
7
  6
CONTINUOUS
 10
600.4283605357
 20
717.9786897684
 11
600.4303405446
 21
718.1503754047
  0
LINE
  5
76B
100
AcDbEntity
  8
00_COMPONENTS_7
100
AcDbLine
 62
7
  6
CONTINUOUS
 10
318.8287713622
 20
718.1503754047
 11
318.8307513711
 21
717.9786897684
  0
LINE
  5
76C
100
AcDbEntity
  8
00_COMPONENTS_7
100
AcDbLine
 62
7
  6
CONTINUOUS
 10
318.6699993097
 20
717.8645908135
 11
318.8072582504
 21
718.002182889
  0
LINE
  5
76D
100
AcDbEntity
  8
00_COMPONENTS_7
100
AcDbLine
 62
7
  6
CONTINUOUS
 10
318.8072582504
 20
716.696998738
 11
318.6699993097
 21
716.8345908135
  0
LINE
  5
76E
100
AcDbEntity
  8
00_COMPONENTS_7
100
AcDbLine
 62
7
  6
CONTINUOUS
 10
318.8307513711
 20
716.7204918587
 11
318.8287713622
 21
716.5488062224
  0
LINE
  5
76F
100
AcDbEntity
  8
00_COMPONENTS_7
100
AcDbLine
 62
7
  6
CONTINUOUS
 10
318.8287713622
 20
716.5488062224
 11
319.0004569986
 21
716.5507862312
  0
LINE
  5
770
100
AcDbEntity
  8
00_COMPONENTS_7
100
AcDbLine
 62
7
  6
CONTINUOUS
 10
319.1145559534
 20
716.3900341698
 11
318.9769638779
 21
716.5272931106
  0
LINE
  5
771
100
AcDbEntity
  8
00_COMPONENTS_7
100
AcDbLine
 62
7
  6
CONTINUOUS
 10
320.2821480289
 20
718.1718885165
 11
320.3395763172
 21
718.1717610417
  0
LINE
  5
772
100
AcDbEntity
  8
00_COMPONENTS_7
100
AcDbLine
 62
7
  6
CONTINUOUS
 10
320.4303405446
 20
718.1503754047
 11
320.2586549083
 21
718.1483953959
  0
LINE
  5
773
100
AcDbEntity
  8
00_COMPONENTS_7
100
AcDbLine
 62
7
  6
CONTINUOUS
 10
320.1445559534
 20
718.3091474572
 11
320.2821480289
 21
718.1718885165
  0
LINE
  5
774
100
AcDbEntity
  8
00_COMPONENTS_7
100
AcDbLine
 62
7
  6
CONTINUOUS
 10
320.2821480289
 20
716.5272931106
 11
320.1445559534
 21
716.3900341698
  0
LINE
  5
775
100
AcDbEntity
  8
00_COMPONENTS_7
100
AcDbLine
 62
7
  6
CONTINUOUS
 10
320.2586549083
 20
716.5507862312
 11
320.4303405446
 21
716.5488062224
  0
SPLINE
  5
776
100
AcDbEntity
  8
00_COMPONENTS_7
100
AcDbSpline
 62
7
  6
CONTINUOUS
 70
0
 71
3
 72
9
 73
5
 74
0
 42
0.0000001
 43
0.0000001
 44
0.0000000001
 40
0.0
 40
0.0
 40
0.0
 40
0.0
 40
0.2477832942
 40
1.0
 40
1.0
 40
1.0
 40
1.0
 10
321.0193204344
 20
715.9598263326
 30
0.0
 10
320.9573277415
 20
716.0042830973
 30
0.0
 10
320.7089526395
 20
716.1862196333
 30
0.0
 10
320.467825536
 20
716.3780315844
 30
0.0
 10
320.2907719979
 20
716.527311415
 30
0.0
  0
LINE
  5
777
100
AcDbEntity
  8
00_COMPONENTS_7
100
AcDbLine
 62
7
  6
CONTINUOUS
 10
320.4303405446
 20
716.5488062224
 11
320.4283605357
 21
716.7204918587
  0
LINE
  5
778
100
AcDbEntity
  8
00_COMPONENTS_7
100
AcDbLine
 62
7
  6
CONTINUOUS
 10
320.5891125971
 20
716.8345908135
 11
320.4518536564
 21
716.696998738
  0
LINE
  5
779
100
AcDbEntity
  8
00_COMPONENTS_7
100
AcDbLine
 62
7
  6
CONTINUOUS
 10
320.4518536564
 20
718.002182889
 11
320.5891125971
 21
717.8645908135
  0
LINE
  5
77A
100
AcDbEntity
  8
00_COMPONENTS_7
100
AcDbLine
 62
7
  6
CONTINUOUS
 10
318.8072582504
 20
716.696998738
 11
318.8073857252
 21
716.6395704497
  0
LINE
  5
77B
100
AcDbEntity
  8
00_COMPONENTS_7
100
AcDbLine
 62
7
  6
CONTINUOUS
 10
318.9195355896
 20
716.5274205854
 11
318.9769638779
 21
716.5272931106
  0
LINE
  5
77C
100
AcDbEntity
  8
00_COMPONENTS_7
100
AcDbLine
 62
7
  6
CONTINUOUS
 10
320.2821480289
 20
716.5272931106
 11
320.2907716066
 21
716.5273114979
  0
SPLINE
  5
77D
100
AcDbEntity
  8
00_COMPONENTS_7
100
AcDbSpline
 62
7
  6
CONTINUOUS
 70
0
 71
3
 72
9
 73
5
 74
0
 42
0.0000001
 43
0.0000001
 44
0.0000000001
 40
0.0
 40
0.0
 40
0.0
 40
0.0
 40
0.2477850579
 40
1.0
 40
1.0
 40
1.0
 40
1.0
 10
321.0193204344
 20
715.9598263326
 30
0.0
 10
320.9748633528
 20
716.0218194672
 30
0.0
 10
320.792927208
 20
716.270194861
 30
0.0
 10
320.6011148339
 20
716.5113216445
 30
0.0
 10
320.4518353519
 20
716.688374769
 30
0.0
  0
LINE
  5
77E
100
AcDbEntity
  8
00_COMPONENTS_7
100
AcDbLine
 62
7
  6
CONTINUOUS
 10
320.4518353519
 20
716.688374769
 11
320.4518535938
 21
716.6969990291
  0
LINE
  5
77F
100
AcDbEntity
  8
00_COMPONENTS_7
100
AcDbLine
 62
7
  6
CONTINUOUS
 10
318.9769638779
 20
718.1718885165
 11
319.1145559534
 21
718.3091474572
  0
LINE
  5
780
100
AcDbEntity
  8
00_COMPONENTS_7
100
AcDbLine
 62
7
  6
CONTINUOUS
 10
318.9769638779
 20
718.1718885165
 11
318.9683403032
 21
718.1718701286
  0
SPLINE
  5
781
100
AcDbEntity
  8
00_COMPONENTS_7
100
AcDbSpline
 62
7
  6
CONTINUOUS
 70
0
 71
3
 72
9
 73
5
 74
0
 42
0.0000001
 43
0.0000001
 44
0.0000000001
 40
0.0
 40
0.0
 40
0.0
 40
0.0
 40
0.2477850901
 40
1.0
 40
1.0
 40
1.0
 40
1.0
 10
318.2397914725
 20
718.7393552945
 30
0.0
 10
318.284248561
 20
718.67736215
 30
0.0
 10
318.4661832737
 20
718.4289856912
 30
0.0
 10
318.6579970751
 20
718.18785998
 30
0.0
 10
318.8072765549
 20
718.0108068581
 30
0.0
  0
LINE
  5
782
100
AcDbEntity
  8
00_COMPONENTS_7
100
AcDbLine
 62
7
  6
CONTINUOUS
 10
318.8072765549
 20
718.0108068581
 11
318.8072583115
 21
718.0021826053
  0
LINE
  5
783
100
AcDbEntity
  8
00_COMPONENTS_7
100
AcDbLine
 62
7
  6
CONTINUOUS
 10
319.0004569986
 20
718.1483953959
 11
318.8287713622
 21
718.1503754047
  0
SPLINE
  5
784
100
AcDbEntity
  8
00_COMPONENTS_7
100
AcDbSpline
 62
7
  6
CONTINUOUS
 70
0
 71
3
 72
9
 73
5
 74
0
 42
0.0000001
 43
0.0000001
 44
0.0000000001
 40
0.0
 40
0.0
 40
0.0
 40
0.0
 40
0.2477832942
 40
1.0
 40
1.0
 40
1.0
 40
1.0
 10
318.2397914725
 20
718.7393552945
 30
0.0
 10
318.3017841653
 20
718.6948985297
 30
0.0
 10
318.5501592673
 20
718.5129619937
 30
0.0
 10
318.7912863708
 20
718.3211500427
 30
0.0
 10
318.9683399089
 20
718.1718702121
 30
0.0
  0
LINE
  5
785
100
AcDbEntity
  8
00_COMPONENTS_7
100
AcDbLine
 62
7
  6
CONTINUOUS
 10
320.4517261816
 20
718.0596111773
 11
320.4518536564
 21
718.002182889
  0
LINE
  5
786
100
AcDbEntity
  8
00_COMPONENTS_7
100
AcDbLine
 62
7
  6
CONTINUOUS
 10
320.4283605357
 20
717.9786897684
 11
320.4303405446
 21
718.1503754047
  0
LINE
  5
787
100
AcDbEntity
  8
00_COMPONENTS_7
100
AcDbLine
 62
7
  6
CONTINUOUS
 10
438.8287713622
 20
718.1503754047
 11
438.8307513711
 21
717.9786897684
  0
LINE
  5
788
100
AcDbEntity
  8
00_COMPONENTS_7
100
AcDbLine
 62
7
  6
CONTINUOUS
 10
438.6699993097
 20
717.8645908135
 11
438.8072582504
 21
718.002182889
  0
LINE
  5
789
100
AcDbEntity
  8
00_COMPONENTS_7
100
AcDbLine
 62
7
  6
CONTINUOUS
 10
438.8072582504
 20
716.696998738
 11
438.6699993097
 21
716.8345908135
  0
LINE
  5
78A
100
AcDbEntity
  8
00_COMPONENTS_7
100
AcDbLine
 62
7
  6
CONTINUOUS
 10
438.8307513711
 20
716.7204918587
 11
438.8287713622
 21
716.5488062224
  0
LINE
  5
78B
100
AcDbEntity
  8
00_COMPONENTS_7
100
AcDbLine
 62
7
  6
CONTINUOUS
 10
438.8287713622
 20
716.5488062224
 11
439.0004569986
 21
716.5507862312
  0
LINE
  5
78C
100
AcDbEntity
  8
00_COMPONENTS_7
100
AcDbLine
 62
7
  6
CONTINUOUS
 10
439.1145559534
 20
716.3900341698
 11
438.9769638779
 21
716.5272931106
  0
LINE
  5
78D
100
AcDbEntity
  8
00_COMPONENTS_7
100
AcDbLine
 62
7
  6
CONTINUOUS
 10
440.2821480289
 20
718.1718885165
 11
440.3395763172
 21
718.1717610417
  0
LINE
  5
78E
100
AcDbEntity
  8
00_COMPONENTS_7
100
AcDbLine
 62
7
  6
CONTINUOUS
 10
440.4303405446
 20
718.1503754047
 11
440.2586549083
 21
718.1483953959
  0
LINE
  5
78F
100
AcDbEntity
  8
00_COMPONENTS_7
100
AcDbLine
 62
7
  6
CONTINUOUS
 10
440.1445559534
 20
718.3091474572
 11
440.2821480289
 21
718.1718885165
  0
LINE
  5
790
100
AcDbEntity
  8
00_COMPONENTS_7
100
AcDbLine
 62
7
  6
CONTINUOUS
 10
440.2821480289
 20
716.5272931106
 11
440.1445559534
 21
716.3900341698
  0
LINE
  5
791
100
AcDbEntity
  8
00_COMPONENTS_7
100
AcDbLine
 62
7
  6
CONTINUOUS
 10
440.2586549083
 20
716.5507862312
 11
440.4303405446
 21
716.5488062224
  0
SPLINE
  5
792
100
AcDbEntity
  8
00_COMPONENTS_7
100
AcDbSpline
 62
7
  6
CONTINUOUS
 70
0
 71
3
 72
9
 73
5
 74
0
 42
0.0000001
 43
0.0000001
 44
0.0000000001
 40
0.0
 40
0.0
 40
0.0
 40
0.0
 40
0.2477832942
 40
1.0
 40
1.0
 40
1.0
 40
1.0
 10
441.0193204344
 20
715.9598263326
 30
0.0
 10
440.9573277415
 20
716.0042830973
 30
0.0
 10
440.7089526395
 20
716.1862196333
 30
0.0
 10
440.467825536
 20
716.3780315844
 30
0.0
 10
440.2907719979
 20
716.527311415
 30
0.0
  0
LINE
  5
793
100
AcDbEntity
  8
00_COMPONENTS_7
100
AcDbLine
 62
7
  6
CONTINUOUS
 10
440.4303405446
 20
716.5488062224
 11
440.4283605357
 21
716.7204918587
  0
LINE
  5
794
100
AcDbEntity
  8
00_COMPONENTS_7
100
AcDbLine
 62
7
  6
CONTINUOUS
 10
440.5891125971
 20
716.8345908135
 11
440.4518536564
 21
716.696998738
  0
LINE
  5
795
100
AcDbEntity
  8
00_COMPONENTS_7
100
AcDbLine
 62
7
  6
CONTINUOUS
 10
440.4518536564
 20
718.002182889
 11
440.5891125971
 21
717.8645908135
  0
LINE
  5
796
100
AcDbEntity
  8
00_COMPONENTS_7
100
AcDbLine
 62
7
  6
CONTINUOUS
 10
438.8072582504
 20
716.696998738
 11
438.8073857252
 21
716.6395704497
  0
LINE
  5
797
100
AcDbEntity
  8
00_COMPONENTS_7
100
AcDbLine
 62
7
  6
CONTINUOUS
 10
438.9195355896
 20
716.5274205854
 11
438.9769638779
 21
716.5272931106
  0
LINE
  5
798
100
AcDbEntity
  8
00_COMPONENTS_7
100
AcDbLine
 62
7
  6
CONTINUOUS
 10
440.2821480289
 20
716.5272931106
 11
440.2907716066
 21
716.5273114979
  0
SPLINE
  5
799
100
AcDbEntity
  8
00_COMPONENTS_7
100
AcDbSpline
 62
7
  6
CONTINUOUS
 70
0
 71
3
 72
9
 73
5
 74
0
 42
0.0000001
 43
0.0000001
 44
0.0000000001
 40
0.0
 40
0.0
 40
0.0
 40
0.0
 40
0.2477850579
 40
1.0
 40
1.0
 40
1.0
 40
1.0
 10
441.0193204344
 20
715.9598263326
 30
0.0
 10
440.9748633528
 20
716.0218194672
 30
0.0
 10
440.792927208
 20
716.270194861
 30
0.0
 10
440.6011148339
 20
716.5113216445
 30
0.0
 10
440.4518353519
 20
716.688374769
 30
0.0
  0
LINE
  5
79A
100
AcDbEntity
  8
00_COMPONENTS_7
100
AcDbLine
 62
7
  6
CONTINUOUS
 10
440.4518353519
 20
716.688374769
 11
440.4518535938
 21
716.6969990291
  0
LINE
  5
79B
100
AcDbEntity
  8
00_COMPONENTS_7
100
AcDbLine
 62
7
  6
CONTINUOUS
 10
438.9769638779
 20
718.1718885165
 11
439.1145559534
 21
718.3091474572
  0
LINE
  5
79C
100
AcDbEntity
  8
00_COMPONENTS_7
100
AcDbLine
 62
7
  6
CONTINUOUS
 10
438.9769638779
 20
718.1718885165
 11
438.9683403032
 21
718.1718701286
  0
SPLINE
  5
79D
100
AcDbEntity
  8
00_COMPONENTS_7
100
AcDbSpline
 62
7
  6
CONTINUOUS
 70
0
 71
3
 72
9
 73
5
 74
0
 42
0.0000001
 43
0.0000001
 44
0.0000000001
 40
0.0
 40
0.0
 40
0.0
 40
0.0
 40
0.2477850901
 40
1.0
 40
1.0
 40
1.0
 40
1.0
 10
438.2397914725
 20
718.7393552945
 30
0.0
 10
438.284248561
 20
718.67736215
 30
0.0
 10
438.4661832737
 20
718.4289856912
 30
0.0
 10
438.6579970751
 20
718.18785998
 30
0.0
 10
438.8072765549
 20
718.0108068581
 30
0.0
  0
LINE
  5
79E
100
AcDbEntity
  8
00_COMPONENTS_7
100
AcDbLine
 62
7
  6
CONTINUOUS
 10
438.8072765549
 20
718.0108068581
 11
438.8072583115
 21
718.0021826053
  0
LINE
  5
79F
100
AcDbEntity
  8
00_COMPONENTS_7
100
AcDbLine
 62
7
  6
CONTINUOUS
 10
439.0004569986
 20
718.1483953959
 11
438.8287713622
 21
718.1503754047
  0
SPLINE
  5
7A0
100
AcDbEntity
  8
00_COMPONENTS_7
100
AcDbSpline
 62
7
  6
CONTINUOUS
 70
0
 71
3
 72
9
 73
5
 74
0
 42
0.0000001
 43
0.0000001
 44
0.0000000001
 40
0.0
 40
0.0
 40
0.0
 40
0.0
 40
0.2477832942
 40
1.0
 40
1.0
 40
1.0
 40
1.0
 10
438.2397914725
 20
718.7393552945
 30
0.0
 10
438.3017841653
 20
718.6948985297
 30
0.0
 10
438.5501592673
 20
718.5129619937
 30
0.0
 10
438.7912863708
 20
718.3211500427
 30
0.0
 10
438.9683399089
 20
718.1718702121
 30
0.0
  0
LINE
  5
7A1
100
AcDbEntity
  8
00_COMPONENTS_7
100
AcDbLine
 62
7
  6
CONTINUOUS
 10
440.4517261816
 20
718.0596111773
 11
440.4518536564
 21
718.002182889
  0
LINE
  5
7A2
100
AcDbEntity
  8
00_COMPONENTS_7
100
AcDbLine
 62
7
  6
CONTINUOUS
 10
440.4283605357
 20
717.9786897684
 11
440.4303405446
 21
718.1503754047
  0
LINE
  5
7A3
100
AcDbEntity
  8
00_COMPONENTS_7
100
AcDbLine
 62
7
  6
CONTINUOUS
 10
198.8287713622
 20
718.1503754047
 11
198.8307513711
 21
717.9786897684
  0
LINE
  5
7A4
100
AcDbEntity
  8
00_COMPONENTS_7
100
AcDbLine
 62
7
  6
CONTINUOUS
 10
198.6699993097
 20
717.8645908135
 11
198.8072582504
 21
718.002182889
  0
LINE
  5
7A5
100
AcDbEntity
  8
00_COMPONENTS_7
100
AcDbLine
 62
7
  6
CONTINUOUS
 10
198.8072582504
 20
716.696998738
 11
198.6699993097
 21
716.8345908135
  0
LINE
  5
7A6
100
AcDbEntity
  8
00_COMPONENTS_7
100
AcDbLine
 62
7
  6
CONTINUOUS
 10
198.8307513711
 20
716.7204918587
 11
198.8287713622
 21
716.5488062224
  0
LINE
  5
7A7
100
AcDbEntity
  8
00_COMPONENTS_7
100
AcDbLine
 62
7
  6
CONTINUOUS
 10
198.8287713622
 20
716.5488062224
 11
199.0004569986
 21
716.5507862312
  0
LINE
  5
7A8
100
AcDbEntity
  8
00_COMPONENTS_7
100
AcDbLine
 62
7
  6
CONTINUOUS
 10
199.1145559534
 20
716.3900341698
 11
198.9769638779
 21
716.5272931106
  0
LINE
  5
7A9
100
AcDbEntity
  8
00_COMPONENTS_7
100
AcDbLine
 62
7
  6
CONTINUOUS
 10
200.2821480289
 20
718.1718885165
 11
200.3395763172
 21
718.1717610417
  0
LINE
  5
7AA
100
AcDbEntity
  8
00_COMPONENTS_7
100
AcDbLine
 62
7
  6
CONTINUOUS
 10
200.4303405446
 20
718.1503754047
 11
200.2586549083
 21
718.1483953959
  0
LINE
  5
7AB
100
AcDbEntity
  8
00_COMPONENTS_7
100
AcDbLine
 62
7
  6
CONTINUOUS
 10
200.1445559534
 20
718.3091474572
 11
200.2821480289
 21
718.1718885165
  0
LINE
  5
7AC
100
AcDbEntity
  8
00_COMPONENTS_7
100
AcDbLine
 62
7
  6
CONTINUOUS
 10
200.2821480289
 20
716.5272931106
 11
200.1445559534
 21
716.3900341698
  0
LINE
  5
7AD
100
AcDbEntity
  8
00_COMPONENTS_7
100
AcDbLine
 62
7
  6
CONTINUOUS
 10
200.2586549083
 20
716.5507862312
 11
200.4303405446
 21
716.5488062224
  0
SPLINE
  5
7AE
100
AcDbEntity
  8
00_COMPONENTS_7
100
AcDbSpline
 62
7
  6
CONTINUOUS
 70
0
 71
3
 72
9
 73
5
 74
0
 42
0.0000001
 43
0.0000001
 44
0.0000000001
 40
0.0
 40
0.0
 40
0.0
 40
0.0
 40
0.2477832942
 40
1.0
 40
1.0
 40
1.0
 40
1.0
 10
201.0193204344
 20
715.9598263326
 30
0.0
 10
200.9573277415
 20
716.0042830973
 30
0.0
 10
200.7089526395
 20
716.1862196333
 30
0.0
 10
200.467825536
 20
716.3780315844
 30
0.0
 10
200.2907719979
 20
716.527311415
 30
0.0
  0
LINE
  5
7AF
100
AcDbEntity
  8
00_COMPONENTS_7
100
AcDbLine
 62
7
  6
CONTINUOUS
 10
200.4303405446
 20
716.5488062224
 11
200.4283605357
 21
716.7204918587
  0
LINE
  5
7B0
100
AcDbEntity
  8
00_COMPONENTS_7
100
AcDbLine
 62
7
  6
CONTINUOUS
 10
200.5891125971
 20
716.8345908135
 11
200.4518536564
 21
716.696998738
  0
LINE
  5
7B1
100
AcDbEntity
  8
00_COMPONENTS_7
100
AcDbLine
 62
7
  6
CONTINUOUS
 10
200.4518536564
 20
718.002182889
 11
200.5891125971
 21
717.8645908135
  0
LINE
  5
7B2
100
AcDbEntity
  8
00_COMPONENTS_7
100
AcDbLine
 62
7
  6
CONTINUOUS
 10
198.8072582504
 20
716.696998738
 11
198.8073857252
 21
716.6395704497
  0
LINE
  5
7B3
100
AcDbEntity
  8
00_COMPONENTS_7
100
AcDbLine
 62
7
  6
CONTINUOUS
 10
198.9195355896
 20
716.5274205854
 11
198.9769638779
 21
716.5272931106
  0
LINE
  5
7B4
100
AcDbEntity
  8
00_COMPONENTS_7
100
AcDbLine
 62
7
  6
CONTINUOUS
 10
200.2821480289
 20
716.5272931106
 11
200.2907716066
 21
716.5273114979
  0
SPLINE
  5
7B5
100
AcDbEntity
  8
00_COMPONENTS_7
100
AcDbSpline
 62
7
  6
CONTINUOUS
 70
0
 71
3
 72
9
 73
5
 74
0
 42
0.0000001
 43
0.0000001
 44
0.0000000001
 40
0.0
 40
0.0
 40
0.0
 40
0.0
 40
0.2477850579
 40
1.0
 40
1.0
 40
1.0
 40
1.0
 10
201.0193204344
 20
715.9598263326
 30
0.0
 10
200.9748633528
 20
716.0218194672
 30
0.0
 10
200.792927208
 20
716.270194861
 30
0.0
 10
200.6011148339
 20
716.5113216445
 30
0.0
 10
200.4518353519
 20
716.688374769
 30
0.0
  0
LINE
  5
7B6
100
AcDbEntity
  8
00_COMPONENTS_7
100
AcDbLine
 62
7
  6
CONTINUOUS
 10
200.4518353519
 20
716.688374769
 11
200.4518535938
 21
716.6969990291
  0
LINE
  5
7B7
100
AcDbEntity
  8
00_COMPONENTS_7
100
AcDbLine
 62
7
  6
CONTINUOUS
 10
198.9769638779
 20
718.1718885165
 11
199.1145559534
 21
718.3091474572
  0
LINE
  5
7B8
100
AcDbEntity
  8
00_COMPONENTS_7
100
AcDbLine
 62
7
  6
CONTINUOUS
 10
198.9769638779
 20
718.1718885165
 11
198.9683403032
 21
718.1718701286
  0
SPLINE
  5
7B9
100
AcDbEntity
  8
00_COMPONENTS_7
100
AcDbSpline
 62
7
  6
CONTINUOUS
 70
0
 71
3
 72
9
 73
5
 74
0
 42
0.0000001
 43
0.0000001
 44
0.0000000001
 40
0.0
 40
0.0
 40
0.0
 40
0.0
 40
0.2477850901
 40
1.0
 40
1.0
 40
1.0
 40
1.0
 10
198.2397914725
 20
718.7393552945
 30
0.0
 10
198.284248561
 20
718.67736215
 30
0.0
 10
198.4661832737
 20
718.4289856912
 30
0.0
 10
198.6579970751
 20
718.18785998
 30
0.0
 10
198.8072765549
 20
718.0108068581
 30
0.0
  0
LINE
  5
7BA
100
AcDbEntity
  8
00_COMPONENTS_7
100
AcDbLine
 62
7
  6
CONTINUOUS
 10
198.8072765549
 20
718.0108068581
 11
198.8072583115
 21
718.0021826053
  0
LINE
  5
7BB
100
AcDbEntity
  8
00_COMPONENTS_7
100
AcDbLine
 62
7
  6
CONTINUOUS
 10
199.0004569986
 20
718.1483953959
 11
198.8287713622
 21
718.1503754047
  0
SPLINE
  5
7BC
100
AcDbEntity
  8
00_COMPONENTS_7
100
AcDbSpline
 62
7
  6
CONTINUOUS
 70
0
 71
3
 72
9
 73
5
 74
0
 42
0.0000001
 43
0.0000001
 44
0.0000000001
 40
0.0
 40
0.0
 40
0.0
 40
0.0
 40
0.2477832942
 40
1.0
 40
1.0
 40
1.0
 40
1.0
 10
198.2397914725
 20
718.7393552945
 30
0.0
 10
198.3017841653
 20
718.6948985297
 30
0.0
 10
198.5501592673
 20
718.5129619937
 30
0.0
 10
198.7912863708
 20
718.3211500427
 30
0.0
 10
198.9683399089
 20
718.1718702121
 30
0.0
  0
LINE
  5
7BD
100
AcDbEntity
  8
00_COMPONENTS_7
100
AcDbLine
 62
7
  6
CONTINUOUS
 10
200.4517261816
 20
718.0596111773
 11
200.4518536564
 21
718.002182889
  0
LINE
  5
7BE
100
AcDbEntity
  8
00_COMPONENTS_7
100
AcDbLine
 62
7
  6
CONTINUOUS
 10
200.4283605357
 20
717.9786897684
 11
200.4303405446
 21
718.1503754047
  0
LINE
  5
7BF
100
AcDbEntity
  8
00_COMPONENTS_7
100
AcDbLine
 62
7
  6
CONTINUOUS
 10
718.8287713622
 20
718.1503754047
 11
718.8307513711
 21
717.9786897684
  0
LINE
  5
7C0
100
AcDbEntity
  8
00_COMPONENTS_7
100
AcDbLine
 62
7
  6
CONTINUOUS
 10
718.6699993097
 20
717.8645908135
 11
718.8072582504
 21
718.002182889
  0
LINE
  5
7C1
100
AcDbEntity
  8
00_COMPONENTS_7
100
AcDbLine
 62
7
  6
CONTINUOUS
 10
718.8072582504
 20
716.696998738
 11
718.6699993097
 21
716.8345908135
  0
LINE
  5
7C2
100
AcDbEntity
  8
00_COMPONENTS_7
100
AcDbLine
 62
7
  6
CONTINUOUS
 10
718.8307513711
 20
716.7204918587
 11
718.8287713622
 21
716.5488062224
  0
LINE
  5
7C3
100
AcDbEntity
  8
00_COMPONENTS_7
100
AcDbLine
 62
7
  6
CONTINUOUS
 10
718.8287713622
 20
716.5488062224
 11
719.0004569986
 21
716.5507862312
  0
LINE
  5
7C4
100
AcDbEntity
  8
00_COMPONENTS_7
100
AcDbLine
 62
7
  6
CONTINUOUS
 10
719.1145559534
 20
716.3900341698
 11
718.9769638779
 21
716.5272931106
  0
LINE
  5
7C5
100
AcDbEntity
  8
00_COMPONENTS_7
100
AcDbLine
 62
7
  6
CONTINUOUS
 10
720.2821480289
 20
718.1718885165
 11
720.3395763172
 21
718.1717610417
  0
LINE
  5
7C6
100
AcDbEntity
  8
00_COMPONENTS_7
100
AcDbLine
 62
7
  6
CONTINUOUS
 10
720.4303405446
 20
718.1503754047
 11
720.2586549083
 21
718.1483953959
  0
LINE
  5
7C7
100
AcDbEntity
  8
00_COMPONENTS_7
100
AcDbLine
 62
7
  6
CONTINUOUS
 10
720.1445559534
 20
718.3091474572
 11
720.2821480289
 21
718.1718885165
  0
LINE
  5
7C8
100
AcDbEntity
  8
00_COMPONENTS_7
100
AcDbLine
 62
7
  6
CONTINUOUS
 10
720.2821480289
 20
716.5272931106
 11
720.1445559534
 21
716.3900341698
  0
LINE
  5
7C9
100
AcDbEntity
  8
00_COMPONENTS_7
100
AcDbLine
 62
7
  6
CONTINUOUS
 10
720.2586549083
 20
716.5507862312
 11
720.4303405446
 21
716.5488062224
  0
SPLINE
  5
7CA
100
AcDbEntity
  8
00_COMPONENTS_7
100
AcDbSpline
 62
7
  6
CONTINUOUS
 70
0
 71
3
 72
9
 73
5
 74
0
 42
0.0000001
 43
0.0000001
 44
0.0000000001
 40
0.0
 40
0.0
 40
0.0
 40
0.0
 40
0.2477832942
 40
1.0
 40
1.0
 40
1.0
 40
1.0
 10
721.0193204344
 20
715.9598263326
 30
0.0
 10
720.9573277415
 20
716.0042830973
 30
0.0
 10
720.7089526395
 20
716.1862196333
 30
0.0
 10
720.467825536
 20
716.3780315844
 30
0.0
 10
720.2907719979
 20
716.527311415
 30
0.0
  0
LINE
  5
7CB
100
AcDbEntity
  8
00_COMPONENTS_7
100
AcDbLine
 62
7
  6
CONTINUOUS
 10
720.4303405446
 20
716.5488062224
 11
720.4283605357
 21
716.7204918587
  0
LINE
  5
7CC
100
AcDbEntity
  8
00_COMPONENTS_7
100
AcDbLine
 62
7
  6
CONTINUOUS
 10
720.5891125971
 20
716.8345908135
 11
720.4518536564
 21
716.696998738
  0
LINE
  5
7CD
100
AcDbEntity
  8
00_COMPONENTS_7
100
AcDbLine
 62
7
  6
CONTINUOUS
 10
720.4518536564
 20
718.002182889
 11
720.5891125971
 21
717.8645908135
  0
LINE
  5
7CE
100
AcDbEntity
  8
00_COMPONENTS_7
100
AcDbLine
 62
7
  6
CONTINUOUS
 10
718.8072582504
 20
716.696998738
 11
718.8073857252
 21
716.6395704497
  0
LINE
  5
7CF
100
AcDbEntity
  8
00_COMPONENTS_7
100
AcDbLine
 62
7
  6
CONTINUOUS
 10
718.9195355896
 20
716.5274205854
 11
718.9769638779
 21
716.5272931106
  0
LINE
  5
7D0
100
AcDbEntity
  8
00_COMPONENTS_7
100
AcDbLine
 62
7
  6
CONTINUOUS
 10
720.2821480289
 20
716.5272931106
 11
720.2907716066
 21
716.5273114979
  0
SPLINE
  5
7D1
100
AcDbEntity
  8
00_COMPONENTS_7
100
AcDbSpline
 62
7
  6
CONTINUOUS
 70
0
 71
3
 72
9
 73
5
 74
0
 42
0.0000001
 43
0.0000001
 44
0.0000000001
 40
0.0
 40
0.0
 40
0.0
 40
0.0
 40
0.2477850579
 40
1.0
 40
1.0
 40
1.0
 40
1.0
 10
721.0193204344
 20
715.9598263326
 30
0.0
 10
720.9748633528
 20
716.0218194672
 30
0.0
 10
720.792927208
 20
716.270194861
 30
0.0
 10
720.6011148339
 20
716.5113216445
 30
0.0
 10
720.4518353519
 20
716.688374769
 30
0.0
  0
LINE
  5
7D2
100
AcDbEntity
  8
00_COMPONENTS_7
100
AcDbLine
 62
7
  6
CONTINUOUS
 10
720.4518353519
 20
716.688374769
 11
720.4518535938
 21
716.6969990291
  0
LINE
  5
7D3
100
AcDbEntity
  8
00_COMPONENTS_7
100
AcDbLine
 62
7
  6
CONTINUOUS
 10
718.9769638779
 20
718.1718885165
 11
719.1145559534
 21
718.3091474572
  0
LINE
  5
7D4
100
AcDbEntity
  8
00_COMPONENTS_7
100
AcDbLine
 62
7
  6
CONTINUOUS
 10
718.9769638779
 20
718.1718885165
 11
718.9683403032
 21
718.1718701286
  0
SPLINE
  5
7D5
100
AcDbEntity
  8
00_COMPONENTS_7
100
AcDbSpline
 62
7
  6
CONTINUOUS
 70
0
 71
3
 72
9
 73
5
 74
0
 42
0.0000001
 43
0.0000001
 44
0.0000000001
 40
0.0
 40
0.0
 40
0.0
 40
0.0
 40
0.2477850901
 40
1.0
 40
1.0
 40
1.0
 40
1.0
 10
718.2397914725
 20
718.7393552945
 30
0.0
 10
718.284248561
 20
718.67736215
 30
0.0
 10
718.4661832737
 20
718.4289856912
 30
0.0
 10
718.6579970751
 20
718.18785998
 30
0.0
 10
718.8072765549
 20
718.0108068581
 30
0.0
  0
LINE
  5
7D6
100
AcDbEntity
  8
00_COMPONENTS_7
100
AcDbLine
 62
7
  6
CONTINUOUS
 10
718.8072765549
 20
718.0108068581
 11
718.8072583115
 21
718.0021826053
  0
LINE
  5
7D7
100
AcDbEntity
  8
00_COMPONENTS_7
100
AcDbLine
 62
7
  6
CONTINUOUS
 10
719.0004569986
 20
718.1483953959
 11
718.8287713622
 21
718.1503754047
  0
SPLINE
  5
7D8
100
AcDbEntity
  8
00_COMPONENTS_7
100
AcDbSpline
 62
7
  6
CONTINUOUS
 70
0
 71
3
 72
9
 73
5
 74
0
 42
0.0000001
 43
0.0000001
 44
0.0000000001
 40
0.0
 40
0.0
 40
0.0
 40
0.0
 40
0.2477832942
 40
1.0
 40
1.0
 40
1.0
 40
1.0
 10
718.2397914725
 20
718.7393552945
 30
0.0
 10
718.3017841653
 20
718.6948985297
 30
0.0
 10
718.5501592673
 20
718.5129619937
 30
0.0
 10
718.7912863708
 20
718.3211500427
 30
0.0
 10
718.9683399089
 20
718.1718702121
 30
0.0
  0
LINE
  5
7D9
100
AcDbEntity
  8
00_COMPONENTS_7
100
AcDbLine
 62
7
  6
CONTINUOUS
 10
720.4517261816
 20
718.0596111773
 11
720.4518536564
 21
718.002182889
  0
LINE
  5
7DA
100
AcDbEntity
  8
00_COMPONENTS_7
100
AcDbLine
 62
7
  6
CONTINUOUS
 10
720.4283605357
 20
717.9786897684
 11
720.4303405446
 21
718.1503754047
  0
SPLINE
  5
7DB
100
AcDbEntity
  8
00_COMPONENTS_25
100
AcDbSpline
 62
7
  6
CONTINUOUS
 70
0
 71
3
 72
8
 73
4
 74
0
 42
0.0000001
 43
0.0000001
 44
0.0000000001
 40
0.0
 40
0.0
 40
0.0
 40
0.0
 40
1.0
 40
1.0
 40
1.0
 40
1.0
 10
160.2618101289
 20
873.0105410664
 30
0.0
 10
160.2796574913
 20
873.0177207157
 30
0.0
 10
160.2998779207
 20
873.0207903432
 30
0.0
 10
160.318974869
 20
873.0184703705
 30
0.0
  0
SPLINE
  5
7DC
100
AcDbEntity
  8
00_COMPONENTS_25
100
AcDbSpline
 62
7
  6
CONTINUOUS
 70
0
 71
3
 72
9
 73
5
 74
0
 42
0.0000001
 43
0.0000001
 44
0.0000000001
 40
0.0
 40
0.0
 40
0.0
 40
0.0
 40
0.3703065062
 40
1.0
 40
1.0
 40
1.0
 40
1.0
 10
160.2618123487
 20
873.0105723947
 30
0.0
 10
160.1632526988
 20
873.0215621045
 30
0.0
 10
159.8977322127
 20
873.0566529371
 30
0.0
 10
159.6336351071
 20
873.10269226
 30
0.0
 10
159.4689449662
 20
873.1389584901
 30
0.0
  0
SPLINE
  5
7DD
100
AcDbEntity
  8
00_COMPONENTS_25
100
AcDbSpline
 62
7
  6
CONTINUOUS
 70
0
 71
3
 72
8
 73
4
 74
0
 42
0.0000001
 43
0.0000001
 44
0.0000000001
 40
0.0
 40
0.0
 40
0.0
 40
0.0
 40
1.0
 40
1.0
 40
1.0
 40
1.0
 10
159.4046424697
 20
873.1535801982
 30
0.0
 10
159.438417951
 20
873.1648829933
 30
0.0
 10
159.4766286516
 20
873.1668071205
 30
0.0
 10
159.5113589427
 20
873.1589113501
 30
0.0
  0
SPLINE
  5
7DE
100
AcDbEntity
  8
00_COMPONENTS_25
100
AcDbSpline
 62
7
  6
CONTINUOUS
 70
0
 71
3
 72
12
 73
8
 74
0
 42
0.0000001
 43
0.0000001
 44
0.0000000001
 40
0.0
 40
0.0
 40
0.0
 40
0.0
 40
0.069189403
 40
0.1546683544
 40
0.3753793403
 40
0.660008033
 40
1.0
 40
1.0
 40
1.0
 40
1.0
 10
160.2618161215
 20
873.0105416854
 30
0.0
 10
160.2213952346
 20
872.9245987621
 30
0.0
 10
160.1486839413
 20
872.7242855288
 30
0.0
 10
160.0228786711
 20
872.2242107562
 30
0.0
 10
159.9074847592
 20
871.4198177779
 30
0.0
 10
159.8098158235
 20
870.2636322292
 30
0.0
 10
159.7654831306
 20
869.4071931652
 30
0.0
 10
159.7448468773
 20
868.9409546169
 30
0.0
  0
SPLINE
  5
7DF
100
AcDbEntity
  8
00_COMPONENTS_25
100
AcDbSpline
 62
7
  6
CONTINUOUS
 70
0
 71
3
 72
11
 73
7
 74
0
 42
0.0000001
 43
0.0000001
 44
0.0000000001
 40
0.0
 40
0.0
 40
0.0
 40
0.0
 40
0.244550021
 40
0.4903375104
 40
0.7415557883
 40
1.0
 40
1.0
 40
1.0
 40
1.0
 10
159.7448494331
 20
868.9410012309
 30
0.0
 10
159.5448688743
 20
868.9249405588
 30
0.0
 10
159.1478981389
 20
868.8108252398
 30
0.0
 10
158.6438444516
 20
868.4528259101
 30
0.0
 10
158.2665934059
 20
867.9505158756
 30
0.0
 10
158.1042078814
 20
867.5615893343
 30
0.0
 10
158.038865309
 20
867.3598863407
 30
0.0
  0
SPLINE
  5
7E0
100
AcDbEntity
  8
00_COMPONENTS_25
100
AcDbSpline
 62
7
  6
CONTINUOUS
 70
0
 71
3
 72
9
 73
5
 74
0
 42
0.0000001
 43
0.0000001
 44
0.0000000001
 40
0.0
 40
0.0
 40
0.0
 40
0.0
 40
0.4998959875
 40
1.0
 40
1.0
 40
1.0
 40
1.0
 10
173.7575736814
 20
873.3394085173
 30
0.0
 10
172.9655235762
 20
873.0788472835
 30
0.0
 10
171.2864738059
 20
872.818914525
 30
0.0
 10
169.607435183
 20
873.078779652
 30
0.0
 10
168.8150077251
 20
873.3393041152
 30
0.0
  0
SPLINE
  5
7E1
100
AcDbEntity
  8
00_COMPONENTS_25
100
AcDbSpline
 62
7
  6
CONTINUOUS
 70
0
 71
3
 72
11
 73
7
 74
0
 42
0.0000001
 43
0.0000001
 44
0.0000000001
 40
0.0
 40
0.0
 40
0.0
 40
0.0
 40
0.2422822195
 40
0.4976226805
 40
0.7541585395
 40
1.0
 40
1.0
 40
1.0
 40
1.0
 10
156.718213796
 20
869.499485506
 30
0.0
 10
156.7315434408
 20
869.8873158158
 30
0.0
 10
156.8745530738
 20
870.684499596
 30
0.0
 10
157.4352727338
 20
871.7752821529
 30
0.0
 10
158.3049368369
 20
872.6492429033
 30
0.0
 10
159.0317998224
 20
873.0269502406
 30
0.0
 10
159.4046434095
 20
873.153578299
 30
0.0
  0
SPLINE
  5
7E2
100
AcDbEntity
  8
00_COMPONENTS_25
100
AcDbSpline
 62
7
  6
CONTINUOUS
 70
0
 71
3
 72
9
 73
5
 74
0
 42
0.0000001
 43
0.0000001
 44
0.0000000001
 40
0.0
 40
0.0
 40
0.0
 40
0.0
 40
0.2436103626
 40
1.0
 40
1.0
 40
1.0
 40
1.0
 10
159.7448234545
 20
868.9409477413
 30
0.0
 10
159.7325341052
 20
868.8815207144
 30
0.0
 10
159.6887008411
 20
868.6362434136
 30
0.0
 10
159.6682571083
 20
868.3868979848
 30
0.0
 10
159.6652036565
 20
868.1985026994
 30
0.0
  0
SPLINE
  5
7E3
100
AcDbEntity
  8
00_COMPONENTS_25
100
AcDbSpline
 62
7
  6
CONTINUOUS
 70
0
 71
3
 72
11
 73
7
 74
0
 42
0.0000001
 43
0.0000001
 44
0.0000000001
 40
0.0
 40
0.0
 40
0.0
 40
0.0
 40
0.230569701
 40
0.4666367515
 40
0.7214086364
 40
1.0
 40
1.0
 40
1.0
 40
1.0
 10
182.9069932489
 20
868.1984841571
 30
0.0
 10
183.0065123241
 20
868.1984643612
 30
0.0
 10
183.2109198271
 20
868.1591232913
 30
0.0
 10
183.4714517415
 20
867.9737827136
 30
0.0
 10
183.6594333659
 20
867.6938168784
 30
0.0
 10
183.7378346414
 20
867.475701104
 30
0.0
 10
183.7701805242
 20
867.3598869486
 30
0.0
  0
SPLINE
  5
7E4
100
AcDbEntity
  8
00_COMPONENTS_25
100
AcDbSpline
 62
7
  6
CONTINUOUS
 70
0
 71
3
 72
11
 73
7
 74
0
 42
0.0000001
 43
0.0000001
 44
0.0000000001
 40
0.0
 40
0.0
 40
0.0
 40
0.0
 40
0.2785913643
 40
0.5333632879
 40
0.7694303834
 40
1.0
 40
1.0
 40
1.0
 40
1.0
 10
158.8020637775
 20
867.3598870625
 30
0.0
 10
158.8344095842
 20
867.4757008871
 30
0.0
 10
158.9128105448
 20
867.6938160847
 30
0.0
 10
159.1007913229
 20
867.9737813409
 30
0.0
 10
159.3613219727
 20
868.1591220348
 30
0.0
 10
159.565728663
 20
868.1984638212
 30
0.0
 10
159.6652474208
 20
868.1984841212
 30
0.0
  0
SPLINE
  5
7E5
100
AcDbEntity
  8
00_COMPONENTS_25
100
AcDbSpline
 62
7
  6
CONTINUOUS
 70
0
 71
3
 72
14
 73
10
 74
0
 42
0.0000001
 43
0.0000001
 44
0.0000000001
 40
0.0
 40
0.0
 40
0.0
 40
0.0
 40
0.0538635319
 40
0.119874947
 40
0.2053458138
 40
0.3141198719
 40
0.4482361928
 40
0.60811067
 40
1.0
 40
1.0
 40
1.0
 40
1.0
 10
156.7182135089
 20
869.4994867127
 30
0.0
 10
156.7615313253
 20
869.4994863675
 30
0.0
 10
156.8584253158
 20
869.472018424
 30
0.0
 10
156.9870004223
 20
869.3639784333
 30
0.0
 10
157.1099365294
 20
869.1930434446
 30
0.0
 10
157.2270338035
 20
868.9554126563
 30
0.0
 10
157.3358355072
 20
868.649757435
 30
0.0
 10
157.473562227
 20
868.1151006476
 30
0.0
 10
157.5346780091
 20
867.6738343786
 30
0.0
 10
157.5623251489
 20
867.3598864123
 30
0.0
  0
SPLINE
  5
7E6
100
AcDbEntity
  8
00_COMPONENTS_25
100
AcDbSpline
 62
7
  6
CONTINUOUS
 70
0
 71
3
 72
9
 73
5
 74
0
 42
0.0000001
 43
0.0000001
 44
0.0000000001
 40
0.0
 40
0.0
 40
0.0
 40
0.0
 40
0.1788119104
 40
1.0
 40
1.0
 40
1.0
 40
1.0
 10
183.5661321612
 20
873.2658174579
 30
0.0
 10
183.5426564346
 20
873.2581961668
 30
0.0
 10
183.4112036125
 20
873.2160242087
 30
0.0
 10
183.2770690275
 20
873.1829386813
 30
0.0
 10
183.1675934387
 20
873.1535539742
 30
0.0
  0
SPLINE
  5
7E7
100
AcDbEntity
  8
00_COMPONENTS_25
100
AcDbSpline
 62
7
  6
CONTINUOUS
 70
0
 71
3
 72
9
 73
5
 74
0
 42
0.0000001
 43
0.0000001
 44
0.0000000001
 40
0.0
 40
0.0
 40
0.0
 40
0.0
 40
0.3219840057
 40
1.0
 40
1.0
 40
1.0
 40
1.0
 10
159.4046510847
 20
873.1535539473
 30
0.0
 10
159.3619395944
 20
873.1650083041
 30
0.0
 10
159.2289327302
 20
873.1991854257
 30
0.0
 10
159.0966588475
 20
873.2364812448
 30
0.0
 10
159.0080778603
 20
873.2651917014
 30
0.0
  0
SPLINE
  5
7E8
100
AcDbEntity
  8
00_COMPONENTS_25
100
AcDbSpline
 62
7
  6
CONTINUOUS
 70
0
 71
3
 72
11
 73
7
 74
0
 42
0.0000001
 43
0.0000001
 44
0.0000000001
 40
0.0
 40
0.0
 40
0.0
 40
0.0
 40
0.2443899774
 40
0.4903221866
 40
0.7414861433
 40
1.0
 40
1.0
 40
1.0
 40
1.0
 10
182.8273993719
 20
868.9409961938
 30
0.0
 10
183.026742103
 20
868.9193902175
 30
0.0
 10
183.4248985844
 20
868.8144626184
 30
0.0
 10
183.9277922411
 20
868.4519725483
 30
0.0
 10
184.3063866487
 20
867.9511937719
 30
0.0
 10
184.4668634038
 20
867.5612853954
 30
0.0
 10
184.5333841233
 20
867.3598887049
 30
0.0
  0
SPLINE
  5
7E9
100
AcDbEntity
  8
00_COMPONENTS_25
100
AcDbSpline
 62
7
  6
CONTINUOUS
 70
0
 71
3
 72
8
 73
4
 74
0
 42
0.0000001
 43
0.0000001
 44
0.0000000001
 40
0.0
 40
0.0
 40
0.0
 40
0.0
 40
1.0
 40
1.0
 40
1.0
 40
1.0
 10
168.7846623063
 20
873.3493702374
 30
0.0
 10
168.7743761577
 20
873.3465067552
 30
0.0
 10
168.7641580521
 20
873.3433998912
 30
0.0
 10
168.7539634346
 20
873.3402259102
 30
0.0
  0
SPLINE
  5
7EA
100
AcDbEntity
  8
00_COMPONENTS_25
100
AcDbSpline
 62
7
  6
CONTINUOUS
 70
0
 71
3
 72
10
 73
6
 74
0
 42
0.0000001
 43
0.0000001
 44
0.0000000001
 40
0.0
 40
0.0
 40
0.0
 40
0.0
 40
0.1332052372
 40
0.3548540171
 40
1.0
 40
1.0
 40
1.0
 40
1.0
 10
168.7539634346
 20
873.3402259102
 30
0.0
 10
168.6951777739
 20
873.321923647
 30
0.0
 10
168.5390941164
 20
873.2714415445
 30
0.0
 10
168.0928684157
 20
873.1505251407
 30
0.0
 10
167.6992157135
 20
873.0708222517
 30
0.0
 10
167.4039589086
 20
873.0290767608
 30
0.0
  0
SPLINE
  5
7EB
100
AcDbEntity
  8
00_COMPONENTS_25
100
AcDbSpline
 62
7
  6
CONTINUOUS
 70
0
 71
3
 72
9
 73
5
 74
0
 42
0.0000001
 43
0.0000001
 44
0.0000000001
 40
0.0
 40
0.0
 40
0.0
 40
0.0
 40
0.6164090096
 40
1.0
 40
1.0
 40
1.0
 40
1.0
 10
165.3230061361
 20
873.0048325111
 30
0.0
 10
165.0246428939
 20
873.0401962152
 30
0.0
 10
164.5436342703
 20
873.1262524599
 30
0.0
 10
164.0727501463
 20
873.2541711008
 30
0.0
 10
163.8950055879
 20
873.3121796958
 30
0.0
  0
SPLINE
  5
7EC
100
AcDbEntity
  8
00_COMPONENTS_25
100
AcDbSpline
 62
7
  6
CONTINUOUS
 70
0
 71
3
 72
9
 73
5
 74
0
 42
0.0000001
 43
0.0000001
 44
0.0000000001
 40
0.0
 40
0.0
 40
0.0
 40
0.0
 40
0.2785934592
 40
1.0
 40
1.0
 40
1.0
 40
1.0
 10
163.8950055879
 20
873.3121796958
 30
0.0
 10
163.8876335503
 20
873.314585629
 30
0.0
 10
163.861180114
 20
873.3232459954
 30
0.0
 10
163.8347409257
 20
873.3319550827
 30
0.0
 10
163.8155820664
 20
873.3379687726
 30
0.0
  0
SPLINE
  5
7ED
100
AcDbEntity
  8
00_COMPONENTS_25
100
AcDbSpline
 62
7
  6
CONTINUOUS
 70
0
 71
3
 72
9
 73
5
 74
0
 42
0.0000001
 43
0.0000001
 44
0.0000000001
 40
0.0
 40
0.0
 40
0.0
 40
0.0
 40
0.557060189
 40
1.0
 40
1.0
 40
1.0
 40
1.0
 10
173.9246948122
 20
873.3062781171
 30
0.0
 10
174.7669817294
 20
873.0487792671
 30
0.0
 10
176.3664042378
 20
872.8302836343
 30
0.0
 10
177.9473675075
 20
873.0858334071
 30
0.0
 10
178.6164847949
 20
873.2925885992
 30
0.0
  0
LINE
  5
7EE
100
AcDbEntity
  8
00_COMPONENTS_25
100
AcDbLine
 62
7
  6
CONTINUOUS
 10
178.7459384697
 20
873.334142478
 11
178.7904794504
 21
873.3493687722
  0
SPLINE
  5
7EF
100
AcDbEntity
  8
00_COMPONENTS_25
100
AcDbSpline
 62
7
  6
CONTINUOUS
 70
0
 71
3
 72
9
 73
5
 74
0
 42
0.0000001
 43
0.0000001
 44
0.0000000001
 40
0.0
 40
0.0
 40
0.0
 40
0.0
 40
0.2537229929
 40
1.0
 40
1.0
 40
1.0
 40
1.0
 10
182.9070457414
 20
868.1985026998
 30
0.0
 10
182.9060218534
 20
868.2616958022
 30
0.0
 10
182.896236132
 20
868.5106029563
 30
0.0
 10
182.8650748562
 20
868.7589047217
 30
0.0
 10
182.827429794
 20
868.9409477753
 30
0.0
  0
SPLINE
  5
7F0
100
AcDbEntity
  8
00_COMPONENTS_25
100
AcDbSpline
 62
7
  6
CONTINUOUS
 70
0
 71
3
 72
8
 73
4
 74
0
 42
0.0000001
 43
0.0000001
 44
0.0000000001
 40
0.0
 40
0.0
 40
0.0
 40
0.0
 40
1.0
 40
1.0
 40
1.0
 40
1.0
 10
163.7799821833
 20
873.3490712373
 30
0.0
 10
163.7757158829
 20
873.3491837554
 30
0.0
 10
163.7714384565
 20
873.3490140378
 30
0.0
 10
163.7671854724
 20
873.3486589243
 30
0.0
  0
SPLINE
  5
7F1
100
AcDbEntity
  8
00_COMPONENTS_25
100
AcDbSpline
 62
7
  6
CONTINUOUS
 70
0
 71
3
 72
8
 73
4
 74
0
 42
0.0000001
 43
0.0000001
 44
0.0000000001
 40
0.0
 40
0.0
 40
0.0
 40
0.0
 40
1.0
 40
1.0
 40
1.0
 40
1.0
 10
163.7671854724
 20
873.3486589243
 30
0.0
 10
163.7562931799
 20
873.3477494452
 30
0.0
 10
163.7454557123
 20
873.345780897
 30
0.0
 10
163.7348902079
 20
873.342981021
 30
0.0
  0
SPLINE
  5
7F2
100
AcDbEntity
  8
00_COMPONENTS_25
100
AcDbSpline
 62
7
  6
CONTINUOUS
 70
0
 71
3
 72
11
 73
7
 74
0
 42
0.0000001
 43
0.0000001
 44
0.0000000001
 40
0.0
 40
0.0
 40
0.0
 40
0.0
 40
0.2458404174
 40
0.5023759003
 40
0.7577167461
 40
1.0
 40
1.0
 40
1.0
 40
1.0
 10
183.1676011672
 20
873.1535783197
 30
0.0
 10
183.5404431772
 20
873.0269508052
 30
0.0
 10
184.2673042493
 20
872.6492450748
 30
0.0
 10
185.136968464
 20
871.7752868642
 30
0.0
 10
185.6976905301
 20
870.6845035658
 30
0.0
 10
185.8407010594
 20
869.8873174743
 30
0.0
 10
185.8540307493
 20
869.499485506
 30
0.0
  0
LINE
  5
7F3
100
AcDbEntity
  8
00_COMPONENTS_25
100
AcDbLine
 62
7
  6
CONTINUOUS
 10
178.7904794504
 20
873.3493687722
 11
178.7920487721
 21
873.3488858953
  0
SPLINE
  5
7F4
100
AcDbEntity
  8
00_COMPONENTS_25
100
AcDbSpline
 62
7
  6
CONTINUOUS
 70
0
 71
3
 72
9
 73
5
 74
0
 42
0.0000001
 43
0.0000001
 44
0.0000000001
 40
0.0
 40
0.0
 40
0.0
 40
0.0
 40
0.4942225719
 40
1.0
 40
1.0
 40
1.0
 40
1.0
 10
178.9174570355
 20
873.31037016
 30
0.0
 10
179.4495876856
 20
873.1497196318
 30
0.0
 10
180.5598765936
 20
872.9244467826
 30
0.0
 10
181.6945569438
 20
872.9372987974
 30
0.0
 10
182.2594417667
 20
873.0043292078
 30
0.0
  0
SPLINE
  5
7F5
100
AcDbEntity
  8
00_COMPONENTS_25
100
AcDbSpline
 62
7
  6
CONTINUOUS
 70
0
 71
3
 72
12
 73
8
 74
0
 42
0.0000001
 43
0.0000001
 44
0.0000000001
 40
0.0
 40
0.0
 40
0.0
 40
0.0
 40
0.3399962004
 40
0.6246267375
 40
0.8453378197
 40
0.9308137522
 40
1.0
 40
1.0
 40
1.0
 40
1.0
 10
182.8274070253
 20
868.9409546169
 30
0.0
 10
182.8067706301
 20
869.4071988443
 30
0.0
 10
182.7624181384
 20
870.2636444522
 30
0.0
 10
182.6647672835
 20
871.4198408985
 30
0.0
 10
182.5493425009
 20
872.2242265533
 30
0.0
 10
182.4235730376
 20
872.7242996209
 30
0.0
 10
182.350886098
 20
872.9246137429
 30
0.0
 10
182.3104667101
 20
873.0105525555
 30
0.0
  0
SPLINE
  5
7F6
100
AcDbEntity
  8
00_COMPONENTS_25
100
AcDbSpline
 62
7
  6
CONTINUOUS
 70
0
 71
3
 72
9
 73
5
 74
0
 42
0.0000001
 43
0.0000001
 44
0.0000000001
 40
0.0
 40
0.0
 40
0.0
 40
0.0
 40
0.1442077282
 40
1.0
 40
1.0
 40
1.0
 40
1.0
 10
183.1030949995
 20
873.1389413542
 30
0.0
 10
183.0653929336
 20
873.130645627
 30
0.0
 10
182.8032928151
 20
873.076173816
 30
0.0
 10
182.5381484854
 20
873.0360135142
 30
0.0
 10
182.3104716594
 20
873.0105812132
 30
0.0
  0
SPLINE
  5
7F7
100
AcDbEntity
  8
00_COMPONENTS_25
100
AcDbSpline
 62
7
  6
CONTINUOUS
 70
0
 71
3
 72
8
 73
4
 74
0
 42
0.0000001
 43
0.0000001
 44
0.0000000001
 40
0.0
 40
0.0
 40
0.0
 40
0.0
 40
1.0
 40
1.0
 40
1.0
 40
1.0
 10
182.3104716594
 20
873.0105812132
 30
0.0
 10
182.2926086994
 20
873.017746347
 30
0.0
 10
182.2723776187
 20
873.0207937917
 30
0.0
 10
182.2532728789
 20
873.0184628266
 30
0.0
  0
SPLINE
  5
7F8
100
AcDbEntity
  8
00_COMPONENTS_25
100
AcDbSpline
 62
7
  6
CONTINUOUS
 70
0
 71
3
 72
8
 73
4
 74
0
 42
0.0000001
 43
0.0000001
 44
0.0000000001
 40
0.0
 40
0.0
 40
0.0
 40
0.0
 40
1.0
 40
1.0
 40
1.0
 40
1.0
 10
183.167593509
 20
873.1535540262
 30
0.0
 10
183.1338192578
 20
873.1648660607
 30
0.0
 10
183.0956068491
 20
873.1667995873
 30
0.0
 10
183.0608730387
 20
873.1589113314
 30
0.0
  0
SPLINE
  5
7F9
100
AcDbEntity
  8
00_COMPONENTS_25
100
AcDbSpline
 62
7
  6
CONTINUOUS
 70
0
 71
3
 72
14
 73
10
 74
0
 42
0.0000001
 43
0.0000001
 44
0.0000000001
 40
0.0
 40
0.0
 40
0.0
 40
0.0
 40
0.3918893628
 40
0.5517638448
 40
0.6858801632
 40
0.7946542127
 40
0.8801250672
 40
0.9461364708
 40
1.0
 40
1.0
 40
1.0
 40
1.0
 10
185.0099191554
 20
867.3598864193
 30
0.0
 10
185.0375662997
 20
867.6738344337
 30
0.0
 10
185.0986820934
 20
868.1151007637
 30
0.0
 10
185.236408848
 20
868.6497576112
 30
0.0
 10
185.345210576
 20
868.9554128427
 30
0.0
 10
185.4623078745
 20
869.1930436194
 30
0.0
 10
185.585244007
 20
869.3639785767
 30
0.0
 10
185.7138191475
 20
869.4720185195
 30
0.0
 10
185.810713157
 20
869.4994863958
 30
0.0
 10
185.8540309742
 20
869.4994867077
 30
0.0
  0
LINE
  5
7FA
100
AcDbEntity
  8
00_COMPONENTS_25
100
AcDbLine
 62
7
  6
CONTINUOUS
 10
163.7794205788
 20
873.3487191598
 11
163.7572761388
 21
873.3423881896
  0
SPLINE
  5
7FB
100
AcDbEntity
  8
00_COMPONENTS_25
100
AcDbSpline
 62
7
  6
CONTINUOUS
 70
0
 71
3
 72
12
 73
8
 74
0
 42
0.0000001
 43
0.0000001
 44
0.0000000001
 40
0.0
 40
0.0
 40
0.0
 40
0.0
 40
0.0585041163
 40
0.1635383288
 40
0.4631856816
 40
0.7580971454
 40
1.0
 40
1.0
 40
1.0
 40
1.0
 10
163.7517818021
 20
873.3407382308
 30
0.0
 10
163.686792389
 20
873.3210907365
 30
0.0
 10
163.5058338497
 20
873.2637940824
 30
0.0
 10
162.9859493293
 20
873.1264398255
 30
0.0
 10
162.1851351382
 20
872.9804502699
 30
0.0
 10
161.2128343904
 20
872.9296133649
 30
0.0
 10
160.5902277472
 20
872.973363011
 30
0.0
 10
160.3112723631
 20
873.0048763094
 30
0.0
  0
SPLINE
  5
7FC
100
AcDbEntity
  8
00_COMPONENTS_11
100
AcDbSpline
 62
7
  6
CONTINUOUS
 70
0
 71
3
 72
8
 73
4
 74
0
 42
0.0000001
 43
0.0000001
 44
0.0000000001
 40
0.0
 40
0.0
 40
0.0
 40
0.0
 40
1.0
 40
1.0
 40
1.0
 40
1.0
 10
916.3056652639
 20
847.3599227653
 30
0.0
 10
916.3915970715
 20
847.3602159105
 30
0.0
 10
916.4748192675
 20
847.4151336813
 30
0.0
 10
916.5362321693
 20
847.4752403947
 30
0.0
  0
SPLINE
  5
7FD
100
AcDbEntity
  8
00_COMPONENTS_11
100
AcDbSpline
 62
7
  6
CONTINUOUS
 70
0
 71
3
 72
9
 73
5
 74
0
 42
0.0000001
 43
0.0000001
 44
0.0000000001
 40
0.0
 40
0.0
 40
0.0
 40
0.0
 40
0.1939095974
 40
1.0
 40
1.0
 40
1.0
 40
1.0
 10
916.5362321693
 20
847.4752403947
 30
0.0
 10
916.5746053
 20
847.512797369
 30
0.0
 10
916.7494053769
 20
847.7295225997
 30
0.0
 10
916.8639021153
 20
847.9858544588
 30
0.0
 10
916.9515751446
 20
848.1911225056
 30
0.0
  0
SPLINE
  5
7FE
100
AcDbEntity
  8
00_COMPONENTS_11
100
AcDbSpline
 62
7
  6
CONTINUOUS
 70
0
 71
3
 72
8
 73
4
 74
0
 42
0.0000001
 43
0.0000001
 44
0.0000000001
 40
0.0
 40
0.0
 40
0.0
 40
0.0
 40
1.0
 40
1.0
 40
1.0
 40
1.0
 10
916.9515751446
 20
848.1911225056
 30
0.0
 10
916.9949400457
 20
848.2926523445
 30
0.0
 10
917.0360344355
 20
848.395156081
 30
0.0
 10
917.0760188793
 20
848.4980641326
 30
0.0
  0
SPLINE
  5
7FF
100
AcDbEntity
  8
00_COMPONENTS_11
100
AcDbSpline
 62
7
  6
CONTINUOUS
 70
0
 71
3
 72
8
 73
4
 74
0
 42
0.0000001
 43
0.0000001
 44
0.0000000001
 40
0.0
 40
0.0
 40
0.0
 40
0.0
 40
1.0
 40
1.0
 40
1.0
 40
1.0
 10
124.2665776782
 20
847.3599238871
 30
0.0
 10
124.1806702132
 20
847.3602263987
 30
0.0
 10
124.0974734293
 20
847.4150924432
 30
0.0
 10
124.0360466633
 20
847.4751502193
 30
0.0
  0
SPLINE
  5
800
100
AcDbEntity
  8
00_COMPONENTS_11
100
AcDbSpline
 62
7
  6
CONTINUOUS
 70
0
 71
3
 72
9
 73
5
 74
0
 42
0.0000001
 43
0.0000001
 44
0.0000000001
 40
0.0
 40
0.0
 40
0.0
 40
0.0
 40
0.1938163924
 40
1.0
 40
1.0
 40
1.0
 40
1.0
 10
124.0360466633
 20
847.4751502193
 30
0.0
 10
123.9975117874
 20
847.5128262864
 30
0.0
 10
123.8219640619
 20
847.7304678917
 30
0.0
 10
123.7073652243
 20
847.9880718519
 30
0.0
 10
123.6194303735
 20
848.1942724744
 30
0.0
  0
SPLINE
  5
801
100
AcDbEntity
  8
00_COMPONENTS_11
100
AcDbSpline
 62
7
  6
CONTINUOUS
 70
0
 71
3
 72
8
 73
4
 74
0
 42
0.0000001
 43
0.0000001
 44
0.0000000001
 40
0.0
 40
0.0
 40
0.0
 40
0.0
 40
1.0
 40
1.0
 40
1.0
 40
1.0
 10
123.6194303735
 20
848.1942724744
 30
0.0
 10
123.5765349141
 20
848.2948591059
 30
0.0
 10
123.5358329578
 20
848.3963852635
 30
0.0
 10
123.4962155665
 20
848.4983075534
 30
0.0
  0
SPLINE
  5
802
100
AcDbEntity
  8
00_COMPONENTS_11
100
AcDbSpline
 62
7
  6
CONTINUOUS
 70
0
 71
3
 72
9
 73
5
 74
0
 42
0.0000001
 43
0.0000001
 44
0.0000000001
 40
0.0
 40
0.0
 40
0.0
 40
0.0
 40
0.2087844501
 40
1.0
 40
1.0
 40
1.0
 40
1.0
 10
907.7771660274
 20
867.3598874249
 30
0.0
 10
907.8534596083
 20
867.3598874249
 30
0.0
 10
908.2208653427
 20
867.2937728726
 30
0.0
 10
908.4992016436
 20
867.0063066113
 30
0.0
 10
908.6806077618
 20
866.7811739667
 30
0.0
  0
SPLINE
  5
803
100
AcDbEntity
  8
00_COMPONENTS_11
100
AcDbSpline
 62
7
  6
CONTINUOUS
 70
0
 71
3
 72
8
 73
4
 74
0
 42
0.0000001
 43
0.0000001
 44
0.0000000001
 40
0.0
 40
0.0
 40
0.0
 40
0.0
 40
1.0
 40
1.0
 40
1.0
 40
1.0
 10
908.6806077618
 20
866.7811739667
 30
0.0
 10
908.9309322626
 20
866.5671169844
 30
0.0
 10
909.156084654
 20
866.3234238469
 30
0.0
 10
909.36741361
 20
866.07079206
 30
0.0
  0
SPLINE
  5
804
100
AcDbEntity
  8
00_COMPONENTS_11
100
AcDbSpline
 62
7
  6
CONTINUOUS
 70
0
 71
3
 72
8
 73
4
 74
0
 42
0.0000001
 43
0.0000001
 44
0.0000000001
 40
0.0
 40
0.0
 40
0.0
 40
0.0
 40
1.0
 40
1.0
 40
1.0
 40
1.0
 10
909.36741361
 20
866.07079206
 30
0.0
 10
909.6102865845
 20
865.7804511872
 30
0.0
 10
909.8357810581
 20
865.4755775207
 30
0.0
 10
910.054219546
 20
865.1664339761
 30
0.0
  0
SPLINE
  5
805
100
AcDbEntity
  8
00_COMPONENTS_11
100
AcDbSpline
 62
7
  6
CONTINUOUS
 70
0
 71
3
 72
8
 73
4
 74
0
 42
0.0000001
 43
0.0000001
 44
0.0000000001
 40
0.0
 40
0.0
 40
0.0
 40
0.0
 40
1.0
 40
1.0
 40
1.0
 40
1.0
 10
910.054219546
 20
865.1664339761
 30
0.0
 10
910.2886138174
 20
864.8347091206
 30
0.0
 10
910.5147632079
 20
864.4972112949
 30
0.0
 10
910.7410255799
 20
864.1598874249
 30
0.0
  0
SPLINE
  5
806
100
AcDbEntity
  8
00_COMPONENTS_11
100
AcDbSpline
 62
7
  6
CONTINUOUS
 70
0
 71
3
 72
9
 73
5
 74
0
 42
0.0000001
 43
0.0000001
 44
0.0000000001
 40
0.0
 40
0.0
 40
0.0
 40
0.0
 40
0.2615356733
 40
1.0
 40
1.0
 40
1.0
 40
1.0
 10
129.8312187237
 20
864.1598874249
 30
0.0
 10
129.948368872
 20
864.3345410408
 30
0.0
 10
130.3966003176
 20
865.0017334491
 30
0.0
 10
130.8586250381
 20
865.6627615382
 30
0.0
 10
131.2426393883
 20
866.1156889012
 30
0.0
  0
SPLINE
  5
807
100
AcDbEntity
  8
00_COMPONENTS_11
100
AcDbSpline
 62
7
  6
CONTINUOUS
 70
0
 71
3
 72
8
 73
4
 74
0
 42
0.0000001
 43
0.0000001
 44
0.0000000001
 40
0.0
 40
0.0
 40
0.0
 40
0.0
 40
1.0
 40
1.0
 40
1.0
 40
1.0
 10
131.4407976901
 20
866.3407476845
 30
0.0
 10
131.5827788213
 20
866.4955964299
 30
0.0
 10
131.7319665429
 20
866.6446372792
 30
0.0
 10
131.8916365418
 20
866.7811739667
 30
0.0
  0
SPLINE
  5
808
100
AcDbEntity
  8
00_COMPONENTS_11
100
AcDbSpline
 62
7
  6
CONTINUOUS
 70
0
 71
3
 72
8
 73
4
 74
0
 42
0.0000001
 43
0.0000001
 44
0.0000000001
 40
0.0
 40
0.0
 40
0.0
 40
0.0
 40
1.0
 40
1.0
 40
1.0
 40
1.0
 10
131.8916365418
 20
866.7811739667
 30
0.0
 10
131.9830835356
 20
866.8946635433
 30
0.0
 10
132.0821273984
 20
867.0033234377
 30
0.0
 10
132.1927837869
 20
867.0981791194
 30
0.0
  0
SPLINE
  5
809
100
AcDbEntity
  8
00_COMPONENTS_11
100
AcDbSpline
 62
7
  6
CONTINUOUS
 70
0
 71
3
 72
8
 73
4
 74
0
 42
0.0000001
 43
0.0000001
 44
0.0000000001
 40
0.0
 40
0.0
 40
0.0
 40
0.0
 40
1.0
 40
1.0
 40
1.0
 40
1.0
 10
132.1927837869
 20
867.0981791194
 30
0.0
 10
132.2836622397
 20
867.1760809713
 30
0.0
 10
132.3842604836
 20
867.2458194102
 30
0.0
 10
132.4939310311
 20
867.2937773367
 30
0.0
  0
SPLINE
  5
80A
100
AcDbEntity
  8
00_COMPONENTS_11
100
AcDbSpline
 62
7
  6
CONTINUOUS
 70
0
 71
3
 72
8
 73
4
 74
0
 42
0.0000001
 43
0.0000001
 44
0.0000000001
 40
0.0
 40
0.0
 40
0.0
 40
0.0
 40
1.0
 40
1.0
 40
1.0
 40
1.0
 10
132.4939310311
 20
867.2937773367
 30
0.0
 10
132.588094302
 20
867.3349540732
 30
0.0
 10
132.6923054918
 20
867.3598874249
 30
0.0
 10
132.7950782762
 20
867.3598874249
 30
0.0
  0
SPLINE
  5
80B
100
AcDbEntity
  8
00_COMPONENTS_51
100
AcDbSpline
 62
7
  6
CONTINUOUS
 70
0
 71
3
 72
9
 73
5
 74
0
 42
0.0000001
 43
0.0000001
 44
0.0000000001
 40
0.0
 40
0.0
 40
0.0
 40
0.0
 40
0.3684288376
 40
1.0
 40
1.0
 40
1.0
 40
1.0
 10
916.4295559534
 20
840.8495908135
 30
0.0
 10
916.61109142
 20
840.8495908135
 30
0.0
 10
917.0350467156
 20
840.4691163431
 30
0.0
 10
917.2269709206
 20
840.034799507
 30
0.0
 10
917.354258972
 20
839.7508294594
 30
0.0
  0
SPLINE
  5
80C
100
AcDbEntity
  8
00_COMPONENTS_51
100
AcDbSpline
 62
7
  6
CONTINUOUS
 70
0
 71
3
 72
8
 73
4
 74
0
 42
0.0000001
 43
0.0000001
 44
0.0000000001
 40
0.0
 40
0.0
 40
0.0
 40
0.0
 40
1.0
 40
1.0
 40
1.0
 40
1.0
 10
917.354258972
 20
839.7508294594
 30
0.0
 10
917.5042090623
 20
839.416302111
 30
0.0
 10
917.6337374719
 20
839.0727094305
 30
0.0
 10
917.7576636291
 20
838.727693657
 30
0.0
  0
SPLINE
  5
80D
100
AcDbEntity
  8
00_COMPONENTS_51
100
AcDbSpline
 62
7
  6
CONTINUOUS
 70
0
 71
3
 72
8
 73
4
 74
0
 42
0.0000001
 43
0.0000001
 44
0.0000000001
 40
0.0
 40
0.0
 40
0.0
 40
0.0
 40
1.0
 40
1.0
 40
1.0
 40
1.0
 10
917.7576636291
 20
838.727693657
 30
0.0
 10
917.8861703841
 20
838.3699253013
 30
0.0
 10
918.0077652247
 20
838.0097007979
 30
0.0
 10
918.1295559534
 20
837.6495908135
 30
0.0
  0
SPLINE
  5
80E
100
AcDbEntity
  8
00_COMPONENTS_51
100
AcDbSpline
 62
7
  6
CONTINUOUS
 70
0
 71
3
 72
8
 73
4
 74
0
 42
0.0000001
 43
0.0000001
 44
0.0000000001
 40
0.0
 40
0.0
 40
0.0
 40
0.0
 40
1.0
 40
1.0
 40
1.0
 40
1.0
 10
121.1295559534
 20
837.6495908135
 30
0.0
 10
121.251326029
 20
838.009639731
 30
0.0
 10
121.3729003592
 20
838.3698030755
 30
0.0
 10
121.5013828853
 20
838.7275116367
 30
0.0
  0
SPLINE
  5
80F
100
AcDbEntity
  8
00_COMPONENTS_51
100
AcDbSpline
 62
7
  6
CONTINUOUS
 70
0
 71
3
 72
9
 73
5
 74
0
 42
0.0000001
 43
0.0000001
 44
0.0000000001
 40
0.0
 40
0.0
 40
0.0
 40
0.0
 40
0.2783458267
 40
1.0
 40
1.0
 40
1.0
 40
1.0
 10
121.5013828853
 20
838.7275116367
 30
0.0
 10
121.5482515692
 20
838.857998871
 30
0.0
 10
121.7205672283
 20
839.3251035154
 30
0.0
 10
121.9089377024
 20
839.7882201063
 30
0.0
 10
122.0767454047
 20
840.1061173835
 30
0.0
  0
SPLINE
  5
810
100
AcDbEntity
  8
00_COMPONENTS_51
100
AcDbSpline
 62
7
  6
CONTINUOUS
 70
0
 71
3
 72
9
 73
5
 74
0
 42
0.0000001
 43
0.0000001
 44
0.0000000001
 40
0.0
 40
0.0
 40
0.0
 40
0.0
 40
0.3430019893
 40
1.0
 40
1.0
 40
1.0
 40
1.0
 10
122.0767454047
 20
840.1061173835
 30
0.0
 10
122.1341983709
 20
840.2149570925
 30
0.0
 10
122.304162621
 20
840.5126892506
 30
0.0
 10
122.593817917
 20
840.8495908135
 30
0.0
 10
122.8295559534
 20
840.8495908135
 30
0.0
  0
SPLINE
  5
811
100
AcDbEntity
  8
00_COMPONENTS_51
100
AcDbSpline
 62
7
  6
CONTINUOUS
 70
0
 71
3
 72
9
 73
5
 74
0
 42
0.0000001
 43
0.0000001
 44
0.0000000001
 40
0.0
 40
0.0
 40
0.0
 40
0.0
 40
0.3684288563
 40
1.0
 40
1.0
 40
1.0
 40
1.0
 10
122.8295559534
 20
563.8495908135
 30
0.0
 10
122.6480205374
 20
563.8495908135
 30
0.0
 10
122.2240653422
 20
564.2300650848
 30
0.0
 10
122.0321411606
 20
564.6643817775
 30
0.0
 10
121.9048531375
 20
564.9483517154
 30
0.0
  0
SPLINE
  5
812
100
AcDbEntity
  8
00_COMPONENTS_51
100
AcDbSpline
 62
7
  6
CONTINUOUS
 70
0
 71
3
 72
8
 73
4
 74
0
 42
0.0000001
 43
0.0000001
 44
0.0000000001
 40
0.0
 40
0.0
 40
0.0
 40
0.0
 40
1.0
 40
1.0
 40
1.0
 40
1.0
 10
121.9048531375
 20
564.9483517154
 30
0.0
 10
121.754902713
 20
565.2828797543
 30
0.0
 10
121.6253740612
 20
565.6264731667
 30
0.0
 10
121.5014476672
 20
565.9714896699
 30
0.0
  0
SPLINE
  5
813
100
AcDbEntity
  8
00_COMPONENTS_51
100
AcDbSpline
 62
7
  6
CONTINUOUS
 70
0
 71
3
 72
8
 73
4
 74
0
 42
0.0000001
 43
0.0000001
 44
0.0000000001
 40
0.0
 40
0.0
 40
0.0
 40
0.0
 40
1.0
 40
1.0
 40
1.0
 40
1.0
 10
121.5014476672
 20
565.9714896699
 30
0.0
 10
121.372940998
 20
566.3292578595
 30
0.0
 10
121.2513462222
 20
566.6894821888
 30
0.0
 10
121.1295555529
 20
567.0495919976
 30
0.0
  0
SPLINE
  5
814
100
AcDbEntity
  8
00_COMPONENTS_51
100
AcDbSpline
 62
7
  6
CONTINUOUS
 70
0
 71
3
 72
8
 73
4
 74
0
 42
0.0000001
 43
0.0000001
 44
0.0000000001
 40
0.0
 40
0.0
 40
0.0
 40
0.0
 40
1.0
 40
1.0
 40
1.0
 40
1.0
 10
918.1295563539
 20
567.0495919976
 30
0.0
 10
918.0077699106
 20
566.6894946922
 30
0.0
 10
917.8861846057
 20
566.3292810078
 30
0.0
 10
917.7576788193
 20
565.9715265249
 30
0.0
  0
SPLINE
  5
815
100
AcDbEntity
  8
00_COMPONENTS_51
100
AcDbSpline
 62
7
  6
CONTINUOUS
 70
0
 71
3
 72
9
 73
5
 74
0
 42
0.0000001
 43
0.0000001
 44
0.0000000001
 40
0.0
 40
0.0
 40
0.0
 40
0.0
 40
0.2779830332
 40
1.0
 40
1.0
 40
1.0
 40
1.0
 10
917.7576788193
 20
565.9715265249
 30
0.0
 10
917.7108740036
 20
565.8412239674
 30
0.0
 10
917.5385733152
 20
565.3741713814
 30
0.0
 10
917.3502714821
 20
564.9110755276
 30
0.0
 10
917.182340284
 20
564.5930822184
 30
0.0
  0
SPLINE
  5
816
100
AcDbEntity
  8
00_COMPONENTS_51
100
AcDbSpline
 62
7
  6
CONTINUOUS
 70
0
 71
3
 72
9
 73
5
 74
0
 42
0.0000001
 43
0.0000001
 44
0.0000000001
 40
0.0
 40
0.0
 40
0.0
 40
0.0
 40
0.3430564866
 40
1.0
 40
1.0
 40
1.0
 40
1.0
 10
917.182340284
 20
564.5930822184
 30
0.0
 10
917.1248599712
 20
564.4842379115
 30
0.0
 10
916.9548550941
 20
564.1865502341
 30
0.0
 10
916.6652692267
 20
563.8495908135
 30
0.0
 10
916.4295559534
 20
563.8495908135
 30
0.0
  0
SPLINE
  5
817
100
AcDbEntity
  8
00_COMPONENTS_51
100
AcDbSpline
 62
7
  6
CONTINUOUS
 70
0
 71
3
 72
8
 73
4
 74
0
 42
0.0000001
 43
0.0000001
 44
0.0000000001
 40
0.0
 40
0.0
 40
0.0
 40
0.0
 40
1.0
 40
1.0
 40
1.0
 40
1.0
 10
898.9942164223
 20
842.8495989099
 30
0.0
 10
899.2477133745
 20
842.5894783792
 30
0.0
 10
899.5010974754
 20
842.3289673938
 30
0.0
 10
899.7648570133
 20
842.0792589609
 30
0.0
  0
SPLINE
  5
818
100
AcDbEntity
  8
00_COMPONENTS_51
100
AcDbSpline
 62
7
  6
CONTINUOUS
 70
0
 71
3
 72
9
 73
5
 74
0
 42
0.0000001
 43
0.0000001
 44
0.0000000001
 40
0.0
 40
0.0
 40
0.0
 40
0.0
 40
0.2668558693
 40
1.0
 40
1.0
 40
1.0
 40
1.0
 10
899.7648570133
 20
842.0792589609
 30
0.0
 10
899.8588196892
 20
841.9903019027
 30
0.0
 10
900.215810889
 20
841.6628999365
 30
0.0
 10
900.6010589314
 20
841.3605967357
 30
0.0
 10
900.9102532626
 20
841.1851882905
 30
0.0
  0
SPLINE
  5
819
100
AcDbEntity
  8
00_COMPONENTS_51
100
AcDbSpline
 62
7
  6
CONTINUOUS
 70
0
 71
3
 72
8
 73
4
 74
0
 42
0.0000001
 43
0.0000001
 44
0.0000000001
 40
0.0
 40
0.0
 40
0.0
 40
0.0
 40
1.0
 40
1.0
 40
1.0
 40
1.0
 10
900.9102532626
 20
841.1851882905
 30
0.0
 10
901.2563238821
 20
840.9888596288
 30
0.0
 10
901.6578682994
 20
840.8495908135
 30
0.0
 10
902.0557499616
 20
840.8495908135
 30
0.0
  0
SPLINE
  5
81A
100
AcDbEntity
  8
00_COMPONENTS_51
100
AcDbSpline
 62
7
  6
CONTINUOUS
 70
0
 71
3
 72
8
 73
4
 74
0
 42
0.0000001
 43
0.0000001
 44
0.0000000001
 40
0.0
 40
0.0
 40
0.0
 40
0.0
 40
1.0
 40
1.0
 40
1.0
 40
1.0
 10
137.2033619452
 20
840.8495908135
 30
0.0
 10
137.6009844022
 20
840.8495908135
 30
0.0
 10
138.0022745032
 20
840.988670639
 30
0.0
 10
138.3481641389
 20
841.1847929941
 30
0.0
  0
SPLINE
  5
81B
100
AcDbEntity
  8
00_COMPONENTS_51
100
AcDbSpline
 62
7
  6
CONTINUOUS
 70
0
 71
3
 72
9
 73
5
 74
0
 42
0.0000001
 43
0.0000001
 44
0.0000000001
 40
0.0
 40
0.0
 40
0.0
 40
0.0
 40
0.2284740398
 40
1.0
 40
1.0
 40
1.0
 40
1.0
 10
138.3481641389
 20
841.1847929941
 30
0.0
 10
138.4828643558
 20
841.2611691588
 30
0.0
 10
139.049293557
 20
841.6365258366
 30
0.0
 10
139.5385191332
 20
842.1126678625
 30
0.0
 10
139.9066256116
 20
842.484040808
 30
0.0
  0
SPLINE
  5
81C
100
AcDbEntity
  8
00_COMPONENTS_51
100
AcDbSpline
 62
7
  6
CONTINUOUS
 70
0
 71
3
 72
8
 73
4
 74
0
 42
0.0000001
 43
0.0000001
 44
0.0000000001
 40
0.0
 40
0.0
 40
0.0
 40
0.0
 40
1.0
 40
1.0
 40
1.0
 40
1.0
 10
139.9066256116
 20
842.484040808
 30
0.0
 10
140.0267356371
 20
842.6052166539
 30
0.0
 10
140.1458171436
 20
842.7274090974
 30
0.0
 10
140.2648955216
 20
842.8495988831
 30
0.0
  0
ENDSEC
  0
SECTION
  2
OBJECTS
  0
DICTIONARY
  5
C
100
AcDbDictionary
280
0
281
1
  3
ACAD_GROUP
350
D
  3
ACAD_MLINESTYLE
350
17
  3
ACAD_LAYOUT
350
1A
  3
ACAD_PLOTSETTINGS
350
19
  3
ACAD_PLOTSTYLENAME
350
E
  0
DICTIONARY
  5
D
102
{ACAD_REACTORS
330
C
102
}
100
AcDbDictionary
280
0
281
1
  0
ACDBDICTIONARYWDFLT
  5
E
102
{ACAD_REACTORS
330
C
102
}
100
AcDbDictionary
281
1
  3
Normal
350
F
100
AcDbDictionaryWithDefault
340
F
  0
DICTIONARY
  5
17
102
{ACAD_REACTORS
330
C
102
}
100
AcDbDictionary
280
0
281
1
  3
Standard
350
18
  0
DICTIONARY
  5
19
102
{ACAD_REACTORS
330
C
102
}
100
AcDbDictionary
281
1
  0
DICTIONARY
  5
1A
102
{ACAD_REACTORS
330
C
102
}
100
AcDbDictionary
281
1
  3
Model
350
81D
  3
Layout1
350
81E
  0
ACDBPLACEHOLDER
  5
F
102
{ACAD_REACTORS
330
E
102
}
  0
MLINESTYLE
  5
18
102
{ACAD_REACTORS
330
17
102
}
100
AcDbMlineStyle
  2
STANDARD
 70
0
  3

 62
256
 51
90.0
 52
90.0
 71
2
 49
0.5
 62
256
  6
BYLAYER
 49
-0.5
 62
256
  6
BYLAYER
  0
LAYOUT
  5
81D
102
{ACAD_REACTORS
330
1A
102
}
100
AcDbPlotSettings
  1

  2
none_device
  4

  6

 40
0.0
 41
0.0
 42
0.0
 43
0.0
 44
210.0
 45
297.0
 46
0.0
 47
0.0
 48
0.0
 49
0.0
140
0.0
141
0.0
142
1.0
143
1.0
 70
1024
 72
1
 73
0
 74
0
  7

 75
0
147
1.0
148
0.0
149
0.0
100
AcDbLayout
  1
Model
 70
0
 71
0
 10
0.0
 20
0.0
 11
210.0
 21
297.0
 12
0.0
 22
0.0
 32
0.0
 14
0.0
 24
0.0
 34
0.0
 15
0.0
 25
0.0
 35
0.0
146
0.0
 13
0.0
 23
0.0
 33
0.0
 16
1.0
 26
0.0
 36
0.0
 17
0.0
 27
1.0
 37
0.0
 76
0
330
240
345
0
346
0
  0
LAYOUT
  5
81E
102
{ACAD_REACTORS
330
1A
102
}
100
AcDbPlotSettings
  1

  2
none_device
  4

  6

 40
0.0
 41
0.0
 42
0.0
 43
0.0
 44
210.0
 45
297.0
 46
0.0
 47
0.0
 48
0.0
 49
0.0
140
0.0
141
0.0
142
1.0
143
1.0
 70
0
 72
1
 73
0
 74
0
  7

 75
0
147
1.0
148
0.0
149
0.0
100
AcDbLayout
  1
Layout1
 70
0
 71
1
 10
0.0
 20
0.0
 11
210.0
 21
297.0
 12
0.0
 22
0.0
 32
0.0
 14
0.0
 24
0.0
 34
0.0
 15
0.0
 25
0.0
 35
0.0
146
0.0
 13
0.0
 23
0.0
 33
0.0
 16
1.0
 26
0.0
 36
0.0
 17
0.0
 27
1.0
 37
0.0
 76
0
330
241
345
0
346
0
  0
ENDSEC
  0
EOF
