999
DXF file: C:\Users\sesa63760\Dev\_Creo\CAD\MCADPD0004654_3D-CAD\drw0001_1.dxf
999
Pro/ENGINEER 2019471 by Parametric Technology Corporation
  0
SECTION
  2
HEADER
  9
$ACADVER
  1
AC1024
  9
$DWGCODEPAGE
  3
ANSI_1252
  9
$EXTMAX
 10
97.9701543342
 20
138.5577897012
 30
0.0
  9
$EXTMIN
 10
0.0
 20
0.0
 30
0.0
  9
$LIMMIN
 10
0.0
 20
0.0
  9
$LIMMAX
 10
97.9701543342
 20
138.5577897012
  9
$VIEWCTR
 10
48.9850771671
 20
69.2788948506
  9
$VIEWSIZE
 40
138.5577897012
  9
$CLAYER
  8
0
  9
$LTSCALE
 40
9.0319151805
  9
$CELTYPE
  6
BYLAYER
  9
$DIMSCALE
 40
1.0
  9
$DIMASZ
 40
1.1663113611
  9
$DIMEXO
 40
1.0
  9
$DIMDLI
 40
6.2402323065
  9
$DIMEXE
 40
1.0
  9
$DIMCEN
 40
1.4779497568
  9
$DIMLFAC
 40
1.0
  9
$DIMBLK
  1
_FILLED
  9
$DIMALT
 70
0
  9
$DIMALTF
 40
0.0393700787
  9
$DIMTXT
 40
1.6328359056
  9
$DIMTOL
 70
1
  9
$DIMLIM
 70
0
  9
$DIMTFAC
 40
1.0
  9
$DIMTP
 40
0.01
  9
$DIMTM
 40
0.01
  9
$DIMGAP
 40
0.625
  9
$DIMDSEP
 70
46
  9
$AUNITS
 70
0
  9
$PDMODE
 70
3
  9
$PDSIZE
 40
0.3125
  9
$HANDSEED
  5
3B0
  9
$TILEMODE
 70
1
  9
$MEASUREMENT
 70
1
  9
$INSUNITS
 70
4
  0
ENDSEC
  0
SECTION
  2
CLASSES
  0
CLASS
  1
ACDBDICTIONARYWDFLT
  2
AcDbDictionaryWithDefault
  3
AutoCAD 2000
 90
0
 91
1
280
0
281
0
  0
CLASS
  1
ACDBPLACEHOLDER
  2
AcDbPlaceHolder
  3
AutoCAD 2000
 90
0
 91
1
280
0
281
0
  0
CLASS
  1
LAYOUT
  2
AcDbLayout
  3
AutoCAD 2000
 90
0
 91
0
280
0
281
0
  0
ENDSEC
  0
SECTION
  2
TABLES
  0
TABLE
  2
VPORT
  5
8
100
AcDbSymbolTable
 70
2
  0
VPORT
  5
1F4
100
AcDbSymbolTableRecord
100
AcDbViewportTableRecord
  2
*ACTIVE
 70
0
 10
0.0
 20
0.0
 11
1.0
 21
1.0
 12
48.9850771671
 22
69.2788948506
 13
0.0
 23
0.0
 14
1.0
 24
1.0
 15
0.0
 25
0.0
 16
0.0
 26
0.0
 36
1.0
 17
0.0
 27
0.0
 37
0.0
 40
138.5577897012
 41
0.7070707071
 42
50.0
 43
0.0
 44
0.0
 50
0.0
 51
0.0
 71
0
 72
100
 73
1
 74
1
 75
0
 76
0
 77
0
 78
0
  0
ENDTAB
  0
TABLE
  2
LTYPE
  5
5
100
AcDbSymbolTable
 70
6
  0
LTYPE
  5
14
100
AcDbSymbolTableRecord
100
AcDbLinetypeTableRecord
  2
BYBLOCK
 70
0
  3

 72
65
 73
0
 40
0.0
  0
LTYPE
  5
15
100
AcDbSymbolTableRecord
100
AcDbLinetypeTableRecord
  2
BYLAYER
 70
0
  3

 72
65
 73
0
 40
0.0
  0
LTYPE
  5
16
100
AcDbSymbolTableRecord
100
AcDbLinetypeTableRecord
  2
CONTINUOUS
 70
64
  3
Solid line
 72
65
 73
0
 40
0.0
  0
LTYPE
  5
1F5
100
AcDbSymbolTableRecord
100
AcDbLinetypeTableRecord
  2
CENTER
 70
64
  3
____ _ ____ _ ____ _ ____ _ ____ _ ____ _ ____
 72
65
 73
4
 40
0.6
 49
0.375
 74
0
 49
-0.075
 74
0
 49
0.075
 74
0
 49
-0.075
 74
0
  0
LTYPE
  5
1F6
100
AcDbSymbolTableRecord
100
AcDbLinetypeTableRecord
  2
HIDDEN
 70
64
  3
- - - - - - - - - - - - - - - - - - - -
 72
65
 73
2
 40
0.2
 49
0.1
 74
0
 49
-0.1
 74
0
  0
LTYPE
  5
1F7
100
AcDbSymbolTableRecord
100
AcDbLinetypeTableRecord
  2
PHANTOM
 70
64
  3
_____ _ _ _____ _ _ _____ _ _ _____
 72
65
 73
6
 40
0.8
 49
0.45
 74
0
 49
-0.05
 74
0
 49
0.1
 74
0
 49
-0.05
 74
0
 49
0.1
 74
0
 49
-0.05
 74
0
  0
LTYPE
  5
1F8
100
AcDbSymbolTableRecord
100
AcDbLinetypeTableRecord
  2
DOT
 70
64
  3
. . . . . . . . . . . . . . . . . . . .
 72
65
 73
2
 40
0.2
 49
0.1
 74
0
 49
-0.1
 74
0
  0
LTYPE
  5
1F9
100
AcDbSymbolTableRecord
100
AcDbLinetypeTableRecord
  2
DASHED
 70
64
  3
- - - - - - - - - - - - - - - - - - - -
 72
65
 73
2
 40
0.2
 49
0.1
 74
0
 49
-0.1
 74
0
  0
ENDTAB
  0
TABLE
  2
LAYER
  5
2
100
AcDbSymbolTable
 70
36
  0
LAYER
  5
10
100
AcDbSymbolTableRecord
100
AcDbLayerTableRecord
  2
0
 70
0
 62
7
  6
CONTINUOUS
370
-3
390
F
  0
LAYER
  5
1FA
100
AcDbSymbolTableRecord
100
AcDbLayerTableRecord
  2
DEFAULT_1
 70
0
 62
7
  6
CENTER
370
-3
390
F
  0
LAYER
  5
1FB
100
AcDbSymbolTableRecord
100
AcDbLayerTableRecord
  2
DEFAULT_2
 70
0
 62
7
  6
HIDDEN
370
-3
390
F
  0
LAYER
  5
1FC
100
AcDbSymbolTableRecord
100
AcDbLayerTableRecord
  2
DEFAULT_3
 70
0
 62
7
  6
PHANTOM
370
-3
390
F
  0
LAYER
  5
1FD
100
AcDbSymbolTableRecord
100
AcDbLayerTableRecord
  2
00_COMPONENTS
 70
0
 62
7
  6
CONTINUOUS
370
-3
390
F
  0
LAYER
  5
1FE
100
AcDbSymbolTableRecord
100
AcDbLayerTableRecord
  2
01_1_DEFAULT_DATUMS
 70
0
 62
7
  6
CONTINUOUS
370
-3
390
F
  0
LAYER
  5
1FF
100
AcDbSymbolTableRecord
100
AcDbLayerTableRecord
  2
01_PLANES
 70
0
 62
7
  6
CONTINUOUS
370
-3
390
F
  0
LAYER
  5
200
100
AcDbSymbolTableRecord
100
AcDbLayerTableRecord
  2
02_COORD_SYS
 70
0
 62
7
  6
CONTINUOUS
370
-3
390
F
  0
LAYER
  5
201
100
AcDbSymbolTableRecord
100
AcDbLayerTableRecord
  2
03_AXES
 70
0
 62
7
  6
CONTINUOUS
370
-3
390
F
  0
LAYER
  5
202
100
AcDbSymbolTableRecord
100
AcDbLayerTableRecord
  2
04_POINTS
 70
0
 62
7
  6
CONTINUOUS
370
-3
390
F
  0
LAYER
  5
203
100
AcDbSymbolTableRecord
100
AcDbLayerTableRecord
  2
05_CURVES
 70
0
 62
7
  6
CONTINUOUS
370
-3
390
F
  0
LAYER
  5
204
100
AcDbSymbolTableRecord
100
AcDbLayerTableRecord
  2
06_SURFS
 70
0
 62
7
  6
CONTINUOUS
370
-3
390
F
  0
LAYER
  5
205
100
AcDbSymbolTableRecord
100
AcDbLayerTableRecord
  2
07_COSMETICS
 70
0
 62
7
  6
CONTINUOUS
370
-3
390
F
  0
LAYER
  5
206
100
AcDbSymbolTableRecord
100
AcDbLayerTableRecord
  2
10_NOTES
 70
0
 62
7
  6
CONTINUOUS
370
-3
390
F
  0
LAYER
  5
207
100
AcDbSymbolTableRecord
100
AcDbLayerTableRecord
  2
11_NOTES_PUB
 70
0
 62
7
  6
CONTINUOUS
370
-3
390
F
  0
LAYER
  5
208
100
AcDbSymbolTableRecord
100
AcDbLayerTableRecord
  2
13_REF_GTOL
 70
0
 62
7
  6
CONTINUOUS
370
-3
390
F
  0
LAYER
  5
209
100
AcDbSymbolTableRecord
100
AcDbLayerTableRecord
  2
16_MISC
 70
0
 62
7
  6
CONTINUOUS
370
-3
390
F
  0
LAYER
  5
20A
100
AcDbSymbolTableRecord
100
AcDbLayerTableRecord
  2
17_NO_PRINT
 70
0
 62
7
  6
CONTINUOUS
370
-3
390
F
  0
LAYER
  5
20B
100
AcDbSymbolTableRecord
100
AcDbLayerTableRecord
  2
18_DATUM_CAMS_JOINTS
 70
0
 62
7
  6
CONTINUOUS
370
-3
390
F
  0
LAYER
  5
20C
100
AcDbSymbolTableRecord
100
AcDbLayerTableRecord
  2
19_DATUM_FUNCTIONAL
 70
0
 62
7
  6
CONTINUOUS
370
-3
390
F
  0
LAYER
  5
20D
100
AcDbSymbolTableRecord
100
AcDbLayerTableRecord
  2
20_DATUM_KINEMATIC_SCHEME
 70
0
 62
7
  6
CONTINUOUS
370
-3
390
F
  0
ENDTAB
  0
TABLE
  2
STYLE
  5
3
100
AcDbSymbolTable
 70
1
  0
STYLE
  5
11
100
AcDbSymbolTableRecord
100
AcDbTextStyleTableRecord
  2
STANDARD
 70
0
 40
0.0
 41
1.0
 50
0.0
 71
0
 42
0.2
  3
ARIAL.TTF
  4

  0
STYLE
  5
20E
100
AcDbSymbolTableRecord
100
AcDbTextStyleTableRecord
  2
TEXTSTYLE_1
 70
0
 40
0.0
 41
0.8
 50
0.0
 71
0
 42
0.2
  3
gdt
  4

  0
ENDTAB
  0
TABLE
  2
VIEW
  5
6
100
AcDbSymbolTable
 70
0
  0
ENDTAB
  0
TABLE
  2
UCS
  5
7
100
AcDbSymbolTable
 70
0
  0
ENDTAB
  0
TABLE
  2
APPID
  5
9
100
AcDbSymbolTable
 70
1
  0
APPID
  5
20F
100
AcDbSymbolTableRecord
100
AcDbRegAppTableRecord
  2
ACAD
 70
0
  0
ENDTAB
  0
TABLE
  2
BLOCK_RECORD
  5
1
100
AcDbSymbolTable
 70
0
  0
BLOCK_RECORD
  5
210
100
AcDbSymbolTableRecord
100
AcDbBlockTableRecord
  2
*Model_Space
  0
BLOCK_RECORD
  5
211
100
AcDbSymbolTableRecord
100
AcDbBlockTableRecord
  2
*Paper_Space
  0
BLOCK_RECORD
  5
212
100
AcDbSymbolTableRecord
100
AcDbBlockTableRecord
  2
_FILLED
  0
ENDTAB
  0
TABLE
  2
DIMSTYLE
  5
A
100
AcDbSymbolTable
 70
1
100
AcDbDimStyleTable
 71
0
  0
DIMSTYLE
105
213
100
AcDbSymbolTableRecord
100
AcDbDimStyleTableRecord
  2
STANDARD
 70
0
  3

  4

 40
1.0
 41
1.1663113611
 42
1.0
 43
0.38
 44
1.0
 45
0.0
 46
0.0
 47
0.01
 48
0.01
140
1.6328359056
141
0.09
142
0.0
143
25.4
144
1.0
145
0.0
146
1.0
147
0.625
 71
1
 72
0
 73
0
 74
0
 75
0
 76
0
 77
1
 78
8
 79
2
170
0
171
1
172
0
173
0
174
0
175
0
176
0
177
0
178
0
270
2
179
2
271
2
272
2
273
2
274
2
275
0
280
0
281
0
282
0
283
1
284
8
285
0
286
0
287
3
288
0
340
11
278
46
341
212
342
212
343
212
344
212
  0
ENDTAB
  0
ENDSEC
  0
SECTION
  2
BLOCKS
  0
BLOCK
  5
20
100
AcDbEntity
  8
0
100
AcDbBlockBegin
  2
*Model_Space
 70
0
 10
0.0
 20
0.0
 30
0.0
  3
*Model_Space
  1

  0
ENDBLK
  5
21
100
AcDbEntity
  8
0
100
AcDbBlockEnd
  0
BLOCK
  5
1C
100
AcDbEntity
  8
0
100
AcDbBlockBegin
  2
*Paper_Space
 70
0
 10
0.0
 20
0.0
 30
0.0
  3
*Paper_Space
  1

  0
ENDBLK
  5
1D
100
AcDbEntity
  8
0
100
AcDbBlockEnd
  0
BLOCK
  5
214
100
AcDbEntity
  8
0
100
AcDbBlockBegin
  2
_FILLED
 70
64
 10
0.0
 20
0.0
  3
_FILLED
  1

  0
SOLID
  5
215
100
AcDbEntity
  8
0
  6
BYBLOCK
 62
0
100
AcDbTrace
 10
0.0
 20
0.0
 11
-1.0
 21
0.25
 12
-1.0
 22
-0.25
 13
-1.0
 23
-0.25
  0
ENDBLK
  5
216
100
AcDbEntity
  8
0
  6
BYBLOCK
 62
0
100
AcDbBlockEnd
  0
ENDSEC
  0
SECTION
  2
ENTITIES
  0
LINE
  5
217
100
AcDbEntity
  8
0
100
AcDbLine
 62
7
  6
BYLAYER
 10
11.3641267086
 20
63.5004069385
 11
11.3641267086
 21
83.4843035978
  0
LINE
  5
218
100
AcDbEntity
  8
0
100
AcDbLine
 62
7
  6
BYLAYER
 10
11.6760919057
 20
62.9103672579
 11
11.6760919057
 21
82.8942639171
  0
LINE
  5
219
100
AcDbEntity
  8
0
100
AcDbLine
 62
7
  6
BYLAYER
 10
14.5334086595
 20
56.1238462017
 11
14.3887316414
 21
56.3889023852
  0
LINE
  5
21A
100
AcDbEntity
  8
0
100
AcDbLine
 62
7
  6
BYLAYER
 10
14.3886199365
 20
56.388902273
 11
14.3886199365
 21
60.7341647813
  0
LINE
  5
21B
100
AcDbEntity
  8
0
100
AcDbLine
 62
7
  6
BYLAYER
 10
14.5341064343
 20
56.1233173681
 11
14.5341064343
 21
60.6174441159
  0
LINE
  5
21C
100
AcDbEntity
  8
0
100
AcDbLine
 62
7
  6
BYLAYER
 10
18.6459423323
 20
81.1369194655
 11
19.8550744125
 21
83.2312092871
  0
LINE
  5
21D
100
AcDbEntity
  8
0
100
AcDbLine
 62
7
  6
BYLAYER
 10
39.3145475777
 20
102.7535152743
 11
37.3232168874
 21
101.6038268268
  0
LINE
  5
21E
100
AcDbEntity
  8
0
100
AcDbLine
 62
7
  6
BYLAYER
 10
40.728767028
 20
101.9370337652
 11
38.7374363377
 21
100.7873453178
  0
LINE
  5
21F
100
AcDbEntity
  8
0
100
AcDbLine
 62
7
  6
BYLAYER
 10
18.1209638839
 20
68.6948308435
 11
18.1209638839
 21
67.6333777012
  0
LINE
  5
220
100
AcDbEntity
  8
0
100
AcDbLine
 62
7
  6
BYLAYER
 10
19.3462519195
 20
68.3726589279
 11
19.3462519195
 21
69.0161874892
  0
LINE
  5
221
100
AcDbEntity
  8
0
100
AcDbLine
 62
7
  6
BYLAYER
 10
19.8187287962
 20
69.2889705129
 11
19.8187287962
 21
68.2275173706
  0
LINE
  5
222
100
AcDbEntity
  8
0
100
AcDbLine
 62
7
  6
BYLAYER
 10
21.1848136868
 20
66.8933525547
 11
21.1848136868
 21
67.954805697
  0
LINE
  5
223
100
AcDbEntity
  8
0
100
AcDbLine
 62
7
  6
BYLAYER
 10
11.9001159116
 20
84.2313841786
 11
32.9178524142
 21
96.3659075728
  0
LINE
  5
224
100
AcDbEntity
  8
0
100
AcDbLine
 62
7
  6
BYLAYER
 10
35.2178524142
 20
97.6938052655
 11
36.473901207
 21
98.4189810453
  0
LINE
  5
225
100
AcDbEntity
  8
0
100
AcDbLine
 62
7
  6
BYLAYER
 10
40.728767028
 20
100.875514309
 11
43.260171092
 21
102.3370124027
  0
LINE
  5
226
100
AcDbEntity
  8
0
100
AcDbLine
 62
7
  6
BYLAYER
 10
39.6681112722
 20
97.6504066573
 11
40.728767028
 21
98.2627728881
  0
LINE
  5
227
100
AcDbEntity
  8
0
100
AcDbLine
 62
7
  6
BYLAYER
 10
56.447657656
 20
106.5418682809
 11
46.3563035161
 21
100.7156570296
  0
LINE
  5
228
100
AcDbEntity
  8
0
100
AcDbLine
 62
7
  6
BYLAYER
 10
37.193247842
 20
94.9967984931
 11
39.6681112722
 21
96.4256530316
  0
LINE
  5
229
100
AcDbEntity
  8
0
100
AcDbLine
 62
7
  6
BYLAYER
 10
45.2768769396
 20
38.3745625041
 11
44.7420766715
 21
38.5927611848
  0
LINE
  5
22A
100
AcDbEntity
  8
0
100
AcDbLine
 62
7
  6
BYLAYER
 10
37.8506556307
 20
40.7100103576
 11
40.6018482294
 21
39.1216445038
  0
LINE
  5
22B
100
AcDbEntity
  8
0
100
AcDbLine
 62
7
  6
BYLAYER
 10
35.3337118763
 20
44.4557543504
 11
43.8473155815
 21
39.5405339727
  0
LINE
  5
22C
100
AcDbEntity
  8
0
100
AcDbLine
 62
7
  6
BYLAYER
 10
57.1053554331
 20
31.9470786418
 11
57.3176591552
 21
31.8245078036
  0
LINE
  5
22D
100
AcDbEntity
  8
0
100
AcDbLine
 62
7
  6
BYLAYER
 10
47.1671835417
 20
38.2770193371
 11
46.6050215348
 21
38.6015763806
  0
LINE
  5
22E
100
AcDbEntity
  8
0
100
AcDbLine
 62
7
  6
BYLAYER
 10
21.5500429587
 20
68.1656696567
 11
21.5500429587
 21
67.1042165144
  0
LINE
  5
22F
100
AcDbEntity
  8
0
100
AcDbLine
 62
7
  6
BYLAYER
 10
34.0972462384
 20
90.1075642497
 11
42.8173885663
 21
96.6364602611
  0
LINE
  5
230
100
AcDbEntity
  8
0
100
AcDbLine
 62
7
  6
BYLAYER
 10
44.9281878076
 20
98.2168460196
 11
47.0782857164
 21
99.8266552558
  0
LINE
  5
231
100
AcDbEntity
  8
0
100
AcDbLine
 62
7
  6
BYLAYER
 10
19.8550744125
 20
83.2312092871
 11
17.4367792893
 21
81.8350142809
  0
LINE
  5
232
100
AcDbEntity
  8
0
100
AcDbLine
 62
7
  6
BYLAYER
 10
63.8200707675
 20
106.6462817767
 11
64.527481387
 21
107.0547030503
  0
LINE
  5
233
100
AcDbEntity
  8
0
100
AcDbLine
 62
7
  6
BYLAYER
 10
25.4586016301
 20
53.3020155376
 11
24.6229919674
 21
53.7844440873
  0
LINE
  5
234
100
AcDbEntity
  8
0
100
AcDbLine
 62
7
  6
BYLAYER
 10
49.9248885077
 20
39.2159696039
 11
49.3591909522
 21
39.5425678512
  0
LINE
  5
235
100
AcDbEntity
  8
0
100
AcDbLine
 62
7
  6
BYLAYER
 10
47.0782857164
 20
96.4177576643
 11
45.1173885663
 21
94.949605758
  0
LINE
  5
236
100
AcDbEntity
  8
0
100
AcDbLine
 62
7
  6
BYLAYER
 10
42.8173885663
 20
93.2275626695
 11
36.1306596526
 21
88.2211125346
  0
LINE
  5
237
100
AcDbEntity
  8
0
100
AcDbLine
 62
7
  6
BYLAYER
 10
65.0991280123
 20
106.3604519356
 11
65.8065650357
 21
106.7688884535
  0
LINE
  5
238
100
AcDbEntity
  8
0
100
AcDbLine
 62
7
  6
BYLAYER
 10
66.4367713581
 20
106.2822202628
 11
66.6394690583
 21
106.399247136
  0
LINE
  5
239
100
AcDbEntity
  8
0
100
AcDbLine
 62
7
  6
BYLAYER
 10
67.044667211
 20
105.8251361403
 11
67.7517710482
 21
106.2333802942
  0
LINE
  5
23A
100
AcDbEntity
  8
0
100
AcDbLine
 62
7
  6
BYLAYER
 10
43.9559416046
 20
45.4957112951
 11
43.6429630672
 21
45.5078829982
  0
LINE
  5
23B
100
AcDbEntity
  8
0
100
AcDbLine
 62
7
  6
BYLAYER
 10
31.0103813134
 20
45.1112019754
 11
31.0103813134
 21
48.2440806937
  0
LINE
  5
23C
100
AcDbEntity
  8
0
100
AcDbLine
 62
7
  6
BYLAYER
 10
32.0896821802
 20
52.5048640387
 11
32.0896821802
 21
48.5856524364
  0
LINE
  5
23D
100
AcDbEntity
  8
0
100
AcDbLine
 62
7
  6
BYLAYER
 10
32.1337850757
 20
52.3755619761
 11
32.1337850757
 21
48.4563503739
  0
LINE
  5
23E
100
AcDbEntity
  8
0
100
AcDbLine
 62
7
  6
BYLAYER
 10
35.7790283917
 20
95.8132800021
 11
37.3232168874
 21
101.6038268268
  0
LINE
  5
23F
100
AcDbEntity
  8
0
100
AcDbLine
 62
7
  6
BYLAYER
 10
38.7374363377
 20
100.7873453178
 11
37.193247842
 21
94.9967984931
  0
LINE
  5
240
100
AcDbEntity
  8
0
100
AcDbLine
 62
7
  6
BYLAYER
 10
52.5136492844
 20
96.4631409895
 11
45.1173885663
 21
90.6537019262
  0
LINE
  5
241
100
AcDbEntity
  8
0
100
AcDbLine
 62
7
  6
BYLAYER
 10
39.8449625971
 20
86.0767072427
 11
42.8173885663
 21
87.7928279323
  0
LINE
  5
242
100
AcDbEntity
  8
0
100
AcDbLine
 62
7
  6
BYLAYER
 10
45.1173885663
 20
89.120725625
 11
45.2189517599
 21
89.1793628121
  0
LINE
  5
243
100
AcDbEntity
  8
0
100
AcDbLine
 62
7
  6
BYLAYER
 10
32.3080251799
 20
62.3903322665
 11
32.3080251799
 21
59.9408250151
  0
LINE
  5
244
100
AcDbEntity
  8
0
100
AcDbLine
 62
7
  6
BYLAYER
 10
32.3624069865
 20
62.2569561594
 11
32.3624069865
 21
59.807448908
  0
LINE
  5
245
100
AcDbEntity
  8
0
100
AcDbLine
 62
7
  6
BYLAYER
 10
32.4323574933
 20
44.9034746179
 11
32.4323574933
 21
47.4819339441
  0
LINE
  5
246
100
AcDbEntity
  8
0
100
AcDbLine
 62
7
  6
BYLAYER
 10
32.9178524142
 20
103.5946106325
 11
32.9178524142
 21
92.7024683879
  0
LINE
  5
247
100
AcDbEntity
  8
0
100
AcDbLine
 62
7
  6
BYLAYER
 10
33.9047047783
 20
51.3531438208
 11
33.9047047783
 21
47.4339322186
  0
LINE
  5
248
100
AcDbEntity
  8
0
100
AcDbLine
 62
7
  6
BYLAYER
 10
34.0972462384
 20
89.4362337841
 11
34.0972462384
 21
90.1075642497
  0
LINE
  5
249
100
AcDbEntity
  8
0
100
AcDbLine
 62
7
  6
BYLAYER
 10
34.0985973781
 20
61.2545888461
 11
34.0985973781
 21
58.8050815947
  0
LINE
  5
24A
100
AcDbEntity
  8
0
100
AcDbLine
 62
7
  6
BYLAYER
 10
34.4610912019
 20
47.4676011326
 11
34.4610912019
 21
51.3868127348
  0
LINE
  5
24B
100
AcDbEntity
  8
0
100
AcDbLine
 62
7
  6
BYLAYER
 10
34.6532761967
 20
58.8392731811
 11
34.6532761967
 21
61.2887804325
  0
LINE
  5
24C
100
AcDbEntity
  8
0
100
AcDbLine
 62
7
  6
BYLAYER
 10
35.2178524142
 20
103.5946106325
 11
35.2178524142
 21
92.7024683879
  0
LINE
  5
24D
100
AcDbEntity
  8
0
100
AcDbLine
 62
7
  6
BYLAYER
 10
35.3337118763
 20
44.4557543504
 11
35.3337118763
 21
47.3759371817
  0
LINE
  5
24E
100
AcDbEntity
  8
0
100
AcDbLine
 62
7
  6
BYLAYER
 10
35.8357436026
 20
73.94778155
 11
35.8357436026
 21
75.4746410701
  0
LINE
  5
24F
100
AcDbEntity
  8
0
100
AcDbLine
 62
7
  6
BYLAYER
 10
35.3214728931
 20
71.5095152083
 11
35.8357436026
 21
72.8863284078
  0
LINE
  5
250
100
AcDbEntity
  8
0
100
AcDbLine
 62
7
  6
BYLAYER
 10
34.5629566956
 20
74.7398015931
 11
33.3538246154
 21
72.6455117715
  0
LINE
  5
251
100
AcDbEntity
  8
0
100
AcDbLine
 62
7
  6
BYLAYER
 10
43.9967823906
 20
84.3921936865
 11
52.7169247184
 21
90.910280283
  0
LINE
  5
252
100
AcDbEntity
  8
0
100
AcDbLine
 62
7
  6
BYLAYER
 10
54.8378224997
 20
92.4955979168
 11
56.9913052604
 21
94.1052720013
  0
LINE
  5
253
100
AcDbEntity
  8
0
100
AcDbLine
 62
7
  6
BYLAYER
 10
19.1645743895
 20
69.7277848041
 11
18.6392222436
 21
69.4244744118
  0
LINE
  5
254
100
AcDbEntity
  8
0
100
AcDbLine
 62
7
  6
BYLAYER
 10
19.3460711256
 20
69.0160831084
 11
19.8187287962
 21
69.2889705129
  0
LINE
  5
255
100
AcDbEntity
  8
0
100
AcDbLine
 62
7
  6
BYLAYER
 10
76.726509662
 20
101.0423570268
 11
76.0194058248
 21
100.634112873
  0
LINE
  5
256
100
AcDbEntity
  8
0
100
AcDbLine
 62
7
  6
BYLAYER
 10
42.7450565508
 20
45.6546864623
 11
42.7350542019
 21
45.6852297138
  0
LINE
  5
257
100
AcDbEntity
  8
0
100
AcDbLine
 62
7
  6
BYLAYER
 10
37.0591009522
 20
52.645422633
 11
37.0591009522
 21
48.7262110308
  0
LINE
  5
258
100
AcDbEntity
  8
0
100
AcDbLine
 62
7
  6
BYLAYER
 10
37.4833471816
 20
62.6598127597
 11
37.4833471816
 21
60.2103055083
  0
LINE
  5
259
100
AcDbEntity
  8
0
100
AcDbLine
 62
7
  6
BYLAYER
 10
37.7962230184
 20
62.84045063
 11
37.7962230184
 21
60.3909433786
  0
LINE
  5
25A
100
AcDbEntity
  8
0
100
AcDbLine
 62
7
  6
BYLAYER
 10
37.7962245122
 20
53.0709985785
 11
37.7962245122
 21
49.1517869762
  0
LINE
  5
25B
100
AcDbEntity
  8
0
100
AcDbLine
 62
7
  6
BYLAYER
 10
37.8506556307
 20
40.7100103576
 11
37.8506556307
 21
43.002629016
  0
LINE
  5
25C
100
AcDbEntity
  8
0
100
AcDbLine
 62
7
  6
BYLAYER
 10
47.2995664993
 20
100.1400501855
 11
47.2614781082
 21
100.0269051804
  0
LINE
  5
25D
100
AcDbEntity
  8
0
100
AcDbLine
 62
7
  6
BYLAYER
 10
61.5244994064
 20
101.1613741117
 11
62.4021257754
 21
102.2060214386
  0
LINE
  5
25E
100
AcDbEntity
  8
0
100
AcDbLine
 62
7
  6
BYLAYER
 10
56.9913052604
 20
90.6963744098
 11
55.0169247184
 21
89.2205747194
  0
LINE
  5
25F
100
AcDbEntity
  8
0
100
AcDbLine
 62
7
  6
BYLAYER
 10
52.7169247184
 20
87.5013826915
 11
46.0320984158
 21
82.5046435231
  0
LINE
  5
260
100
AcDbEntity
  8
0
100
AcDbLine
 62
7
  6
BYLAYER
 10
20.8789448978
 20
68.5947016183
 11
20.477446685
 21
68.3628979007
  0
LINE
  5
261
100
AcDbEntity
  8
0
100
AcDbLine
 62
7
  6
BYLAYER
 10
59.8914405795
 20
90.8737093177
 11
57.9001098891
 21
89.7240208703
  0
LINE
  5
262
100
AcDbEntity
  8
0
100
AcDbLine
 62
7
  6
BYLAYER
 10
21.1848136868
 20
67.954805697
 11
21.5500429587
 21
68.1656696567
  0
LINE
  5
263
100
AcDbEntity
  8
0
100
AcDbLine
 62
7
  6
BYLAYER
 10
76.6450703208
 20
99.7019864818
 11
77.3524835943
 21
100.1104092877
  0
LINE
  5
264
100
AcDbEntity
  8
0
100
AcDbLine
 62
7
  6
BYLAYER
 10
42.7158638798
 20
79.4550215363
 11
35.8286725053
 21
75.4787234776
  0
LINE
  5
265
100
AcDbEntity
  8
0
100
AcDbLine
 62
7
  6
BYLAYER
 10
35.8357436026
 20
75.4746410701
 11
34.5629566956
 21
74.7398015931
  0
LINE
  5
266
100
AcDbEntity
  8
0
100
AcDbLine
 62
7
  6
BYLAYER
 10
61.3056600298
 20
90.0572278087
 11
59.3143293394
 21
88.9075393613
  0
LINE
  5
267
100
AcDbEntity
  8
0
100
AcDbLine
 62
7
  6
BYLAYER
 10
21.5500429587
 20
67.1042165144
 11
21.1848136868
 21
66.8933525547
  0
LINE
  5
268
100
AcDbEntity
  8
0
100
AcDbLine
 62
7
  6
BYLAYER
 10
35.8286725053
 20
73.9518639576
 11
42.7158638798
 21
77.9281620163
  0
LINE
  5
269
100
AcDbEntity
  8
0
100
AcDbLine
 62
7
  6
BYLAYER
 10
39.6681112722
 20
96.4256530316
 11
39.6681112722
 21
97.6504066573
  0
LINE
  5
26A
100
AcDbEntity
  8
0
100
AcDbLine
 62
7
  6
BYLAYER
 10
40.6018482294
 20
41.4142631028
 11
40.6018482294
 21
39.1216445038
  0
LINE
  5
26B
100
AcDbEntity
  8
0
100
AcDbLine
 62
7
  6
BYLAYER
 10
40.728767028
 20
98.2627728881
 11
40.728767028
 21
101.9370337652
  0
LINE
  5
26C
100
AcDbEntity
  8
0
100
AcDbLine
 62
7
  6
BYLAYER
 10
41.2654980047
 20
45.827302152
 11
41.2654980047
 21
65.8111988112
  0
LINE
  5
26D
100
AcDbEntity
  8
0
100
AcDbLine
 62
7
  6
BYLAYER
 10
42.3684934551
 20
75.8169197292
 11
42.3684934551
 21
74.7554665869
  0
LINE
  5
26E
100
AcDbEntity
  8
0
100
AcDbLine
 62
7
  6
BYLAYER
 10
42.3906163103
 20
74.9398264697
 11
42.3906163103
 21
73.8783733275
  0
LINE
  5
26F
100
AcDbEntity
  8
0
100
AcDbLine
 62
7
  6
BYLAYER
 10
42.7158638798
 20
77.9281620163
 11
42.7158638798
 21
79.4550215363
  0
LINE
  5
270
100
AcDbEntity
  8
0
100
AcDbLine
 62
7
  6
BYLAYER
 10
42.7300060154
 20
79.4550215703
 11
42.7300060154
 21
76.866708908
  0
LINE
  5
271
100
AcDbEntity
  8
0
100
AcDbLine
 62
7
  6
BYLAYER
 10
42.7441711729
 20
74.7357060925
 11
42.7441711729
 21
73.6742529502
  0
LINE
  5
272
100
AcDbEntity
  8
0
100
AcDbLine
 62
7
  6
BYLAYER
 10
42.7450565508
 20
44.1444827983
 11
42.7450565508
 21
45.6546864623
  0
LINE
  5
273
100
AcDbEntity
  8
0
100
AcDbLine
 62
7
  6
BYLAYER
 10
42.8173885663
 20
97.8792400692
 11
42.8173885663
 21
86.9870978247
  0
LINE
  5
274
100
AcDbEntity
  8
0
100
AcDbLine
 62
7
  6
BYLAYER
 10
42.9209315291
 20
77.0014521382
 11
42.9209315291
 21
76.593209684
  0
LINE
  5
275
100
AcDbEntity
  8
0
100
AcDbLine
 62
7
  6
BYLAYER
 10
63.8200775328
 20
106.6462700517
 11
63.4536031687
 21
106.131049808
  0
LINE
  5
276
100
AcDbEntity
  8
0
100
AcDbLine
 62
7
  6
BYLAYER
 10
62.4131854378
 20
90.7477704272
 11
61.3056600298
 21
89.8778576951
  0
LINE
  5
277
100
AcDbEntity
  8
0
100
AcDbLine
 62
7
  6
BYLAYER
 10
57.0496714798
 20
86.5349649717
 11
55.0169247184
 21
84.9383313629
  0
LINE
  5
278
100
AcDbEntity
  8
0
100
AcDbLine
 62
7
  6
BYLAYER
 10
46.3471124193
 20
75.4683292557
 11
46.3577112795
 21
75.4746073793
  0
LINE
  5
279
100
AcDbEntity
  8
0
100
AcDbLine
 62
7
  6
BYLAYER
 10
46.3577112795
 20
75.4746073793
 11
46.6615392747
 21
75.6501767998
  0
LINE
  5
27A
100
AcDbEntity
  8
0
100
AcDbLine
 62
7
  6
BYLAYER
 10
78.2674644062
 20
97.5784565203
 11
78.9748326268
 21
97.9868533151
  0
LINE
  5
27B
100
AcDbEntity
  8
0
100
AcDbLine
 62
7
  6
BYLAYER
 10
43.2744834478
 20
77.2055742151
 11
42.9209315291
 21
77.0014521382
  0
LINE
  5
27C
100
AcDbEntity
  8
0
100
AcDbLine
 62
7
  6
BYLAYER
 10
35.8357436026
 20
72.8863284078
 11
42.7300060154
 21
76.866708908
  0
LINE
  5
27D
100
AcDbEntity
  8
0
100
AcDbLine
 62
7
  6
BYLAYER
 10
43.9745191906
 20
77.2014934732
 11
43.6635528119
 21
77.0219580225
  0
LINE
  5
27E
100
AcDbEntity
  8
0
100
AcDbLine
 62
7
  6
BYLAYER
 10
43.2744863917
 20
76.7973317609
 11
42.9209344731
 21
76.593209684
  0
LINE
  5
27F
100
AcDbEntity
  8
0
100
AcDbLine
 62
7
  6
BYLAYER
 10
49.7444987491
 20
80.3613366794
 11
52.7169247184
 21
82.077457369
  0
LINE
  5
280
100
AcDbEntity
  8
0
100
AcDbLine
 62
7
  6
BYLAYER
 10
55.0169247184
 20
83.4053550617
 11
55.118487912
 21
83.4639922488
  0
LINE
  5
281
100
AcDbEntity
  8
0
100
AcDbLine
 62
7
  6
BYLAYER
 10
60.245004274
 20
85.7706007008
 11
61.3056600298
 21
86.3829669316
  0
LINE
  5
282
100
AcDbEntity
  8
0
100
AcDbLine
 62
7
  6
BYLAYER
 10
42.7558490061
 20
75.1506924063
 11
42.3906163103
 21
74.9398264697
  0
LINE
  5
283
100
AcDbEntity
  8
0
100
AcDbLine
 62
7
  6
BYLAYER
 10
42.7441711729
 20
74.7357060925
 11
43.1094038687
 21
74.946572029
  0
LINE
  5
284
100
AcDbEntity
  8
0
100
AcDbLine
 62
7
  6
BYLAYER
 10
57.7701408438
 20
83.1169925365
 11
60.245004274
 21
84.5458470751
  0
LINE
  5
285
100
AcDbEntity
  8
0
100
AcDbLine
 62
7
  6
BYLAYER
 10
42.7441711729
 20
73.6742529502
 11
43.1094038687
 21
73.8851188867
  0
LINE
  5
286
100
AcDbEntity
  8
0
100
AcDbLine
 62
7
  6
BYLAYER
 10
45.6082127363
 20
75.0420456819
 11
45.9615033473
 21
75.2460168937
  0
LINE
  5
287
100
AcDbEntity
  8
0
100
AcDbLine
 62
7
  6
BYLAYER
 10
23.8418024613
 20
74.2289478346
 11
26.256414419
 21
72.8349025083
  0
LINE
  5
288
100
AcDbEntity
  8
0
100
AcDbLine
 62
7
  6
BYLAYER
 10
43.1094038687
 20
74.946572029
 11
43.1094038687
 21
73.8851188867
  0
LINE
  5
289
100
AcDbEntity
  8
0
100
AcDbLine
 62
7
  6
BYLAYER
 10
43.452160388
 20
45.916610825
 11
43.452160388
 21
44.5188154623
  0
LINE
  5
28A
100
AcDbEntity
  8
0
100
AcDbLine
 62
7
  6
BYLAYER
 10
43.4929021795
 20
45.2229273549
 11
43.4929021795
 21
43.712723691
  0
LINE
  5
28B
100
AcDbEntity
  8
0
100
AcDbLine
 62
7
  6
BYLAYER
 10
43.575161632
 20
45.9562983428
 11
43.575161632
 21
65.9401950021
  0
LINE
  5
28C
100
AcDbEntity
  8
0
100
AcDbLine
 62
7
  6
BYLAYER
 10
43.8473155815
 20
46.113425561
 11
43.8473155815
 21
45.8540902986
  0
LINE
  5
28D
100
AcDbEntity
  8
0
100
AcDbLine
 62
7
  6
BYLAYER
 10
43.8473155815
 20
43.3924327402
 11
43.8473155815
 21
39.5405339727
  0
LINE
  5
28E
100
AcDbEntity
  8
0
100
AcDbLine
 62
7
  6
BYLAYER
 10
43.9745191906
 20
78.7283529933
 11
43.9745191906
 21
77.2014934732
  0
LINE
  5
28F
100
AcDbEntity
  8
0
100
AcDbLine
 62
7
  6
BYLAYER
 10
43.9967823906
 20
83.7208632207
 11
43.9967823906
 21
84.3921936865
  0
LINE
  5
290
100
AcDbEntity
  8
0
100
AcDbLine
 62
7
  6
BYLAYER
 10
44.5396687515
 20
38.7767170351
 11
44.5396687515
 21
46.513153464
  0
LINE
  5
291
100
AcDbEntity
  8
0
100
AcDbLine
 62
7
  6
BYLAYER
 10
44.7420766715
 20
38.5927611848
 11
44.7420766715
 21
46.6300130335
  0
LINE
  5
292
100
AcDbEntity
  8
0
100
AcDbLine
 62
7
  6
BYLAYER
 10
45.1173885663
 20
97.8792400692
 11
45.1173885663
 21
86.9870978247
  0
LINE
  5
293
100
AcDbEntity
  8
0
100
AcDbLine
 62
7
  6
BYLAYER
 10
45.2757523876
 20
46.9381290126
 11
45.2757523876
 21
38.3750213217
  0
LINE
  5
294
100
AcDbEntity
  8
0
100
AcDbLine
 62
7
  6
BYLAYER
 10
45.6079514287
 20
73.9804416745
 11
45.6079514287
 21
75.0418948168
  0
LINE
  5
295
100
AcDbEntity
  8
0
100
AcDbLine
 62
7
  6
BYLAYER
 10
45.9615033473
 20
75.2460168937
 11
45.9615033473
 21
74.1845637515
  0
LINE
  5
296
100
AcDbEntity
  8
0
100
AcDbLine
 62
7
  6
BYLAYER
 10
46.3011376367
 20
38.4261299775
 11
46.3011376367
 21
47.5301319285
  0
LINE
  5
297
100
AcDbEntity
  8
0
100
AcDbLine
 62
7
  6
BYLAYER
 10
46.3150582099
 20
75.0418965165
 11
46.3150582099
 21
73.9804433742
  0
LINE
  5
298
100
AcDbEntity
  8
0
100
AcDbLine
 62
7
  6
BYLAYER
 10
46.3471124193
 20
75.4504225183
 11
46.3471124193
 21
75.4683292557
  0
LINE
  5
299
100
AcDbEntity
  8
0
100
AcDbLine
 62
7
  6
BYLAYER
 10
46.3577112795
 20
75.4746073793
 11
46.3577112795
 21
75.4204497681
  0
LINE
  5
29A
100
AcDbEntity
  8
0
100
AcDbLine
 62
7
  6
BYLAYER
 10
46.337681263
 20
75.4504225183
 11
46.3471124193
 21
75.4683292557
  0
LINE
  5
29B
100
AcDbEntity
  8
0
100
AcDbLine
 62
7
  6
BYLAYER
 10
53.8963185427
 20
78.6768231233
 11
66.8908414125
 21
88.3899014381
  0
LINE
  5
29C
100
AcDbEntity
  8
0
100
AcDbLine
 62
7
  6
BYLAYER
 10
34.7456697428
 20
64.1762671435
 11
32.421624581
 21
62.5771956948
  0
LINE
  5
29D
100
AcDbEntity
  8
0
100
AcDbLine
 62
7
  6
BYLAYER
 10
46.3150582099
 20
75.0418965165
 11
46.6686101285
 21
75.2460185934
  0
LINE
  5
29E
100
AcDbEntity
  8
0
100
AcDbLine
 62
7
  6
BYLAYER
 10
45.6079514287
 20
73.9804416745
 11
45.9615033473
 21
74.1845637515
  0
LINE
  5
29F
100
AcDbEntity
  8
0
100
AcDbLine
 62
7
  6
BYLAYER
 10
46.3150582099
 20
73.9804433742
 11
46.6686101285
 21
74.1845654511
  0
LINE
  5
2A0
100
AcDbEntity
  8
0
100
AcDbLine
 62
7
  6
BYLAYER
 10
18.7033317837
 20
57.2081835436
 11
18.9847735311
 21
57.3706730423
  0
LINE
  5
2A1
100
AcDbEntity
  8
0
100
AcDbLine
 62
7
  6
BYLAYER
 10
19.0112210118
 20
57.3520309213
 11
18.7297461657
 21
57.1895223132
  0
LINE
  5
2A2
100
AcDbEntity
  8
0
100
AcDbLine
 62
7
  6
BYLAYER
 10
78.7828892608
 20
91.1974634973
 11
80.1970969352
 21
92.013951805
  0
LINE
  5
2A3
100
AcDbEntity
  8
0
100
AcDbLine
 62
7
  6
BYLAYER
 10
19.5814529073
 20
56.8516385794
 11
19.4511774124
 21
56.7764244363
  0
LINE
  5
2A4
100
AcDbEntity
  8
0
100
AcDbLine
 62
7
  6
BYLAYER
 10
17.4367792893
 20
81.8350142809
 11
43.2816397434
 21
66.9138147032
  0
LINE
  5
2A5
100
AcDbEntity
  8
0
100
AcDbLine
 62
7
  6
BYLAYER
 10
44.73114521
 20
67.750682079
 11
35.8357436026
 21
72.8863284078
  0
LINE
  5
2A6
100
AcDbEntity
  8
0
100
AcDbLine
 62
7
  6
BYLAYER
 10
46.6686071845
 20
77.1811205676
 11
46.6686101285
 21
74.1845654511
  0
LINE
  5
2A7
100
AcDbEntity
  8
0
100
AcDbLine
 62
7
  6
BYLAYER
 10
47.0782857164
 20
99.8266552558
 11
47.0782857164
 21
96.4169411619
  0
LINE
  5
2A8
100
AcDbEntity
  8
0
100
AcDbLine
 62
7
  6
BYLAYER
 10
47.1671835417
 20
38.9302212708
 11
47.1671835417
 21
38.2770193371
  0
LINE
  5
2A9
100
AcDbEntity
  8
0
100
AcDbLine
 62
7
  6
BYLAYER
 10
47.2995665052
 20
100.1397383169
 11
47.2995665052
 21
96.773133392
  0
LINE
  5
2AA
100
AcDbEntity
  8
0
100
AcDbLine
 62
7
  6
BYLAYER
 10
49.5966008072
 20
71.352771724
 11
49.5966008072
 21
70.551572527
  0
LINE
  5
2AB
100
AcDbEntity
  8
0
100
AcDbLine
 62
7
  6
BYLAYER
 10
49.9248885077
 20
39.8691715376
 11
49.9248885077
 21
39.2159696039
  0
LINE
  5
2AC
100
AcDbEntity
  8
0
100
AcDbLine
 62
7
  6
BYLAYER
 10
50.0939740685
 20
71.3232207916
 11
50.0939740685
 21
70.8387293992
  0
LINE
  5
2AD
100
AcDbEntity
  8
0
100
AcDbLine
 62
7
  6
BYLAYER
 10
49.6477852543
 20
71.6399262001
 11
49.5966008072
 21
71.352771724
  0
LINE
  5
2AE
100
AcDbEntity
  8
0
100
AcDbLine
 62
7
  6
BYLAYER
 10
57.1943483822
 20
94.4206533485
 11
57.1621952156
 21
94.3108516962
  0
LINE
  5
2AF
100
AcDbEntity
  8
0
100
AcDbLine
 62
7
  6
BYLAYER
 10
66.8908414125
 20
84.9810038466
 11
55.9316345678
 21
76.7892729598
  0
LINE
  5
2B0
100
AcDbEntity
  8
0
100
AcDbLine
 62
7
  6
BYLAYER
 10
51.2043304994
 20
72.6273784578
 11
50.8507785808
 21
72.4232563809
  0
LINE
  5
2B1
100
AcDbEntity
  8
0
100
AcDbLine
 62
7
  6
BYLAYER
 10
43.2816397434
 20
66.9138147032
 11
46.9727217737
 21
69.0448491864
  0
LINE
  5
2B2
100
AcDbEntity
  8
0
100
AcDbLine
 62
7
  6
BYLAYER
 10
46.9797928709
 20
69.0407667788
 11
53.8669842454
 21
73.0170648375
  0
LINE
  5
2B3
100
AcDbEntity
  8
0
100
AcDbLine
 62
7
  6
BYLAYER
 10
37.4833471816
 20
62.6598127597
 11
37.7962230184
 21
62.84045063
  0
LINE
  5
2B4
100
AcDbEntity
  8
0
100
AcDbLine
 62
7
  6
BYLAYER
 10
58.795506175
 20
74.7276125674
 11
43.575161632
 21
65.9401950021
  0
LINE
  5
2B5
100
AcDbEntity
  8
0
100
AcDbLine
 62
7
  6
BYLAYER
 10
34.5629566956
 20
74.7398015931
 11
19.8550744125
 21
83.2312092871
  0
LINE
  5
2B6
100
AcDbEntity
  8
0
100
AcDbLine
 62
7
  6
BYLAYER
 10
42.3906163103
 20
73.8783733275
 11
42.7441711729
 21
73.6742529502
  0
LINE
  5
2B7
100
AcDbEntity
  8
0
100
AcDbLine
 62
7
  6
BYLAYER
 10
50.8507785808
 20
72.4232563809
 11
50.8507785808
 21
72.2291076303
  0
LINE
  5
2B8
100
AcDbEntity
  8
0
100
AcDbLine
 62
7
  6
BYLAYER
 10
52.2150302711
 20
73.9707993329
 11
52.2150302711
 21
72.4439398128
  0
LINE
  5
2B9
100
AcDbEntity
  8
0
100
AcDbLine
 62
7
  6
BYLAYER
 10
52.7169247184
 20
92.1638695059
 11
52.7169247184
 21
81.2717272614
  0
LINE
  5
2BA
100
AcDbEntity
  8
0
100
AcDbLine
 62
7
  6
BYLAYER
 10
56.3559213935
 20
83.9334740456
 11
57.9001098891
 21
89.7240208703
  0
LINE
  5
2BB
100
AcDbEntity
  8
0
100
AcDbLine
 62
7
  6
BYLAYER
 10
63.4536031687
 20
106.131049808
 11
62.4021257754
 21
102.2060214386
  0
LINE
  5
2BC
100
AcDbEntity
  8
0
100
AcDbLine
 62
7
  6
BYLAYER
 10
69.2817109433
 20
98.234180945
 11
68.8610167872
 21
97.5540913736
  0
LINE
  5
2BD
100
AcDbEntity
  8
0
100
AcDbLine
 62
7
  6
BYLAYER
 10
34.3720705982
 20
54.1967282813
 11
32.1927828351
 21
52.6972579191
  0
LINE
  5
2BE
100
AcDbEntity
  8
0
100
AcDbLine
 62
7
  6
BYLAYER
 10
37.7962230184
 20
60.3909433786
 11
37.4833471816
 21
60.2103055083
  0
LINE
  5
2BF
100
AcDbEntity
  8
0
100
AcDbLine
 62
7
  6
BYLAYER
 10
58.795506175
 20
71.3187149758
 11
88.1261733426
 21
88.2526824784
  0
LINE
  5
2C0
100
AcDbEntity
  8
0
100
AcDbLine
 62
7
  6
BYLAYER
 10
34.6532761967
 20
61.2887804325
 11
37.4833471816
 21
62.6598127597
  0
LINE
  5
2C1
100
AcDbEntity
  8
0
100
AcDbLine
 62
7
  6
BYLAYER
 10
37.4833471816
 20
60.2103055083
 11
34.6532761967
 21
58.8392731811
  0
LINE
  5
2C2
100
AcDbEntity
  8
0
100
AcDbLine
 62
7
  6
BYLAYER
 10
51.7600762286
 20
72.4441435589
 11
51.6150243836
 21
72.430758949
  0
LINE
  5
2C3
100
AcDbEntity
  8
0
100
AcDbLine
 62
7
  6
BYLAYER
 10
52.2150302711
 20
72.4439398128
 11
51.7600762286
 21
72.4441435589
  0
LINE
  5
2C4
100
AcDbEntity
  8
0
100
AcDbLine
 62
7
  6
BYLAYER
 10
49.5966008072
 20
71.352771724
 11
50.0939740685
 21
71.3232207916
  0
LINE
  5
2C5
100
AcDbEntity
  8
0
100
AcDbLine
 62
7
  6
BYLAYER
 10
50.1451585105
 20
71.610375268
 11
49.6477852543
 21
71.6399262001
  0
LINE
  5
2C6
100
AcDbEntity
  8
0
100
AcDbLine
 62
7
  6
BYLAYER
 10
43.5892673497
 20
77.0276527393
 11
43.5348127366
 21
77.0552817019
  0
LINE
  5
2C7
100
AcDbEntity
  8
0
100
AcDbLine
 62
7
  6
BYLAYER
 10
51.5296118216
 20
72.445707357
 11
51.3556347453
 21
72.5400248869
  0
LINE
  5
2C8
100
AcDbEntity
  8
0
100
AcDbLine
 62
7
  6
BYLAYER
 10
42.3906163103
 20
74.9398264697
 11
42.7441711729
 21
74.7357060925
  0
LINE
  5
2C9
100
AcDbEntity
  8
0
100
AcDbLine
 62
7
  6
BYLAYER
 10
45.9615033473
 20
74.1845637515
 11
46.3150582099
 21
73.9804433742
  0
LINE
  5
2CA
100
AcDbEntity
  8
0
100
AcDbLine
 62
7
  6
BYLAYER
 10
42.7300060154
 20
76.866708908
 11
42.9209315291
 21
76.756480505
  0
LINE
  5
2CB
100
AcDbEntity
  8
0
100
AcDbLine
 62
7
  6
BYLAYER
 10
46.6686071845
 20
74.5928079053
 11
50.8011146934
 21
72.2069575578
  0
LINE
  5
2CC
100
AcDbEntity
  8
0
100
AcDbLine
 62
7
  6
BYLAYER
 10
42.9209315291
 20
77.0014521382
 11
43.2744863917
 21
76.7973317609
  0
LINE
  5
2CD
100
AcDbEntity
  8
0
100
AcDbLine
 62
7
  6
BYLAYER
 10
45.9615033473
 20
75.2460168937
 11
46.3150582099
 21
75.0418965165
  0
LINE
  5
2CE
100
AcDbEntity
  8
0
100
AcDbLine
 62
7
  6
BYLAYER
 10
50.8507785808
 20
72.4232563809
 11
51.0505506293
 21
72.3079205442
  0
LINE
  5
2CF
100
AcDbEntity
  8
0
100
AcDbLine
 62
7
  6
BYLAYER
 10
51.3556347453
 20
72.5400248869
 11
51.2043304994
 21
72.6273784578
  0
LINE
  5
2D0
100
AcDbEntity
  8
0
100
AcDbLine
 62
7
  6
BYLAYER
 10
43.5348127366
 20
77.0552817019
 11
43.2744834478
 21
77.2055742151
  0
LINE
  5
2D1
100
AcDbEntity
  8
0
100
AcDbLine
 62
7
  6
BYLAYER
 10
43.9745191906
 20
77.2014934732
 11
46.6615361461
 21
75.6501786061
  0
LINE
  5
2D2
100
AcDbEntity
  8
0
100
AcDbLine
 62
7
  6
BYLAYER
 10
52.2150302711
 20
72.4439398128
 11
52.5446662094
 21
72.2536287206
  0
LINE
  5
2D3
100
AcDbEntity
  8
0
100
AcDbLine
 62
7
  6
BYLAYER
 10
46.6686101285
 20
75.2460185934
 11
46.3667665264
 21
75.4204497681
  0
LINE
  5
2D4
100
AcDbEntity
  8
0
100
AcDbLine
 62
7
  6
BYLAYER
 10
53.8963185427
 20
78.0054926567
 11
53.8963185427
 21
78.6768231233
  0
LINE
  5
2D5
100
AcDbEntity
  8
0
100
AcDbLine
 62
7
  6
BYLAYER
 10
54.5917738333
 20
41.9103810195
 11
54.5917738333
 21
42.5635829532
  0
LINE
  5
2D6
100
AcDbEntity
  8
0
100
AcDbLine
 62
7
  6
BYLAYER
 10
55.0169247184
 20
92.1638695059
 11
55.0169247184
 21
81.2717272614
  0
LINE
  5
2D7
100
AcDbEntity
  8
0
100
AcDbLine
 62
7
  6
BYLAYER
 10
55.7791039734
 20
31.8592398776
 11
55.7791039734
 21
43.2575980148
  0
LINE
  5
2D8
100
AcDbEntity
  8
0
100
AcDbLine
 62
7
  6
BYLAYER
 10
55.7938503566
 20
43.2575980148
 11
55.7938503566
 21
43.9107999485
  0
LINE
  5
2D9
100
AcDbEntity
  8
0
100
AcDbLine
 62
7
  6
BYLAYER
 10
56.9913052604
 20
94.1052720013
 11
56.9913052604
 21
90.6955579074
  0
LINE
  5
2DA
100
AcDbEntity
  8
0
100
AcDbLine
 62
7
  6
BYLAYER
 10
57.0623191575
 20
31.9222709064
 11
57.0623191575
 21
44.6390639391
  0
LINE
  5
2DB
100
AcDbEntity
  8
0
100
AcDbLine
 62
7
  6
BYLAYER
 10
57.1943483825
 20
94.420736289
 11
57.1943483825
 21
91.0484492507
  0
LINE
  5
2DC
100
AcDbEntity
  8
0
100
AcDbLine
 62
7
  6
BYLAYER
 10
57.3176593801
 20
32.0694586586
 11
57.3176591552
 21
31.8245078036
  0
LINE
  5
2DD
100
AcDbEntity
  8
0
100
AcDbLine
 62
7
  6
BYLAYER
 10
59.3143293394
 20
88.9075393613
 11
57.7701408438
 21
83.1169925365
  0
LINE
  5
2DE
100
AcDbEntity
  8
0
100
AcDbLine
 62
7
  6
BYLAYER
 10
43.6429630672
 20
45.5078829982
 11
43.4929021795
 21
45.2229273549
  0
LINE
  5
2DF
100
AcDbEntity
  8
0
100
AcDbLine
 62
7
  6
BYLAYER
 10
72.0430105504
 20
95.7170079783
 11
72.4637047065
 21
96.3970975497
  0
LINE
  5
2E0
100
AcDbEntity
  8
0
100
AcDbLine
 62
7
  6
BYLAYER
 10
58.795506175
 20
74.7276125674
 11
58.9419404659
 21
74.9317329446
  0
LINE
  5
2E1
100
AcDbEntity
  8
0
100
AcDbLine
 62
7
  6
BYLAYER
 10
58.9419404659
 20
71.5228353531
 11
58.795506175
 21
71.3187149758
  0
LINE
  5
2E2
100
AcDbEntity
  8
0
100
AcDbLine
 62
7
  6
BYLAYER
 10
34.7402318555
 20
54.4092850135
 11
34.3720705982
 21
54.1967282813
  0
LINE
  5
2E3
100
AcDbEntity
  8
0
100
AcDbLine
 62
7
  6
BYLAYER
 10
52.2291834442
 20
73.9707929945
 11
52.2150302711
 21
73.9707993329
  0
LINE
  5
2E4
100
AcDbEntity
  8
0
100
AcDbLine
 62
7
  6
BYLAYER
 10
43.6126896213
 20
77.0201113958
 11
43.5892673497
 21
77.0276527393
  0
LINE
  5
2E5
100
AcDbEntity
  8
0
100
AcDbLine
 62
7
  6
BYLAYER
 10
53.8669842454
 20
73.0170648375
 11
52.2150302711
 21
73.9707993329
  0
LINE
  5
2E6
100
AcDbEntity
  8
0
100
AcDbLine
 62
7
  6
BYLAYER
 10
46.6615361461
 20
77.1770381261
 11
43.9745191906
 21
78.7283529933
  0
LINE
  5
2E7
100
AcDbEntity
  8
0
100
AcDbLine
 62
7
  6
BYLAYER
 10
52.2291834442
 20
73.9707929945
 11
46.6686071845
 21
77.1811205676
  0
LINE
  5
2E8
100
AcDbEntity
  8
0
100
AcDbLine
 62
7
  6
BYLAYER
 10
43.9815902289
 20
78.7324354348
 11
42.7300060154
 21
79.4550215703
  0
LINE
  5
2E9
100
AcDbEntity
  8
0
100
AcDbLine
 62
7
  6
BYLAYER
 10
58.795506175
 20
74.7276125674
 11
58.795506175
 21
71.3178984734
  0
LINE
  5
2EA
100
AcDbEntity
  8
0
100
AcDbLine
 62
7
  6
BYLAYER
 10
58.9419513124
 20
74.9317329446
 11
58.9419513124
 21
71.5228353531
  0
LINE
  5
2EB
100
AcDbEntity
  8
0
100
AcDbLine
 62
7
  6
BYLAYER
 10
60.245004274
 20
84.5458470751
 11
60.245004274
 21
85.7706007008
  0
LINE
  5
2EC
100
AcDbEntity
  8
0
100
AcDbLine
 62
7
  6
BYLAYER
 10
37.0591009522
 20
52.645422633
 11
37.7962245122
 21
53.0709985785
  0
LINE
  5
2ED
100
AcDbEntity
  8
0
100
AcDbLine
 62
7
  6
BYLAYER
 10
34.4610912019
 20
51.3868127348
 11
37.0591009522
 21
52.645422633
  0
LINE
  5
2EE
100
AcDbEntity
  8
0
100
AcDbLine
 62
7
  6
BYLAYER
 10
34.1815565517
 20
89.3464022771
 11
39.8449625971
 21
86.0767072427
  0
LINE
  5
2EF
100
AcDbEntity
  8
0
100
AcDbLine
 62
7
  6
BYLAYER
 10
44.0810927038
 20
83.6310317138
 11
49.7444987491
 21
80.3613366794
  0
LINE
  5
2F0
100
AcDbEntity
  8
0
100
AcDbLine
 62
7
  6
BYLAYER
 10
53.9806288531
 20
77.9156611522
 11
58.795503231
 21
75.1358550215
  0
LINE
  5
2F1
100
AcDbEntity
  8
0
100
AcDbLine
 62
7
  6
BYLAYER
 10
58.9419404659
 20
74.9317329446
 11
58.795503231
 21
75.1358550215
  0
LINE
  5
2F2
100
AcDbEntity
  8
0
100
AcDbLine
 62
7
  6
BYLAYER
 10
61.3056600298
 20
86.3829669316
 11
61.3056600298
 21
90.0572278087
  0
LINE
  5
2F3
100
AcDbEntity
  8
0
100
AcDbLine
 62
7
  6
BYLAYER
 10
43.8473155815
 20
43.3924327402
 11
43.4573531319
 21
43.01245078
  0
LINE
  5
2F4
100
AcDbEntity
  8
0
100
AcDbLine
 62
7
  6
BYLAYER
 10
37.7962245122
 20
49.1517869762
 11
37.0591009522
 21
48.7262110308
  0
LINE
  5
2F5
100
AcDbEntity
  8
0
100
AcDbLine
 62
7
  6
BYLAYER
 10
37.0591009522
 20
48.7262110308
 11
34.4610912019
 21
47.4676011326
  0
LINE
  5
2F6
100
AcDbEntity
  8
0
100
AcDbLine
 62
7
  6
BYLAYER
 10
55.118487912
 20
83.4639922488
 11
55.0169247184
 21
83.5226284595
  0
LINE
  5
2F7
100
AcDbEntity
  8
0
100
AcDbLine
 62
7
  6
BYLAYER
 10
45.2189517599
 20
89.1793628121
 11
45.1173885663
 21
89.2379990227
  0
LINE
  5
2F8
100
AcDbEntity
  8
0
100
AcDbLine
 62
7
  6
BYLAYER
 10
66.8908414125
 20
88.3899014381
 11
66.8908414125
 21
84.9801873442
  0
LINE
  5
2F9
100
AcDbEntity
  8
0
100
AcDbLine
 62
7
  6
BYLAYER
 10
67.0994272623
 20
88.7043564007
 11
67.0994272623
 21
85.3339216648
  0
LINE
  5
2FA
100
AcDbEntity
  8
0
100
AcDbLine
 62
7
  6
BYLAYER
 10
79.3194705662
 20
92.439008829
 11
78.7828892608
 21
91.1974634973
  0
LINE
  5
2FB
100
AcDbEntity
  8
0
100
AcDbLine
 62
7
  6
BYLAYER
 10
46.3014475462
 20
47.5303108537
 11
43.5751616316
 21
45.9562983427
  0
LINE
  5
2FC
100
AcDbEntity
  8
0
100
AcDbLine
 62
7
  6
BYLAYER
 10
43.6429630672
 20
45.5078829982
 11
43.906189238
 21
45.6598557917
  0
LINE
  5
2FD
100
AcDbEntity
  8
0
100
AcDbLine
 62
7
  6
BYLAYER
 10
35.6791644639
 20
47.5030676415
 11
35.3337118763
 21
47.3759371817
  0
LINE
  5
2FE
100
AcDbEntity
  8
0
100
AcDbLine
 62
7
  6
BYLAYER
 10
35.7790283917
 20
95.8132800021
 11
37.193247842
 21
94.9967984931
  0
LINE
  5
2FF
100
AcDbEntity
  8
0
100
AcDbLine
 62
7
  6
BYLAYER
 10
56.3559213935
 20
83.9334740456
 11
57.7701408438
 21
83.1169925365
  0
LINE
  5
300
100
AcDbEntity
  8
0
100
AcDbLine
 62
7
  6
BYLAYER
 10
69.281657443
 20
99.1513200769
 11
69.2817109433
 21
98.234180945
  0
LINE
  5
301
100
AcDbEntity
  8
0
100
AcDbLine
 62
7
  6
BYLAYER
 10
70.6959186177
 20
96.4947342737
 11
70.6959186177
 21
98.3348144787
  0
LINE
  5
302
100
AcDbEntity
  8
0
100
AcDbLine
 62
7
  6
BYLAYER
 10
42.0379527136
 20
43.7362386445
 11
42.7450565508
 21
44.1444827983
  0
LINE
  5
303
100
AcDbEntity
  8
0
100
AcDbLine
 62
7
  6
BYLAYER
 10
43.452160388
 20
44.5188154623
 11
42.0643670956
 21
43.7175774141
  0
LINE
  5
304
100
AcDbEntity
  8
0
100
AcDbLine
 62
7
  6
BYLAYER
 10
43.4929021795
 20
43.712723691
 11
42.7857983423
 21
43.3044795371
  0
LINE
  5
305
100
AcDbEntity
  8
0
100
AcDbLine
 62
7
  6
BYLAYER
 10
59.3143293394
 20
88.9075393613
 11
57.9001098891
 21
89.7240208703
  0
LINE
  5
306
100
AcDbEntity
  8
0
100
AcDbLine
 62
7
  6
BYLAYER
 10
38.7374363377
 20
100.7873453178
 11
37.3232168874
 21
101.6038268268
  0
LINE
  5
307
100
AcDbEntity
  8
0
100
AcDbLine
 62
7
  6
BYLAYER
 10
72.4637047065
 20
96.3970975497
 11
72.4636512061
 21
97.3142366815
  0
LINE
  5
308
100
AcDbEntity
  8
0
100
AcDbLine
 62
7
  6
BYLAYER
 10
57.0623191575
 20
44.6390639391
 11
46.3014475462
 21
38.4263089027
  0
LINE
  5
309
100
AcDbEntity
  8
0
100
AcDbLine
 62
7
  6
BYLAYER
 10
61.3056600298
 20
90.0572278087
 11
59.8914405795
 21
90.8737093177
  0
LINE
  5
30A
100
AcDbEntity
  8
0
100
AcDbLine
 62
7
  6
BYLAYER
 10
40.728767028
 20
101.9370337652
 11
39.3145475777
 21
102.7535152743
  0
LINE
  5
30B
100
AcDbEntity
  8
0
100
AcDbLine
 62
7
  6
BYLAYER
 10
43.260171092
 20
102.3370124027
 11
47.2614795855
 21
100.0269081284
  0
LINE
  5
30C
100
AcDbEntity
  8
0
100
AcDbLine
 62
7
  6
BYLAYER
 10
53.0664620452
 20
96.6754757622
 11
57.1621969583
 21
94.3108556025
  0
LINE
  5
30D
100
AcDbEntity
  8
0
100
AcDbLine
 62
7
  6
BYLAYER
 10
62.9601109744
 20
90.9635041118
 11
67.0653541662
 21
88.5933944689
  0
LINE
  5
30E
100
AcDbEntity
  8
0
100
AcDbLine
 62
7
  6
BYLAYER
 10
43.6111354849
 20
102.3005446764
 11
47.2753900918
 21
100.1850341519
  0
LINE
  5
30F
100
AcDbEntity
  8
0
100
AcDbLine
 62
7
  6
BYLAYER
 10
53.5599749292
 20
96.556709488
 11
57.1655436733
 21
94.4750804958
  0
LINE
  5
310
100
AcDbEntity
  8
0
100
AcDbLine
 62
7
  6
BYLAYER
 10
63.450719244
 20
90.8464147795
 11
67.0721923238
 21
88.7556036225
  0
LINE
  5
311
100
AcDbEntity
  8
0
100
AcDbLine
 62
7
  6
BYLAYER
 10
47.1671835417
 20
38.2770193371
 11
49.9248885077
 21
39.8691715376
  0
LINE
  5
312
100
AcDbEntity
  8
0
100
AcDbLine
 62
7
  6
BYLAYER
 10
54.5917738333
 20
42.5635829532
 11
55.7938503566
 21
43.2575980148
  0
LINE
  5
313
100
AcDbEntity
  8
0
100
AcDbLine
 62
7
  6
BYLAYER
 10
49.9248885077
 20
39.2159696039
 11
54.5917738333
 21
41.9103810195
  0
LINE
  5
314
100
AcDbEntity
  8
0
100
AcDbLine
 62
7
  6
BYLAYER
 10
85.9341514472
 20
48.7543999193
 11
85.9341514472
 21
49.5709023365
  0
LINE
  5
315
100
AcDbEntity
  8
0
100
AcDbLine
 62
7
  6
BYLAYER
 10
57.0623191575
 20
31.9222709064
 11
57.3176593801
 21
32.0694586586
  0
LINE
  5
316
100
AcDbEntity
  8
0
100
AcDbLine
 62
7
  6
BYLAYER
 10
61.5244994064
 20
101.1613741117
 11
78.7828892608
 21
91.1974634973
  0
LINE
  5
317
100
AcDbEntity
  8
0
100
AcDbLine
 62
7
  6
BYLAYER
 10
68.8610167872
 20
97.5540913736
 11
72.0430105504
 21
95.7170079783
  0
LINE
  5
318
100
AcDbEntity
  8
0
100
AcDbLine
 62
7
  6
BYLAYER
 10
62.4021257754
 20
102.2060214386
 11
69.2817109433
 21
98.234180945
  0
LINE
  5
319
100
AcDbEntity
  8
0
100
AcDbLine
 62
7
  6
BYLAYER
 10
72.4637047065
 20
96.3970975497
 11
79.3194705662
 21
92.439008829
  0
LINE
  5
31A
100
AcDbEntity
  8
0
100
AcDbLine
 62
7
  6
BYLAYER
 10
56.447657656
 20
106.5418682809
 11
62.6104941458
 21
102.9838334681
  0
LINE
  5
31B
100
AcDbEntity
  8
0
100
AcDbLine
 62
7
  6
BYLAYER
 10
80.0076323072
 20
92.9398182935
 11
88.1261733426
 21
88.2526824784
  0
LINE
  5
31C
100
AcDbEntity
  8
0
100
AcDbLine
 62
7
  6
BYLAYER
 10
72.4636512061
 20
97.3142366815
 11
69.281657443
 21
99.1513200769
  0
LINE
  5
31D
100
AcDbEntity
  8
0
100
AcDbLine
 62
7
  6
BYLAYER
 10
79.3194705662
 20
92.439008829
 11
78.2674644062
 21
97.5784565203
  0
LINE
  5
31E
100
AcDbEntity
  8
0
100
AcDbLine
 62
7
  6
BYLAYER
 10
78.9748326268
 20
97.9868533151
 11
80.1970969352
 21
92.013951805
  0
LINE
  5
31F
100
AcDbEntity
  8
0
100
AcDbLine
 62
7
  6
BYLAYER
 10
88.1261733426
 20
88.251865976
 11
88.1261733426
 21
53.1634911023
  0
LINE
  5
320
100
AcDbEntity
  8
0
100
AcDbLine
 62
7
  6
BYLAYER
 10
85.9341514472
 20
49.5709023365
 11
86.1462825984
 21
49.7342007035
  0
LINE
  5
321
100
AcDbEntity
  8
0
100
AcDbLine
 62
7
  6
BYLAYER
 10
57.3176591552
 20
31.8245078036
 11
85.5805995286
 21
48.1420266338
  0
LINE
  5
322
100
AcDbEntity
  8
0
100
AcDbLine
 62
7
  6
BYLAYER
 10
86.1462825984
 20
49.7342007035
 11
88.1261733426
 21
53.1634911023
  0
ARC
  5
323
100
AcDbEntity
  8
0
100
AcDbCircle
 62
7
  6
BYLAYER
 10
88.0689264699
 20
166.2934890063
 40
129.2387832322
100
AcDbArc
 50
246.1337867944
 51
248.7678950381
  0
ARC
  5
324
100
AcDbEntity
  8
0
100
AcDbCircle
 62
7
  6
BYLAYER
 10
86.355021
 20
177.8834518362
 40
124.8713297276
100
AcDbArc
 50
245.5876796181
 51
247.1157524106
  0
ARC
  5
325
100
AcDbEntity
  8
0
100
AcDbCircle
 62
7
  6
BYLAYER
 10
86.3533668693
 20
168.1101391505
 40
124.8671291311
100
AcDbArc
 50
245.584898096
 51
247.1157634354
  0
ARC
  5
326
100
AcDbEntity
  8
0
100
AcDbCircle
 62
7
  6
BYLAYER
 10
80.5069058252
 20
149.91310863
 40
111.1936108923
100
AcDbArc
 50
240.3258215282
 51
244.1704621744
  0
ARC
  5
327
100
AcDbEntity
  8
0
100
AcDbCircle
 62
7
  6
BYLAYER
 10
73.8196479204
 20
138.1328555505
 40
97.6471477993
100
AcDbArc
 50
236.1762303233
 51
239.746899865
  0
ARC
  5
328
100
AcDbEntity
  8
0
100
AcDbCircle
 62
7
  6
BYLAYER
 10
72.5402618746
 20
148.6647015458
 40
95.2895406651
100
AcDbArc
 50
237.1698148652
 51
237.6487473493
  0
ARC
  5
329
100
AcDbEntity
  8
0
100
AcDbCircle
 62
7
  6
BYLAYER
 10
70.6027429161
 20
145.7013054869
 40
91.7489020441
100
AcDbArc
 50
235.8998821014
 51
236.3917920135
  0
ARC
  5
32A
100
AcDbEntity
  8
0
100
AcDbCircle
 62
7
  6
BYLAYER
 10
99.4761208958
 20
149.6482008974
 40
54.5185695656
100
AcDbArc
 50
231.8604020245
 51
232.7924407731
  0
ARC
  5
32B
100
AcDbEntity
  8
0
100
AcDbCircle
 62
7
  6
BYLAYER
 10
98.6826108915
 20
148.6069200648
 40
53.2094025159
100
AcDbArc
 50
232.7949435383
 51
233.5163693252
  0
ARC
  5
32C
100
AcDbEntity
  8
0
100
AcDbCircle
 62
7
  6
BYLAYER
 10
89.0397466137
 20
131.81863485
 40
33.7935450226
100
AcDbArc
 50
247.3382075527
 51
249.7667322264
  0
ARC
  5
32D
100
AcDbEntity
  8
0
100
AcDbCircle
 62
7
  6
BYLAYER
 10
88.308468731
 20
131.3588975222
 40
33.7371653691
100
AcDbArc
 50
246.5068905211
 51
249.7745908451
  0
ARC
  5
32E
100
AcDbEntity
  8
0
100
AcDbCircle
 62
7
  6
BYLAYER
 10
35.2762374248
 20
58.4919546456
 40
11.1595798822
100
AcDbArc
 50
265.5220313648
 51
265.8575876987
  0
ARC
  5
32F
100
AcDbEntity
  8
0
100
AcDbCircle
 62
7
  6
BYLAYER
 10
39.012591482
 20
44.0767777856
 40
5.1510578416
100
AcDbArc
 50
20.1841369827
 51
22.4358919174
  0
ARC
  5
330
100
AcDbEntity
  8
0
100
AcDbCircle
 62
7
  6
BYLAYER
 10
45.6683791589
 20
47.4434762383
 40
3.6695049115
100
AcDbArc
 50
232.8462606537
 51
233.6352411451
  0
ARC
  5
331
100
AcDbEntity
  8
0
100
AcDbCircle
 62
7
  6
BYLAYER
 10
74.9224600935
 20
98.1617042834
 40
3.4501988554
100
AcDbArc
 50
26.7319622544
 51
38.5668377055
  0
ARC
  5
332
100
AcDbEntity
  8
0
100
AcDbCircle
 62
7
  6
BYLAYER
 10
33.0801918672
 20
50.6289715713
 40
2.8452995456
100
AcDbArc
 50
177.766184108
 51
180.0166018786
  0
ARC
  5
333
100
AcDbEntity
  8
0
100
AcDbCircle
 62
7
  6
BYLAYER
 10
28.2516188409
 20
54.8749443496
 40
2.7846548504
100
AcDbArc
 50
241.9994232883
 51
242.8431044159
  0
ARC
  5
334
100
AcDbEntity
  8
0
100
AcDbCircle
 62
7
  6
BYLAYER
 10
43.0121818867
 20
74.7554475118
 40
0.6436343803
100
AcDbArc
 50
179.9983125035
 51
189.8545671575
  0
SPLINE
  5
335
100
AcDbEntity
  8
0
100
AcDbSpline
 62
7
  6
BYLAYER
 70
0
 71
3
 72
17
 73
13
 74
0
 42
0.0000001
 43
0.0000001
 44
0.0000000001
 40
0.0
 40
0.0
 40
0.0
 40
0.0
 40
0.042856216
 40
0.0874836211
 40
0.1353102614
 40
0.1872757815
 40
0.3045355265
 40
0.4381979082
 40
0.5825371072
 40
0.7296850391
 40
0.8713145374
 40
1.0
 40
1.0
 40
1.0
 40
1.0
 10
55.0168774286
 20
92.1638694776
 30
0.0
 10
55.0168780253
 20
92.1966040029
 30
0.0
 10
55.0081888142
 20
92.2637220865
 30
0.0
 10
54.9696364268
 20
92.3605895983
 30
0.0
 10
54.9072433888
 20
92.4524860605
 30
0.0
 10
54.789625019
 20
92.5704299371
 30
0.0
 10
54.589335376
 20
92.6924077476
 30
0.0
 10
54.3012923777
 20
92.7886249492
 30
0.0
 10
53.9780617463
 20
92.834041417
 30
0.0
 10
53.6457894897
 20
92.8248873987
 30
0.0
 10
53.3316450546
 20
92.7620094792
 30
0.0
 10
53.1388727245
 20
92.6824925543
 30
0.0
 10
53.0537485344
 20
92.6333463736
 30
0.0
  0
SPLINE
  5
336
100
AcDbEntity
  8
0
100
AcDbSpline
 62
7
  6
BYLAYER
 70
0
 71
3
 72
17
 73
13
 74
0
 42
0.0000001
 43
0.0000001
 44
0.0000000001
 40
0.0
 40
0.0
 40
0.0
 40
0.0
 40
0.042856216
 40
0.0874836211
 40
0.1353102614
 40
0.1872757815
 40
0.3045355265
 40
0.4381979082
 40
0.5825371072
 40
0.7296850391
 40
0.8713145374
 40
1.0
 40
1.0
 40
1.0
 40
1.0
 10
45.1173412766
 20
97.8792400409
 30
0.0
 10
45.1173418733
 20
97.9119745662
 30
0.0
 10
45.1086526621
 20
97.9790926497
 30
0.0
 10
45.0701002747
 20
98.0759601616
 30
0.0
 10
45.0077072368
 20
98.1678566237
 30
0.0
 10
44.8900888669
 20
98.2858005004
 30
0.0
 10
44.6897992239
 20
98.4077783109
 30
0.0
 10
44.4017562256
 20
98.5039955125
 30
0.0
 10
44.0785255942
 20
98.5494119803
 30
0.0
 10
43.7462533377
 20
98.540257962
 30
0.0
 10
43.4321089026
 20
98.4773800425
 30
0.0
 10
43.2393365725
 20
98.3978631176
 30
0.0
 10
43.1542123824
 20
98.3487169369
 30
0.0
  0
SPLINE
  5
337
100
AcDbEntity
  8
0
100
AcDbSpline
 62
7
  6
BYLAYER
 70
0
 71
3
 72
17
 73
13
 74
0
 42
0.0000001
 43
0.0000001
 44
0.0000000001
 40
0.0
 40
0.0
 40
0.0
 40
0.0
 40
0.0428602147
 40
0.0874876839
 40
0.1353118989
 40
0.1872716973
 40
0.3045196919
 40
0.4381766023
 40
0.5825182578
 40
0.7296726182
 40
0.8713106955
 40
1.0
 40
1.0
 40
1.0
 40
1.0
 10
35.2178004168
 20
103.5946104493
 30
0.0
 10
35.2178003137
 20
103.6273480144
 30
0.0
 10
35.2091139396
 20
103.6944692584
 30
0.0
 10
35.1705625481
 20
103.7913393023
 30
0.0
 10
35.108167889
 20
103.8832268655
 30
0.0
 10
34.9905655582
 20
104.0011643887
 30
0.0
 10
34.7902906475
 20
104.1231332919
 30
0.0
 10
34.5022621848
 20
104.219355642
 30
0.0
 10
34.1790296813
 20
104.2647788481
 30
0.0
 10
33.8467439154
 20
104.2556324077
 30
0.0
 10
33.5325847318
 20
104.192754115
 30
0.0
 10
33.3398029242
 20
104.1132351264
 30
0.0
 10
33.2546762303
 20
104.0640875001
 30
0.0
  0
SPLINE
  5
338
100
AcDbEntity
  8
0
100
AcDbSpline
 62
7
  6
BYLAYER
 70
0
 71
3
 72
11
 73
7
 74
0
 42
0.0000001
 43
0.0000001
 44
0.0000000001
 40
0.0
 40
0.0
 40
0.0
 40
0.0
 40
0.2896674932
 40
0.5490968974
 40
0.7822204543
 40
1.0
 40
1.0
 40
1.0
 40
1.0
 10
11.9001159116
 20
84.2313841786
 30
0.0
 10
11.819828789
 20
84.1850306634
 30
0.0
 10
11.6741600776
 20
84.0846721135
 30
0.0
 10
11.500032848
 20
83.901719535
 30
0.0
 10
11.3898683843
 20
83.6992830778
 30
0.0
 10
11.3641899411
 20
83.554003417
 30
0.0
 10
11.3641550356
 20
83.4843035603
 30
0.0
  0
SPLINE
  5
339
100
AcDbEntity
  8
0
100
AcDbSpline
 62
7
  6
BYLAYER
 70
0
 71
3
 72
11
 73
7
 74
0
 42
0.0000001
 43
0.0000001
 44
0.0000000001
 40
0.0
 40
0.0
 40
0.0
 40
0.0
 40
0.2896290444
 40
0.549104597
 40
0.7822279962
 40
1.0
 40
1.0
 40
1.0
 40
1.0
 10
34.1815565517
 20
89.3464022771
 30
0.0
 10
34.137689054
 20
89.3717286157
 30
0.0
 10
34.0580926335
 20
89.4265787859
 30
0.0
 10
33.9629309418
 20
89.5265427284
 30
0.0
 10
33.9027116185
 20
89.6371678385
 30
0.0
 10
33.8887092987
 20
89.7165601232
 30
0.0
 10
33.8886907139
 20
89.7546464999
 30
0.0
  0
SPLINE
  5
33A
100
AcDbEntity
  8
0
100
AcDbSpline
 62
7
  6
BYLAYER
 70
0
 71
3
 72
9
 73
5
 74
0
 42
0.0000001
 43
0.0000001
 44
0.0000000001
 40
0.0
 40
0.0
 40
0.0
 40
0.0
 40
0.2567575898
 40
1.0
 40
1.0
 40
1.0
 40
1.0
 10
52.6036862626
 20
96.5226626501
 30
0.0
 10
52.5956834262
 20
96.5180422379
 30
0.0
 10
52.5647782852
 20
96.4995970036
 30
0.0
 10
52.5349580591
 20
96.4793115076
 30
0.0
 10
52.5136492844
 20
96.4631409895
 30
0.0
  0
SPLINE
  5
33B
100
AcDbEntity
  8
0
100
AcDbSpline
 62
7
  6
BYLAYER
 70
0
 71
3
 72
9
 73
5
 74
0
 42
0.0000001
 43
0.0000001
 44
0.0000000001
 40
0.0
 40
0.0
 40
0.0
 40
0.0
 40
0.26637518
 40
1.0
 40
1.0
 40
1.0
 40
1.0
 10
53.0664620452
 20
96.6754757622
 30
0.0
 10
53.0235473074
 20
96.6689708409
 30
0.0
 10
52.8635664898
 20
96.6386129219
 30
0.0
 10
52.7072125619
 20
96.5824332301
 30
0.0
 10
52.6036862626
 20
96.5226626501
 30
0.0
  0
SPLINE
  5
33C
100
AcDbEntity
  8
0
100
AcDbSpline
 62
7
  6
BYLAYER
 70
0
 71
3
 72
11
 73
7
 74
0
 42
0.0000001
 43
0.0000001
 44
0.0000000001
 40
0.0
 40
0.0
 40
0.0
 40
0.0
 40
0.2896290444
 40
0.549104597
 40
0.7822279962
 40
1.0
 40
1.0
 40
1.0
 40
1.0
 10
44.0810927038
 20
83.6310317138
 30
0.0
 10
44.0372252061
 20
83.6563580524
 30
0.0
 10
43.9576287856
 20
83.7112082226
 30
0.0
 10
43.8624670939
 20
83.8111721651
 30
0.0
 10
43.8022477706
 20
83.9217972752
 30
0.0
 10
43.7882454508
 20
84.00118956
 30
0.0
 10
43.788226866
 20
84.0392759366
 30
0.0
  0
SPLINE
  5
33D
100
AcDbEntity
  8
0
100
AcDbSpline
 62
7
  6
BYLAYER
 70
0
 71
3
 72
9
 73
5
 74
0
 42
0.0000001
 43
0.0000001
 44
0.0000000001
 40
0.0
 40
0.0
 40
0.0
 40
0.0
 40
0.2576403323
 40
1.0
 40
1.0
 40
1.0
 40
1.0
 10
62.511824316
 20
90.8140759251
 30
0.0
 10
62.5029805882
 20
90.808970027
 30
0.0
 10
62.4689810082
 20
90.7885969205
 30
0.0
 10
62.4363251228
 20
90.7659456377
 30
0.0
 10
62.4131854378
 20
90.7477704272
 30
0.0
  0
SPLINE
  5
33E
100
AcDbEntity
  8
0
100
AcDbSpline
 62
7
  6
BYLAYER
 70
0
 71
3
 72
9
 73
5
 74
0
 42
0.0000001
 43
0.0000001
 44
0.0000000001
 40
0.0
 40
0.0
 40
0.0
 40
0.0
 40
0.5226167584
 40
1.0
 40
1.0
 40
1.0
 40
1.0
 10
62.9601109744
 20
90.9635041118
 30
0.0
 10
62.878428047
 20
90.9508266254
 30
0.0
 10
62.7236511492
 20
90.9148396851
 30
0.0
 10
62.5772148802
 20
90.8518289596
 30
0.0
 10
62.511824316
 20
90.8140759251
 30
0.0
  0
SPLINE
  5
33F
100
AcDbEntity
  8
0
100
AcDbSpline
 62
7
  6
BYLAYER
 70
0
 71
3
 72
11
 73
7
 74
0
 42
0.0000001
 43
0.0000001
 44
0.0000000001
 40
0.0
 40
0.0
 40
0.0
 40
0.0
 40
0.2896290442
 40
0.5491045967
 40
0.782227996
 40
1.0
 40
1.0
 40
1.0
 40
1.0
 10
53.9806288531
 20
77.9156611522
 30
0.0
 10
53.9367613558
 20
77.9409874907
 30
0.0
 10
53.857164936
 20
77.9958376608
 30
0.0
 10
53.7620032452
 20
78.095801603
 30
0.0
 10
53.7017839225
 20
78.2064267125
 30
0.0
 10
53.6877816029
 20
78.2858189969
 30
0.0
 10
53.687763018
 20
78.3239053733
 30
0.0
  0
SPLINE
  5
340
100
AcDbEntity
  8
0
100
AcDbSpline
 62
7
  6
BYLAYER
 70
0
 71
3
 72
11
 73
7
 74
0
 42
0.0000001
 43
0.0000001
 44
0.0000000001
 40
0.0
 40
0.0
 40
0.0
 40
0.0
 40
0.2774287332
 40
0.5331858166
 40
0.7714023862
 40
1.0
 40
1.0
 40
1.0
 40
1.0
 10
11.6760919057
 20
62.9103672579
 30
0.0
 10
11.6278240151
 20
62.9517600913
 30
0.0
 10
11.5408638878
 20
63.0385842237
 30
0.0
 10
11.4402110093
 20
63.1853943994
 30
0.0
 10
11.3782376519
 20
63.3405621912
 30
0.0
 10
11.3641287831
 20
63.4480130354
 30
0.0
 10
11.3641550187
 20
63.5004069013
 30
0.0
  0
SPLINE
  5
341
100
AcDbEntity
  8
0
100
AcDbSpline
 62
7
  6
BYLAYER
 70
0
 71
3
 72
9
 73
5
 74
0
 42
0.0000001
 43
0.0000001
 44
0.0000000001
 40
0.0
 40
0.0
 40
0.0
 40
0.0
 40
0.2561820122
 40
1.0
 40
1.0
 40
1.0
 40
1.0
 10
19.4653093862
 20
57.0121346721
 30
0.0
 10
18.7723629067
 20
57.4773056819
 30
0.0
 10
16.0924982305
 20
59.3299173305
 30
0.0
 10
13.5155717719
 20
61.3328944701
 30
0.0
 10
11.6760919057
 20
62.9103672579
 30
0.0
  0
SPLINE
  5
342
100
AcDbEntity
  8
0
100
AcDbSpline
 62
7
  6
BYLAYER
 70
0
 71
3
 72
11
 73
7
 74
0
 42
0.0000001
 43
0.0000001
 44
0.0000000001
 40
0.0
 40
0.0
 40
0.0
 40
0.0
 40
0.2323301055
 40
0.4892131092
 40
0.7518439141
 40
1.0
 40
1.0
 40
1.0
 40
1.0
 10
43.5751616316
 20
45.9562983427
 30
0.0
 10
43.4157315825
 20
45.8642519103
 30
0.0
 10
43.0494487141
 20
45.7226211617
 30
0.0
 10
42.4569251305
 20
45.6324742335
 30
0.0
 10
41.8455894368
 20
45.6580151359
 30
0.0
 10
41.448774654
 20
45.7560662675
 30
0.0
 10
41.2654980047
 20
45.827302152
 30
0.0
  0
SPLINE
  5
343
100
AcDbEntity
  8
0
100
AcDbSpline
 62
7
  6
BYLAYER
 70
0
 71
3
 72
11
 73
7
 74
0
 42
0.0000001
 43
0.0000001
 44
0.0000000001
 40
0.0
 40
0.0
 40
0.0
 40
0.0
 40
0.2156230539
 40
0.4483536116
 40
0.7085032486
 40
1.0
 40
1.0
 40
1.0
 40
1.0
 10
26.3307061846
 20
51.087082265
 30
0.0
 10
26.4307849774
 20
51.1448404147
 30
0.0
 10
26.6184697487
 20
51.3033113041
 30
0.0
 10
26.8196429871
 20
51.6311839124
 30
0.0
 10
26.9424727291
 20
52.0369121053
 30
0.0
 10
26.9696520242
 20
52.3331366101
 30
0.0
 10
26.9719222578
 20
52.4893297861
 30
0.0
  0
SPLINE
  5
344
100
AcDbEntity
  8
0
100
AcDbSpline
 62
7
  6
BYLAYER
 70
0
 71
3
 72
11
 73
7
 74
0
 42
0.0000001
 43
0.0000001
 44
0.0000000001
 40
0.0
 40
0.0
 40
0.0
 40
0.0
 40
0.2166053619
 40
0.4503788866
 40
0.7099735907
 40
1.0
 40
1.0
 40
1.0
 40
1.0
 10
19.0949764046
 20
55.8909340889
 30
0.0
 10
19.1686766604
 20
55.9334642758
 30
0.0
 10
19.3087150187
 20
56.046357563
 30
0.0
 10
19.4719940482
 20
56.2758182305
 30
0.0
 10
19.5910683034
 20
56.561805331
 30
0.0
 10
19.6373565737
 20
56.7737929315
 30
0.0
 10
19.6539678349
 20
56.8865096512
 30
0.0
  0
SPLINE
  5
345
100
AcDbEntity
  8
0
100
AcDbSpline
 62
7
  6
BYLAYER
 70
0
 71
3
 72
11
 73
7
 74
0
 42
0.0000001
 43
0.0000001
 44
0.0000000001
 40
0.0
 40
0.0
 40
0.0
 40
0.0
 40
0.2372423294
 40
0.4999983821
 40
0.7627553152
 40
1.0
 40
1.0
 40
1.0
 40
1.0
 10
85.5805995286
 20
48.1420266338
 30
0.0
 10
85.6307944657
 20
48.1710065213
 30
0.0
 10
85.7257771865
 20
48.2509542421
 30
0.0
 10
85.8366374257
 20
48.4024504369
 30
0.0
 10
85.9124061957
 20
48.5742072426
 30
0.0
 10
85.9341514472
 20
48.6964393095
 30
0.0
 10
85.9341514472
 20
48.7543999193
 30
0.0
  0
SPLINE
  5
346
100
AcDbEntity
  8
0
100
AcDbSpline
 62
7
  6
BYLAYER
 70
0
 71
3
 72
10
 73
6
 74
0
 42
0.0000001
 43
0.0000001
 44
0.0000000001
 40
0.0
 40
0.0
 40
0.0
 40
0.0
 40
0.2483267849
 40
0.4976642652
 40
1.0
 40
1.0
 40
1.0
 40
1.0
 10
62.9593264953
 20
90.963382555
 30
0.0
 10
63.0013855025
 20
90.969530669
 30
0.0
 10
63.0873946471
 20
90.9718549809
 30
0.0
 10
63.2566358558
 20
90.9419525252
 30
0.0
 10
63.3767000987
 20
90.8900739017
 30
0.0
 10
63.4511027465
 20
90.8469740504
 30
0.0
  0
SPLINE
  5
347
100
AcDbEntity
  8
0
100
AcDbSpline
 62
7
  6
BYLAYER
 70
0
 71
3
 72
10
 73
6
 74
0
 42
0.0000001
 43
0.0000001
 44
0.0000000001
 40
0.0
 40
0.0
 40
0.0
 40
0.0
 40
0.2256016192
 40
0.4697305871
 40
1.0
 40
1.0
 40
1.0
 40
1.0
 10
76.726509662
 20
101.0423570268
 30
0.0
 10
76.8066172461
 20
101.0072641071
 30
0.0
 10
76.9674988227
 20
100.9202630867
 30
0.0
 10
77.2817164192
 20
100.6919951709
 30
0.0
 10
77.4918208234
 20
100.4732749841
 30
0.0
 10
77.6201065343
 20
100.3126519402
 30
0.0
  0
SPLINE
  5
348
100
AcDbEntity
  8
0
100
AcDbSpline
 62
7
  6
BYLAYER
 70
0
 71
3
 72
9
 73
5
 74
0
 42
0.0000001
 43
0.0000001
 44
0.0000000001
 40
0.0
 40
0.0
 40
0.0
 40
0.0
 40
0.517271131
 40
1.0
 40
1.0
 40
1.0
 40
1.0
 10
67.7517710482
 20
106.2333802942
 30
0.0
 10
69.1917295232
 20
105.168577184
 30
0.0
 10
72.0826403732
 20
103.2496201598
 30
0.0
 10
75.1841646663
 20
101.6861028996
 30
0.0
 10
76.726509662
 20
101.0423570268
 30
0.0
  0
SPLINE
  5
349
100
AcDbEntity
  8
0
100
AcDbSpline
 62
7
  6
BYLAYER
 70
0
 71
3
 72
9
 73
5
 74
0
 42
0.0000001
 43
0.0000001
 44
0.0000000001
 40
0.0
 40
0.0
 40
0.0
 40
0.0
 40
0.4754268137
 40
1.0
 40
1.0
 40
1.0
 40
1.0
 10
47.2752981348
 20
100.1851913579
 30
0.0
 10
47.2826207988
 20
100.1808639197
 30
0.0
 10
47.2964664307
 20
100.1678277542
 30
0.0
 10
47.299667037
 20
100.1491189459
 30
0.0
 10
47.2996315446
 20
100.1397339744
 30
0.0
  0
SPLINE
  5
34A
100
AcDbEntity
  8
0
100
AcDbSpline
 62
7
  6
BYLAYER
 70
0
 71
3
 72
12
 73
8
 74
0
 42
0.0000001
 43
0.0000001
 44
0.0000000001
 40
0.0
 40
0.0
 40
0.0
 40
0.0
 40
0.2655686147
 40
0.5209938745
 40
0.6444776945
 40
0.7655795907
 40
1.0
 40
1.0
 40
1.0
 40
1.0
 10
43.6111734355
 20
102.3005680985
 30
0.0
 10
43.582948687
 20
102.3168774353
 30
0.0
 10
43.5250459135
 20
102.3447490898
 30
0.0
 10
43.4480380276
 20
102.3655640273
 30
0.0
 10
43.3865997832
 20
102.3701210532
 30
0.0
 10
43.3278326918
 20
102.3646927846
 30
0.0
 10
43.2857493821
 20
102.3501931065
 30
0.0
 10
43.260171092
 20
102.3370124027
 30
0.0
  0
SPLINE
  5
34B
100
AcDbEntity
  8
0
100
AcDbSpline
 62
7
  6
BYLAYER
 70
0
 71
3
 72
9
 73
5
 74
0
 42
0.0000001
 43
0.0000001
 44
0.0000000001
 40
0.0
 40
0.0
 40
0.0
 40
0.0
 40
0.4700316252
 40
1.0
 40
1.0
 40
1.0
 40
1.0
 10
57.1655432665
 20
94.4750855615
 30
0.0
 10
57.1742260206
 20
94.4700556619
 30
0.0
 10
57.190658521
 20
94.4543431062
 30
0.0
 10
57.1943494358
 20
94.4320381144
 30
0.0
 10
57.1943530144
 20
94.4207241122
 30
0.0
  0
SPLINE
  5
34C
100
AcDbEntity
  8
0
100
AcDbSpline
 62
7
  6
BYLAYER
 70
0
 71
3
 72
12
 73
8
 74
0
 42
0.0000001
 43
0.0000001
 44
0.0000000001
 40
0.0
 40
0.0
 40
0.0
 40
0.0
 40
0.1028258809
 40
0.2086144048
 40
0.4378283663
 40
0.7010454827
 40
1.0
 40
1.0
 40
1.0
 40
1.0
 10
64.5274867826
 20
107.0546936972
 30
0.0
 10
64.5686425
 20
107.0784415919
 30
0.0
 10
64.6575800251
 20
107.1177768349
 30
0.0
 10
64.8566864378
 20
107.1601414762
 30
0.0
 10
65.1381147911
 20
107.136497377
 30
0.0
 10
65.4815151759
 20
107.0012132951
 30
0.0
 10
65.6986985471
 20
106.8551982825
 30
0.0
 10
65.8065650357
 20
106.7688884535
 30
0.0
  0
SPLINE
  5
34D
100
AcDbEntity
  8
0
100
AcDbSpline
 62
7
  6
BYLAYER
 70
0
 71
3
 72
11
 73
7
 74
0
 42
0.0000001
 43
0.0000001
 44
0.0000000001
 40
0.0
 40
0.0
 40
0.0
 40
0.0
 40
0.2136911832
 40
0.445180014
 40
0.7061933273
 40
1.0
 40
1.0
 40
1.0
 40
1.0
 10
66.6394714061
 20
106.3992431554
 30
0.0
 10
66.7122690512
 20
106.4412668665
 30
0.0
 10
66.8823551022
 20
106.4995154768
 30
0.0
 10
67.1643934017
 20
106.4941094235
 30
0.0
 10
67.4632607253
 20
106.4037398749
 30
0.0
 10
67.655504332
 20
106.2973272225
 30
0.0
 10
67.7517710482
 20
106.2333802942
 30
0.0
  0
SPLINE
  5
34E
100
AcDbEntity
  8
0
100
AcDbSpline
 62
7
  6
BYLAYER
 70
0
 71
3
 72
9
 73
5
 74
0
 42
0.0000001
 43
0.0000001
 44
0.0000000001
 40
0.0
 40
0.0
 40
0.0
 40
0.0
 40
0.4673666446
 40
1.0
 40
1.0
 40
1.0
 40
1.0
 10
67.0721009386
 20
88.756437068
 30
0.0
 10
67.0803868285
 20
88.7517207069
 30
0.0
 10
67.095996854
 20
88.7365510729
 30
0.0
 10
67.0994251577
 20
88.7152567647
 30
0.0
 10
67.0994259303
 20
88.7043911909
 30
0.0
  0
SPLINE
  5
34F
100
AcDbEntity
  8
0
100
AcDbSpline
 62
7
  6
BYLAYER
 70
0
 71
3
 72
13
 73
9
 74
0
 42
0.0000001
 43
0.0000001
 44
0.0000000001
 40
0.0
 40
0.0
 40
0.0
 40
0.0
 40
0.1053401099
 40
0.2206965412
 40
0.3444686636
 40
0.4745206268
 40
0.7419473466
 40
1.0
 40
1.0
 40
1.0
 40
1.0
 10
77.3524835943
 20
100.1104092877
 30
0.0
 10
77.4432612452
 20
100.0759399423
 30
0.0
 10
77.6264521562
 20
99.9847166502
 30
0.0
 10
77.8863111757
 20
99.8005870546
 30
0.0
 10
78.1364088652
 20
99.5684607502
 30
0.0
 10
78.4486141907
 20
99.2020591605
 30
0.0
 10
78.7637028978
 20
98.681227732
 30
0.0
 10
78.9255371995
 20
98.2195600228
 30
0.0
 10
78.9748326268
 20
97.9868533151
 30
0.0
  0
SPLINE
  5
350
100
AcDbEntity
  8
0
100
AcDbSpline
 62
7
  6
BYLAYER
 70
0
 71
3
 72
11
 73
7
 74
0
 42
0.0000001
 43
0.0000001
 44
0.0000000001
 40
0.0
 40
0.0
 40
0.0
 40
0.0
 40
0.2895468475
 40
0.5491384346
 40
0.782278826
 40
1.0
 40
1.0
 40
1.0
 40
1.0
 10
53.0537485344
 20
92.6333463736
 30
0.0
 10
53.0033163332
 20
92.6042295024
 30
0.0
 10
52.9117974472
 20
92.5411240098
 30
0.0
 10
52.8023209054
 20
92.4261931002
 30
0.0
 10
52.7330735689
 20
92.2989538957
 30
0.0
 10
52.7169728063
 20
92.2076578731
 30
0.0
 10
52.7169720081
 20
92.1638695341
 30
0.0
  0
SPLINE
  5
351
100
AcDbEntity
  8
0
100
AcDbSpline
 62
7
  6
BYLAYER
 70
0
 71
3
 72
11
 73
7
 74
0
 42
0.0000001
 43
0.0000001
 44
0.0000000001
 40
0.0
 40
0.0
 40
0.0
 40
0.0
 40
0.2895468475
 40
0.5491384346
 40
0.782278826
 40
1.0
 40
1.0
 40
1.0
 40
1.0
 10
43.1542123824
 20
98.3487169369
 30
0.0
 10
43.1037801811
 20
98.3196000657
 30
0.0
 10
43.0122612952
 20
98.2564945731
 30
0.0
 10
42.9027847533
 20
98.1415636635
 30
0.0
 10
42.8335374169
 20
98.014324459
 30
0.0
 10
42.8174366542
 20
97.9230284364
 30
0.0
 10
42.817435856
 20
97.8792400974
 30
0.0
  0
SPLINE
  5
352
100
AcDbEntity
  8
0
100
AcDbSpline
 62
7
  6
BYLAYER
 70
0
 71
3
 72
11
 73
7
 74
0
 42
0.0000001
 43
0.0000001
 44
0.0000000001
 40
0.0
 40
0.0
 40
0.0
 40
0.0
 40
0.2895468475
 40
0.5491384346
 40
0.782278826
 40
1.0
 40
1.0
 40
1.0
 40
1.0
 10
33.2546762303
 20
104.0640875001
 30
0.0
 10
33.2042440291
 20
104.034970629
 30
0.0
 10
33.1127251431
 20
103.9718651364
 30
0.0
 10
33.0032486012
 20
103.8569342268
 30
0.0
 10
32.9340012648
 20
103.7296950223
 30
0.0
 10
32.9179005022
 20
103.6383989997
 30
0.0
 10
32.917899704
 20
103.5946106607
 30
0.0
  0
SPLINE
  5
353
100
AcDbEntity
  8
0
100
AcDbSpline
 62
7
  6
BYLAYER
 70
0
 71
3
 72
9
 73
5
 74
0
 42
0.0000001
 43
0.0000001
 44
0.0000000001
 40
0.0
 40
0.0
 40
0.0
 40
0.0
 40
0.4970102414
 40
1.0
 40
1.0
 40
1.0
 40
1.0
 10
53.063442197
 20
96.6750208856
 30
0.0
 10
53.1483156657
 20
96.6871235995
 30
0.0
 10
53.3255666137
 20
96.6712599091
 30
0.0
 10
53.4847861971
 20
96.6000133173
 30
0.0
 10
53.5599447468
 20
96.5566648164
 30
0.0
  0
SPLINE
  5
354
100
AcDbEntity
  8
0
100
AcDbSpline
 62
7
  6
BYLAYER
 70
0
 71
3
 72
9
 73
5
 74
0
 42
0.0000001
 43
0.0000001
 44
0.0000000001
 40
0.0
 40
0.0
 40
0.0
 40
0.0
 40
0.2600490242
 40
1.0
 40
1.0
 40
1.0
 40
1.0
 10
51.6150243836
 20
72.430758949
 30
0.0
 10
51.6074831341
 20
72.4306834978
 30
0.0
 10
51.5785007096
 20
72.4316778701
 30
0.0
 10
51.5495760257
 20
72.4378380369
 30
0.0
 10
51.5296118216
 20
72.445707357
 30
0.0
  0
SPLINE
  5
355
100
AcDbEntity
  8
0
100
AcDbSpline
 62
7
  6
BYLAYER
 70
0
 71
3
 72
9
 73
5
 74
0
 42
0.0000001
 43
0.0000001
 44
0.0000000001
 40
0.0
 40
0.0
 40
0.0
 40
0.0
 40
0.2601968132
 40
1.0
 40
1.0
 40
1.0
 40
1.0
 10
51.0505506293
 20
72.3079205442
 30
0.0
 10
51.0151813232
 20
72.2959533634
 30
0.0
 10
50.8802971292
 20
72.2469870387
 30
0.0
 10
50.7496610867
 20
72.1858001074
 30
0.0
 10
50.6577202959
 20
72.1327183839
 30
0.0
  0
SPLINE
  5
356
100
AcDbEntity
  8
0
100
AcDbSpline
 62
7
  6
BYLAYER
 70
0
 71
3
 72
9
 73
5
 74
0
 42
0.0000001
 43
0.0000001
 44
0.0000000001
 40
0.0
 40
0.0
 40
0.0
 40
0.0
 40
0.5382341616
 40
1.0
 40
1.0
 40
1.0
 40
1.0
 10
50.6577202959
 20
72.1327183839
 30
0.0
 10
50.5425892452
 20
72.0662478376
 30
0.0
 10
50.340197651
 20
71.9196861691
 30
0.0
 10
50.1905638974
 20
71.7150019289
 30
0.0
 10
50.1451585105
 20
71.610375268
 30
0.0
  0
SPLINE
  5
357
100
AcDbEntity
  8
0
100
AcDbSpline
 62
7
  6
BYLAYER
 70
0
 71
3
 72
9
 73
5
 74
0
 42
0.0000001
 43
0.0000001
 44
0.0000000001
 40
0.0
 40
0.0
 40
0.0
 40
0.0
 40
0.4920675814
 40
1.0
 40
1.0
 40
1.0
 40
1.0
 10
43.6635528119
 20
77.0219580225
 30
0.0
 10
43.6561630004
 20
77.0176915383
 30
0.0
 10
43.6382747337
 20
77.0136986812
 30
0.0
 10
43.6211279675
 20
77.0175860633
 30
0.0
 10
43.6126896213
 20
77.0201113958
 30
0.0
  0
SPLINE
  5
358
100
AcDbEntity
  8
0
100
AcDbSpline
 62
7
  6
BYLAYER
 70
0
 71
3
 72
11
 73
7
 74
0
 42
0.0000001
 43
0.0000001
 44
0.0000000001
 40
0.0
 40
0.0
 40
0.0
 40
0.0
 40
0.2893053316
 40
0.5486520477
 40
0.7819097146
 40
1.0
 40
1.0
 40
1.0
 40
1.0
 10
42.9209344731
 20
76.593209684
 30
0.0
 10
42.8381123605
 20
76.5448418899
 30
0.0
 10
42.6878647112
 20
76.4402237773
 30
0.0
 10
42.5084069903
 20
76.250014678
 30
0.0
 10
42.3949453843
 20
76.0398564612
 30
0.0
 10
42.3685826517
 20
75.8892213694
 30
0.0
 10
42.3685475266
 20
75.8169196104
 30
0.0
  0
SPLINE
  5
359
100
AcDbEntity
  8
0
100
AcDbSpline
 62
7
  6
BYLAYER
 70
0
 71
3
 72
9
 73
5
 74
0
 42
0.0000001
 43
0.0000001
 44
0.0000000001
 40
0.0
 40
0.0
 40
0.0
 40
0.0
 40
0.5122820005
 40
1.0
 40
1.0
 40
1.0
 40
1.0
 10
31.0103813134
 20
45.1112019754
 30
0.0
 10
28.0492694157
 20
46.7561690436
 30
0.0
 10
22.3887598756
 20
50.1893411725
 30
0.0
 10
17.0415224665
 20
54.0966616652
 30
0.0
 10
14.5334086595
 20
56.1238462017
 30
0.0
  0
SPLINE
  5
35A
100
AcDbEntity
  8
0
100
AcDbSpline
 62
7
  6
BYLAYER
 70
0
 71
3
 72
11
 73
7
 74
0
 42
0.0000001
 43
0.0000001
 44
0.0000000001
 40
0.0
 40
0.0
 40
0.0
 40
0.0
 40
0.2601650238
 40
0.5205286698
 40
0.7702670815
 40
1.0
 40
1.0
 40
1.0
 40
1.0
 10
32.4323574933
 20
44.9034746179
 30
0.0
 10
32.3072685342
 20
44.8845020489
 30
0.0
 10
32.0537623171
 20
44.8656546645
 30
0.0
 10
31.6787965061
 20
44.8915947229
 30
0.0
 10
31.3262010273
 20
44.9696240764
 30
0.0
 10
31.1086594223
 20
45.0580715848
 30
0.0
 10
31.0103813134
 20
45.1112019754
 30
0.0
  0
SPLINE
  5
35B
100
AcDbEntity
  8
0
100
AcDbSpline
 62
7
  6
BYLAYER
 70
0
 71
3
 72
11
 73
7
 74
0
 42
0.0000001
 43
0.0000001
 44
0.0000000001
 40
0.0
 40
0.0
 40
0.0
 40
0.0
 40
0.227462516
 40
0.4771373759
 40
0.7386960648
 40
1.0
 40
1.0
 40
1.0
 40
1.0
 10
35.3337118763
 20
44.4557543504
 30
0.0
 10
35.1386510096
 20
44.5707749248
 30
0.0
 10
34.6995655499
 20
44.7623646421
 30
0.0
 10
33.9805261801
 20
44.9307352225
 30
0.0
 10
33.2105108855
 20
44.9865098189
 30
0.0
 10
32.6891466571
 20
44.9450806424
 30
0.0
 10
32.4323574933
 20
44.9034746179
 30
0.0
  0
SPLINE
  5
35C
100
AcDbEntity
  8
0
100
AcDbSpline
 62
7
  6
BYLAYER
 70
0
 71
3
 72
11
 73
7
 74
0
 42
0.0000001
 43
0.0000001
 44
0.0000000001
 40
0.0
 40
0.0
 40
0.0
 40
0.0
 40
0.2185756818
 40
0.4554777398
 40
0.7154926333
 40
1.0
 40
1.0
 40
1.0
 40
1.0
 10
44.5396687515
 20
38.7767170351
 30
0.0
 10
44.519395161
 20
38.8509789725
 30
0.0
 10
44.4552001653
 20
39.0002438678
 30
0.0
 10
44.3030408506
 20
39.2033941297
 30
0.0
 10
44.0971872996
 20
39.3882154412
 30
0.0
 10
43.9350423437
 20
39.492118806
 30
0.0
 10
43.8473155815
 20
39.5405339727
 30
0.0
  0
SPLINE
  5
35D
100
AcDbEntity
  8
0
100
AcDbSpline
 62
7
  6
BYLAYER
 70
0
 71
3
 72
9
 73
5
 74
0
 42
0.0000001
 43
0.0000001
 44
0.0000000001
 40
0.0
 40
0.0
 40
0.0
 40
0.0
 40
0.2888661792
 40
1.0
 40
1.0
 40
1.0
 40
1.0
 10
44.7420766715
 20
38.5927611848
 30
0.0
 10
44.7177469487
 20
38.6036710322
 30
0.0
 10
44.6365542389
 20
38.6461236506
 30
0.0
 10
44.5635169718
 20
38.7155611303
 30
0.0
 10
44.5396687515
 20
38.7767170351
 30
0.0
  0
SPLINE
  5
35E
100
AcDbEntity
  8
0
100
AcDbSpline
 62
7
  6
BYLAYER
 70
0
 71
3
 72
11
 73
7
 74
0
 42
0.0000001
 43
0.0000001
 44
0.0000000001
 40
0.0
 40
0.0
 40
0.0
 40
0.0
 40
0.2327131904
 40
0.490115415
 40
0.7527968295
 40
1.0
 40
1.0
 40
1.0
 40
1.0
 10
46.3014475462
 20
38.4263089027
 30
0.0
 10
46.2305565027
 20
38.3854250743
 30
0.0
 10
46.0675512435
 20
38.3227338342
 30
0.0
 10
45.8040447101
 20
38.2837357487
 30
0.0
 10
45.5329400367
 20
38.2968808732
 30
0.0
 10
45.3574290483
 20
38.3418770991
 30
0.0
 10
45.2768769396
 20
38.3745625041
 30
0.0
  0
SPLINE
  5
35F
100
AcDbEntity
  8
0
100
AcDbSpline
 62
7
  6
BYLAYER
 70
0
 71
3
 72
10
 73
6
 74
0
 42
0.0000001
 43
0.0000001
 44
0.0000000001
 40
0.0
 40
0.0
 40
0.0
 40
0.0
 40
0.2952234141
 40
0.5660764671
 40
1.0
 40
1.0
 40
1.0
 40
1.0
 10
46.3667665264
 20
75.4204497681
 30
0.0
 10
46.3629231991
 20
75.4223138459
 30
0.0
 10
46.3556494325
 20
75.4261654986
 30
0.0
 10
46.3437308727
 20
75.4341797937
 30
0.0
 10
46.3377283122
 20
75.4441441454
 30
0.0
 10
46.3377376099
 20
75.4504224905
 30
0.0
  0
SPLINE
  5
360
100
AcDbEntity
  8
0
100
AcDbSpline
 62
7
  6
BYLAYER
 70
0
 71
3
 72
11
 73
7
 74
0
 42
0.0000001
 43
0.0000001
 44
0.0000000001
 40
0.0
 40
0.0
 40
0.0
 40
0.0
 40
0.2693111622
 40
0.5218001208
 40
0.7629896105
 40
1.0
 40
1.0
 40
1.0
 40
1.0
 10
53.5526240945
 20
41.2297388734
 30
0.0
 10
53.5290150769
 20
41.0715773154
 30
0.0
 10
53.4562215942
 20
40.7680814113
 30
0.0
 10
53.2601874458
 20
40.3556175282
 30
0.0
 10
52.9860513829
 20
40.0140669985
 30
0.0
 10
52.7566186297
 20
39.8410118342
 30
0.0
 10
52.6347415083
 20
39.7706410146
 30
0.0
  0
SPLINE
  5
361
100
AcDbEntity
  8
0
100
AcDbSpline
 62
7
  6
BYLAYER
 70
0
 71
3
 72
11
 73
7
 74
0
 42
0.0000001
 43
0.0000001
 44
0.0000000001
 40
0.0
 40
0.0
 40
0.0
 40
0.0
 40
0.2892308469
 40
0.5485503865
 40
0.7818414624
 40
1.0
 40
1.0
 40
1.0
 40
1.0
 10
18.6392222436
 20
69.4244744118
 30
0.0
 10
18.5615060351
 20
69.378966923
 30
0.0
 10
18.4205249846
 20
69.2805676336
 30
0.0
 10
18.252179156
 20
69.101753822
 30
0.0
 10
18.1457650666
 20
68.9042699937
 30
0.0
 10
18.1210263332
 20
68.7627601153
 30
0.0
 10
18.1209997133
 20
68.6948307078
 30
0.0
  0
SPLINE
  5
362
100
AcDbEntity
  8
0
100
AcDbSpline
 62
7
  6
BYLAYER
 70
0
 71
3
 72
17
 73
13
 74
0
 42
0.0000001
 43
0.0000001
 44
0.0000000001
 40
0.0
 40
0.0
 40
0.0
 40
0.0
 40
0.1286579126
 40
0.2703136129
 40
0.4174300214
 40
0.5617707777
 40
0.695443124
 40
0.8127153445
 40
0.8646740632
 40
0.9125145477
 40
0.9571387071
 40
1.0
 40
1.0
 40
1.0
 40
1.0
 10
20.477446685
 20
68.3628979007
 30
0.0
 10
20.4182432307
 20
68.3287169744
 30
0.0
 10
20.2841360784
 20
68.2734229268
 30
0.0
 10
20.0656278205
 20
68.2296471807
 30
0.0
 10
19.8344865957
 20
68.2233090222
 30
0.0
 10
19.6096361306
 20
68.2548715282
 30
0.0
 10
19.409264669
 20
68.3218142335
 30
0.0
 10
19.2698628518
 20
68.4066074821
 30
0.0
 10
19.1881198374
 20
68.488732973
 30
0.0
 10
19.1446231477
 20
68.5526047674
 30
0.0
 10
19.117900295
 20
68.6200400048
 30
0.0
 10
19.1118106175
 20
68.6667163651
 30
0.0
 10
19.1117933739
 20
68.6894906322
 30
0.0
  0
SPLINE
  5
363
100
AcDbEntity
  8
0
100
AcDbSpline
 62
7
  6
BYLAYER
 70
0
 71
3
 72
17
 73
13
 74
0
 42
0.0000001
 43
0.0000001
 44
0.0000000001
 40
0.0
 40
0.0
 40
0.0
 40
0.0
 40
0.1290309285
 40
0.2707946203
 40
0.4179618491
 40
0.5621986445
 40
0.6957070465
 40
0.812822919
 40
0.8647345443
 40
0.9125334932
 40
0.9571463994
 40
1.0
 40
1.0
 40
1.0
 40
1.0
 10
21.1848136868
 20
66.8933525547
 30
0.0
 10
21.0511326133
 20
66.8172551543
 30
0.0
 10
20.7492053309
 20
66.6943459855
 30
0.0
 10
20.25799752
 20
66.5978154343
 30
0.0
 10
19.7393251312
 20
66.5848757294
 30
0.0
 10
19.2352919795
 20
66.656907876
 30
0.0
 10
18.7865226454
 20
66.8078812956
 30
0.0
 10
18.4746184575
 20
66.9986199133
 30
0.0
 10
18.2916650552
 20
67.1829174917
 30
0.0
 10
18.1944796727
 20
67.3263421856
 30
0.0
 10
18.134605637
 20
67.4775733406
 30
0.0
 10
18.1209796599
 20
67.5822901325
 30
0.0
 10
18.1209996825
 20
67.6333775656
 30
0.0
  0
SPLINE
  5
364
100
AcDbEntity
  8
0
100
AcDbSpline
 62
7
  6
BYLAYER
 70
0
 71
3
 72
11
 73
7
 74
0
 42
0.0000001
 43
0.0000001
 44
0.0000000001
 40
0.0
 40
0.0
 40
0.0
 40
0.0
 40
0.2824138189
 40
0.5399776979
 40
0.7760994832
 40
1.0
 40
1.0
 40
1.0
 40
1.0
 10
32.421624581
 20
62.5771956948
 30
0.0
 10
32.4043206849
 20
62.5647170201
 30
0.0
 10
32.3730392168
 20
62.5381545271
 30
0.0
 10
32.3362260776
 20
62.4919496778
 30
0.0
 10
32.3132585068
 20
62.4421867155
 30
0.0
 10
32.3080068386
 20
62.4072459961
 30
0.0
 10
32.3080123515
 20
62.390332139
 30
0.0
  0
SPLINE
  5
365
100
AcDbEntity
  8
0
100
AcDbSpline
 62
7
  6
BYLAYER
 70
0
 71
3
 72
9
 73
5
 74
0
 42
0.0000001
 43
0.0000001
 44
0.0000000001
 40
0.0
 40
0.0
 40
0.0
 40
0.0
 40
0.5125495316
 40
1.0
 40
1.0
 40
1.0
 40
1.0
 10
36.1119286856
 20
47.9550163841
 30
0.0
 10
36.0595456847
 20
47.8606749919
 30
0.0
 10
35.935542375
 20
47.6873358948
 30
0.0
 10
35.7680695855
 20
47.554328366
 30
0.0
 10
35.6791726115
 20
47.5030535247
 30
0.0
  0
SPLINE
  5
366
100
AcDbEntity
  8
0
100
AcDbSpline
 62
7
  6
BYLAYER
 70
0
 71
3
 72
10
 73
6
 74
0
 42
0.0000001
 43
0.0000001
 44
0.0000000001
 40
0.0
 40
0.0
 40
0.0
 40
0.0
 40
0.2326972508
 40
0.4790159836
 40
1.0
 40
1.0
 40
1.0
 40
1.0
 10
44.1001019883
 20
44.4589447825
 30
0.0
 10
44.1001019883
 20
44.5693907102
 30
0.0
 10
44.0894498415
 20
44.7968786059
 30
0.0
 10
44.0280883676
 20
45.2677464467
 30
0.0
 10
43.9346358372
 20
45.6227447587
 30
0.0
 10
43.8473164083
 20
45.8540907927
 30
0.0
  0
SPLINE
  5
367
100
AcDbEntity
  8
0
100
AcDbSpline
 62
7
  6
BYLAYER
 70
0
 71
3
 72
11
 73
7
 74
0
 42
0.0000001
 43
0.0000001
 44
0.0000000001
 40
0.0
 40
0.0
 40
0.0
 40
0.0
 40
0.2259293976
 40
0.4644554192
 40
0.7217473913
 40
1.0
 40
1.0
 40
1.0
 40
1.0
 10
43.8473164083
 20
43.3924332125
 30
0.0
 10
43.8927260191
 20
43.4626205921
 30
0.0
 10
43.9709678872
 20
43.6170692961
 30
0.0
 10
44.0479565283
 20
43.8738525964
 30
0.0
 10
44.0914609505
 20
44.1576582086
 30
0.0
 10
44.1001019883
 20
44.3559886307
 30
0.0
 10
44.1001019883
 20
44.4589447825
 30
0.0
  0
SPLINE
  5
368
100
AcDbEntity
  8
0
100
AcDbSpline
 62
7
  6
BYLAYER
 70
0
 71
3
 72
11
 73
7
 74
0
 42
0.0000001
 43
0.0000001
 44
0.0000000001
 40
0.0
 40
0.0
 40
0.0
 40
0.0
 40
0.2355705361
 40
0.489930495
 40
0.7495760543
 40
1.0
 40
1.0
 40
1.0
 40
1.0
 10
34.6532761967
 20
58.8392731811
 30
0.0
 10
34.6130488681
 20
58.8203362101
 30
0.0
 10
34.5246213939
 20
58.7908314998
 30
0.0
 10
34.383982268
 20
58.7705016314
 30
0.0
 10
34.239122169
 20
58.7737169959
 30
0.0
 10
34.143940662
 20
58.7917405057
 30
0.0
 10
34.0985973781
 20
58.8050815947
 30
0.0
  0
SPLINE
  5
369
100
AcDbEntity
  8
0
100
AcDbSpline
 62
7
  6
BYLAYER
 70
0
 71
3
 72
11
 73
7
 74
0
 42
0.0000001
 43
0.0000001
 44
0.0000000001
 40
0.0
 40
0.0
 40
0.0
 40
0.0
 40
0.2767221281
 40
0.5368165331
 40
0.7781333518
 40
1.0
 40
1.0
 40
1.0
 40
1.0
 10
34.0985973781
 20
58.8050815947
 30
0.0
 10
33.9197884319
 20
58.859542889
 30
0.0
 10
33.5777838603
 20
58.9823572292
 30
0.0
 10
33.1049142686
 20
59.214685823
 30
0.0
 10
32.6965558144
 20
59.4855023062
 30
0.0
 10
32.4635009897
 20
59.6968160211
 30
0.0
 10
32.3624069865
 20
59.807448908
 30
0.0
  0
SPLINE
  5
36A
100
AcDbEntity
  8
0
100
AcDbSpline
 62
7
  6
BYLAYER
 70
0
 71
3
 72
9
 73
5
 74
0
 42
0.0000001
 43
0.0000001
 44
0.0000000001
 40
0.0
 40
0.0
 40
0.0
 40
0.0
 40
0.5219596752
 40
1.0
 40
1.0
 40
1.0
 40
1.0
 10
32.3624069865
 20
59.807448908
 30
0.0
 10
32.3457636325
 20
59.8267275697
 30
0.0
 10
32.3185703842
 20
59.8683751022
 30
0.0
 10
32.3080199328
 20
59.917498965
 30
0.0
 10
32.3080123468
 20
59.9408248862
 30
0.0
  0
SPLINE
  5
36B
100
AcDbEntity
  8
0
100
AcDbSpline
 62
7
  6
BYLAYER
 70
0
 71
3
 72
9
 73
5
 74
0
 42
0.0000001
 43
0.0000001
 44
0.0000000001
 40
0.0
 40
0.0
 40
0.0
 40
0.0
 40
0.2656882726
 40
1.0
 40
1.0
 40
1.0
 40
1.0
 10
42.0379527136
 20
43.7362386445
 30
0.0
 10
42.0986016544
 20
43.6894137191
 30
0.0
 10
42.3320768286
 20
43.5202792248
 30
0.0
 10
42.588013485
 20
43.3801538831
 30
0.0
 10
42.7857983423
 20
43.3044795371
 30
0.0
  0
SPLINE
  5
36C
100
AcDbEntity
  8
0
100
AcDbSpline
 62
7
  6
BYLAYER
 70
0
 71
3
 72
10
 73
6
 74
0
 42
0.0000001
 43
0.0000001
 44
0.0000000001
 40
0.0
 40
0.0
 40
0.0
 40
0.0
 40
0.5326335315
 40
0.7712751014
 40
1.0
 40
1.0
 40
1.0
 40
1.0
 10
32.1927828351
 20
52.6972579191
 30
0.0
 10
32.1623866248
 20
52.6714807687
 30
0.0
 10
32.1227033249
 20
52.627014693
 30
0.0
 10
32.0942956842
 20
52.5571200222
 30
0.0
 10
32.0896531781
 20
52.5219783835
 30
0.0
 10
32.089666524
 20
52.5048639106
 30
0.0
  0
SPLINE
  5
36D
100
AcDbEntity
  8
0
100
AcDbSpline
 62
7
  6
BYLAYER
 70
0
 71
3
 72
11
 73
7
 74
0
 42
0.0000001
 43
0.0000001
 44
0.0000000001
 40
0.0
 40
0.0
 40
0.0
 40
0.0
 40
0.2348368119
 40
0.4897200647
 40
0.7500225265
 40
1.0
 40
1.0
 40
1.0
 40
1.0
 10
34.4610912019
 20
47.4676011326
 30
0.0
 10
34.4211395669
 20
47.4479314675
 30
0.0
 10
34.3325550814
 20
47.4173926597
 30
0.0
 10
34.1911676135
 20
47.3966472026
 30
0.0
 10
34.0454546388
 20
47.4005372533
 30
0.0
 10
33.9499385877
 20
47.4197590577
 30
0.0
 10
33.9047047783
 20
47.4339322186
 30
0.0
  0
SPLINE
  5
36E
100
AcDbEntity
  8
0
100
AcDbSpline
 62
7
  6
BYLAYER
 70
0
 71
3
 72
11
 73
7
 74
0
 42
0.0000001
 43
0.0000001
 44
0.0000000001
 40
0.0
 40
0.0
 40
0.0
 40
0.0
 40
0.2763901996
 40
0.5363403979
 40
0.7777658109
 40
1.0
 40
1.0
 40
1.0
 40
1.0
 10
33.9047047783
 20
47.4339322186
 30
0.0
 10
33.7227427255
 20
47.4898958466
 30
0.0
 10
33.374600903
 20
47.615781025
 30
0.0
 10
32.8928868479
 20
47.8530042815
 30
0.0
 10
32.4761071539
 20
48.1289347527
 30
0.0
 10
32.23758854
 20
48.3438523863
 30
0.0
 10
32.1337850757
 20
48.4563503739
 30
0.0
  0
SPLINE
  5
36F
100
AcDbEntity
  8
0
100
AcDbSpline
 62
7
  6
BYLAYER
 70
0
 71
3
 72
9
 73
5
 74
0
 42
0.0000001
 43
0.0000001
 44
0.0000000001
 40
0.0
 40
0.0
 40
0.0
 40
0.0
 40
0.5161683802
 40
1.0
 40
1.0
 40
1.0
 40
1.0
 10
32.1337850757
 20
48.4563503739
 30
0.0
 10
32.1200151918
 20
48.4757530736
 30
0.0
 10
32.0979023516
 20
48.5170027304
 30
0.0
 10
32.0896839149
 20
48.5633505299
 30
0.0
 10
32.089666524
 20
48.5856523084
 30
0.0
  0
SPLINE
  5
370
100
AcDbEntity
  8
0
100
AcDbSpline
 62
7
  6
BYLAYER
 70
0
 71
3
 72
9
 73
5
 74
0
 42
0.0000001
 43
0.0000001
 44
0.0000000001
 40
0.0
 40
0.0
 40
0.0
 40
0.0
 40
0.2656882726
 40
1.0
 40
1.0
 40
1.0
 40
1.0
 10
18.7033317837
 20
57.2081835436
 30
0.0
 10
18.7639807245
 20
57.1613586183
 30
0.0
 10
18.9974558988
 20
56.9922241239
 30
0.0
 10
19.2533925551
 20
56.8520987823
 30
0.0
 10
19.4511774124
 20
56.7764244363
 30
0.0
  0
SPLINE
  5
371
100
AcDbEntity
  8
0
100
AcDbSpline
 62
7
  6
BYLAYER
 70
0
 71
3
 72
9
 73
5
 74
0
 42
0.0000001
 43
0.0000001
 44
0.0000000001
 40
0.0
 40
0.0
 40
0.0
 40
0.0
 40
0.2544945523
 40
1.0
 40
1.0
 40
1.0
 40
1.0
 10
26.4815387603
 20
52.7175352439
 30
0.0
 10
26.5019940801
 20
52.7017424071
 30
0.0
 10
26.5830077603
 20
52.6405189852
 30
0.0
 10
26.6665893687
 20
52.5826757295
 30
0.0
 10
26.7303006389
 20
52.5417899728
 30
0.0
  0
SPLINE
  5
372
100
AcDbEntity
  8
0
100
AcDbSpline
 62
7
  6
BYLAYER
 70
0
 71
3
 72
9
 73
5
 74
0
 42
0.0000001
 43
0.0000001
 44
0.0000000001
 40
0.0
 40
0.0
 40
0.0
 40
0.0
 40
0.2544474388
 40
1.0
 40
1.0
 40
1.0
 40
1.0
 10
26.7303006389
 20
52.5417899728
 30
0.0
 10
26.7480120363
 20
52.5304239478
 30
0.0
 10
26.8180510464
 20
52.4864326056
 30
0.0
 10
26.8898321791
 20
52.445200971
 30
0.0
 10
26.9442778284
 20
52.4162532114
 30
0.0
  0
SPLINE
  5
373
100
AcDbEntity
  8
0
100
AcDbSpline
 62
7
  6
BYLAYER
 70
0
 71
3
 72
9
 73
5
 74
0
 42
0.0000001
 43
0.0000001
 44
0.0000000001
 40
0.0
 40
0.0
 40
0.0
 40
0.0
 40
0.273209685
 40
1.0
 40
1.0
 40
1.0
 40
1.0
 10
47.0782857164
 20
99.8266552558
 30
0.0
 10
47.0986513887
 20
99.8408953892
 30
0.0
 10
47.1705786079
 20
99.8963495933
 30
0.0
 10
47.2318620719
 20
99.9678072394
 30
0.0
 10
47.2614795855
 20
100.0269081284
 30
0.0
  0
SPLINE
  5
374
100
AcDbEntity
  8
0
100
AcDbSpline
 62
7
  6
BYLAYER
 70
0
 71
3
 72
11
 73
7
 74
0
 42
0.0000001
 43
0.0000001
 44
0.0000000001
 40
0.0
 40
0.0
 40
0.0
 40
0.0
 40
0.2177227832
 40
0.4508712161
 40
0.7104668615
 40
1.0
 40
1.0
 40
1.0
 40
1.0
 10
45.117338319
 20
86.9870977415
 30
0.0
 10
45.1173400098
 20
86.943309179
 30
0.0
 10
45.1012369995
 20
86.8520111675
 30
0.0
 10
45.0319891152
 20
86.7247697961
 30
0.0
 10
44.9225108359
 20
86.6098412277
 30
0.0
 10
44.8309944484
 20
86.546736383
 30
0.0
 10
44.7805647502
 20
86.517620957
 30
0.0
  0
SPLINE
  5
375
100
AcDbEntity
  8
0
100
AcDbSpline
 62
7
  6
BYLAYER
 70
0
 71
3
 72
9
 73
5
 74
0
 42
0.0000001
 43
0.0000001
 44
0.0000000001
 40
0.0
 40
0.0
 40
0.0
 40
0.0
 40
0.4825015748
 40
1.0
 40
1.0
 40
1.0
 40
1.0
 10
50.0939740685
 20
71.3232207916
 30
0.0
 10
50.0973902499
 20
71.2548851766
 30
0.0
 10
50.1282981048
 20
71.1137519508
 30
0.0
 10
50.1988913051
 20
70.9885583863
 30
0.0
 10
50.2421604216
 20
70.9292882755
 30
0.0
  0
SPLINE
  5
376
100
AcDbEntity
  8
0
100
AcDbSpline
 62
7
  6
BYLAYER
 70
0
 71
3
 72
11
 73
7
 74
0
 42
0.0000001
 43
0.0000001
 44
0.0000000001
 40
0.0
 40
0.0
 40
0.0
 40
0.0
 40
0.2249117379
 40
0.4613081683
 40
0.7182840837
 40
1.0
 40
1.0
 40
1.0
 40
1.0
 10
67.0993969368
 20
85.3339215962
 30
0.0
 10
67.0994124598
 20
85.3021100441
 30
0.0
 10
67.0898223149
 20
85.2365256644
 30
0.0
 10
67.0479135757
 20
85.1428018857
 30
0.0
 10
66.9804073665
 20
85.0553692888
 30
0.0
 10
66.9227568145
 20
85.0048598051
 30
0.0
 10
66.8908414125
 20
84.9810038466
 30
0.0
  0
SPLINE
  5
377
100
AcDbEntity
  8
0
100
AcDbSpline
 62
7
  6
BYLAYER
 70
0
 71
3
 72
9
 73
5
 74
0
 42
0.0000001
 43
0.0000001
 44
0.0000000001
 40
0.0
 40
0.0
 40
0.0
 40
0.0
 40
0.4083974837
 40
1.0
 40
1.0
 40
1.0
 40
1.0
 10
67.0994259303
 20
88.7043911909
 30
0.0
 10
67.0994270648
 20
88.6884350952
 30
0.0
 10
67.0905287328
 20
88.6496681094
 30
0.0
 10
67.0750270835
 20
88.6138368162
 30
0.0
 10
67.065144005
 20
88.5929423668
 30
0.0
  0
SPLINE
  5
378
100
AcDbEntity
  8
0
100
AcDbSpline
 62
7
  6
BYLAYER
 70
0
 71
3
 72
11
 73
7
 74
0
 42
0.0000001
 43
0.0000001
 44
0.0000000001
 40
0.0
 40
0.0
 40
0.0
 40
0.0
 40
0.2249117379
 40
0.4613081682
 40
0.7182840837
 40
1.0
 40
1.0
 40
1.0
 40
1.0
 10
53.687763018
 20
78.3239053733
 30
0.0
 10
53.6877474951
 20
78.3557169254
 30
0.0
 10
53.69733764
 20
78.4213013052
 30
0.0
 10
53.7392463793
 20
78.515025084
 30
0.0
 10
53.8067525886
 20
78.602457681
 30
0.0
 10
53.8644031407
 20
78.6529671647
 30
0.0
 10
53.8963185427
 20
78.6768231233
 30
0.0
  0
SPLINE
  5
379
100
AcDbEntity
  8
0
100
AcDbSpline
 62
7
  6
BYLAYER
 70
0
 71
3
 72
17
 73
13
 74
0
 42
0.0000001
 43
0.0000001
 44
0.0000000001
 40
0.0
 40
0.0
 40
0.0
 40
0.0
 40
0.0428660596
 40
0.0872074331
 40
0.1342736659
 40
0.1849285132
 40
0.2982762873
 40
0.4274526578
 40
0.5685673258
 40
0.715613083
 40
0.8616774972
 40
1.0
 40
1.0
 40
1.0
 40
1.0
 10
43.4574010487
 20
43.0123677821
 30
0.0
 10
43.3861011454
 20
42.9712074858
 30
0.0
 10
43.2305926606
 20
42.9043624514
 30
0.0
 10
42.9749211143
 20
42.8582440919
 30
0.0
 10
42.7004739059
 20
42.8652243426
 30
0.0
 10
42.3017572666
 20
42.9475502858
 30
0.0
 10
41.7848394708
 20
43.1887518181
 30
0.0
 10
41.1985520339
 20
43.6419170027
 30
0.0
 10
40.6584185481
 20
44.2392180395
 30
0.0
 10
40.2009411207
 20
44.9404441439
 30
0.0
 10
39.8570525508
 20
45.6976507867
 30
0.0
 10
39.7129929026
 20
46.2279961302
 30
0.0
 10
39.669009653
 20
46.489989206
 30
0.0
  0
SPLINE
  5
37A
100
AcDbEntity
  8
0
100
AcDbSpline
 62
7
  6
BYLAYER
 70
0
 71
3
 72
12
 73
8
 74
0
 42
0.0000001
 43
0.0000001
 44
0.0000000001
 40
0.0
 40
0.0
 40
0.0
 40
0.0
 40
0.2989610183
 40
0.5621811691
 40
0.7913931076
 40
0.8971784851
 40
1.0
 40
1.0
 40
1.0
 40
1.0
 10
65.0991280123
 20
106.3604519356
 30
0.0
 10
64.9912603792
 20
106.4467607492
 30
0.0
 10
64.7740772376
 20
106.5927742701
 30
0.0
 10
64.430682365
 20
106.7280604664
 30
0.0
 10
64.1492612364
 20
106.751710598
 30
0.0
 10
63.950162276
 20
106.7093512077
 30
0.0
 10
63.8612293127
 20
106.6700188435
 30
0.0
 10
63.8200761621
 20
106.6462724262
 30
0.0
  0
SPLINE
  5
37B
100
AcDbEntity
  8
0
100
AcDbSpline
 62
7
  6
BYLAYER
 70
0
 71
3
 72
9
 73
5
 74
0
 42
0.0000001
 43
0.0000001
 44
0.0000000001
 40
0.0
 40
0.0
 40
0.0
 40
0.0
 40
0.4899419273
 40
1.0
 40
1.0
 40
1.0
 40
1.0
 10
70.8543551141
 20
102.4444429428
 30
0.0
 10
69.8691858549
 20
103.0132178124
 30
0.0
 10
67.9034814687
 20
104.2534766282
 30
0.0
 10
66.0305912905
 20
105.6290936995
 30
0.0
 10
65.0991280123
 20
106.3604519356
 30
0.0
  0
SPLINE
  5
37C
100
AcDbEntity
  8
0
100
AcDbSpline
 62
7
  6
BYLAYER
 70
0
 71
3
 72
9
 73
5
 74
0
 42
0.0000001
 43
0.0000001
 44
0.0000000001
 40
0.0
 40
0.0
 40
0.0
 40
0.0
 40
0.2439113164
 40
1.0
 40
1.0
 40
1.0
 40
1.0
 10
74.8595263447
 20
100.4182725151
 30
0.0
 10
74.5246434857
 20
100.5635733577
 30
0.0
 10
73.1608771693
 20
101.1803829612
 30
0.0
 10
71.8343457578
 20
101.8786578807
 30
0.0
 10
70.8543551141
 20
102.4444429428
 30
0.0
  0
SPLINE
  5
37D
100
AcDbEntity
  8
0
100
AcDbSpline
 62
7
  6
BYLAYER
 70
0
 71
3
 72
13
 73
9
 74
0
 42
0.0000001
 43
0.0000001
 44
0.0000000001
 40
0.0
 40
0.0
 40
0.0
 40
0.0
 40
0.1190419096
 40
0.2451736627
 40
0.507657103
 40
0.766019579
 40
0.8872664935
 40
1.0
 40
1.0
 40
1.0
 40
1.0
 10
43.1094038687
 20
74.946572029
 30
0.0
 10
43.2029925913
 20
74.9052193977
 30
0.0
 10
43.4019583064
 20
74.8336947484
 30
0.0
 10
43.8279082532
 20
74.7355568181
 30
0.0
 10
44.3870973215
 20
74.7004965021
 30
0.0
 10
44.9383462008
 20
74.7766032811
 30
0.0
 10
45.3418440911
 20
74.9070547577
 30
0.0
 10
45.5242905188
 20
74.9936123088
 30
0.0
 10
45.6082127363
 20
75.0420456819
 30
0.0
  0
SPLINE
  5
37E
100
AcDbEntity
  8
0
100
AcDbSpline
 62
7
  6
BYLAYER
 70
0
 71
3
 72
13
 73
9
 74
0
 42
0.0000001
 43
0.0000001
 44
0.0000000001
 40
0.0
 40
0.0
 40
0.0
 40
0.0
 40
0.2580502876
 40
0.5254774944
 40
0.6555302264
 40
0.7793031327
 40
0.8946600679
 40
1.0
 40
1.0
 40
1.0
 40
1.0
 10
78.2674644062
 20
97.5784565203
 30
0.0
 10
78.2181566878
 20
97.8111581289
 30
0.0
 10
78.0562995666
 20
98.2728149562
 30
0.0
 10
77.7411922366
 20
98.7936323269
 30
0.0
 10
77.4289767458
 20
99.1600268534
 30
0.0
 10
77.1788742279
 20
99.3921499966
 30
0.0
 10
76.9190136149
 20
99.5762782513
 30
0.0
 10
76.7358232047
 20
99.6675023954
 30
0.0
 10
76.6450461387
 20
99.7019725203
 30
0.0
  0
SPLINE
  5
37F
100
AcDbEntity
  8
0
100
AcDbSpline
 62
7
  6
BYLAYER
 70
0
 71
3
 72
11
 73
7
 74
0
 42
0.0000001
 43
0.0000001
 44
0.0000000001
 40
0.0
 40
0.0
 40
0.0
 40
0.0
 40
0.2285976854
 40
0.4668142338
 40
0.7225712186
 40
1.0
 40
1.0
 40
1.0
 40
1.0
 10
11.3641550356
 20
83.4843035603
 30
0.0
 10
11.3641287969
 20
83.4319096775
 30
0.0
 10
11.3782376445
 20
83.3244588157
 30
0.0
 10
11.4402110218
 20
83.1692910432
 30
0.0
 10
11.5408638556
 20
83.0224808552
 30
0.0
 10
11.6278240064
 20
82.9356567581
 30
0.0
 10
11.6760919057
 20
82.8942639171
 30
0.0
  0
SPLINE
  5
380
100
AcDbEntity
  8
0
100
AcDbSpline
 62
7
  6
BYLAYER
 70
0
 71
3
 72
9
 73
5
 74
0
 42
0.0000001
 43
0.0000001
 44
0.0000000001
 40
0.0
 40
0.0
 40
0.0
 40
0.0
 40
0.2720958011
 40
1.0
 40
1.0
 40
1.0
 40
1.0
 10
56.9913052604
 20
94.1052720013
 30
0.0
 10
57.0106124934
 20
94.1201555724
 30
0.0
 10
57.078838852
 20
94.1780447596
 30
0.0
 10
57.1356266284
 20
94.2512981213
 30
0.0
 10
57.1621969583
 20
94.3108556025
 30
0.0
  0
SPLINE
  5
381
100
AcDbEntity
  8
0
100
AcDbSpline
 62
7
  6
BYLAYER
 70
0
 71
3
 72
11
 73
7
 74
0
 42
0.0000001
 43
0.0000001
 44
0.0000000001
 40
0.0
 40
0.0
 40
0.0
 40
0.0
 40
0.2177227832
 40
0.4508712161
 40
0.7104668615
 40
1.0
 40
1.0
 40
1.0
 40
1.0
 10
55.016874471
 20
81.2717271782
 30
0.0
 10
55.0168761618
 20
81.2279386157
 30
0.0
 10
55.0007731515
 20
81.1366406042
 30
0.0
 10
54.9315252672
 20
81.0093992329
 30
0.0
 10
54.8220469879
 20
80.8944706644
 30
0.0
 10
54.7305306005
 20
80.8313658197
 30
0.0
 10
54.6801009023
 20
80.8022503937
 30
0.0
  0
SPLINE
  5
382
100
AcDbEntity
  8
0
100
AcDbSpline
 62
7
  6
BYLAYER
 70
0
 71
3
 72
9
 73
5
 74
0
 42
0.0000001
 43
0.0000001
 44
0.0000000001
 40
0.0
 40
0.0
 40
0.0
 40
0.0
 40
0.495538481
 40
1.0
 40
1.0
 40
1.0
 40
1.0
 10
32.4323620921
 20
47.4819169723
 30
0.0
 10
32.6607361075
 20
47.492944552
 30
0.0
 10
33.1230538782
 20
47.4831353392
 30
0.0
 10
33.5826228838
 20
47.4424131187
 30
0.0
 10
33.814340235
 20
47.4204365326
 30
0.0
  0
LINE
  5
383
100
AcDbEntity
  8
0
100
AcDbLine
 62
7
  6
BYLAYER
 10
33.814340235
 20
47.4204365326
 11
33.9049384251
 21
47.4117889784
  0
SPLINE
  5
384
100
AcDbEntity
  8
0
100
AcDbSpline
 62
7
  6
BYLAYER
 70
0
 71
3
 72
9
 73
5
 74
0
 42
0.0000001
 43
0.0000001
 44
0.0000000001
 40
0.0
 40
0.0
 40
0.0
 40
0.0
 40
0.2568886433
 40
1.0
 40
1.0
 40
1.0
 40
1.0
 10
33.9049384251
 20
47.4117889784
 30
0.0
 10
33.9477334591
 20
47.4076862688
 30
0.0
 10
34.1143171151
 20
47.3916696595
 30
0.0
 10
34.2809613166
 20
47.3761405855
 30
0.0
 10
34.4049447952
 20
47.3664401721
 30
0.0
  0
SPLINE
  5
385
100
AcDbEntity
  8
0
100
AcDbSpline
 62
7
  6
BYLAYER
 70
0
 71
3
 72
10
 73
6
 74
0
 42
0.0000001
 43
0.0000001
 44
0.0000000001
 40
0.0
 40
0.0
 40
0.0
 40
0.0
 40
0.5511886794
 40
0.7888770671
 40
1.0
 40
1.0
 40
1.0
 40
1.0
 10
34.4701166398
 20
47.3615282196
 30
0.0
 10
34.6287524972
 20
47.3500509518
 30
0.0
 10
34.8564728542
 20
47.3379514023
 30
0.0
 10
35.1450105047
 20
47.3490283762
 30
0.0
 10
35.2738236774
 20
47.3648068284
 30
0.0
 10
35.3337194643
 20
47.3759386184
 30
0.0
  0
SPLINE
  5
386
100
AcDbEntity
  8
0
100
AcDbSpline
 62
7
  6
BYLAYER
 70
0
 71
3
 72
11
 73
7
 74
0
 42
0.0000001
 43
0.0000001
 44
0.0000000001
 40
0.0
 40
0.0
 40
0.0
 40
0.0
 40
0.2514867114
 40
0.5031010685
 40
0.7539801548
 40
1.0
 40
1.0
 40
1.0
 40
1.0
 10
31.0098733127
 20
48.244819804
 30
0.0
 10
31.0873887188
 20
48.1266691421
 30
0.0
 10
31.2682049725
 20
47.9056060831
 30
0.0
 10
31.6136824445
 20
47.6517869856
 30
0.0
 10
32.0125663137
 20
47.5028358796
 30
0.0
 10
32.2942100326
 20
47.477067676
 30
0.0
 10
32.4323620921
 20
47.4819169723
 30
0.0
  0
SPLINE
  5
387
100
AcDbEntity
  8
0
100
AcDbSpline
 62
7
  6
BYLAYER
 70
0
 71
3
 72
11
 73
7
 74
0
 42
0.0000001
 43
0.0000001
 44
0.0000000001
 40
0.0
 40
0.0
 40
0.0
 40
0.0
 40
0.2279461834
 40
0.4748015237
 40
0.7345702451
 40
1.0
 40
1.0
 40
1.0
 40
1.0
 10
30.234892441
 20
50.6281471246
 30
0.0
 10
30.234892441
 20
50.4354141492
 30
0.0
 10
30.2736230064
 20
50.0335456775
 30
0.0
 10
30.4267581946
 20
49.4296539978
 30
0.0
 10
30.6711936996
 20
48.8224257909
 30
0.0
 10
30.8883305878
 20
48.433484659
 30
0.0
 10
31.0098733127
 20
48.244819804
 30
0.0
  0
SPLINE
  5
388
100
AcDbEntity
  8
0
100
AcDbSpline
 62
7
  6
BYLAYER
 70
0
 71
3
 72
17
 73
13
 74
0
 42
0.0000001
 43
0.0000001
 44
0.0000000001
 40
0.0
 40
0.0
 40
0.0
 40
0.0
 40
0.042856216
 40
0.0874836211
 40
0.1353102614
 40
0.1872757815
 40
0.3045355265
 40
0.4381979082
 40
0.5825371072
 40
0.7296850391
 40
0.8713145374
 40
1.0
 40
1.0
 40
1.0
 40
1.0
 10
32.917899704
 20
103.5946106607
 30
0.0
 10
32.9178991073
 20
103.5618761354
 30
0.0
 10
32.9265883185
 20
103.4947580519
 30
0.0
 10
32.9651407059
 20
103.39789054
 30
0.0
 10
33.0275337438
 20
103.3059940779
 30
0.0
 10
33.1451521136
 20
103.1880502013
 30
0.0
 10
33.3454417566
 20
103.0660723907
 30
0.0
 10
33.633484755
 20
102.9698551892
 30
0.0
 10
33.9567153863
 20
102.9244387213
 30
0.0
 10
34.2889876429
 20
102.9335927396
 30
0.0
 10
34.603132078
 20
102.9964706591
 30
0.0
 10
34.7959044081
 20
103.0759875841
 30
0.0
 10
34.8810285982
 20
103.1251337648
 30
0.0
  0
SPLINE
  5
389
100
AcDbEntity
  8
0
100
AcDbSpline
 62
7
  6
BYLAYER
 70
0
 71
3
 72
9
 73
5
 74
0
 42
0.0000001
 43
0.0000001
 44
0.0000000001
 40
0.0
 40
0.0
 40
0.0
 40
0.0
 40
0.2724376756
 40
1.0
 40
1.0
 40
1.0
 40
1.0
 10
66.8908414125
 20
88.3899014381
 30
0.0
 10
66.9104457865
 20
88.4045552135
 30
0.0
 10
66.979730995
 20
88.4615637614
 30
0.0
 10
67.0377642221
 20
88.5341384818
 30
0.0
 10
67.0653541662
 20
88.5933944689
 30
0.0
  0
SPLINE
  5
38A
100
AcDbEntity
  8
0
100
AcDbSpline
 62
7
  6
BYLAYER
 70
0
 71
3
 72
11
 73
7
 74
0
 42
0.0000001
 43
0.0000001
 44
0.0000000001
 40
0.0
 40
0.0
 40
0.0
 40
0.0
 40
0.2298757521
 40
0.4701693026
 40
0.7259344689
 40
1.0
 40
1.0
 40
1.0
 40
1.0
 10
52.6347415083
 20
39.7706410146
 30
0.0
 10
52.5091700324
 20
39.6981371059
 30
0.0
 10
52.2325325303
 20
39.5820034009
 30
0.0
 10
51.7771675056
 20
39.5071470099
 30
0.0
 10
51.2888733886
 20
39.5292373047
 30
0.0
 10
50.9614263128
 20
39.6048071855
 30
0.0
 10
50.7964361966
 20
39.6564176559
 30
0.0
  0
SPLINE
  5
38B
100
AcDbEntity
  8
0
100
AcDbSpline
 62
7
  6
BYLAYER
 70
0
 71
3
 72
11
 73
7
 74
0
 42
0.0000001
 43
0.0000001
 44
0.0000000001
 40
0.0
 40
0.0
 40
0.0
 40
0.0
 40
0.2177227832
 40
0.4508712161
 40
0.7104668615
 40
1.0
 40
1.0
 40
1.0
 40
1.0
 10
35.2178021669
 20
92.7024683048
 30
0.0
 10
35.2178038577
 20
92.6586797423
 30
0.0
 10
35.2017008474
 20
92.5673817308
 30
0.0
 10
35.1324529631
 20
92.4401403594
 30
0.0
 10
35.0229746838
 20
92.325211791
 30
0.0
 10
34.9314582964
 20
92.2621069463
 30
0.0
 10
34.8810285982
 20
92.2329915202
 30
0.0
  0
SPLINE
  5
38C
100
AcDbEntity
  8
0
100
AcDbSpline
 62
7
  6
BYLAYER
 70
0
 71
3
 72
11
 73
7
 74
0
 42
0.0000001
 43
0.0000001
 44
0.0000000001
 40
0.0
 40
0.0
 40
0.0
 40
0.0
 40
0.2481562341
 40
0.5107870855
 40
0.7676700362
 40
1.0
 40
1.0
 40
1.0
 40
1.0
 10
41.2654980047
 20
65.8111988112
 30
0.0
 10
41.4487747634
 20
65.7399628841
 30
0.0
 10
41.8455897091
 20
65.6419117429
 30
0.0
 10
42.456925519
 20
65.6163709134
 30
0.0
 10
43.0494489745
 20
65.7065179032
 30
0.0
 10
43.4157316797
 20
65.8481486257
 30
0.0
 10
43.5751616316
 20
65.9401950019
 30
0.0
  0
SPLINE
  5
38D
100
AcDbEntity
  8
0
100
AcDbSpline
 62
7
  6
BYLAYER
 70
0
 71
3
 72
9
 73
5
 74
0
 42
0.0000001
 43
0.0000001
 44
0.0000000001
 40
0.0
 40
0.0
 40
0.0
 40
0.0
 40
0.4901850305
 40
1.0
 40
1.0
 40
1.0
 40
1.0
 10
26.256414419
 20
72.8349025083
 30
0.0
 10
28.6207389058
 20
71.5119385501
 30
0.0
 10
33.5492454728
 20
68.998006329
 30
0.0
 10
38.6391203692
 20
66.8320180724
 30
0.0
 10
41.2654980047
 20
65.8111988112
 30
0.0
  0
SPLINE
  5
38E
100
AcDbEntity
  8
0
100
AcDbSpline
 62
7
  6
BYLAYER
 70
0
 71
3
 72
11
 73
7
 74
0
 42
0.0000001
 43
0.0000001
 44
0.0000000001
 40
0.0
 40
0.0
 40
0.0
 40
0.0
 40
0.2218666482
 40
0.4631834669
 40
0.7232778719
 40
1.0
 40
1.0
 40
1.0
 40
1.0
 10
32.3624069865
 20
62.2569561594
 30
0.0
 10
32.4635009897
 20
62.1463232725
 30
0.0
 10
32.6965558144
 20
61.9350095576
 30
0.0
 10
33.1049142686
 20
61.6641930744
 30
0.0
 10
33.5777838603
 20
61.4318644805
 30
0.0
 10
33.9197884319
 20
61.3090501403
 30
0.0
 10
34.0985973781
 20
61.2545888461
 30
0.0
  0
SPLINE
  5
38F
100
AcDbEntity
  8
0
100
AcDbSpline
 62
7
  6
BYLAYER
 70
0
 71
3
 72
11
 73
7
 74
0
 42
0.0000001
 43
0.0000001
 44
0.0000000001
 40
0.0
 40
0.0
 40
0.0
 40
0.0
 40
0.2504234204
 40
0.5100684004
 40
0.7644289403
 40
1.0
 40
1.0
 40
1.0
 40
1.0
 10
34.0985973781
 20
61.2545888461
 30
0.0
 10
34.1439405667
 20
61.2412477851
 30
0.0
 10
34.2391218455
 20
61.2232242116
 30
0.0
 10
34.3839818548
 20
61.2200088563
 30
0.0
 10
34.5246210667
 20
61.2403387498
 30
0.0
 10
34.6130487788
 20
61.2698434194
 30
0.0
 10
34.6532761967
 20
61.2887804325
 30
0.0
  0
SPLINE
  5
390
100
AcDbEntity
  8
0
100
AcDbSpline
 62
7
  6
BYLAYER
 70
0
 71
3
 72
9
 73
5
 74
0
 42
0.0000001
 43
0.0000001
 44
0.0000000001
 40
0.0
 40
0.0
 40
0.0
 40
0.0
 40
0.4879262041
 40
1.0
 40
1.0
 40
1.0
 40
1.0
 10
11.6760919057
 20
82.8942639171
 30
0.0
 10
13.5218353617
 20
81.3114196965
 30
0.0
 10
17.4630051572
 20
78.2490620074
 30
0.0
 10
21.6494661489
 20
75.5348941863
 30
0.0
 10
23.8418024613
 20
74.2289478346
 30
0.0
  0
SPLINE
  5
391
100
AcDbEntity
  8
0
100
AcDbSpline
 62
7
  6
BYLAYER
 70
0
 71
3
 72
11
 73
7
 74
0
 42
0.0000001
 43
0.0000001
 44
0.0000000001
 40
0.0
 40
0.0
 40
0.0
 40
0.0
 40
0.2895468475
 40
0.5491384346
 40
0.782278826
 40
1.0
 40
1.0
 40
1.0
 40
1.0
 10
54.6801009023
 20
91.6943926382
 30
0.0
 10
54.7305331035
 20
91.7235095094
 30
0.0
 10
54.8220519895
 20
91.786615002
 30
0.0
 10
54.9315285314
 20
91.9015459115
 30
0.0
 10
55.0007758678
 20
92.028785116
 30
0.0
 10
55.0168766305
 20
92.1200811387
 30
0.0
 10
55.0168774286
 20
92.1638694776
 30
0.0
  0
SPLINE
  5
392
100
AcDbEntity
  8
0
100
AcDbSpline
 62
7
  6
BYLAYER
 70
0
 71
3
 72
17
 73
13
 74
0
 42
0.0000001
 43
0.0000001
 44
0.0000000001
 40
0.0
 40
0.0
 40
0.0
 40
0.0
 40
0.042856216
 40
0.0874836211
 40
0.1353102614
 40
0.1872757815
 40
0.3045355265
 40
0.4381979082
 40
0.5825371072
 40
0.7296850391
 40
0.8713145374
 40
1.0
 40
1.0
 40
1.0
 40
1.0
 10
52.7169720081
 20
92.1638695341
 30
0.0
 10
52.7169714114
 20
92.1311350089
 30
0.0
 10
52.7256606226
 20
92.0640169253
 30
0.0
 10
52.76421301
 20
91.9671494135
 30
0.0
 10
52.8266060479
 20
91.8752529513
 30
0.0
 10
52.9442244177
 20
91.7573090747
 30
0.0
 10
53.1445140607
 20
91.6353312642
 30
0.0
 10
53.4325570591
 20
91.5391140626
 30
0.0
 10
53.7557876904
 20
91.4936975948
 30
0.0
 10
54.088059947
 20
91.502851613
 30
0.0
 10
54.4022043821
 20
91.5657295325
 30
0.0
 10
54.5949767122
 20
91.6452464575
 30
0.0
 10
54.6801009023
 20
91.6943926382
 30
0.0
  0
SPLINE
  5
393
100
AcDbEntity
  8
0
100
AcDbSpline
 62
7
  6
BYLAYER
 70
0
 71
3
 72
11
 73
7
 74
0
 42
0.0000001
 43
0.0000001
 44
0.0000000001
 40
0.0
 40
0.0
 40
0.0
 40
0.0
 40
0.2895468475
 40
0.5491384346
 40
0.782278826
 40
1.0
 40
1.0
 40
1.0
 40
1.0
 10
44.7805647502
 20
97.4097632015
 30
0.0
 10
44.8309969515
 20
97.4388800726
 30
0.0
 10
44.9225158374
 20
97.5019855653
 30
0.0
 10
45.0319923793
 20
97.6169164748
 30
0.0
 10
45.1012397158
 20
97.7441556793
 30
0.0
 10
45.1173404784
 20
97.8354517019
 30
0.0
 10
45.1173412766
 20
97.8792400409
 30
0.0
  0
SPLINE
  5
394
100
AcDbEntity
  8
0
100
AcDbSpline
 62
7
  6
BYLAYER
 70
0
 71
3
 72
11
 73
7
 74
0
 42
0.0000001
 43
0.0000001
 44
0.0000000001
 40
0.0
 40
0.0
 40
0.0
 40
0.0
 40
0.2176895995
 40
0.4508850912
 40
0.7106199633
 40
1.0
 40
1.0
 40
1.0
 40
1.0
 10
19.1117933739
 20
68.6894906322
 30
0.0
 10
19.1117703136
 20
68.7199471578
 30
0.0
 10
19.1230182743
 20
68.7834548469
 30
0.0
 10
19.17115907
 20
68.8720058973
 30
0.0
 10
19.2473735327
 20
68.9519140932
 30
0.0
 10
19.3110086441
 20
68.9958398961
 30
0.0
 10
19.3460711256
 20
69.0160831084
 30
0.0
  0
SPLINE
  5
395
100
AcDbEntity
  8
0
100
AcDbSpline
 62
7
  6
BYLAYER
 70
0
 71
3
 72
11
 73
7
 74
0
 42
0.0000001
 43
0.0000001
 44
0.0000000001
 40
0.0
 40
0.0
 40
0.0
 40
0.0
 40
0.2895417814
 40
0.5491287434
 40
0.7822661886
 40
1.0
 40
1.0
 40
1.0
 40
1.0
 10
34.8810285982
 20
103.1251337648
 30
0.0
 10
34.931459876
 20
103.1542501028
 30
0.0
 10
35.0229765513
 20
103.2173551941
 30
0.0
 10
35.1324528673
 20
103.3322817428
 30
0.0
 10
35.2017051909
 20
103.4595202952
 30
0.0
 10
35.2178005548
 20
103.5508196043
 30
0.0
 10
35.2178004168
 20
103.5946104493
 30
0.0
  0
SPLINE
  5
396
100
AcDbEntity
  8
0
100
AcDbSpline
 62
7
  6
BYLAYER
 70
0
 71
3
 72
17
 73
13
 74
0
 42
0.0000001
 43
0.0000001
 44
0.0000000001
 40
0.0
 40
0.0
 40
0.0
 40
0.0
 40
0.1286842356
 40
0.2703031337
 40
0.4174437425
 40
0.5617827569
 40
0.69545054
 40
0.8127145007
 40
0.8646808868
 40
0.9125101646
 40
0.957139951
 40
1.0
 40
1.0
 40
1.0
 40
1.0
 10
34.8810285982
 20
92.2329915202
 30
0.0
 10
34.7959052152
 20
92.1838458055
 30
0.0
 10
34.6031418278
 20
92.1043310355
 30
0.0
 10
34.2890124427
 20
92.0414542627
 30
0.0
 10
33.956754543
 20
92.0322911895
 30
0.0
 10
33.6335242531
 20
92.0777015396
 30
0.0
 10
33.3454732391
 20
92.173914891
 30
0.0
 10
33.1451704011
 20
92.2958889178
 30
0.0
 10
33.027549852
 20
92.4138383869
 30
0.0
 10
32.9651471609
 20
92.5057336974
 30
0.0
 10
32.9265928667
 20
92.6026085466
 30
0.0
 10
32.9179039257
 20
92.6697310163
 30
0.0
 10
32.9179026616
 20
92.7024684711
 30
0.0
  0
SPLINE
  5
397
100
AcDbEntity
  8
0
100
AcDbSpline
 62
7
  6
BYLAYER
 70
0
 71
3
 72
9
 73
5
 74
0
 42
0.0000001
 43
0.0000001
 44
0.0000000001
 40
0.0
 40
0.0
 40
0.0
 40
0.0
 40
0.2628769307
 40
1.0
 40
1.0
 40
1.0
 40
1.0
 10
43.4929021795
 20
43.712723691
 30
0.0
 10
43.5359861493
 20
43.6962393591
 30
0.0
 10
43.7016829671
 20
43.6385517217
 30
0.0
 10
43.875213967
 20
43.6017597949
 30
0.0
 10
44.0041211923
 20
43.5910555711
 30
0.0
  0
SPLINE
  5
398
100
AcDbEntity
  8
0
100
AcDbSpline
 62
7
  6
BYLAYER
 70
0
 71
3
 72
9
 73
5
 74
0
 42
0.0000001
 43
0.0000001
 44
0.0000000001
 40
0.0
 40
0.0
 40
0.0
 40
0.0
 40
0.4780407889
 40
1.0
 40
1.0
 40
1.0
 40
1.0
 10
32.3080123515
 20
62.390332139
 30
0.0
 10
32.3080199544
 20
62.3670061991
 30
0.0
 10
32.3185705139
 20
62.3178823808
 30
0.0
 10
32.3457636501
 20
62.2762348007
 30
0.0
 10
32.3624069865
 20
62.2569561594
 30
0.0
  0
SPLINE
  5
399
100
AcDbEntity
  8
0
100
AcDbSpline
 62
7
  6
BYLAYER
 70
0
 71
3
 72
10
 73
6
 74
0
 42
0.0000001
 43
0.0000001
 44
0.0000000001
 40
0.0
 40
0.0
 40
0.0
 40
0.0
 40
0.5151821894
 40
0.7639287424
 40
1.0
 40
1.0
 40
1.0
 40
1.0
 10
41.4065384174
 20
45.7948717561
 30
0.0
 10
41.5752573905
 20
45.4686279217
 30
0.0
 10
41.8744203627
 20
45.0074746926
 30
0.0
 10
42.3521322813
 20
44.4770450811
 30
0.0
 10
42.6118387853
 20
44.2473355743
 30
0.0
 10
42.7450565508
 20
44.1444827983
 30
0.0
  0
SPLINE
  5
39A
100
AcDbEntity
  8
0
100
AcDbSpline
 62
7
  6
BYLAYER
 70
0
 71
3
 72
17
 73
13
 74
0
 42
0.0000001
 43
0.0000001
 44
0.0000000001
 40
0.0
 40
0.0
 40
0.0
 40
0.0
 40
0.1286842356
 40
0.2703031337
 40
0.4174437425
 40
0.5617827569
 40
0.69545054
 40
0.8127145007
 40
0.8646808868
 40
0.9125101646
 40
0.957139951
 40
1.0
 40
1.0
 40
1.0
 40
1.0
 10
44.7805647502
 20
86.517620957
 30
0.0
 10
44.6954413672
 20
86.4684752422
 30
0.0
 10
44.5026779798
 20
86.3889604722
 30
0.0
 10
44.1885485948
 20
86.3260836995
 30
0.0
 10
43.8562906951
 20
86.3169206263
 30
0.0
 10
43.5330604052
 20
86.3623309764
 30
0.0
 10
43.2450093911
 20
86.4585443277
 30
0.0
 10
43.0447065532
 20
86.5805183545
 30
0.0
 10
42.9270860041
 20
86.6984678236
 30
0.0
 10
42.8646833129
 20
86.7903631341
 30
0.0
 10
42.8261290187
 20
86.8872379833
 30
0.0
 10
42.8174400777
 20
86.9543604531
 30
0.0
 10
42.8174388136
 20
86.9870979078
 30
0.0
  0
SPLINE
  5
39B
100
AcDbEntity
  8
0
100
AcDbSpline
 62
7
  6
BYLAYER
 70
0
 71
3
 72
11
 73
7
 74
0
 42
0.0000001
 43
0.0000001
 44
0.0000000001
 40
0.0
 40
0.0
 40
0.0
 40
0.0
 40
0.2222341891
 40
0.4636596021
 40
0.7236098004
 40
1.0
 40
1.0
 40
1.0
 40
1.0
 10
32.1337850757
 20
52.3755619761
 30
0.0
 10
32.23758854
 20
52.2630639885
 30
0.0
 10
32.4761071539
 20
52.048146355
 30
0.0
 10
32.8928868479
 20
51.7722158837
 30
0.0
 10
33.374600903
 20
51.5349926272
 30
0.0
 10
33.7227427255
 20
51.4091074488
 30
0.0
 10
33.9047047783
 20
51.3531438208
 30
0.0
  0
SPLINE
  5
39C
100
AcDbEntity
  8
0
100
AcDbSpline
 62
7
  6
BYLAYER
 70
0
 71
3
 72
11
 73
7
 74
0
 42
0.0000001
 43
0.0000001
 44
0.0000000001
 40
0.0
 40
0.0
 40
0.0
 40
0.0
 40
0.249976852
 40
0.5102786388
 40
0.7651625688
 40
1.0
 40
1.0
 40
1.0
 40
1.0
 10
33.9047047783
 20
51.3531438208
 30
0.0
 10
33.9499384751
 20
51.3389706952
 30
0.0
 10
34.0454542544
 20
51.3197488127
 30
0.0
 10
34.1911671236
 20
51.3158587739
 30
0.0
 10
34.3325546922
 20
51.336604262
 30
0.0
 10
34.4211394616
 20
51.3671430179
 30
0.0
 10
34.4610912019
 20
51.3868127348
 30
0.0
  0
SPLINE
  5
39D
100
AcDbEntity
  8
0
100
AcDbSpline
 62
7
  6
BYLAYER
 70
0
 71
3
 72
17
 73
13
 74
0
 42
0.0000001
 43
0.0000001
 44
0.0000000001
 40
0.0
 40
0.0
 40
0.0
 40
0.0
 40
0.1286842356
 40
0.2703031337
 40
0.4174437425
 40
0.5617827569
 40
0.69545054
 40
0.8127145007
 40
0.8646808868
 40
0.9125101646
 40
0.957139951
 40
1.0
 40
1.0
 40
1.0
 40
1.0
 10
54.6801009023
 20
80.8022503937
 30
0.0
 10
54.5949775193
 20
80.7531046789
 30
0.0
 10
54.4022141319
 20
80.673589909
 30
0.0
 10
54.0880847468
 20
80.6107131362
 30
0.0
 10
53.7558268471
 20
80.601550063
 30
0.0
 10
53.4325965573
 20
80.6469604131
 30
0.0
 10
53.1445455432
 20
80.7431737644
 30
0.0
 10
52.9442427052
 20
80.8651477912
 30
0.0
 10
52.8266221561
 20
80.9830972604
 30
0.0
 10
52.764219465
 20
81.0749925709
 30
0.0
 10
52.7256651708
 20
81.17186742
 30
0.0
 10
52.7169762298
 20
81.2389898898
 30
0.0
 10
52.7169749657
 20
81.2717273445
 30
0.0
  0
SPLINE
  5
39E
100
AcDbEntity
  8
0
100
AcDbSpline
 62
7
  6
BYLAYER
 70
0
 71
3
 72
9
 73
5
 74
0
 42
0.0000001
 43
0.0000001
 44
0.0000000001
 40
0.0
 40
0.0
 40
0.0
 40
0.0
 40
0.4838316198
 40
1.0
 40
1.0
 40
1.0
 40
1.0
 10
32.089666524
 20
52.5048639106
 30
0.0
 10
32.0896839149
 20
52.4825621321
 30
0.0
 10
32.0979023516
 20
52.4362143326
 30
0.0
 10
32.1200151918
 20
52.3949646758
 30
0.0
 10
32.1337850757
 20
52.3755619761
 30
0.0
  0
SPLINE
  5
39F
100
AcDbEntity
  8
0
100
AcDbSpline
 62
7
  6
BYLAYER
 70
0
 71
3
 72
17
 73
13
 74
0
 42
0.0000001
 43
0.0000001
 44
0.0000000001
 40
0.0
 40
0.0
 40
0.0
 40
0.0
 40
0.042856216
 40
0.0874836211
 40
0.1353102614
 40
0.1872757815
 40
0.3045355265
 40
0.4381979082
 40
0.5825371072
 40
0.7296850391
 40
0.8713145374
 40
1.0
 40
1.0
 40
1.0
 40
1.0
 10
42.817435856
 20
97.8792400974
 30
0.0
 10
42.8174352593
 20
97.8465055722
 30
0.0
 10
42.8261244705
 20
97.7793874886
 30
0.0
 10
42.8646768579
 20
97.6825199768
 30
0.0
 10
42.9270698958
 20
97.5906235146
 30
0.0
 10
43.0446882657
 20
97.472679638
 30
0.0
 10
43.2449779087
 20
97.3507018275
 30
0.0
 10
43.533020907
 20
97.2544846259
 30
0.0
 10
43.8562515384
 20
97.2090681581
 30
0.0
 10
44.1885237949
 20
97.2182221763
 30
0.0
 10
44.50266823
 20
97.2811000958
 30
0.0
 10
44.6954405602
 20
97.3606170208
 30
0.0
 10
44.7805647502
 20
97.4097632015
 30
0.0
  0
SPLINE
  5
3A0
100
AcDbEntity
  8
0
100
AcDbSpline
 62
7
  6
BYLAYER
 70
0
 71
3
 72
18
 73
14
 74
0
 42
0.0000001
 43
0.0000001
 44
0.0000000001
 40
0.0
 40
0.0
 40
0.0
 40
0.0
 40
0.1464569477
 40
0.2996195745
 40
0.4513644175
 40
0.5940650449
 40
0.7214392603
 40
0.7781836034
 40
0.8300169156
 40
0.8771822651
 40
0.9203564335
 40
0.9607383374
 40
1.0
 40
1.0
 40
1.0
 40
1.0
 10
15.8091378182
 20
59.5952244002
 30
0.0
 10
15.8498266891
 20
59.329261518
 30
0.0
 10
15.9770260228
 20
58.7913786054
 30
0.0
 10
16.2739190778
 20
58.0148832467
 30
0.0
 10
16.6656790082
 20
57.2889607201
 30
0.0
 10
17.1268642772
 20
56.6629639265
 30
0.0
 10
17.561308051
 20
56.2422467342
 30
0.0
 10
17.9207970313
 20
55.9981804811
 30
0.0
 10
18.1779364111
 20
55.8703572923
 30
0.0
 10
18.4288191785
 20
55.7929164166
 30
0.0
 10
18.6695913442
 20
55.7682814536
 30
0.0
 10
18.8954993678
 20
55.79808721
 30
0.0
 10
19.032504191
 20
55.8548832653
 30
0.0
 10
19.0949764046
 20
55.8909340889
 30
0.0
  0
SPLINE
  5
3A1
100
AcDbEntity
  8
0
100
AcDbSpline
 62
7
  6
BYLAYER
 70
0
 71
3
 72
11
 73
7
 74
0
 42
0.0000001
 43
0.0000001
 44
0.0000000001
 40
0.0
 40
0.0
 40
0.0
 40
0.0
 40
0.2254776484
 40
0.4621453816
 40
0.7189258272
 40
1.0
 40
1.0
 40
1.0
 40
1.0
 10
42.3685475266
 20
75.8169196104
 30
0.0
 10
42.3685184221
 20
75.7570103892
 30
0.0
 10
42.3862788237
 20
75.633601188
 30
0.0
 10
42.4639697034
 20
75.4569438456
 30
0.0
 10
42.5892756852
 20
75.2917679575
 30
0.0
 10
42.6964785569
 20
75.1959961409
 30
0.0
 10
42.7558490061
 20
75.1506924063
 30
0.0
  0
SPLINE
  5
3A2
100
AcDbEntity
  8
0
100
AcDbSpline
 62
7
  6
BYLAYER
 70
0
 71
3
 72
11
 73
7
 74
0
 42
0.0000001
 43
0.0000001
 44
0.0000000001
 40
0.0
 40
0.0
 40
0.0
 40
0.0
 40
0.2230663592
 40
0.4585911444
 40
0.716214701
 40
1.0
 40
1.0
 40
1.0
 40
1.0
 10
47.2995300904
 20
96.7731333071
 30
0.0
 10
47.2995450639
 20
96.7408397996
 30
0.0
 10
47.2892779595
 20
96.6740771652
 30
0.0
 10
47.2445604845
 20
96.5792208813
 30
0.0
 10
47.1728486334
 20
96.4914105343
 30
0.0
 10
47.1119552095
 20
96.4413001266
 30
0.0
 10
47.0782857164
 20
96.4177576643
 30
0.0
  0
SPLINE
  5
3A3
100
AcDbEntity
  8
0
100
AcDbSpline
 62
7
  6
BYLAYER
 70
0
 71
3
 72
17
 73
13
 74
0
 42
0.0000001
 43
0.0000001
 44
0.0000000001
 40
0.0
 40
0.0
 40
0.0
 40
0.0
 40
0.0428536138
 40
0.087466535
 40
0.135265494
 40
0.1871771365
 40
0.3042930318
 40
0.437801447
 40
0.5820382397
 40
0.7292054523
 40
0.8709691049
 40
1.0
 40
1.0
 40
1.0
 40
1.0
 10
18.1209997133
 20
68.6948307078
 30
0.0
 10
18.1209796934
 20
68.6437432591
 30
0.0
 10
18.1346056196
 20
68.539026423
 30
0.0
 10
18.1944797603
 20
68.3877952573
 30
0.0
 10
18.2916651295
 20
68.2443704987
 30
0.0
 10
18.4746186616
 20
68.0600729559
 30
0.0
 10
18.7865228931
 20
67.8693343176
 30
0.0
 10
19.2352922947
 20
67.7183609529
 30
0.0
 10
19.7393254405
 20
67.6463288493
 30
0.0
 10
20.2579977565
 20
67.6592686127
 30
0.0
 10
20.7492054569
 20
67.7557991614
 30
0.0
 10
21.0511326484
 20
67.8787083165
 30
0.0
 10
21.1848136868
 20
67.954805697
 30
0.0
  0
SPLINE
  5
3A4
100
AcDbEntity
  8
0
100
AcDbSpline
 62
7
  6
BYLAYER
 70
0
 71
3
 72
13
 73
9
 74
0
 42
0.0000001
 43
0.0000001
 44
0.0000000001
 40
0.0
 40
0.0
 40
0.0
 40
0.0
 40
0.1127335636
 40
0.23398059
 40
0.4923431289
 40
0.7548265117
 40
0.8809581483
 40
1.0
 40
1.0
 40
1.0
 40
1.0
 10
45.6082127364
 20
73.9805925397
 30
0.0
 10
45.5242904763
 20
73.932159142
 30
0.0
 10
45.3418438893
 20
73.8456015872
 30
0.0
 10
44.9383458242
 20
73.715150012
 30
0.0
 10
44.3870968111
 20
73.6390433433
 30
0.0
 10
43.8279078617
 20
73.6741037689
 30
0.0
 10
43.4019580997
 20
73.7722416228
 30
0.0
 10
43.2029925457
 20
73.8437662756
 30
0.0
 10
43.1094038687
 20
73.8851188867
 30
0.0
  0
SPLINE
  5
3A5
100
AcDbEntity
  8
0
100
AcDbSpline
 62
7
  6
BYLAYER
 70
0
 71
3
 72
17
 73
13
 74
0
 42
0.0000001
 43
0.0000001
 44
0.0000000001
 40
0.0
 40
0.0
 40
0.0
 40
0.0
 40
0.1357051981
 40
0.2818421159
 40
0.4306094044
 40
0.5739225524
 40
0.7047063323
 40
0.8183026478
 40
0.868492622
 40
0.9147539654
 40
0.9581014091
 40
1.0
 40
1.0
 40
1.0
 40
1.0
 10
22.6917210522
 20
54.9807453251
 30
0.0
 10
22.712649598
 20
54.7098949025
 30
0.0
 10
22.8159355922
 20
54.1513843216
 30
0.0
 10
23.1098306834
 20
53.3376973458
 30
0.0
 10
23.5302924932
 20
52.5638804215
 30
0.0
 10
24.0479648911
 20
51.8890501579
 30
0.0
 10
24.6255449322
 20
51.3640196288
 30
0.0
 10
25.1470990045
 20
51.0713876329
 30
0.0
 10
25.5548372099
 20
50.9605185815
 30
0.0
 10
25.8359279901
 20
50.9395284682
 30
0.0
 10
26.0986528536
 20
50.9784663569
 30
0.0
 10
26.2580625178
 20
51.0451576607
 30
0.0
 10
26.3307061846
 20
51.087082265
 30
0.0
  0
SPLINE
  5
3A6
100
AcDbEntity
  8
0
100
AcDbSpline
 62
7
  6
BYLAYER
 70
0
 71
3
 72
11
 73
7
 74
0
 42
0.0000001
 43
0.0000001
 44
0.0000000001
 40
0.0
 40
0.0
 40
0.0
 40
0.0
 40
0.2249117379
 40
0.4613081683
 40
0.7182840837
 40
1.0
 40
1.0
 40
1.0
 40
1.0
 10
33.8886907139
 20
89.7546464999
 30
0.0
 10
33.8886751909
 20
89.786458052
 30
0.0
 10
33.8982653359
 20
89.8520424317
 30
0.0
 10
33.9401740751
 20
89.9457662105
 30
0.0
 10
34.0076802844
 20
90.0331988075
 30
0.0
 10
34.0653308364
 20
90.0837082911
 30
0.0
 10
34.0972462384
 20
90.1075642497
 30
0.0
  0
SPLINE
  5
3A7
100
AcDbEntity
  8
0
100
AcDbSpline
 62
7
  6
BYLAYER
 70
0
 71
3
 72
11
 73
7
 74
0
 42
0.0000001
 43
0.0000001
 44
0.0000000001
 40
0.0
 40
0.0
 40
0.0
 40
0.0
 40
0.2257569564
 40
0.4625569213
 40
0.7192378944
 40
1.0
 40
1.0
 40
1.0
 40
1.0
 10
57.1943203122
 20
91.0484491909
 30
0.0
 10
57.1943350227
 20
91.0168261143
 30
0.0
 10
57.1850394129
 20
90.9517113386
 30
0.0
 10
57.1443495782
 20
90.8584259095
 30
0.0
 10
57.0786836322
 20
90.7711049137
 30
0.0
 10
57.0224527012
 20
90.7203853671
 30
0.0
 10
56.9913052604
 20
90.6963744098
 30
0.0
  0
SPLINE
  5
3A8
100
AcDbEntity
  8
0
100
AcDbSpline
 62
7
  6
BYLAYER
 70
0
 71
3
 72
11
 73
7
 74
0
 42
0.0000001
 43
0.0000001
 44
0.0000000001
 40
0.0
 40
0.0
 40
0.0
 40
0.0
 40
0.2249117379
 40
0.4613081682
 40
0.7182840837
 40
1.0
 40
1.0
 40
1.0
 40
1.0
 10
43.788226866
 20
84.0392759366
 30
0.0
 10
43.788211343
 20
84.0710874887
 30
0.0
 10
43.7978014879
 20
84.1366718685
 30
0.0
 10
43.8397102272
 20
84.2303956473
 30
0.0
 10
43.9072164365
 20
84.3178282443
 30
0.0
 10
43.9648669886
 20
84.368337728
 30
0.0
 10
43.9967823906
 20
84.3921936865
 30
0.0
  0
ELLIPSE
  5
3A9
100
AcDbEntity
  8
0
100
AcDbEllipse
 62
7
  6
BYLAYER
 10
128.6218812031
 20
91.4468458906
 30
0.0
 11
126.4399944068
 21
-0.0861343866
 31
0.0
 40
0.5768873175
 41
-2.4510091181
 42
-2.3711837284
  0
ELLIPSE
  5
3AA
100
AcDbEntity
  8
0
100
AcDbEllipse
 62
7
  6
BYLAYER
 10
128.6218812031
 20
91.4468458906
 30
0.0
 11
126.4399944068
 21
-0.0861343866
 31
0.0
 40
0.5768873175
 41
-2.3404109423
 42
-2.1843592952
  0
ELLIPSE
  5
3AB
100
AcDbEntity
  8
0
100
AcDbEllipse
 62
7
  6
BYLAYER
 10
56.3552094324
 20
32.330511661
 30
0.0
 11
0.9999999228
 21
-0.0006812273
 31
0.0
 40
0.5768873175
 41
-2.1843592895
 42
-0.7850010086
  0
ELLIPSE
  5
3AC
100
AcDbEntity
  8
0
100
AcDbEllipse
 62
7
  6
BYLAYER
 10
102.2261864819
 20
185676.9550175507
 30
0.0
 11
77.1680013504
 21
185626.1365115398
 31
0.0
 40
0.0004159203
 41
-3.1574744665
 42
-3.1472454555
  0
ELLIPSE
  5
3AD
100
AcDbEntity
  8
0
100
AcDbEllipse
 62
7
  6
BYLAYER
 10
102.2261864819
 20
185676.9550175507
 30
0.0
 11
77.1680013504
 21
185626.1365115398
 31
0.0
 40
0.0004159203
 41
-3.1364196432
 42
-3.1261906322
  0
ENDSEC
  0
SECTION
  2
OBJECTS
  0
DICTIONARY
  5
C
100
AcDbDictionary
280
0
281
1
  3
ACAD_GROUP
350
D
  3
ACAD_MLINESTYLE
350
17
  3
ACAD_LAYOUT
350
1A
  3
ACAD_PLOTSETTINGS
350
19
  3
ACAD_PLOTSTYLENAME
350
E
  0
DICTIONARY
  5
D
102
{ACAD_REACTORS
330
C
102
}
100
AcDbDictionary
280
0
281
1
  0
ACDBDICTIONARYWDFLT
  5
E
102
{ACAD_REACTORS
330
C
102
}
100
AcDbDictionary
281
1
  3
Normal
350
F
100
AcDbDictionaryWithDefault
340
F
  0
DICTIONARY
  5
17
102
{ACAD_REACTORS
330
C
102
}
100
AcDbDictionary
280
0
281
1
  3
Standard
350
18
  0
DICTIONARY
  5
19
102
{ACAD_REACTORS
330
C
102
}
100
AcDbDictionary
281
1
  0
DICTIONARY
  5
1A
102
{ACAD_REACTORS
330
C
102
}
100
AcDbDictionary
281
1
  3
Model
350
3AE
  3
Layout1
350
3AF
  0
ACDBPLACEHOLDER
  5
F
102
{ACAD_REACTORS
330
E
102
}
  0
MLINESTYLE
  5
18
102
{ACAD_REACTORS
330
17
102
}
100
AcDbMlineStyle
  2
STANDARD
 70
0
  3

 62
256
 51
90.0
 52
90.0
 71
2
 49
0.5
 62
256
  6
BYLAYER
 49
-0.5
 62
256
  6
BYLAYER
  0
LAYOUT
  5
3AE
102
{ACAD_REACTORS
330
1A
102
}
100
AcDbPlotSettings
  1

  2
none_device
  4

  6

 40
0.0
 41
0.0
 42
0.0
 43
0.0
 44
210.0
 45
297.0
 46
0.0
 47
0.0
 48
0.0
 49
0.0
140
0.0
141
0.0
142
1.0
143
1.0
 70
1024
 72
1
 73
0
 74
0
  7

 75
0
147
1.0
148
0.0
149
0.0
100
AcDbLayout
  1
Model
 70
0
 71
0
 10
0.0
 20
0.0
 11
210.0
 21
297.0
 12
0.0
 22
0.0
 32
0.0
 14
0.0
 24
0.0
 34
0.0
 15
0.0
 25
0.0
 35
0.0
146
0.0
 13
0.0
 23
0.0
 33
0.0
 16
1.0
 26
0.0
 36
0.0
 17
0.0
 27
1.0
 37
0.0
 76
0
330
210
345
0
346
0
  0
LAYOUT
  5
3AF
102
{ACAD_REACTORS
330
1A
102
}
100
AcDbPlotSettings
  1

  2
none_device
  4

  6

 40
0.0
 41
0.0
 42
0.0
 43
0.0
 44
210.0
 45
297.0
 46
0.0
 47
0.0
 48
0.0
 49
0.0
140
0.0
141
0.0
142
1.0
143
1.0
 70
0
 72
1
 73
0
 74
0
  7

 75
0
147
1.0
148
0.0
149
0.0
100
AcDbLayout
  1
Layout1
 70
0
 71
1
 10
0.0
 20
0.0
 11
210.0
 21
297.0
 12
0.0
 22
0.0
 32
0.0
 14
0.0
 24
0.0
 34
0.0
 15
0.0
 25
0.0
 35
0.0
146
0.0
 13
0.0
 23
0.0
 33
0.0
 16
1.0
 26
0.0
 36
0.0
 17
0.0
 27
1.0
 37
0.0
 76
0
330
211
345
0
346
0
  0
ENDSEC
  0
EOF
