999
DXF file: C:\Users\sesa63760\Dev\_Creo\CAD\MCADFD0001779_3D-CAD\drw0001_3.dxf
999
Pro/ENGINEER 2019471 by Parametric Technology Corporation
  0
SECTION
  2
HEADER
  9
$ACADVER
  1
AC1024
  9
$DWGCODEPAGE
  3
ANSI_1252
  9
$EXTMAX
 10
272.4055655018
 20
385.2592997812
 30
0.0
  9
$EXTMIN
 10
0.0
 20
0.0
 30
0.0
  9
$LIMMIN
 10
0.0
 20
0.0
  9
$LIMMAX
 10
272.4055655018
 20
385.2592997812
  9
$VIEWCTR
 10
136.2027827509
 20
192.6296498906
  9
$VIEWSIZE
 40
385.2592997812
  9
$CLAYER
  8
0
  9
$LTSCALE
 40
25.1131988006
  9
$CELTYPE
  6
BYLAYER
  9
$DIMSCALE
 40
1.0
  9
$DIMASZ
 40
3.2429233988
  9
$DIMEXO
 40
1.0
  9
$DIMDLI
 40
17.3509373531
  9
$DIMEXE
 40
1.0
  9
$DIMCEN
 40
4.109432531
  9
$DIMLFAC
 40
1.0
  9
$DIMBLK
  1
_FILLED
  9
$DIMALT
 70
0
  9
$DIMALTF
 40
0.0393700787
  9
$DIMTXT
 40
4.5400927584
  9
$DIMTOL
 70
1
  9
$DIMLIM
 70
0
  9
$DIMTFAC
 40
1.0
  9
$DIMTP
 40
0.01
  9
$DIMTM
 40
0.01
  9
$DIMGAP
 40
0.625
  9
$DIMDSEP
 70
46
  9
$AUNITS
 70
0
  9
$PDMODE
 70
3
  9
$PDSIZE
 40
0.3125
  9
$HANDSEED
  5
26B
  9
$TILEMODE
 70
1
  9
$MEASUREMENT
 70
1
  9
$INSUNITS
 70
4
  0
ENDSEC
  0
SECTION
  2
CLASSES
  0
CLASS
  1
ACDBDICTIONARYWDFLT
  2
AcDbDictionaryWithDefault
  3
AutoCAD 2000
 90
0
 91
1
280
0
281
0
  0
CLASS
  1
ACDBPLACEHOLDER
  2
AcDbPlaceHolder
  3
AutoCAD 2000
 90
0
 91
1
280
0
281
0
  0
CLASS
  1
LAYOUT
  2
AcDbLayout
  3
AutoCAD 2000
 90
0
 91
0
280
0
281
0
  0
ENDSEC
  0
SECTION
  2
TABLES
  0
TABLE
  2
VPORT
  5
8
100
AcDbSymbolTable
 70
2
  0
VPORT
  5
1F4
100
AcDbSymbolTableRecord
100
AcDbViewportTableRecord
  2
*ACTIVE
 70
0
 10
0.0
 20
0.0
 11
1.0
 21
1.0
 12
136.2027827509
 22
192.6296498906
 13
0.0
 23
0.0
 14
1.0
 24
1.0
 15
0.0
 25
0.0
 16
0.0
 26
0.0
 36
1.0
 17
0.0
 27
0.0
 37
0.0
 40
385.2592997812
 41
0.7070707071
 42
50.0
 43
0.0
 44
0.0
 50
0.0
 51
0.0
 71
0
 72
100
 73
1
 74
1
 75
0
 76
0
 77
0
 78
0
  0
ENDTAB
  0
TABLE
  2
LTYPE
  5
5
100
AcDbSymbolTable
 70
6
  0
LTYPE
  5
14
100
AcDbSymbolTableRecord
100
AcDbLinetypeTableRecord
  2
BYBLOCK
 70
0
  3

 72
65
 73
0
 40
0.0
  0
LTYPE
  5
15
100
AcDbSymbolTableRecord
100
AcDbLinetypeTableRecord
  2
BYLAYER
 70
0
  3

 72
65
 73
0
 40
0.0
  0
LTYPE
  5
16
100
AcDbSymbolTableRecord
100
AcDbLinetypeTableRecord
  2
CONTINUOUS
 70
64
  3
Solid line
 72
65
 73
0
 40
0.0
  0
LTYPE
  5
1F5
100
AcDbSymbolTableRecord
100
AcDbLinetypeTableRecord
  2
CENTER
 70
64
  3
____ _ ____ _ ____ _ ____ _ ____ _ ____ _ ____
 72
65
 73
4
 40
0.6
 49
0.375
 74
0
 49
-0.075
 74
0
 49
0.075
 74
0
 49
-0.075
 74
0
  0
LTYPE
  5
1F6
100
AcDbSymbolTableRecord
100
AcDbLinetypeTableRecord
  2
HIDDEN
 70
64
  3
- - - - - - - - - - - - - - - - - - - -
 72
65
 73
2
 40
0.2
 49
0.1
 74
0
 49
-0.1
 74
0
  0
LTYPE
  5
1F7
100
AcDbSymbolTableRecord
100
AcDbLinetypeTableRecord
  2
PHANTOM
 70
64
  3
_____ _ _ _____ _ _ _____ _ _ _____
 72
65
 73
6
 40
0.8
 49
0.45
 74
0
 49
-0.05
 74
0
 49
0.1
 74
0
 49
-0.05
 74
0
 49
0.1
 74
0
 49
-0.05
 74
0
  0
LTYPE
  5
1F8
100
AcDbSymbolTableRecord
100
AcDbLinetypeTableRecord
  2
DOT
 70
64
  3
. . . . . . . . . . . . . . . . . . . .
 72
65
 73
2
 40
0.2
 49
0.1
 74
0
 49
-0.1
 74
0
  0
LTYPE
  5
1F9
100
AcDbSymbolTableRecord
100
AcDbLinetypeTableRecord
  2
DASHED
 70
64
  3
- - - - - - - - - - - - - - - - - - - -
 72
65
 73
2
 40
0.2
 49
0.1
 74
0
 49
-0.1
 74
0
  0
ENDTAB
  0
TABLE
  2
LAYER
  5
2
100
AcDbSymbolTable
 70
36
  0
LAYER
  5
10
100
AcDbSymbolTableRecord
100
AcDbLayerTableRecord
  2
0
 70
0
 62
7
  6
CONTINUOUS
370
-3
390
F
  0
LAYER
  5
1FA
100
AcDbSymbolTableRecord
100
AcDbLayerTableRecord
  2
DEFAULT_1
 70
0
 62
7
  6
CENTER
370
-3
390
F
  0
LAYER
  5
1FB
100
AcDbSymbolTableRecord
100
AcDbLayerTableRecord
  2
DEFAULT_2
 70
0
 62
8
  6
HIDDEN
370
-3
390
F
  0
LAYER
  5
1FC
100
AcDbSymbolTableRecord
100
AcDbLayerTableRecord
  2
DEFAULT_3
 70
0
 62
7
  6
PHANTOM
370
-3
390
F
  0
LAYER
  5
1FD
100
AcDbSymbolTableRecord
100
AcDbLayerTableRecord
  2
00_COMPONENTS
 70
0
 62
7
  6
CONTINUOUS
370
-3
390
F
  0
LAYER
  5
1FE
100
AcDbSymbolTableRecord
100
AcDbLayerTableRecord
  2
01_1_DEFAULT_DATUMS
 70
0
 62
7
  6
CONTINUOUS
370
-3
390
F
  0
LAYER
  5
1FF
100
AcDbSymbolTableRecord
100
AcDbLayerTableRecord
  2
01_PLANES
 70
0
 62
7
  6
CONTINUOUS
370
-3
390
F
  0
LAYER
  5
200
100
AcDbSymbolTableRecord
100
AcDbLayerTableRecord
  2
02_COORD_SYS
 70
0
 62
7
  6
CONTINUOUS
370
-3
390
F
  0
LAYER
  5
201
100
AcDbSymbolTableRecord
100
AcDbLayerTableRecord
  2
03_AXES
 70
0
 62
7
  6
CONTINUOUS
370
-3
390
F
  0
LAYER
  5
202
100
AcDbSymbolTableRecord
100
AcDbLayerTableRecord
  2
04_POINTS
 70
0
 62
7
  6
CONTINUOUS
370
-3
390
F
  0
LAYER
  5
203
100
AcDbSymbolTableRecord
100
AcDbLayerTableRecord
  2
05_CURVES
 70
0
 62
7
  6
CONTINUOUS
370
-3
390
F
  0
LAYER
  5
204
100
AcDbSymbolTableRecord
100
AcDbLayerTableRecord
  2
06_SURFS
 70
0
 62
7
  6
CONTINUOUS
370
-3
390
F
  0
LAYER
  5
205
100
AcDbSymbolTableRecord
100
AcDbLayerTableRecord
  2
07_COSMETICS
 70
0
 62
7
  6
CONTINUOUS
370
-3
390
F
  0
LAYER
  5
206
100
AcDbSymbolTableRecord
100
AcDbLayerTableRecord
  2
10_NOTES
 70
0
 62
7
  6
CONTINUOUS
370
-3
390
F
  0
LAYER
  5
207
100
AcDbSymbolTableRecord
100
AcDbLayerTableRecord
  2
11_NOTES_PUB
 70
0
 62
7
  6
CONTINUOUS
370
-3
390
F
  0
LAYER
  5
208
100
AcDbSymbolTableRecord
100
AcDbLayerTableRecord
  2
13_REF_GTOL
 70
0
 62
7
  6
CONTINUOUS
370
-3
390
F
  0
LAYER
  5
209
100
AcDbSymbolTableRecord
100
AcDbLayerTableRecord
  2
16_MISC
 70
0
 62
7
  6
CONTINUOUS
370
-3
390
F
  0
LAYER
  5
20A
100
AcDbSymbolTableRecord
100
AcDbLayerTableRecord
  2
17_NO_PRINT
 70
0
 62
7
  6
CONTINUOUS
370
-3
390
F
  0
LAYER
  5
20B
100
AcDbSymbolTableRecord
100
AcDbLayerTableRecord
  2
18_DATUM_CAMS_JOINTS
 70
0
 62
7
  6
CONTINUOUS
370
-3
390
F
  0
LAYER
  5
20C
100
AcDbSymbolTableRecord
100
AcDbLayerTableRecord
  2
19_DATUM_FUNCTIONAL
 70
0
 62
7
  6
CONTINUOUS
370
-3
390
F
  0
LAYER
  5
20D
100
AcDbSymbolTableRecord
100
AcDbLayerTableRecord
  2
20_DATUM_KINEMATIC_SCHEME
 70
0
 62
7
  6
CONTINUOUS
370
-3
390
F
  0
ENDTAB
  0
TABLE
  2
STYLE
  5
3
100
AcDbSymbolTable
 70
1
  0
STYLE
  5
11
100
AcDbSymbolTableRecord
100
AcDbTextStyleTableRecord
  2
STANDARD
 70
0
 40
0.0
 41
0.8
 50
0.0
 71
0
 42
0.2
  3
txt
  4

  0
STYLE
  5
20E
100
AcDbSymbolTableRecord
100
AcDbTextStyleTableRecord
  2
TEXTSTYLE_1
 70
0
 40
0.0
 41
0.8
 50
0.0
 71
0
 42
0.2
  3
gdt
  4

  0
ENDTAB
  0
TABLE
  2
VIEW
  5
6
100
AcDbSymbolTable
 70
0
  0
ENDTAB
  0
TABLE
  2
UCS
  5
7
100
AcDbSymbolTable
 70
0
  0
ENDTAB
  0
TABLE
  2
APPID
  5
9
100
AcDbSymbolTable
 70
1
  0
APPID
  5
20F
100
AcDbSymbolTableRecord
100
AcDbRegAppTableRecord
  2
ACAD
 70
0
  0
ENDTAB
  0
TABLE
  2
BLOCK_RECORD
  5
1
100
AcDbSymbolTable
 70
0
  0
BLOCK_RECORD
  5
210
100
AcDbSymbolTableRecord
100
AcDbBlockTableRecord
  2
*Model_Space
  0
BLOCK_RECORD
  5
211
100
AcDbSymbolTableRecord
100
AcDbBlockTableRecord
  2
*Paper_Space
  0
BLOCK_RECORD
  5
212
100
AcDbSymbolTableRecord
100
AcDbBlockTableRecord
  2
_FILLED
  0
ENDTAB
  0
TABLE
  2
DIMSTYLE
  5
A
100
AcDbSymbolTable
 70
1
100
AcDbDimStyleTable
 71
0
  0
DIMSTYLE
105
213
100
AcDbSymbolTableRecord
100
AcDbDimStyleTableRecord
  2
STANDARD
 70
0
  3

  4

 40
1.0
 41
3.2429233988
 42
1.0
 43
0.38
 44
1.0
 45
0.0
 46
0.0
 47
0.01
 48
0.01
140
4.5400927584
141
0.09
142
0.0
143
25.4
144
1.0
145
0.0
146
1.0
147
0.625
 71
1
 72
0
 73
0
 74
0
 75
0
 76
0
 77
1
 78
8
 79
2
170
0
171
1
172
0
173
0
174
0
175
0
176
0
177
0
178
0
270
2
179
2
271
2
272
2
273
2
274
2
275
0
280
0
281
0
282
0
283
1
284
8
285
0
286
0
287
3
288
0
340
11
278
46
341
212
342
212
343
212
344
212
  0
ENDTAB
  0
ENDSEC
  0
SECTION
  2
BLOCKS
  0
BLOCK
  5
20
100
AcDbEntity
  8
0
100
AcDbBlockBegin
  2
*Model_Space
 70
0
 10
0.0
 20
0.0
 30
0.0
  3
*Model_Space
  1

  0
ENDBLK
  5
21
100
AcDbEntity
  8
0
100
AcDbBlockEnd
  0
BLOCK
  5
1C
100
AcDbEntity
  8
0
100
AcDbBlockBegin
  2
*Paper_Space
 70
0
 10
0.0
 20
0.0
 30
0.0
  3
*Paper_Space
  1

  0
ENDBLK
  5
1D
100
AcDbEntity
  8
0
100
AcDbBlockEnd
  0
BLOCK
  5
214
100
AcDbEntity
  8
0
100
AcDbBlockBegin
  2
_FILLED
 70
64
 10
0.0
 20
0.0
  3
_FILLED
  1

  0
SOLID
  5
215
100
AcDbEntity
  8
0
  6
BYBLOCK
 62
0
100
AcDbTrace
 10
0.0
 20
0.0
 11
-1.0
 21
0.25
 12
-1.0
 22
-0.25
 13
-1.0
 23
-0.25
  0
ENDBLK
  5
216
100
AcDbEntity
  8
0
  6
BYBLOCK
 62
0
100
AcDbBlockEnd
  0
ENDSEC
  0
SECTION
  2
ENTITIES
  0
LINE
  5
217
100
AcDbEntity
  8
0
100
AcDbLine
 62
7
  6
CONTINUOUS
 10
32.2252116349
 20
191.6227596685
 11
32.2252116349
 21
192.2727596685
  0
LINE
  5
218
100
AcDbEntity
  8
0
100
AcDbLine
 62
7
  6
CONTINUOUS
 10
32.2252116349
 20
194.8727596685
 11
32.2252116349
 21
195.5227596685
  0
LINE
  5
219
100
AcDbEntity
  8
0
100
AcDbLine
 62
7
  6
CONTINUOUS
 10
32.7252116349
 20
192.5727596685
 11
32.7252116349
 21
194.5727596685
  0
LINE
  5
21A
100
AcDbEntity
  8
0
100
AcDbLine
 62
7
  6
CONTINUOUS
 10
41.7252116349
 20
191.1227596685
 11
41.7252116349
 21
196.0227596685
  0
LINE
  5
21B
100
AcDbEntity
  8
0
100
AcDbLine
 62
7
  6
CONTINUOUS
 10
238.2252116349
 20
191.1227545547
 11
247.2252116349
 21
191.1227545547
  0
LINE
  5
21C
100
AcDbEntity
  8
0
100
AcDbLine
 62
7
  6
CONTINUOUS
 10
32.7252116349
 20
191.1227596685
 11
41.7252116349
 21
191.1227596685
  0
LINE
  5
21D
100
AcDbEntity
  8
0
100
AcDbLine
 62
7
  6
CONTINUOUS
 10
246.3012056019
 20
191.6227545547
 11
247.7252116349
 21
191.6227545547
  0
LINE
  5
21E
100
AcDbEntity
  8
0
100
AcDbLine
 62
7
  6
CONTINUOUS
 10
32.2252116349
 20
191.6227596685
 11
33.6492176587
 21
191.6227596685
  0
LINE
  5
21F
100
AcDbEntity
  8
0
100
AcDbLine
 62
7
  6
CONTINUOUS
 10
238.2252116349
 20
191.7227596685
 11
41.7252116349
 21
191.7227596685
  0
LINE
  5
220
100
AcDbEntity
  8
0
100
AcDbLine
 62
7
  6
CONTINUOUS
 10
247.7252116349
 20
192.2727545547
 11
246.1312010717
 21
192.2727545547
  0
LINE
  5
221
100
AcDbEntity
  8
0
100
AcDbLine
 62
7
  6
CONTINUOUS
 10
33.819221926
 20
192.2727596685
 11
32.2252116349
 21
192.2727596685
  0
LINE
  5
222
100
AcDbEntity
  8
0
100
AcDbLine
 62
7
  6
CONTINUOUS
 10
238.2252116349
 20
192.3433428725
 11
245.6311050281
 21
192.3433428725
  0
LINE
  5
223
100
AcDbEntity
  8
0
100
AcDbLine
 62
7
  6
CONTINUOUS
 10
34.3193194583
 20
192.3433479655
 11
41.7252116349
 21
192.3433479655
  0
LINE
  5
224
100
AcDbEntity
  8
0
100
AcDbLine
 62
7
  6
CONTINUOUS
 10
238.2252116349
 20
192.3612212069
 11
41.7252116349
 21
192.3612212069
  0
LINE
  5
225
100
AcDbEntity
  8
0
100
AcDbLine
 62
7
  6
CONTINUOUS
 10
247.4252116349
 20
192.5727545547
 11
246.7459732234
 21
192.5727545547
  0
LINE
  5
226
100
AcDbEntity
  8
0
100
AcDbLine
 62
7
  6
CONTINUOUS
 10
33.2044500465
 20
192.5727596685
 11
32.5252116349
 21
192.5727596685
  0
LINE
  5
227
100
AcDbEntity
  8
0
100
AcDbLine
 62
7
  6
CONTINUOUS
 10
246.7459732234
 20
194.5727545547
 11
247.4252116349
 21
194.5727545547
  0
LINE
  5
228
100
AcDbEntity
  8
0
100
AcDbLine
 62
7
  6
CONTINUOUS
 10
32.5252116349
 20
194.5727596685
 11
33.2044500465
 21
194.5727596685
  0
LINE
  5
229
100
AcDbEntity
  8
0
100
AcDbLine
 62
7
  6
CONTINUOUS
 10
238.2252116349
 20
194.78429813
 11
41.7252116349
 21
194.78429813
  0
LINE
  5
22A
100
AcDbEntity
  8
0
100
AcDbLine
 62
7
  6
CONTINUOUS
 10
245.6311038116
 20
194.8021662577
 11
238.2252116349
 21
194.8021662577
  0
LINE
  5
22B
100
AcDbEntity
  8
0
100
AcDbLine
 62
7
  6
CONTINUOUS
 10
41.7252116349
 20
194.8021713507
 11
34.3193182418
 21
194.8021713507
  0
LINE
  5
22C
100
AcDbEntity
  8
0
100
AcDbLine
 62
7
  6
CONTINUOUS
 10
246.1312013439
 20
194.8727545547
 11
247.7252116349
 21
194.8727545547
  0
LINE
  5
22D
100
AcDbEntity
  8
0
100
AcDbLine
 62
7
  6
CONTINUOUS
 10
32.2252116349
 20
194.8727596685
 11
33.8192221982
 21
194.8727596685
  0
LINE
  5
22E
100
AcDbEntity
  8
0
100
AcDbLine
 62
7
  6
CONTINUOUS
 10
41.7252116349
 20
195.4227596685
 11
238.2252116349
 21
195.4227596685
  0
LINE
  5
22F
100
AcDbEntity
  8
0
100
AcDbLine
 62
7
  6
CONTINUOUS
 10
247.7252116349
 20
195.5227545547
 11
246.3012056112
 21
195.5227545547
  0
LINE
  5
230
100
AcDbEntity
  8
0
100
AcDbLine
 62
7
  6
CONTINUOUS
 10
33.649217668
 20
195.5227596685
 11
32.2252116349
 21
195.5227596685
  0
LINE
  5
231
100
AcDbEntity
  8
0
100
AcDbLine
 62
7
  6
CONTINUOUS
 10
238.2252116349
 20
196.0227545547
 11
247.2252116349
 21
196.0227545547
  0
LINE
  5
232
100
AcDbEntity
  8
0
100
AcDbLine
 62
7
  6
CONTINUOUS
 10
32.7252116349
 20
196.0227596685
 11
41.7252116349
 21
196.0227596685
  0
LINE
  5
233
100
AcDbEntity
  8
0
100
AcDbLine
 62
7
  6
CONTINUOUS
 10
238.2252116349
 20
196.0227545547
 11
238.2252116349
 21
191.1227545547
  0
LINE
  5
234
100
AcDbEntity
  8
0
100
AcDbLine
 62
7
  6
CONTINUOUS
 10
247.2252116349
 20
194.5727545547
 11
247.2252116349
 21
192.5727545547
  0
LINE
  5
235
100
AcDbEntity
  8
0
100
AcDbLine
 62
7
  6
CONTINUOUS
 10
247.7252116349
 20
195.5227545547
 11
247.7252116349
 21
194.8727545547
  0
LINE
  5
236
100
AcDbEntity
  8
0
100
AcDbLine
 62
7
  6
CONTINUOUS
 10
247.7252116349
 20
192.2727545547
 11
247.7252116349
 21
191.6227545547
  0
ARC
  5
237
100
AcDbEntity
  8
0
100
AcDbCircle
 62
7
  6
CONTINUOUS
 10
-20.6574020179
 20
193.5727603075
 40
54.5443074773
100
AcDbArc
 50
358.7776681826
 51
1.2223352652
  0
ARC
  5
238
100
AcDbEntity
  8
0
100
AcDbCircle
 62
7
  6
CONTINUOUS
 10
300.607825288
 20
193.5727539157
 40
54.5443074775
100
AcDbArc
 50
178.7776681826
 51
181.2223352652
  0
ARC
  5
239
100
AcDbEntity
  8
0
100
AcDbCircle
 62
7
  6
CONTINUOUS
 10
-3.4410516372
 20
193.5734223513
 40
37.7803451551
100
AcDbArc
 50
359.9989950094
 51
1.8637873222
  0
ARC
  5
23A
100
AcDbEntity
  8
0
100
AcDbCircle
 62
7
  6
CONTINUOUS
 10
283.3914749074
 20
193.5720918719
 40
37.7803451553
100
AcDbArc
 50
179.9989950094
 51
181.8637873222
  0
ARC
  5
23B
100
AcDbEntity
  8
0
100
AcDbCircle
 62
7
  6
CONTINUOUS
 10
-3.3085473892
 20
193.5699427768
 40
37.6478416577
100
AcDbArc
 50
358.1329308599
 51
0.0042869932
  0
ARC
  5
23C
100
AcDbEntity
  8
0
100
AcDbCircle
 62
7
  6
CONTINUOUS
 10
283.2589706591
 20
193.5755714464
 40
37.6478416577
100
AcDbArc
 50
178.1329308599
 51
180.0042869932
  0
ARC
  5
23D
100
AcDbEntity
  8
0
100
AcDbCircle
 62
7
  6
CONTINUOUS
 10
24.5479644642
 20
192.6083594846
 40
9.3286550148
100
AcDbArc
 50
357.7521036062
 51
358.7767845243
  0
ARC
  5
23E
100
AcDbEntity
  8
0
100
AcDbCircle
 62
7
  6
CONTINUOUS
 10
255.4024588015
 20
194.5371547387
 40
9.3286550105
100
AcDbArc
 50
177.752103606
 51
178.7767845245
  0
ARC
  5
23F
100
AcDbEntity
  8
0
100
AcDbCircle
 62
7
  6
CONTINUOUS
 10
255.2951854935
 20
192.6050232714
 40
9.2213351233
100
AcDbArc
 50
181.2167798811
 51
182.2533762736
  0
ARC
  5
240
100
AcDbEntity
  8
0
100
AcDbCircle
 62
7
  6
CONTINUOUS
 10
24.6552377777
 20
194.5404909519
 40
9.221335122
100
AcDbArc
 50
1.216779881
 51
2.2533762737
  0
ARC
  5
241
100
AcDbEntity
  8
0
100
AcDbCircle
 62
7
  6
CONTINUOUS
 10
32.7252116349
 20
195.5227596685
 40
0.5
100
AcDbArc
 50
90.0
 51
180.0
  0
ARC
  5
242
100
AcDbEntity
  8
0
100
AcDbCircle
 62
7
  6
CONTINUOUS
 10
32.7252116349
 20
191.6227596685
 40
0.5
100
AcDbArc
 50
180.0
 51
270.0
  0
ARC
  5
243
100
AcDbEntity
  8
0
100
AcDbCircle
 62
7
  6
CONTINUOUS
 10
247.2252116349
 20
191.6227545547
 40
0.5
100
AcDbArc
 50
270.0
 51
360.0
  0
ARC
  5
244
100
AcDbEntity
  8
0
100
AcDbCircle
 62
7
  6
CONTINUOUS
 10
247.2252116349
 20
195.5227545547
 40
0.5
100
AcDbArc
 50
0.0
 51
90.0
  0
ARC
  5
245
100
AcDbEntity
  8
0
100
AcDbCircle
 62
7
  6
CONTINUOUS
 10
32.5252116349
 20
194.8727596685
 40
0.3
100
AcDbArc
 50
180.0
 51
270.0
  0
ARC
  5
246
100
AcDbEntity
  8
0
100
AcDbCircle
 62
7
  6
CONTINUOUS
 10
32.5252116349
 20
192.2727596685
 40
0.3
100
AcDbArc
 50
90.0
 51
180.0
  0
ARC
  5
247
100
AcDbEntity
  8
0
100
AcDbCircle
 62
7
  6
CONTINUOUS
 10
247.4252116349
 20
192.2727545547
 40
0.3
100
AcDbArc
 50
0.0
 51
90.0
  0
ARC
  5
248
100
AcDbEntity
  8
0
100
AcDbCircle
 62
7
  6
CONTINUOUS
 10
247.4252116349
 20
194.8727545547
 40
0.3
100
AcDbArc
 50
270.0
 51
360.0
  0
SPLINE
  5
249
100
AcDbEntity
  8
0
100
AcDbSpline
 62
7
  6
CONTINUOUS
 70
0
 71
3
 72
12
 73
8
 74
0
 42
0.0000001
 43
0.0000001
 44
0.0000000001
 40
0.0
 40
0.0
 40
0.0
 40
0.0
 40
0.1663914367
 40
0.3120483796
 40
0.5710225114
 40
0.7988785074
 40
1.0
 40
1.0
 40
1.0
 40
1.0
 10
33.8499696139
 20
194.7393956217
 30
0.0
 10
33.8211719862
 20
194.7152735905
 30
0.0
 10
33.759996952
 20
194.678669672
 30
0.0
 10
33.6403367814
 20
194.6303735235
 30
0.0
 10
33.5010015643
 20
194.5961719288
 30
0.0
 10
33.346761014
 20
194.5765497583
 30
0.0
 10
33.2498565504
 20
194.5727596685
 30
0.0
 10
33.2044500465
 20
194.5727596685
 30
0.0
  0
SPLINE
  5
24A
100
AcDbEntity
  8
0
100
AcDbSpline
 62
7
  6
CONTINUOUS
 70
0
 71
3
 72
11
 73
7
 74
0
 42
0.0000001
 43
0.0000001
 44
0.0000000001
 40
0.0
 40
0.0
 40
0.0
 40
0.0
 40
0.2860702167
 40
0.5691298334
 40
0.816119215
 40
1.0
 40
1.0
 40
1.0
 40
1.0
 10
34.3193183283
 20
194.802171271
 30
0.0
 10
34.2763208288
 20
194.8007055325
 30
0.0
 10
34.1908409503
 20
194.7957482158
 30
0.0
 10
34.0687356116
 20
194.782409628
 30
0.0
 10
33.9629884575
 20
194.7636994489
 30
0.0
 10
33.9001930559
 20
194.7465512035
 30
0.0
 10
33.8745079915
 20
194.7363030239
 30
0.0
  0
SPLINE
  5
24B
100
AcDbEntity
  8
0
100
AcDbSpline
 62
7
  6
CONTINUOUS
 70
0
 71
3
 72
9
 73
5
 74
0
 42
0.0000001
 43
0.0000001
 44
0.0000000001
 40
0.0
 40
0.0
 40
0.0
 40
0.0
 40
0.5780329712
 40
1.0
 40
1.0
 40
1.0
 40
1.0
 10
33.8694435247
 20
194.9030584587
 30
0.0
 10
33.8588226674
 20
194.8989761883
 30
0.0
 10
33.8408262028
 20
194.8909518302
 30
0.0
 10
33.824592191
 20
194.8790982622
 30
0.0
 10
33.8192221163
 20
194.8727613452
 30
0.0
  0
SPLINE
  5
24C
100
AcDbEntity
  8
0
100
AcDbSpline
 62
7
  6
CONTINUOUS
 70
0
 71
3
 72
12
 73
8
 74
0
 42
0.0000001
 43
0.0000001
 44
0.0000000001
 40
0.0
 40
0.0
 40
0.0
 40
0.0
 40
0.1663914367
 40
0.3120483796
 40
0.5710225114
 40
0.7988785074
 40
1.0
 40
1.0
 40
1.0
 40
1.0
 10
33.8499696139
 20
192.4061237153
 30
0.0
 10
33.8211719862
 20
192.4302457464
 30
0.0
 10
33.759996952
 20
192.466849665
 30
0.0
 10
33.6403367814
 20
192.5151458135
 30
0.0
 10
33.5010015643
 20
192.5493474081
 30
0.0
 10
33.346761014
 20
192.5689695786
 30
0.0
 10
33.2498565504
 20
192.5727596685
 30
0.0
 10
33.2044500465
 20
192.5727596685
 30
0.0
  0
SPLINE
  5
24D
100
AcDbEntity
  8
0
100
AcDbSpline
 62
7
  6
CONTINUOUS
 70
0
 71
3
 72
13
 73
9
 74
0
 42
0.0000001
 43
0.0000001
 44
0.0000000001
 40
0.0
 40
0.0
 40
0.0
 40
0.0
 40
0.3748542737
 40
0.6910564195
 40
0.8075540095
 40
0.8961023947
 40
0.9591214503
 40
1.0
 40
1.0
 40
1.0
 40
1.0
 10
33.8694408643
 20
192.2424604439
 30
0.0
 10
33.8702623578
 20
192.2632715479
 30
0.0
 10
33.870195516
 20
192.3017008273
 30
0.0
 10
33.8668395814
 20
192.3465286109
 30
0.0
 10
33.862131747
 20
192.3751086265
 30
0.0
 10
33.8585754652
 20
192.3896222739
 30
0.0
 10
33.8548613738
 20
192.3996174012
 30
0.0
 10
33.8517101136
 20
192.4046645142
 30
0.0
 10
33.8499696139
 20
192.4061237153
 30
0.0
  0
SPLINE
  5
24E
100
AcDbEntity
  8
0
100
AcDbSpline
 62
7
  6
CONTINUOUS
 70
0
 71
3
 72
11
 73
7
 74
0
 42
0.0000001
 43
0.0000001
 44
0.0000000001
 40
0.0
 40
0.0
 40
0.0
 40
0.0
 40
0.2859981829
 40
0.5690981079
 40
0.8160888301
 40
1.0
 40
1.0
 40
1.0
 40
1.0
 10
34.3193072908
 20
192.3433484422
 30
0.0
 10
34.276320547
 20
192.3448139888
 30
0.0
 10
34.1908442368
 20
192.349760262
 30
0.0
 10
34.0687459055
 20
192.3631132976
 30
0.0
 10
33.9629827065
 20
192.3818102428
 30
0.0
 10
33.9001915834
 20
192.3989817146
 30
0.0
 10
33.8744958586
 20
192.4092156262
 30
0.0
  0
SPLINE
  5
24F
100
AcDbEntity
  8
0
100
AcDbSpline
 62
7
  6
CONTINUOUS
 70
0
 71
3
 72
18
 73
14
 74
0
 42
0.0000001
 43
0.0000001
 44
0.0000000001
 40
0.0
 40
0.0
 40
0.0
 40
0.0
 40
0.3886050276
 40
0.5581959582
 40
0.7043636424
 40
0.7677133039
 40
0.8234357407
 40
0.8715936115
 40
0.9122865611
 40
0.9451917125
 40
0.9586481075
 40
0.9701773579
 40
1.0
 40
1.0
 40
1.0
 40
1.0
 10
34.3193183264
 20
194.8021713526
 30
0.0
 10
34.315504073
 20
194.9641926561
 30
0.0
 10
34.3053433463
 20
195.1968944807
 30
0.0
 10
34.2801708221
 20
195.4895988009
 30
0.0
 10
34.2611177457
 20
195.6466063593
 30
0.0
 10
34.2437276053
 20
195.7558593139
 30
0.0
 10
34.230674442
 20
195.8243867096
 30
0.0
 10
34.2170920689
 20
195.8831404171
 30
0.0
 10
34.2029918854
 20
195.9319885874
 30
0.0
 10
34.1904669913
 20
195.9660260491
 30
0.0
 10
34.1798252591
 20
195.9879156042
 30
0.0
 10
34.1685611148
 20
196.0071038108
 30
0.0
 10
34.1541384189
 20
196.0227596275
 30
0.0
 10
34.1417010036
 20
196.0227596684
 30
0.0
  0
SPLINE
  5
250
100
AcDbEntity
  8
0
100
AcDbSpline
 62
7
  6
CONTINUOUS
 70
0
 71
3
 72
17
 73
13
 74
0
 42
0.0000001
 43
0.0000001
 44
0.0000000001
 40
0.0
 40
0.0
 40
0.0
 40
0.0
 40
0.2010419631
 40
0.3857273556
 40
0.5505329831
 40
0.6922347664
 40
0.8077083631
 40
0.89574262
 40
0.9297408493
 40
0.9576067244
 40
0.9803731947
 40
1.0
 40
1.0
 40
1.0
 40
1.0
 10
33.8192221982
 20
194.8727596685
 30
0.0
 10
33.8159967798
 20
194.9190057386
 30
0.0
 10
33.8083594054
 20
195.0076425833
 30
0.0
 10
33.7929269982
 20
195.1336815696
 30
0.0
 10
33.7744835767
 20
195.2454660143
 30
0.0
 10
33.7536469974
 20
195.3405988294
 30
0.0
 10
33.7307333164
 20
195.4168845499
 30
0.0
 10
33.7091260221
 20
195.4675297464
 30
0.0
 10
33.6903089166
 20
195.4966400716
 30
0.0
 10
33.677150507
 20
195.5112093601
 30
0.0
 10
33.663577358
 20
195.5204641063
 30
0.0
 10
33.6537434272
 20
195.522759886
 30
0.0
 10
33.649217668
 20
195.5227596685
 30
0.0
  0
SPLINE
  5
251
100
AcDbEntity
  8
0
100
AcDbSpline
 62
7
  6
CONTINUOUS
 70
0
 71
3
 72
9
 73
5
 74
0
 42
0.0000001
 43
0.0000001
 44
0.0000000001
 40
0.0
 40
0.0
 40
0.0
 40
0.0
 40
0.2383997863
 40
1.0
 40
1.0
 40
1.0
 40
1.0
 10
33.8192222019
 20
192.2727596685
 30
0.0
 10
33.819222205
 20
192.2836857391
 30
0.0
 10
33.8217804737
 20
192.3294722997
 30
0.0
 10
33.8346632076
 20
192.3747539967
 30
0.0
 10
33.8499696139
 20
192.4061237153
 30
0.0
  0
SPLINE
  5
252
100
AcDbEntity
  8
0
100
AcDbSpline
 62
7
  6
CONTINUOUS
 70
0
 71
3
 72
17
 73
13
 74
0
 42
0.0000001
 43
0.0000001
 44
0.0000000001
 40
0.0
 40
0.0
 40
0.0
 40
0.0
 40
0.0300858546
 40
0.0551529234
 40
0.0878347353
 40
0.1282573159
 40
0.1764137917
 40
0.2322020045
 40
0.2953558719
 40
0.4419680942
 40
0.6113305511
 40
1.0
 40
1.0
 40
1.0
 40
1.0
 10
34.1417251918
 20
191.1227596688
 30
0.0
 10
34.1542708873
 20
191.1227595107
 30
0.0
 10
34.1729076213
 20
191.1435486552
 30
0.0
 10
34.1885644033
 20
191.1750633791
 30
0.0
 10
34.2031678929
 20
191.2139190118
 30
0.0
 10
34.2170117492
 20
191.2623936356
 30
0.0
 10
34.2306443357
 20
191.3211145302
 30
0.0
 10
34.2437110959
 20
191.3895509639
 30
0.0
 10
34.261168436
 20
191.4989231879
 30
0.0
 10
34.280086675
 20
191.6559325446
 30
0.0
 10
34.305286525
 20
191.948715861
 30
0.0
 10
34.3155260247
 20
192.1813185886
 30
0.0
 10
34.3193404048
 20
192.3433474896
 30
0.0
  0
SPLINE
  5
253
100
AcDbEntity
  8
0
100
AcDbSpline
 62
7
  6
CONTINUOUS
 70
0
 71
3
 72
9
 73
5
 74
0
 42
0.0000001
 43
0.0000001
 44
0.0000000001
 40
0.0
 40
0.0
 40
0.0
 40
0.0
 40
0.2617929029
 40
1.0
 40
1.0
 40
1.0
 40
1.0
 10
33.8499696139
 20
194.7393956217
 30
0.0
 10
33.8447064695
 20
194.7501821744
 30
0.0
 10
33.8271451323
 20
194.792586444
 30
0.0
 10
33.8192222038
 20
194.8389159872
 30
0.0
 10
33.8192222019
 20
194.8727596685
 30
0.0
  0
SPLINE
  5
254
100
AcDbEntity
  8
0
100
AcDbSpline
 62
7
  6
CONTINUOUS
 70
0
 71
3
 72
9
 73
5
 74
0
 42
0.0000001
 43
0.0000001
 44
0.0000000001
 40
0.0
 40
0.0
 40
0.0
 40
0.0
 40
0.4219671109
 40
1.0
 40
1.0
 40
1.0
 40
1.0
 10
33.8192217644
 20
192.2727572871
 30
0.0
 10
33.8245918079
 20
192.2664202764
 30
0.0
 10
33.8408258993
 20
192.2545665812
 30
0.0
 10
33.8588224437
 20
192.2465421285
 30
0.0
 10
33.8694433561
 20
192.2424598164
 30
0.0
  0
SPLINE
  5
255
100
AcDbEntity
  8
0
100
AcDbSpline
 62
7
  6
CONTINUOUS
 70
0
 71
3
 72
17
 73
13
 74
0
 42
0.0000001
 43
0.0000001
 44
0.0000000001
 40
0.0
 40
0.0
 40
0.0
 40
0.0
 40
0.0196287489
 40
0.0424069762
 40
0.0702908669
 40
0.1043037507
 40
0.192332409
 40
0.3077526727
 40
0.4494115115
 40
0.6142034781
 40
0.798948023
 40
1.0
 40
1.0
 40
1.0
 40
1.0
 10
33.6492176587
 20
191.6227596685
 30
0.0
 10
33.6537437424
 20
191.6227595235
 30
0.0
 10
33.6635801761
 20
191.6250635029
 30
0.0
 10
33.6771489457
 20
191.6343365474
 30
0.0
 10
33.6903030265
 20
191.648922133
 30
0.0
 10
33.7091138275
 20
191.6780422123
 30
0.0
 10
33.7307244986
 20
191.7286716882
 30
0.0
 10
33.7536493799
 20
191.8049278571
 30
0.0
 10
33.7744897087
 20
191.9000311497
 30
0.0
 10
33.7929460331
 20
192.0118111309
 30
0.0
 10
33.8083567475
 20
192.1378627826
 30
0.0
 10
33.8159789092
 20
192.2265137839
 30
0.0
 10
33.819221926
 20
192.2727596685
 30
0.0
  0
SPLINE
  5
256
100
AcDbEntity
  8
0
100
AcDbSpline
 62
7
  6
CONTINUOUS
 70
0
 71
3
 72
11
 73
7
 74
0
 42
0.0000001
 43
0.0000001
 44
0.0000000001
 40
0.0
 40
0.0
 40
0.0
 40
0.0
 40
0.2417946534
 40
0.5024707048
 40
0.7615833788
 40
1.0
 40
1.0
 40
1.0
 40
1.0
 10
33.6492176789
 20
195.5227596685
 30
0.0
 10
33.6492215055
 20
195.5851819312
 30
0.0
 10
33.6736150123
 20
195.7161306724
 30
0.0
 10
33.7832231309
 20
195.8857838215
 30
0.0
 10
33.9504356042
 20
195.9977357348
 30
0.0
 10
34.0801560375
 20
196.0227596685
 30
0.0
 10
34.1417062198
 20
196.0227596685
 30
0.0
  0
SPLINE
  5
257
100
AcDbEntity
  8
0
100
AcDbSpline
 62
7
  6
CONTINUOUS
 70
0
 71
3
 72
11
 73
7
 74
0
 42
0.0000001
 43
0.0000001
 44
0.0000000001
 40
0.0
 40
0.0
 40
0.0
 40
0.0
 40
0.2384165
 40
0.4975292619
 40
0.7582050286
 40
1.0
 40
1.0
 40
1.0
 40
1.0
 10
34.1417062198
 20
191.1227596685
 30
0.0
 10
34.0801560701
 20
191.1227597801
 30
0.0
 10
33.9504356898
 20
191.1477834571
 30
0.0
 10
33.7832230219
 20
191.2597354273
 30
0.0
 10
33.6736158915
 20
191.4293886142
 30
0.0
 10
33.64922017
 20
191.5603373249
 30
0.0
 10
33.6492176631
 20
191.6227596685
 30
0.0
  0
SPLINE
  5
258
100
AcDbEntity
  8
0
100
AcDbSpline
 62
7
  6
CONTINUOUS
 70
0
 71
3
 72
13
 73
9
 74
0
 42
0.0000001
 43
0.0000001
 44
0.0000000001
 40
0.0
 40
0.0
 40
0.0
 40
0.0
 40
0.374832085
 40
0.6910264553
 40
0.8075349346
 40
0.8960929446
 40
0.9591170254
 40
1.0
 40
1.0
 40
1.0
 40
1.0
 10
33.8694422352
 20
194.9030618367
 30
0.0
 10
33.8702636539
 20
194.8822515961
 30
0.0
 10
33.8701950208
 20
194.8438233139
 30
0.0
 10
33.8668401546
 20
194.7989957868
 30
0.0
 10
33.8621325909
 20
194.7704144768
 30
0.0
 10
33.8585760168
 20
194.7558991671
 30
0.0
 10
33.854861831
 20
194.7459027652
 30
0.0
 10
33.8517103331
 20
194.7408550059
 30
0.0
 10
33.8499696139
 20
194.7393956217
 30
0.0
  0
SPLINE
  5
259
100
AcDbEntity
  8
0
100
AcDbSpline
 62
7
  6
CONTINUOUS
 70
0
 71
3
 72
12
 73
8
 74
0
 42
0.0000001
 43
0.0000001
 44
0.0000000001
 40
0.0
 40
0.0
 40
0.0
 40
0.0
 40
0.1663914367
 40
0.3120483796
 40
0.5710225114
 40
0.7988785074
 40
1.0
 40
1.0
 40
1.0
 40
1.0
 10
246.100453656
 20
192.4061186015
 30
0.0
 10
246.1292512837
 20
192.4302406327
 30
0.0
 10
246.1904263179
 20
192.4668445512
 30
0.0
 10
246.3100864885
 20
192.5151406997
 30
0.0
 10
246.4494217056
 20
192.5493422944
 30
0.0
 10
246.6036622559
 20
192.5689644649
 30
0.0
 10
246.7005667195
 20
192.5727545547
 30
0.0
 10
246.7459732234
 20
192.5727545547
 30
0.0
  0
SPLINE
  5
25A
100
AcDbEntity
  8
0
100
AcDbSpline
 62
7
  6
CONTINUOUS
 70
0
 71
3
 72
11
 73
7
 74
0
 42
0.0000001
 43
0.0000001
 44
0.0000000001
 40
0.0
 40
0.0
 40
0.0
 40
0.0
 40
0.2860702167
 40
0.5691298334
 40
0.816119215
 40
1.0
 40
1.0
 40
1.0
 40
1.0
 10
245.6311049416
 20
192.3433429522
 30
0.0
 10
245.6741024411
 20
192.3448086907
 30
0.0
 10
245.7595823196
 20
192.3497660074
 30
0.0
 10
245.8816876583
 20
192.3631045952
 30
0.0
 10
245.9874348124
 20
192.3818147743
 30
0.0
 10
246.050230214
 20
192.3989630197
 30
0.0
 10
246.0759152784
 20
192.4092111993
 30
0.0
  0
SPLINE
  5
25B
100
AcDbEntity
  8
0
100
AcDbSpline
 62
7
  6
CONTINUOUS
 70
0
 71
3
 72
9
 73
5
 74
0
 42
0.0000001
 43
0.0000001
 44
0.0000000001
 40
0.0
 40
0.0
 40
0.0
 40
0.0
 40
0.5780329712
 40
1.0
 40
1.0
 40
1.0
 40
1.0
 10
246.0809797452
 20
192.2424557645
 30
0.0
 10
246.0916006025
 20
192.2465380349
 30
0.0
 10
246.1095970671
 20
192.254562393
 30
0.0
 10
246.1258310789
 20
192.266415961
 30
0.0
 10
246.1312011536
 20
192.272752878
 30
0.0
  0
SPLINE
  5
25C
100
AcDbEntity
  8
0
100
AcDbSpline
 62
7
  6
CONTINUOUS
 70
0
 71
3
 72
12
 73
8
 74
0
 42
0.0000001
 43
0.0000001
 44
0.0000000001
 40
0.0
 40
0.0
 40
0.0
 40
0.0
 40
0.1663914367
 40
0.3120483796
 40
0.5710225114
 40
0.7988785074
 40
1.0
 40
1.0
 40
1.0
 40
1.0
 10
246.100453656
 20
194.7393905079
 30
0.0
 10
246.1292512837
 20
194.7152684768
 30
0.0
 10
246.1904263179
 20
194.6786645582
 30
0.0
 10
246.3100864885
 20
194.6303684097
 30
0.0
 10
246.4494217056
 20
194.5961668151
 30
0.0
 10
246.6036622559
 20
194.5765446446
 30
0.0
 10
246.7005667195
 20
194.5727545547
 30
0.0
 10
246.7459732234
 20
194.5727545547
 30
0.0
  0
SPLINE
  5
25D
100
AcDbEntity
  8
0
100
AcDbSpline
 62
7
  6
CONTINUOUS
 70
0
 71
3
 72
13
 73
9
 74
0
 42
0.0000001
 43
0.0000001
 44
0.0000000001
 40
0.0
 40
0.0
 40
0.0
 40
0.0
 40
0.3748542737
 40
0.6910564195
 40
0.8075540095
 40
0.8961023947
 40
0.9591214503
 40
1.0
 40
1.0
 40
1.0
 40
1.0
 10
246.0809824056
 20
194.9030537793
 30
0.0
 10
246.0801609121
 20
194.8822426752
 30
0.0
 10
246.0802277539
 20
194.8438133959
 30
0.0
 10
246.0835836885
 20
194.7989856123
 30
0.0
 10
246.0882915229
 20
194.7704055967
 30
0.0
 10
246.0918478047
 20
194.7558919493
 30
0.0
 10
246.0955618961
 20
194.745896822
 30
0.0
 10
246.0987131563
 20
194.740849709
 30
0.0
 10
246.100453656
 20
194.7393905079
 30
0.0
  0
SPLINE
  5
25E
100
AcDbEntity
  8
0
100
AcDbSpline
 62
7
  6
CONTINUOUS
 70
0
 71
3
 72
11
 73
7
 74
0
 42
0.0000001
 43
0.0000001
 44
0.0000000001
 40
0.0
 40
0.0
 40
0.0
 40
0.0
 40
0.2859981829
 40
0.5690981079
 40
0.8160888301
 40
1.0
 40
1.0
 40
1.0
 40
1.0
 10
245.6311159791
 20
194.802165781
 30
0.0
 10
245.6741027229
 20
194.8007002344
 30
0.0
 10
245.7595790331
 20
194.7957539612
 30
0.0
 10
245.8816773644
 20
194.7824009256
 30
0.0
 10
245.9874405634
 20
194.7637039804
 30
0.0
 10
246.0502316865
 20
194.7465325086
 30
0.0
 10
246.0759274113
 20
194.736298597
 30
0.0
  0
SPLINE
  5
25F
100
AcDbEntity
  8
0
100
AcDbSpline
 62
7
  6
CONTINUOUS
 70
0
 71
3
 72
18
 73
14
 74
0
 42
0.0000001
 43
0.0000001
 44
0.0000000001
 40
0.0
 40
0.0
 40
0.0
 40
0.0
 40
0.3886050276
 40
0.5581959582
 40
0.7043636424
 40
0.7677133039
 40
0.8234357407
 40
0.8715936115
 40
0.9122865611
 40
0.9451917125
 40
0.9586481075
 40
0.9701773579
 40
1.0
 40
1.0
 40
1.0
 40
1.0
 10
245.6311049435
 20
192.3433428706
 30
0.0
 10
245.6349191969
 20
192.1813215671
 30
0.0
 10
245.6450799236
 20
191.9486197425
 30
0.0
 10
245.6702524478
 20
191.6559154223
 30
0.0
 10
245.6893055242
 20
191.4989078639
 30
0.0
 10
245.7066956646
 20
191.3896549093
 30
0.0
 10
245.7197488279
 20
191.3211275136
 30
0.0
 10
245.733331201
 20
191.2623738061
 30
0.0
 10
245.7474313844
 20
191.2135256358
 30
0.0
 10
245.7599562786
 20
191.1794881741
 30
0.0
 10
245.7705980108
 20
191.157598619
 30
0.0
 10
245.7818621551
 20
191.1384104124
 30
0.0
 10
245.796284851
 20
191.1227545957
 30
0.0
 10
245.8087222663
 20
191.1227545548
 30
0.0
  0
SPLINE
  5
260
100
AcDbEntity
  8
0
100
AcDbSpline
 62
7
  6
CONTINUOUS
 70
0
 71
3
 72
17
 73
13
 74
0
 42
0.0000001
 43
0.0000001
 44
0.0000000001
 40
0.0
 40
0.0
 40
0.0
 40
0.0
 40
0.2010419631
 40
0.3857273556
 40
0.5505329831
 40
0.6922347664
 40
0.8077083631
 40
0.89574262
 40
0.9297408493
 40
0.9576067244
 40
0.9803731947
 40
1.0
 40
1.0
 40
1.0
 40
1.0
 10
246.1312010717
 20
192.2727545547
 30
0.0
 10
246.1344264901
 20
192.2265084846
 30
0.0
 10
246.1420638645
 20
192.1378716399
 30
0.0
 10
246.1574962717
 20
192.0118326536
 30
0.0
 10
246.1759396932
 20
191.9000482089
 30
0.0
 10
246.1967762725
 20
191.8049153938
 30
0.0
 10
246.2196899535
 20
191.7286296733
 30
0.0
 10
246.2412972478
 20
191.6779844768
 30
0.0
 10
246.2601143533
 20
191.6488741516
 30
0.0
 10
246.2732727629
 20
191.6343048631
 30
0.0
 10
246.2868459119
 20
191.6250501169
 30
0.0
 10
246.2966798427
 20
191.6227543372
 30
0.0
 10
246.3012056019
 20
191.6227545547
 30
0.0
  0
SPLINE
  5
261
100
AcDbEntity
  8
0
100
AcDbSpline
 62
7
  6
CONTINUOUS
 70
0
 71
3
 72
9
 73
5
 74
0
 42
0.0000001
 43
0.0000001
 44
0.0000000001
 40
0.0
 40
0.0
 40
0.0
 40
0.0
 40
0.2383997863
 40
1.0
 40
1.0
 40
1.0
 40
1.0
 10
246.131201068
 20
194.8727545547
 30
0.0
 10
246.1312010649
 20
194.8618284841
 30
0.0
 10
246.1286427962
 20
194.8160419235
 30
0.0
 10
246.1157600623
 20
194.7707602265
 30
0.0
 10
246.100453656
 20
194.7393905079
 30
0.0
  0
SPLINE
  5
262
100
AcDbEntity
  8
0
100
AcDbSpline
 62
7
  6
CONTINUOUS
 70
0
 71
3
 72
17
 73
13
 74
0
 42
0.0000001
 43
0.0000001
 44
0.0000000001
 40
0.0
 40
0.0
 40
0.0
 40
0.0
 40
0.0300858546
 40
0.0551529234
 40
0.0878347353
 40
0.1282573159
 40
0.1764137917
 40
0.2322020045
 40
0.2953558719
 40
0.4419680942
 40
0.6113305511
 40
1.0
 40
1.0
 40
1.0
 40
1.0
 10
245.8086980781
 20
196.0227545544
 30
0.0
 10
245.7961523826
 20
196.0227547125
 30
0.0
 10
245.7775156486
 20
196.001965568
 30
0.0
 10
245.7618588666
 20
195.9704508441
 30
0.0
 10
245.747255377
 20
195.9315952114
 30
0.0
 10
245.7334115207
 20
195.8831205876
 30
0.0
 10
245.7197789342
 20
195.824399693
 30
0.0
 10
245.706712174
 20
195.7559632593
 30
0.0
 10
245.6892548339
 20
195.6465910353
 30
0.0
 10
245.6703365949
 20
195.4895816786
 30
0.0
 10
245.6451367449
 20
195.1967983622
 30
0.0
 10
245.6348972452
 20
194.9641956346
 30
0.0
 10
245.6310828651
 20
194.8021667336
 30
0.0
  0
SPLINE
  5
263
100
AcDbEntity
  8
0
100
AcDbSpline
 62
7
  6
CONTINUOUS
 70
0
 71
3
 72
9
 73
5
 74
0
 42
0.0000001
 43
0.0000001
 44
0.0000000001
 40
0.0
 40
0.0
 40
0.0
 40
0.0
 40
0.2617929029
 40
1.0
 40
1.0
 40
1.0
 40
1.0
 10
246.100453656
 20
192.4061186015
 30
0.0
 10
246.1057168004
 20
192.3953320488
 30
0.0
 10
246.1232781375
 20
192.3529277792
 30
0.0
 10
246.1312010661
 20
192.306598236
 30
0.0
 10
246.131201068
 20
192.2727545547
 30
0.0
  0
SPLINE
  5
264
100
AcDbEntity
  8
0
100
AcDbSpline
 62
7
  6
CONTINUOUS
 70
0
 71
3
 72
9
 73
5
 74
0
 42
0.0000001
 43
0.0000001
 44
0.0000000001
 40
0.0
 40
0.0
 40
0.0
 40
0.0
 40
0.4219671109
 40
1.0
 40
1.0
 40
1.0
 40
1.0
 10
246.1312015055
 20
194.8727569361
 30
0.0
 10
246.125831462
 20
194.8790939468
 30
0.0
 10
246.1095973706
 20
194.890947642
 30
0.0
 10
246.0916008262
 20
194.8989720947
 30
0.0
 10
246.0809799138
 20
194.9030544068
 30
0.0
  0
SPLINE
  5
265
100
AcDbEntity
  8
0
100
AcDbSpline
 62
7
  6
CONTINUOUS
 70
0
 71
3
 72
17
 73
13
 74
0
 42
0.0000001
 43
0.0000001
 44
0.0000000001
 40
0.0
 40
0.0
 40
0.0
 40
0.0
 40
0.0196287489
 40
0.0424069762
 40
0.0702908669
 40
0.1043037507
 40
0.192332409
 40
0.3077526727
 40
0.4494115115
 40
0.6142034781
 40
0.798948023
 40
1.0
 40
1.0
 40
1.0
 40
1.0
 10
246.3012056112
 20
195.5227545547
 30
0.0
 10
246.2966795275
 20
195.5227546996
 30
0.0
 10
246.2868430938
 20
195.5204507203
 30
0.0
 10
246.2732743242
 20
195.5111776758
 30
0.0
 10
246.2601202434
 20
195.4965920902
 30
0.0
 10
246.2413094424
 20
195.4674720109
 30
0.0
 10
246.2196987713
 20
195.416842535
 30
0.0
 10
246.19677389
 20
195.3405863661
 30
0.0
 10
246.1759335612
 20
195.2454830735
 30
0.0
 10
246.1574772368
 20
195.1337030923
 30
0.0
 10
246.1420665224
 20
195.0076514406
 30
0.0
 10
246.1344443607
 20
194.9190004392
 30
0.0
 10
246.1312013439
 20
194.8727545547
 30
0.0
  0
SPLINE
  5
266
100
AcDbEntity
  8
0
100
AcDbSpline
 62
7
  6
CONTINUOUS
 70
0
 71
3
 72
11
 73
7
 74
0
 42
0.0000001
 43
0.0000001
 44
0.0000000001
 40
0.0
 40
0.0
 40
0.0
 40
0.0
 40
0.2417946534
 40
0.5024707048
 40
0.7615833788
 40
1.0
 40
1.0
 40
1.0
 40
1.0
 10
246.301205591
 20
191.6227545547
 30
0.0
 10
246.3012017644
 20
191.560332292
 30
0.0
 10
246.2768082576
 20
191.4293835508
 30
0.0
 10
246.167200139
 20
191.2597304017
 30
0.0
 10
245.9999876657
 20
191.1477784884
 30
0.0
 10
245.8702672324
 20
191.1227545547
 30
0.0
 10
245.8087170501
 20
191.1227545547
 30
0.0
  0
SPLINE
  5
267
100
AcDbEntity
  8
0
100
AcDbSpline
 62
7
  6
CONTINUOUS
 70
0
 71
3
 72
11
 73
7
 74
0
 42
0.0000001
 43
0.0000001
 44
0.0000000001
 40
0.0
 40
0.0
 40
0.0
 40
0.0
 40
0.2384165
 40
0.4975292619
 40
0.7582050286
 40
1.0
 40
1.0
 40
1.0
 40
1.0
 10
245.8087170501
 20
196.0227545547
 30
0.0
 10
245.8702671998
 20
196.0227544431
 30
0.0
 10
245.9999875801
 20
195.9977307661
 30
0.0
 10
246.1672002479
 20
195.8857787959
 30
0.0
 10
246.2768073784
 20
195.716125609
 30
0.0
 10
246.3012030999
 20
195.5851768983
 30
0.0
 10
246.3012056068
 20
195.5227545547
 30
0.0
  0
SPLINE
  5
268
100
AcDbEntity
  8
0
100
AcDbSpline
 62
7
  6
CONTINUOUS
 70
0
 71
3
 72
13
 73
9
 74
0
 42
0.0000001
 43
0.0000001
 44
0.0000000001
 40
0.0
 40
0.0
 40
0.0
 40
0.0
 40
0.374832085
 40
0.6910264553
 40
0.8075349346
 40
0.8960929446
 40
0.9591170254
 40
1.0
 40
1.0
 40
1.0
 40
1.0
 10
246.0809810347
 20
192.2424523865
 30
0.0
 10
246.080159616
 20
192.2632626271
 30
0.0
 10
246.0802282491
 20
192.3016909093
 30
0.0
 10
246.0835831153
 20
192.3465184364
 30
0.0
 10
246.088290679
 20
192.3750997464
 30
0.0
 10
246.0918472531
 20
192.3896150561
 30
0.0
 10
246.0955614389
 20
192.399611458
 30
0.0
 10
246.0987129368
 20
192.4046592173
 30
0.0
 10
246.100453656
 20
192.4061186015
 30
0.0
  0
ENDSEC
  0
SECTION
  2
OBJECTS
  0
DICTIONARY
  5
C
100
AcDbDictionary
280
0
281
1
  3
ACAD_GROUP
350
D
  3
ACAD_MLINESTYLE
350
17
  3
ACAD_LAYOUT
350
1A
  3
ACAD_PLOTSETTINGS
350
19
  3
ACAD_PLOTSTYLENAME
350
E
  0
DICTIONARY
  5
D
102
{ACAD_REACTORS
330
C
102
}
100
AcDbDictionary
280
0
281
1
  0
ACDBDICTIONARYWDFLT
  5
E
102
{ACAD_REACTORS
330
C
102
}
100
AcDbDictionary
281
1
  3
Normal
350
F
100
AcDbDictionaryWithDefault
340
F
  0
DICTIONARY
  5
17
102
{ACAD_REACTORS
330
C
102
}
100
AcDbDictionary
280
0
281
1
  3
Standard
350
18
  0
DICTIONARY
  5
19
102
{ACAD_REACTORS
330
C
102
}
100
AcDbDictionary
281
1
  0
DICTIONARY
  5
1A
102
{ACAD_REACTORS
330
C
102
}
100
AcDbDictionary
281
1
  3
Model
350
269
  3
Layout1
350
26A
  0
ACDBPLACEHOLDER
  5
F
102
{ACAD_REACTORS
330
E
102
}
  0
MLINESTYLE
  5
18
102
{ACAD_REACTORS
330
17
102
}
100
AcDbMlineStyle
  2
STANDARD
 70
0
  3

 62
256
 51
90.0
 52
90.0
 71
2
 49
0.5
 62
256
  6
BYLAYER
 49
-0.5
 62
256
  6
BYLAYER
  0
LAYOUT
  5
269
102
{ACAD_REACTORS
330
1A
102
}
100
AcDbPlotSettings
  1

  2
none_device
  4

  6

 40
0.0
 41
0.0
 42
0.0
 43
0.0
 44
210.0
 45
297.0
 46
0.0
 47
0.0
 48
0.0
 49
0.0
140
0.0
141
0.0
142
1.0
143
1.0
 70
1024
 72
1
 73
0
 74
0
  7

 75
0
147
1.0
148
0.0
149
0.0
100
AcDbLayout
  1
Model
 70
0
 71
0
 10
0.0
 20
0.0
 11
210.0
 21
297.0
 12
0.0
 22
0.0
 32
0.0
 14
0.0
 24
0.0
 34
0.0
 15
0.0
 25
0.0
 35
0.0
146
0.0
 13
0.0
 23
0.0
 33
0.0
 16
1.0
 26
0.0
 36
0.0
 17
0.0
 27
1.0
 37
0.0
 76
0
330
210
345
0
346
0
  0
LAYOUT
  5
26A
102
{ACAD_REACTORS
330
1A
102
}
100
AcDbPlotSettings
  1

  2
none_device
  4

  6

 40
0.0
 41
0.0
 42
0.0
 43
0.0
 44
210.0
 45
297.0
 46
0.0
 47
0.0
 48
0.0
 49
0.0
140
0.0
141
0.0
142
1.0
143
1.0
 70
0
 72
1
 73
0
 74
0
  7

 75
0
147
1.0
148
0.0
149
0.0
100
AcDbLayout
  1
Layout1
 70
0
 71
1
 10
0.0
 20
0.0
 11
210.0
 21
297.0
 12
0.0
 22
0.0
 32
0.0
 14
0.0
 24
0.0
 34
0.0
 15
0.0
 25
0.0
 35
0.0
146
0.0
 13
0.0
 23
0.0
 33
0.0
 16
1.0
 26
0.0
 36
0.0
 17
0.0
 27
1.0
 37
0.0
 76
0
330
211
345
0
346
0
  0
ENDSEC
  0
EOF
