999
DXF file: C:\Users\sesa63760\Dev\_Creo\CAD\MCADID0001387_3D-CAD\drw0001_3.dxf
999
Pro/ENGINEER 2019471 by Parametric Technology Corporation
  0
SECTION
  2
HEADER
  9
$ACADVER
  1
AC1024
  9
$DWGCODEPAGE
  3
ANSI_1252
  9
$EXTMAX
 10
163.6332235397
 20
231.4241304348
 30
0.0
  9
$EXTMIN
 10
0.0
 20
0.0
 30
0.0
  9
$LIMMIN
 10
0.0
 20
0.0
  9
$LIMMAX
 10
163.6332235397
 20
231.4241304348
  9
$VIEWCTR
 10
81.8166117699
 20
115.7120652174
  9
$VIEWSIZE
 40
231.4241304348
  9
$CLAYER
  8
0
  9
$LTSCALE
 40
15.0854247987
  9
$CELTYPE
  6
BYLAYER
  9
$DIMSCALE
 40
1.0
  9
$DIMASZ
 40
1.9480145659
  9
$DIMEXO
 40
1.0
  9
$DIMDLI
 40
10.4226571337
  9
$DIMEXE
 40
1.0
  9
$DIMCEN
 40
2.468524058
  9
$DIMLFAC
 40
1.0
  9
$DIMBLK
  1
_FILLED
  9
$DIMALT
 70
0
  9
$DIMALTF
 40
0.0393700787
  9
$DIMTXT
 40
2.7272203923
  9
$DIMTOL
 70
1
  9
$DIMLIM
 70
0
  9
$DIMTFAC
 40
1.0
  9
$DIMTP
 40
0.01
  9
$DIMTM
 40
0.01
  9
$DIMGAP
 40
0.625
  9
$DIMDSEP
 70
46
  9
$AUNITS
 70
0
  9
$PDMODE
 70
3
  9
$PDSIZE
 40
0.3125
  9
$HANDSEED
  5
28A
  9
$TILEMODE
 70
1
  9
$MEASUREMENT
 70
1
  9
$INSUNITS
 70
4
  0
ENDSEC
  0
SECTION
  2
CLASSES
  0
CLASS
  1
ACDBDICTIONARYWDFLT
  2
AcDbDictionaryWithDefault
  3
AutoCAD 2000
 90
0
 91
1
280
0
281
0
  0
CLASS
  1
ACDBPLACEHOLDER
  2
AcDbPlaceHolder
  3
AutoCAD 2000
 90
0
 91
1
280
0
281
0
  0
CLASS
  1
LAYOUT
  2
AcDbLayout
  3
AutoCAD 2000
 90
0
 91
0
280
0
281
0
  0
ENDSEC
  0
SECTION
  2
TABLES
  0
TABLE
  2
VPORT
  5
8
100
AcDbSymbolTable
 70
2
  0
VPORT
  5
1F4
100
AcDbSymbolTableRecord
100
AcDbViewportTableRecord
  2
*ACTIVE
 70
0
 10
0.0
 20
0.0
 11
1.0
 21
1.0
 12
81.8166117699
 22
115.7120652174
 13
0.0
 23
0.0
 14
1.0
 24
1.0
 15
0.0
 25
0.0
 16
0.0
 26
0.0
 36
1.0
 17
0.0
 27
0.0
 37
0.0
 40
231.4241304348
 41
0.7070707071
 42
50.0
 43
0.0
 44
0.0
 50
0.0
 51
0.0
 71
0
 72
100
 73
1
 74
1
 75
0
 76
0
 77
0
 78
0
  0
ENDTAB
  0
TABLE
  2
LTYPE
  5
5
100
AcDbSymbolTable
 70
6
  0
LTYPE
  5
14
100
AcDbSymbolTableRecord
100
AcDbLinetypeTableRecord
  2
BYBLOCK
 70
0
  3

 72
65
 73
0
 40
0.0
  0
LTYPE
  5
15
100
AcDbSymbolTableRecord
100
AcDbLinetypeTableRecord
  2
BYLAYER
 70
0
  3

 72
65
 73
0
 40
0.0
  0
LTYPE
  5
16
100
AcDbSymbolTableRecord
100
AcDbLinetypeTableRecord
  2
CONTINUOUS
 70
64
  3
Solid line
 72
65
 73
0
 40
0.0
  0
LTYPE
  5
1F5
100
AcDbSymbolTableRecord
100
AcDbLinetypeTableRecord
  2
CENTER
 70
64
  3
____ _ ____ _ ____ _ ____ _ ____ _ ____ _ ____
 72
65
 73
4
 40
0.6
 49
0.375
 74
0
 49
-0.075
 74
0
 49
0.075
 74
0
 49
-0.075
 74
0
  0
LTYPE
  5
1F6
100
AcDbSymbolTableRecord
100
AcDbLinetypeTableRecord
  2
HIDDEN
 70
64
  3
- - - - - - - - - - - - - - - - - - - -
 72
65
 73
2
 40
0.2
 49
0.1
 74
0
 49
-0.1
 74
0
  0
LTYPE
  5
1F7
100
AcDbSymbolTableRecord
100
AcDbLinetypeTableRecord
  2
PHANTOM
 70
64
  3
_____ _ _ _____ _ _ _____ _ _ _____
 72
65
 73
6
 40
0.8
 49
0.45
 74
0
 49
-0.05
 74
0
 49
0.1
 74
0
 49
-0.05
 74
0
 49
0.1
 74
0
 49
-0.05
 74
0
  0
LTYPE
  5
1F8
100
AcDbSymbolTableRecord
100
AcDbLinetypeTableRecord
  2
DOT
 70
64
  3
. . . . . . . . . . . . . . . . . . . .
 72
65
 73
2
 40
0.2
 49
0.1
 74
0
 49
-0.1
 74
0
  0
LTYPE
  5
1F9
100
AcDbSymbolTableRecord
100
AcDbLinetypeTableRecord
  2
DASHED
 70
64
  3
- - - - - - - - - - - - - - - - - - - -
 72
65
 73
2
 40
0.2
 49
0.1
 74
0
 49
-0.1
 74
0
  0
ENDTAB
  0
TABLE
  2
LAYER
  5
2
100
AcDbSymbolTable
 70
36
  0
LAYER
  5
10
100
AcDbSymbolTableRecord
100
AcDbLayerTableRecord
  2
0
 70
0
 62
7
  6
CONTINUOUS
370
-3
390
F
  0
LAYER
  5
1FA
100
AcDbSymbolTableRecord
100
AcDbLayerTableRecord
  2
DEFAULT_1
 70
0
 62
7
  6
CENTER
370
-3
390
F
  0
LAYER
  5
1FB
100
AcDbSymbolTableRecord
100
AcDbLayerTableRecord
  2
DEFAULT_2
 70
0
 62
8
  6
HIDDEN
370
-3
390
F
  0
LAYER
  5
1FC
100
AcDbSymbolTableRecord
100
AcDbLayerTableRecord
  2
DEFAULT_3
 70
0
 62
7
  6
PHANTOM
370
-3
390
F
  0
LAYER
  5
1FD
100
AcDbSymbolTableRecord
100
AcDbLayerTableRecord
  2
00_COMPONENTS
 70
0
 62
7
  6
CONTINUOUS
370
-3
390
F
  0
LAYER
  5
1FE
100
AcDbSymbolTableRecord
100
AcDbLayerTableRecord
  2
01_1_DEFAULT_DATUMS
 70
0
 62
7
  6
CONTINUOUS
370
-3
390
F
  0
LAYER
  5
1FF
100
AcDbSymbolTableRecord
100
AcDbLayerTableRecord
  2
01_PLANES
 70
0
 62
7
  6
CONTINUOUS
370
-3
390
F
  0
LAYER
  5
200
100
AcDbSymbolTableRecord
100
AcDbLayerTableRecord
  2
02_COORD_SYS
 70
0
 62
7
  6
CONTINUOUS
370
-3
390
F
  0
LAYER
  5
201
100
AcDbSymbolTableRecord
100
AcDbLayerTableRecord
  2
03_AXES
 70
0
 62
7
  6
CONTINUOUS
370
-3
390
F
  0
LAYER
  5
202
100
AcDbSymbolTableRecord
100
AcDbLayerTableRecord
  2
04_POINTS
 70
0
 62
7
  6
CONTINUOUS
370
-3
390
F
  0
LAYER
  5
203
100
AcDbSymbolTableRecord
100
AcDbLayerTableRecord
  2
05_CURVES
 70
0
 62
7
  6
CONTINUOUS
370
-3
390
F
  0
LAYER
  5
204
100
AcDbSymbolTableRecord
100
AcDbLayerTableRecord
  2
06_SURFS
 70
0
 62
7
  6
CONTINUOUS
370
-3
390
F
  0
LAYER
  5
205
100
AcDbSymbolTableRecord
100
AcDbLayerTableRecord
  2
07_COSMETICS
 70
0
 62
7
  6
CONTINUOUS
370
-3
390
F
  0
LAYER
  5
206
100
AcDbSymbolTableRecord
100
AcDbLayerTableRecord
  2
10_NOTES
 70
0
 62
7
  6
CONTINUOUS
370
-3
390
F
  0
LAYER
  5
207
100
AcDbSymbolTableRecord
100
AcDbLayerTableRecord
  2
11_NOTES_PUB
 70
0
 62
7
  6
CONTINUOUS
370
-3
390
F
  0
LAYER
  5
208
100
AcDbSymbolTableRecord
100
AcDbLayerTableRecord
  2
13_REF_GTOL
 70
0
 62
7
  6
CONTINUOUS
370
-3
390
F
  0
LAYER
  5
209
100
AcDbSymbolTableRecord
100
AcDbLayerTableRecord
  2
16_MISC
 70
0
 62
7
  6
CONTINUOUS
370
-3
390
F
  0
LAYER
  5
20A
100
AcDbSymbolTableRecord
100
AcDbLayerTableRecord
  2
17_NO_PRINT
 70
0
 62
7
  6
CONTINUOUS
370
-3
390
F
  0
LAYER
  5
20B
100
AcDbSymbolTableRecord
100
AcDbLayerTableRecord
  2
18_DATUM_CAMS_JOINTS
 70
0
 62
7
  6
CONTINUOUS
370
-3
390
F
  0
LAYER
  5
20C
100
AcDbSymbolTableRecord
100
AcDbLayerTableRecord
  2
19_DATUM_FUNCTIONAL
 70
0
 62
7
  6
CONTINUOUS
370
-3
390
F
  0
LAYER
  5
20D
100
AcDbSymbolTableRecord
100
AcDbLayerTableRecord
  2
20_DATUM_KINEMATIC_SCHEME
 70
0
 62
7
  6
CONTINUOUS
370
-3
390
F
  0
LAYER
  5
20E
100
AcDbSymbolTableRecord
100
AcDbLayerTableRecord
  2
_1
 70
0
 62
7
  6
CONTINUOUS
370
-3
390
F
  0
ENDTAB
  0
TABLE
  2
STYLE
  5
3
100
AcDbSymbolTable
 70
1
  0
STYLE
  5
11
100
AcDbSymbolTableRecord
100
AcDbTextStyleTableRecord
  2
STANDARD
 70
0
 40
0.0
 41
0.8
 50
0.0
 71
0
 42
0.2
  3
txt
  4

  0
STYLE
  5
20F
100
AcDbSymbolTableRecord
100
AcDbTextStyleTableRecord
  2
TEXTSTYLE_1
 70
0
 40
0.0
 41
0.8
 50
0.0
 71
0
 42
0.2
  3
gdt
  4

  0
ENDTAB
  0
TABLE
  2
VIEW
  5
6
100
AcDbSymbolTable
 70
0
  0
ENDTAB
  0
TABLE
  2
UCS
  5
7
100
AcDbSymbolTable
 70
0
  0
ENDTAB
  0
TABLE
  2
APPID
  5
9
100
AcDbSymbolTable
 70
1
  0
APPID
  5
210
100
AcDbSymbolTableRecord
100
AcDbRegAppTableRecord
  2
ACAD
 70
0
  0
ENDTAB
  0
TABLE
  2
BLOCK_RECORD
  5
1
100
AcDbSymbolTable
 70
0
  0
BLOCK_RECORD
  5
211
100
AcDbSymbolTableRecord
100
AcDbBlockTableRecord
  2
*Model_Space
  0
BLOCK_RECORD
  5
212
100
AcDbSymbolTableRecord
100
AcDbBlockTableRecord
  2
*Paper_Space
  0
BLOCK_RECORD
  5
213
100
AcDbSymbolTableRecord
100
AcDbBlockTableRecord
  2
_FILLED
  0
ENDTAB
  0
TABLE
  2
DIMSTYLE
  5
A
100
AcDbSymbolTable
 70
1
100
AcDbDimStyleTable
 71
0
  0
DIMSTYLE
105
214
100
AcDbSymbolTableRecord
100
AcDbDimStyleTableRecord
  2
STANDARD
 70
0
  3

  4

 40
1.0
 41
1.9480145659
 42
1.0
 43
0.38
 44
1.0
 45
0.0
 46
0.0
 47
0.01
 48
0.01
140
2.7272203923
141
0.09
142
0.0
143
25.4
144
1.0
145
0.0
146
1.0
147
0.625
 71
1
 72
0
 73
0
 74
0
 75
0
 76
0
 77
1
 78
8
 79
2
170
0
171
1
172
0
173
0
174
0
175
0
176
0
177
0
178
0
270
2
179
2
271
2
272
2
273
2
274
2
275
0
280
0
281
0
282
0
283
1
284
8
285
0
286
0
287
3
288
0
340
11
278
46
341
213
342
213
343
213
344
213
  0
ENDTAB
  0
ENDSEC
  0
SECTION
  2
BLOCKS
  0
BLOCK
  5
20
100
AcDbEntity
  8
0
100
AcDbBlockBegin
  2
*Model_Space
 70
0
 10
0.0
 20
0.0
 30
0.0
  3
*Model_Space
  1

  0
ENDBLK
  5
21
100
AcDbEntity
  8
0
100
AcDbBlockEnd
  0
BLOCK
  5
1C
100
AcDbEntity
  8
0
100
AcDbBlockBegin
  2
*Paper_Space
 70
0
 10
0.0
 20
0.0
 30
0.0
  3
*Paper_Space
  1

  0
ENDBLK
  5
1D
100
AcDbEntity
  8
0
100
AcDbBlockEnd
  0
BLOCK
  5
215
100
AcDbEntity
  8
0
100
AcDbBlockBegin
  2
_FILLED
 70
64
 10
0.0
 20
0.0
  3
_FILLED
  1

  0
SOLID
  5
216
100
AcDbEntity
  8
0
  6
BYBLOCK
 62
0
100
AcDbTrace
 10
0.0
 20
0.0
 11
-1.0
 21
0.25
 12
-1.0
 22
-0.25
 13
-1.0
 23
-0.25
  0
ENDBLK
  5
217
100
AcDbEntity
  8
0
  6
BYBLOCK
 62
0
100
AcDbBlockEnd
  0
ENDSEC
  0
SECTION
  2
ENTITIES
  0
LINE
  5
218
100
AcDbEntity
  8
_1
100
AcDbLine
 62
7
  6
CONTINUOUS
 10
80.8326987264
 20
18.5535869565
 11
57.8326987264
 21
18.5535869565
  0
LINE
  5
219
100
AcDbEntity
  8
_1
100
AcDbLine
 62
7
  6
CONTINUOUS
 10
110.3326987264
 20
21.5535869565
 11
87.3326987264
 21
21.5535869565
  0
LINE
  5
21A
100
AcDbEntity
  8
_1
100
AcDbLine
 62
7
  6
CONTINUOUS
 10
56.1707971942
 20
34.5035869565
 11
82.4946002586
 21
34.5035869565
  0
LINE
  5
21B
100
AcDbEntity
  8
_1
100
AcDbLine
 62
7
  6
CONTINUOUS
 10
85.6009556552
 20
36.5035869565
 11
112.0644417976
 21
36.5035869565
  0
LINE
  5
21C
100
AcDbEntity
  8
_1
100
AcDbLine
 62
7
  6
CONTINUOUS
 10
116.5826987264
 20
39.4034575711
 11
110.5826987264
 21
39.4034555966
  0
LINE
  5
21D
100
AcDbEntity
  8
_1
100
AcDbLine
 62
7
  6
CONTINUOUS
 10
57.5826987264
 20
39.4034575711
 11
51.5826987264
 21
39.4034555967
  0
LINE
  5
21E
100
AcDbEntity
  8
_1
100
AcDbLine
 62
7
  6
CONTINUOUS
 10
118.9520007814
 20
41.0035869565
 11
106.6398803151
 21
41.0035869565
  0
LINE
  5
21F
100
AcDbEntity
  8
_1
100
AcDbLine
 62
7
  6
CONTINUOUS
 10
49.2133966714
 20
41.0035869565
 11
61.5255171364
 21
41.0035869565
  0
LWPOLYLINE
  5
220
100
AcDbEntity
  8
_1
100
AcDbPolyline
 62
7
  6
CONTINUOUS
 90
3
 70
0
 10
51.5826987264
 20
39.4034575583
 10
54.5902915256
 20
38.764173389
 10
57.5826987264
 20
39.4034575676
  0
LINE
  5
221
100
AcDbEntity
  8
_1
100
AcDbLine
 62
7
  6
CONTINUOUS
 10
49.0826987264
 20
45.0035869565
 11
119.0826987264
 21
45.0035869565
  0
LWPOLYLINE
  5
222
100
AcDbEntity
  8
_1
100
AcDbPolyline
 62
7
  6
CONTINUOUS
 90
3
 70
0
 10
110.5826987264
 20
39.4034575583
 10
113.5902915255
 20
38.764173389
 10
116.5826987264
 20
39.4034575676
  0
LINE
  5
223
100
AcDbEntity
  8
_1
100
AcDbLine
 62
7
  6
CONTINUOUS
 10
49.0826987264
 20
39.1996992947
 11
49.0826987264
 21
191.0035869565
  0
LINE
  5
224
100
AcDbEntity
  8
_1
100
AcDbLine
 62
7
  6
CONTINUOUS
 10
49.1735650208
 20
45.0035869565
 11
49.1735650208
 21
39.3834552714
  0
LINE
  5
225
100
AcDbEntity
  8
_1
100
AcDbLine
 62
7
  6
CONTINUOUS
 10
49.2133966714
 20
39.4070450149
 11
49.2133966714
 21
41.0035869565
  0
LINE
  5
226
100
AcDbEntity
  8
_1
100
AcDbLine
 62
7
  6
CONTINUOUS
 10
49.2318729937
 20
182.5035869565
 11
49.2318729937
 21
45.0035869565
  0
LINE
  5
227
100
AcDbEntity
  8
_1
100
AcDbLine
 62
7
  6
CONTINUOUS
 10
49.5131031974
 20
191.0035869565
 11
49.5131031974
 21
182.5035869565
  0
LINE
  5
228
100
AcDbEntity
  8
_1
100
AcDbLine
 62
7
  6
CONTINUOUS
 10
56.0339348859
 20
38.4228106808
 11
56.1707971942
 21
34.5035869565
  0
LINE
  5
229
100
AcDbEntity
  8
_1
100
AcDbLine
 62
7
  6
CONTINUOUS
 10
50.5680908433
 20
41.0035869565
 11
50.5680908433
 21
45.0035869565
  0
LINE
  5
22A
100
AcDbEntity
  8
_1
100
AcDbLine
 62
7
  6
CONTINUOUS
 10
50.6271274254
 20
162.3917127505
 11
50.6271274254
 21
45.0035869565
  0
LINE
  5
22B
100
AcDbEntity
  8
_1
100
AcDbLine
 62
7
  6
CONTINUOUS
 10
51.5826987264
 20
41.0035869565
 11
51.5826987264
 21
39.4034555967
  0
LINE
  5
22C
100
AcDbEntity
  8
_1
100
AcDbLine
 62
7
  6
CONTINUOUS
 10
52.036421279
 20
41.0035869565
 11
52.036421279
 21
45.0035869565
  0
LINE
  5
22D
100
AcDbEntity
  8
_1
100
AcDbLine
 62
7
  6
CONTINUOUS
 10
52.0954038238
 20
45.0035869565
 11
52.0954038238
 21
162.5035869565
  0
LINE
  5
22E
100
AcDbEntity
  8
_1
100
AcDbLine
 62
7
  6
CONTINUOUS
 10
54.0826987264
 20
191.0035869565
 11
54.0826987264
 21
193.5035869565
  0
LINE
  5
22F
100
AcDbEntity
  8
_1
100
AcDbLine
 62
7
  6
CONTINUOUS
 10
54.5125911443
 20
182.5035869565
 11
54.5125911443
 21
191.0035869565
  0
LINE
  5
230
100
AcDbEntity
  8
_1
100
AcDbLine
 62
7
  6
CONTINUOUS
 10
55.5257455994
 20
41.0035869565
 11
55.5257456131
 21
182.5035869565
  0
LINE
  5
231
100
AcDbEntity
  8
_1
100
AcDbLine
 62
7
  6
CONTINUOUS
 10
61.5255171538
 20
162.5035869565
 11
64.525402923
 21
182.5035869565
  0
LINE
  5
232
100
AcDbEntity
  8
_1
100
AcDbLine
 62
7
  6
CONTINUOUS
 10
57.5826987264
 20
41.0035869565
 11
57.5826987264
 21
39.4034604121
  0
LINE
  5
233
100
AcDbEntity
  8
_1
100
AcDbLine
 62
7
  6
CONTINUOUS
 10
57.8326987264
 20
18.5535869565
 11
57.8326987264
 21
34.5035869565
  0
LINE
  5
234
100
AcDbEntity
  8
_1
100
AcDbLine
 62
7
  6
CONTINUOUS
 10
61.4338201629
 20
38.498331847
 11
61.4338201629
 21
41.0035869565
  0
LINE
  5
235
100
AcDbEntity
  8
_1
100
AcDbLine
 62
7
  6
CONTINUOUS
 10
61.5255171364
 20
41.0035869565
 11
61.5255171538
 21
162.5035869565
  0
LINE
  5
236
100
AcDbEntity
  8
_1
100
AcDbLine
 62
7
  6
CONTINUOUS
 10
61.5577992665
 20
162.5035869565
 11
61.5577992596
 21
39.768647124
  0
LINE
  5
237
100
AcDbEntity
  8
_1
100
AcDbLine
 62
7
  6
CONTINUOUS
 10
62.7509982157
 20
39.8468387319
 11
62.7509982228
 21
162.3917171032
  0
LINE
  5
238
100
AcDbEntity
  8
_1
100
AcDbLine
 62
7
  6
CONTINUOUS
 10
64.0826987264
 20
37.7498691831
 11
64.0826987264
 21
37.7187860811
  0
LINE
  5
239
100
AcDbEntity
  8
_1
100
AcDbLine
 62
7
  6
CONTINUOUS
 10
119.0826987264
 20
93.0035869565
 11
49.0826987264
 21
93.0035869565
  0
LINE
  5
23A
100
AcDbEntity
  8
_1
100
AcDbLine
 62
7
  6
CONTINUOUS
 10
73.6718024408
 20
39.3948456703
 11
73.6718024449
 21
182.5035869565
  0
LINE
  5
23B
100
AcDbEntity
  8
_1
100
AcDbLine
 62
7
  6
CONTINUOUS
 10
85.5801781381
 20
37.0985771998
 11
85.6009556552
 21
36.5035869565
  0
LINE
  5
23C
100
AcDbEntity
  8
_1
100
AcDbLine
 62
7
  6
CONTINUOUS
 10
78.5826987264
 20
214.0035869565
 11
78.5826987264
 21
193.5035869565
  0
LINE
  5
23D
100
AcDbEntity
  8
_1
100
AcDbLine
 62
7
  6
CONTINUOUS
 10
80.8326987264
 20
18.5535869565
 11
80.8326987264
 21
34.5035869565
  0
LINE
  5
23E
100
AcDbEntity
  8
_1
100
AcDbLine
 62
7
  6
CONTINUOUS
 10
87.3326987264
 20
21.5535869565
 11
87.3326987264
 21
36.5035869565
  0
LINE
  5
23F
100
AcDbEntity
  8
_1
100
AcDbLine
 62
7
  6
CONTINUOUS
 10
89.5826987264
 20
214.0035869565
 11
89.5826987264
 21
193.5035869565
  0
LINE
  5
240
100
AcDbEntity
  8
_1
100
AcDbLine
 62
7
  6
CONTINUOUS
 10
82.4946002586
 20
34.5035869565
 11
82.5849919898
 21
37.0920674664
  0
LINE
  5
241
100
AcDbEntity
  8
_1
100
AcDbLine
 62
7
  6
CONTINUOUS
 10
94.4935950078
 20
182.5035869565
 11
94.493595012
 21
39.3948456703
  0
LINE
  5
242
100
AcDbEntity
  8
_1
100
AcDbLine
 62
7
  6
CONTINUOUS
 10
104.0826987264
 20
37.7187860811
 11
104.0826987264
 21
37.7498691831
  0
LINE
  5
243
100
AcDbEntity
  8
_1
100
AcDbLine
 62
7
  6
CONTINUOUS
 10
105.4143992371
 20
39.8468387319
 11
105.4143992299
 21
162.3917127544
  0
LINE
  5
244
100
AcDbEntity
  8
_1
100
AcDbLine
 62
7
  6
CONTINUOUS
 10
106.6075981932
 20
39.768647124
 11
106.6075981863
 21
162.5035869565
  0
LINE
  5
245
100
AcDbEntity
  8
_1
100
AcDbLine
 62
7
  6
CONTINUOUS
 10
106.639880299
 20
162.5035869565
 11
106.6398803164
 21
41.0035869565
  0
LINE
  5
246
100
AcDbEntity
  8
_1
100
AcDbLine
 62
7
  6
CONTINUOUS
 10
106.7315772899
 20
41.0035869565
 11
106.7315772899
 21
38.498331847
  0
LINE
  5
247
100
AcDbEntity
  8
_1
100
AcDbLine
 62
7
  6
CONTINUOUS
 10
110.3326987264
 20
21.5535869565
 11
110.3326987264
 21
36.5035869565
  0
LINE
  5
248
100
AcDbEntity
  8
_1
100
AcDbLine
 62
7
  6
CONTINUOUS
 10
110.5826987264
 20
41.0035869565
 11
110.5826987264
 21
39.4034555966
  0
LINE
  5
249
100
AcDbEntity
  8
_1
100
AcDbLine
 62
7
  6
CONTINUOUS
 10
112.6396518534
 20
41.0035869565
 11
112.6396518397
 21
182.5035869565
  0
LINE
  5
24A
100
AcDbEntity
  8
_1
100
AcDbLine
 62
7
  6
CONTINUOUS
 10
113.6528063085
 20
191.0035869565
 11
113.6528063085
 21
182.5035869565
  0
LINE
  5
24B
100
AcDbEntity
  8
_1
100
AcDbLine
 62
7
  6
CONTINUOUS
 10
114.0826987264
 20
191.0035869565
 11
114.0826987264
 21
193.5035869565
  0
LINE
  5
24C
100
AcDbEntity
  8
_1
100
AcDbLine
 62
7
  6
CONTINUOUS
 10
116.069993629
 20
162.5035869565
 11
116.069993629
 21
45.0035869565
  0
LINE
  5
24D
100
AcDbEntity
  8
_1
100
AcDbLine
 62
7
  6
CONTINUOUS
 10
116.1289761738
 20
45.0035869565
 11
116.1289761738
 21
41.0035869565
  0
LINE
  5
24E
100
AcDbEntity
  8
_1
100
AcDbLine
 62
7
  6
CONTINUOUS
 10
116.5826987264
 20
41.0035869565
 11
116.5826987264
 21
39.4034604121
  0
LINE
  5
24F
100
AcDbEntity
  8
_1
100
AcDbLine
 62
7
  6
CONTINUOUS
 10
117.5382700274
 20
45.0035869565
 11
117.5382700274
 21
162.3917128144
  0
LINE
  5
250
100
AcDbEntity
  8
_1
100
AcDbLine
 62
7
  6
CONTINUOUS
 10
117.5973066095
 20
41.0035869565
 11
117.5973066095
 21
45.0035869565
  0
LINE
  5
251
100
AcDbEntity
  8
_1
100
AcDbLine
 62
7
  6
CONTINUOUS
 10
118.6522942554
 20
182.5035869565
 11
118.6522942554
 21
191.0035869565
  0
LINE
  5
252
100
AcDbEntity
  8
_1
100
AcDbLine
 62
7
  6
CONTINUOUS
 10
118.9335244591
 20
45.0035869565
 11
118.9335244591
 21
182.5035869565
  0
LINE
  5
253
100
AcDbEntity
  8
_1
100
AcDbLine
 62
7
  6
CONTINUOUS
 10
118.9520007814
 20
41.0035869565
 11
118.9520007814
 21
39.4070450149
  0
LINE
  5
254
100
AcDbEntity
  8
_1
100
AcDbLine
 62
7
  6
CONTINUOUS
 10
118.991832432
 20
39.3834552714
 11
118.991832432
 21
45.0035869565
  0
LINE
  5
255
100
AcDbEntity
  8
_1
100
AcDbLine
 62
7
  6
CONTINUOUS
 10
119.0826987264
 20
39.1996992947
 11
119.0826987264
 21
191.0035869565
  0
LINE
  5
256
100
AcDbEntity
  8
_1
100
AcDbLine
 62
7
  6
CONTINUOUS
 10
112.0644417976
 20
36.5035869565
 11
112.1314625669
 21
38.4228106808
  0
LINE
  5
257
100
AcDbEntity
  8
_1
100
AcDbLine
 62
7
  6
CONTINUOUS
 10
106.6398802989
 20
162.5035869565
 11
103.6399945297
 21
182.5035869565
  0
LINE
  5
258
100
AcDbEntity
  8
_1
100
AcDbLine
 62
7
  6
CONTINUOUS
 10
52.0971390806
 20
162.5035869565
 11
61.5577676717
 21
162.5035869565
  0
LINE
  5
259
100
AcDbEntity
  8
_1
100
AcDbLine
 62
7
  6
CONTINUOUS
 10
106.6076297811
 20
162.5035869565
 11
116.0682583722
 21
162.5035869565
  0
LINE
  5
25A
100
AcDbEntity
  8
_1
100
AcDbLine
 62
7
  6
CONTINUOUS
 10
118.9335244591
 20
182.5035869565
 11
94.4935950078
 21
182.5035869565
  0
LINE
  5
25B
100
AcDbEntity
  8
_1
100
AcDbLine
 62
7
  6
CONTINUOUS
 10
73.6718024449
 20
182.5035869565
 11
49.2318729937
 21
182.5035869565
  0
LINE
  5
25C
100
AcDbEntity
  8
_1
100
AcDbLine
 62
7
  6
CONTINUOUS
 10
49.0826987264
 20
191.0035869565
 11
119.0826987264
 21
191.0035869565
  0
LINE
  5
25D
100
AcDbEntity
  8
_1
100
AcDbLine
 62
7
  6
CONTINUOUS
 10
54.0826987264
 20
193.5035869565
 11
114.0826987264
 21
193.5035869565
  0
LINE
  5
25E
100
AcDbEntity
  8
_1
100
AcDbLine
 62
7
  6
CONTINUOUS
 10
78.5826987264
 20
214.0035869565
 11
89.5826987264
 21
214.0035869565
  0
ARC
  5
25F
100
AcDbEntity
  8
_1
100
AcDbCircle
 62
7
  6
CONTINUOUS
 10
2943.4016007033
 20
253.2165044562
 40
2892.7256954202
100
AcDbArc
 50
181.4007397099
 51
181.7970307423
  0
ARC
  5
260
100
AcDbEntity
  8
_1
100
AcDbCircle
 62
7
  6
CONTINUOUS
 10
-2775.2361677043
 20
253.2165034636
 40
2892.7256598596
100
AcDbArc
 50
358.2029692552
 51
358.5992602925
  0
ARC
  5
261
100
AcDbEntity
  8
_1
100
AcDbCircle
 62
7
  6
CONTINUOUS
 10
2880.5808727621
 20
253.0123165664
 40
2831.4042972172
100
AcDbArc
 50
181.426949264
 51
181.8340951822
  0
ARC
  5
262
100
AcDbEntity
  8
_1
100
AcDbCircle
 62
7
  6
CONTINUOUS
 10
-2712.4154693221
 20
253.012316396
 40
2831.4042912276
100
AcDbArc
 50
358.1659048174
 51
358.5730507365
  0
ARC
  5
263
100
AcDbEntity
  8
_1
100
AcDbCircle
 62
7
  6
CONTINUOUS
 10
77.5147357355
 20
581.7857588959
 40
542.6565989758
100
AcDbArc
 50
271.7929861625
 51
272.9470535257
  0
ARC
  5
264
100
AcDbEntity
  8
_1
100
AcDbCircle
 62
7
  6
CONTINUOUS
 10
90.4255132018
 20
576.3458460565
 40
537.212307789
100
AcDbArc
 50
267.0470984191
 51
268.2128618927
  0
ARC
  5
265
100
AcDbEntity
  8
_1
100
AcDbCircle
 62
7
  6
CONTINUOUS
 10
84.0826987264
 20
317.0035869565
 40
280.0
100
AcDbArc
 50
262.8192442185
 51
265.9039562418
  0
ARC
  5
266
100
AcDbEntity
  8
_1
100
AcDbCircle
 62
7
  6
CONTINUOUS
 10
84.0826987264
 20
317.0035869565
 40
280.0
100
AcDbArc
 50
274.0960437582
 51
277.1807557815
  0
ARC
  5
267
100
AcDbEntity
  8
_1
100
AcDbCircle
 62
7
  6
CONTINUOUS
 10
84.0826987264
 20
317.0035869565
 40
279.9206236735
100
AcDbArc
 50
266.4156608614
 51
273.5843391386
  0
ARC
  5
268
100
AcDbEntity
  8
_1
100
AcDbCircle
 62
7
  6
CONTINUOUS
 10
84.0826987264
 20
317.0035869565
 40
279.7779625413
100
AcDbArc
 50
262.8404921489
 51
263.908666998
  0
ARC
  5
269
100
AcDbEntity
  8
_1
100
AcDbCircle
 62
7
  6
CONTINUOUS
 10
84.0826987264
 20
317.0035869565
 40
279.7779625413
100
AcDbArc
 50
276.09732105
 51
277.1595078511
  0
ARC
  5
26A
100
AcDbEntity
  8
_1
100
AcDbCircle
 62
7
  6
CONTINUOUS
 10
84.0826987264
 20
317.0035869565
 40
277.8038876618
100
AcDbArc
 50
267.8522974061
 51
272.1477025939
  0
ARC
  5
26B
100
AcDbEntity
  8
_1
100
AcDbCircle
 62
7
  6
CONTINUOUS
 10
111.688014899
 20
-123.6508235187
 40
161.5976239268
100
AcDbArc
 50
93.2457642706
 51
93.5852630426
  0
ARC
  5
26C
100
AcDbEntity
  8
_1
100
AcDbCircle
 62
7
  6
CONTINUOUS
 10
57.7672767449
 20
-102.0466746499
 40
139.9551101649
100
AcDbArc
 50
86.3886916788
 51
86.9586768274
  0
ARC
  5
26D
100
AcDbEntity
  8
_1
100
AcDbCircle
 62
7
  6
CONTINUOUS
 10
109.4946713946
 20
-85.5403411012
 40
123.4240953886
100
AcDbArc
 50
93.0307063315
 51
93.2308867682
  0
ARC
  5
26E
100
AcDbEntity
  8
_1
100
AcDbCircle
 62
7
  6
CONTINUOUS
 10
107.2672427502
 20
-43.7229967446
 40
81.5474735533
100
AcDbArc
 50
92.7540382906
 51
93.021303677
  0
ARC
  5
26F
100
AcDbEntity
  8
_1
100
AcDbCircle
 62
7
  6
CONTINUOUS
 10
61.3856115231
 20
-34.0544422284
 40
71.8666680471
100
AcDbArc
 50
86.9633250932
 51
87.2647846645
  0
ARC
  5
270
100
AcDbEntity
  8
_1
100
AcDbCircle
 62
7
  6
CONTINUOUS
 10
105.5570550779
 20
-8.3678874633
 40
46.1510283034
100
AcDbArc
 50
92.3565216115
 51
92.7423044923
  0
ARC
  5
271
100
AcDbEntity
  8
_1
100
AcDbCircle
 62
7
  6
CONTINUOUS
 10
62.8578005417
 20
-2.7651155916
 40
40.5427411803
100
AcDbArc
 50
87.2328079666
 51
87.6735731796
  0
SPLINE
  5
272
100
AcDbEntity
  8
_1
100
AcDbSpline
 62
7
  6
CONTINUOUS
 70
0
 71
3
 72
9
 73
5
 74
0
 42
0.0000001
 43
0.0000001
 44
0.0000000001
 40
0.0
 40
0.0
 40
0.0
 40
0.0
 40
0.2152366187
 40
1.0
 40
1.0
 40
1.0
 40
1.0
 10
64.2732651456
 20
37.752211294
 30
0.0
 10
64.2897903725
 20
37.7517709921
 30
0.0
 10
64.3665621539
 20
37.7495280671
 30
0.0
 10
64.4433137013
 20
37.7466384778
 30
0.0
 10
64.5035379134
 20
37.7442093955
 30
0.0
  0
SPLINE
  5
273
100
AcDbEntity
  8
_1
100
AcDbSpline
 62
7
  6
CONTINUOUS
 70
0
 71
3
 72
14
 73
10
 74
0
 42
0.0000001
 43
0.0000001
 44
0.0000000001
 40
0.0
 40
0.0
 40
0.0
 40
0.0
 40
0.0179604463
 40
0.0657036721
 40
0.1445228502
 40
0.2544652658
 40
0.3953381766
 40
0.5668845698
 40
1.0
 40
1.0
 40
1.0
 40
1.0
 10
64.0826987264
 20
37.7498691831
 30
0.0
 10
64.0826987264
 20
37.7510133665
 30
0.0
 10
64.0885476852
 20
37.7519767176
 30
0.0
 10
64.0961086095
 20
37.7530757054
 30
0.0
 10
64.1120535601
 20
37.7537626006
 30
0.0
 10
64.1326581384
 20
37.7542067939
 30
0.0
 10
64.159717321
 20
37.7542592334
 30
0.0
 10
64.2071376405
 20
37.7538180047
 30
0.0
 10
64.2456830189
 20
37.7529470104
 30
0.0
 10
64.2732651456
 20
37.752211294
 30
0.0
  0
SPLINE
  5
274
100
AcDbEntity
  8
_1
100
AcDbSpline
 62
7
  6
CONTINUOUS
 70
0
 71
3
 72
14
 73
10
 74
0
 42
0.0000001
 43
0.0000001
 44
0.0000000001
 40
0.0
 40
0.0
 40
0.0
 40
0.0
 40
0.4331075805
 40
0.6046572599
 40
0.7455350411
 40
0.8554824186
 40
0.9343050915
 40
0.9820485844
 40
1.0
 40
1.0
 40
1.0
 40
1.0
 10
103.8912778135
 20
37.7521884628
 30
0.0
 10
103.9189826624
 20
37.7529299606
 30
0.0
 10
103.9577000179
 20
37.7538086778
 30
0.0
 10
104.0053321209
 20
37.7542577002
 30
0.0
 10
104.0325134054
 20
37.7542094503
 30
0.0
 10
104.0532102196
 20
37.7537664328
 30
0.0
 10
104.0692289736
 20
37.7530823013
 30
0.0
 10
104.0768206351
 20
37.7519785562
 30
0.0
 10
104.0826987264
 20
37.7510179031
 30
0.0
 10
104.0826987264
 20
37.7498691831
 30
0.0
  0
SPLINE
  5
275
100
AcDbEntity
  8
_1
100
AcDbSpline
 62
7
  6
CONTINUOUS
 70
0
 71
3
 72
9
 73
5
 74
0
 42
0.0000001
 43
0.0000001
 44
0.0000000001
 40
0.0
 40
0.0
 40
0.0
 40
0.0
 40
0.2841065594
 40
1.0
 40
1.0
 40
1.0
 40
1.0
 10
103.659441724
 20
37.7441118105
 30
0.0
 10
103.6813925992
 20
37.7449986864
 30
0.0
 10
103.7586591588
 20
37.7480211674
 30
0.0
 10
103.8359405536
 20
37.7507074059
 30
0.0
 10
103.8912778135
 20
37.7521884628
 30
0.0
  0
SPLINE
  5
276
100
AcDbEntity
  8
_1
100
AcDbSpline
 62
7
  6
CONTINUOUS
 70
0
 71
3
 72
15
 73
11
 74
0
 42
0.0000001
 43
0.0000001
 44
0.0000000001
 40
0.0
 40
0.0
 40
0.0
 40
0.0
 40
0.0297927764
 40
0.0547175246
 40
0.0874002643
 40
0.1279569855
 40
0.1762790085
 40
0.2952997029
 40
0.6109536594
 40
1.0
 40
1.0
 40
1.0
 40
1.0
 10
61.5577992596
 20
39.768647124
 30
0.0
 10
61.5587085398
 20
39.7806549756
 30
0.0
 10
61.5798954764
 20
39.7971047349
 30
0.0
 10
61.611410947
 20
39.8097774769
 30
0.0
 10
61.6500883383
 20
39.8208373598
 30
0.0
 10
61.6981399408
 20
39.8303837951
 30
0.0
 10
61.7813843919
 20
39.8426103291
 30
0.0
 10
61.975981139
 20
39.8591504055
 30
0.0
 10
62.3092147099
 20
39.8642390024
 30
0.0
 10
62.5939550649
 20
39.8549481584
 30
0.0
 10
62.7509982157
 20
39.8468387319
 30
0.0
  0
SPLINE
  5
277
100
AcDbEntity
  8
_1
100
AcDbSpline
 62
7
  6
CONTINUOUS
 70
0
 71
3
 72
9
 73
5
 74
0
 42
0.0000001
 43
0.0000001
 44
0.0000000001
 40
0.0
 40
0.0
 40
0.0
 40
0.0
 40
0.4292277977
 40
1.0
 40
1.0
 40
1.0
 40
1.0
 10
61.4338201629
 20
38.498331847
 30
0.0
 10
61.4586068414
 20
38.6792752019
 30
0.0
 10
61.504276466
 20
39.1024408117
 30
0.0
 10
61.539461532
 20
39.5264811846
 30
0.0
 10
61.5577992596
 20
39.768647124
 30
0.0
  0
SPLINE
  5
278
100
AcDbEntity
  8
_1
100
AcDbSpline
 62
7
  6
CONTINUOUS
 70
0
 71
3
 72
20
 73
16
 74
0
 42
0.0000001
 43
0.0000001
 44
0.0000000001
 40
0.0
 40
0.0
 40
0.0
 40
0.0
 40
0.1938115013
 40
0.380014956
 40
0.5516605334
 40
0.7022429338
 40
0.826052517
 40
0.8764186202
 40
0.9184669683
 40
0.9518358342
 40
0.9652024046
 40
0.9763403373
 40
0.9852620676
 40
0.9920354596
 40
1.0
 40
1.0
 40
1.0
 40
1.0
 10
54.6566436076
 20
38.7774080439
 30
0.0
 10
55.0946102647
 20
38.7312782503
 30
0.0
 10
55.9539132688
 20
38.6460602948
 30
0.0
 10
57.2028199514
 20
38.5382996119
 30
0.0
 10
58.3551840478
 20
38.4554136077
 30
0.0
 10
59.3672540011
 20
38.4005425418
 30
0.0
 10
60.1049765993
 20
38.377673175
 30
0.0
 10
60.5963268969
 20
38.3773285291
 30
0.0
 10
60.882102219
 20
38.3848899871
 30
0.0
 10
61.0834521291
 20
38.3979252813
 30
0.0
 10
61.2141928373
 20
38.4135355731
 30
0.0
 10
61.2888663045
 20
38.4259722351
 30
0.0
 10
61.3489365677
 20
38.4407104235
 30
0.0
 10
61.3975367008
 20
38.4579147966
 30
0.0
 10
61.4313640031
 20
38.4804018212
 30
0.0
 10
61.4338201629
 20
38.498331847
 30
0.0
  0
SPLINE
  5
279
100
AcDbEntity
  8
_1
100
AcDbSpline
 62
7
  6
CONTINUOUS
 70
0
 71
3
 72
9
 73
5
 74
0
 42
0.0000001
 43
0.0000001
 44
0.0000000001
 40
0.0
 40
0.0
 40
0.0
 40
0.0
 40
0.2355417358
 40
1.0
 40
1.0
 40
1.0
 40
1.0
 10
49.1735650208
 20
39.3834552714
 30
0.0
 10
49.1766230213
 20
39.3854205114
 30
0.0
 10
49.1896901684
 20
39.3936327223
 30
0.0
 10
49.203062735
 20
39.4013534204
 30
0.0
 10
49.2133966714
 20
39.4070450149
 30
0.0
  0
SPLINE
  5
27A
100
AcDbEntity
  8
_1
100
AcDbSpline
 62
7
  6
CONTINUOUS
 70
0
 71
3
 72
12
 73
8
 74
0
 42
0.0000001
 43
0.0000001
 44
0.0000000001
 40
0.0
 40
0.0
 40
0.0
 40
0.0
 40
0.1151095865
 40
0.1989392187
 40
0.3063937022
 40
0.5988849931
 40
1.0
 40
1.0
 40
1.0
 40
1.0
 10
49.0826987264
 20
39.1996992947
 30
0.0
 10
49.0908230433
 20
39.198675727
 30
0.0
 10
49.1051724011
 20
39.2067198756
 30
0.0
 10
49.1180320377
 20
39.2239558366
 30
0.0
 10
49.1349066426
 20
39.2542246776
 30
0.0
 10
49.1541644401
 20
39.3080162443
 30
0.0
 10
49.1669139045
 20
39.3557071762
 30
0.0
 10
49.1735650208
 20
39.3834552714
 30
0.0
  0
SPLINE
  5
27B
100
AcDbEntity
  8
_1
100
AcDbSpline
 62
7
  6
CONTINUOUS
 70
0
 71
3
 72
12
 73
8
 74
0
 42
0.0000001
 43
0.0000001
 44
0.0000000001
 40
0.0
 40
0.0
 40
0.0
 40
0.0
 40
0.4011150069
 40
0.6936062978
 40
0.8010607813
 40
0.8848904135
 40
1.0
 40
1.0
 40
1.0
 40
1.0
 10
118.991832432
 20
39.3834552714
 30
0.0
 10
118.9984835483
 20
39.3557071762
 30
0.0
 10
119.0112330127
 20
39.3080162443
 30
0.0
 10
119.0304908102
 20
39.2542246776
 30
0.0
 10
119.047365415
 20
39.2239558366
 30
0.0
 10
119.0602250516
 20
39.2067198756
 30
0.0
 10
119.0745744095
 20
39.198675727
 30
0.0
 10
119.0826987264
 20
39.1996992947
 30
0.0
  0
SPLINE
  5
27C
100
AcDbEntity
  8
_1
100
AcDbSpline
 62
7
  6
CONTINUOUS
 70
0
 71
3
 72
9
 73
5
 74
0
 42
0.0000001
 43
0.0000001
 44
0.0000000001
 40
0.0
 40
0.0
 40
0.0
 40
0.0
 40
0.2645631015
 40
1.0
 40
1.0
 40
1.0
 40
1.0
 10
118.9520007814
 20
39.4070450149
 30
0.0
 10
118.9555771122
 20
39.4050752888
 30
0.0
 10
118.9690412035
 20
39.3975337211
 30
0.0
 10
118.9822844519
 20
39.3895913306
 30
0.0
 10
118.991832432
 20
39.3834552714
 30
0.0
  0
SPLINE
  5
27D
100
AcDbEntity
  8
_1
100
AcDbSpline
 62
7
  6
CONTINUOUS
 70
0
 71
3
 72
20
 73
16
 74
0
 42
0.0000001
 43
0.0000001
 44
0.0000000001
 40
0.0
 40
0.0
 40
0.0
 40
0.0
 40
0.0079628824
 40
0.0147376295
 40
0.0236618236
 40
0.0348031189
 40
0.0481739506
 40
0.0815543772
 40
0.1236176095
 40
0.1739995621
 40
0.2978386259
 40
0.4484464313
 40
0.6200927178
 40
0.8062682643
 40
1.0
 40
1.0
 40
1.0
 40
1.0
 10
106.7315772899
 20
38.498331847
 30
0.0
 10
106.7340366821
 20
38.4803782241
 30
0.0
 10
106.7679396874
 20
38.4578782085
 30
0.0
 10
106.8166206644
 20
38.4406680216
 30
0.0
 10
106.8768051099
 20
38.4259231849
 30
0.0
 10
106.9516172305
 20
38.4134819735
 30
0.0
 10
107.0826039977
 20
38.3978683841
 30
0.0
 10
107.2843324009
 20
38.3848411501
 30
0.0
 10
107.5706408782
 20
38.3773095018
 30
0.0
 10
108.0628770643
 20
38.3777166696
 30
0.0
 10
108.8018832571
 20
38.4006885112
 30
0.0
 10
109.8156165764
 20
38.4557607721
 30
0.0
 10
110.9697270044
 20
38.538859424
 30
0.0
 10
112.2202866704
 20
38.6468640078
 30
0.0
 10
113.0806473837
 20
38.7322736722
 30
0.0
 10
113.5190966772
 20
38.7784979037
 30
0.0
  0
SPLINE
  5
27E
100
AcDbEntity
  8
_1
100
AcDbSpline
 62
7
  6
CONTINUOUS
 70
0
 71
3
 72
9
 73
5
 74
0
 42
0.0000001
 43
0.0000001
 44
0.0000000001
 40
0.0
 40
0.0
 40
0.0
 40
0.0
 40
0.5707722023
 40
1.0
 40
1.0
 40
1.0
 40
1.0
 10
106.6075981932
 20
39.768647124
 30
0.0
 10
106.6259359208
 20
39.5264811846
 30
0.0
 10
106.6611209868
 20
39.1024408117
 30
0.0
 10
106.7067906114
 20
38.6792752019
 30
0.0
 10
106.7315772899
 20
38.498331847
 30
0.0
  0
SPLINE
  5
27F
100
AcDbEntity
  8
_1
100
AcDbSpline
 62
7
  6
CONTINUOUS
 70
0
 71
3
 72
15
 73
11
 74
0
 42
0.0000001
 43
0.0000001
 44
0.0000000001
 40
0.0
 40
0.0
 40
0.0
 40
0.0
 40
0.3890429404
 40
0.7046980341
 40
0.8237190164
 40
0.8720418234
 40
0.9125997956
 40
0.9452834494
 40
0.9702084644
 40
1.0
 40
1.0
 40
1.0
 40
1.0
 10
105.4143992371
 20
39.8468387319
 30
0.0
 10
105.5714408686
 20
39.85494808
 30
0.0
 10
105.8561804186
 20
39.8642439088
 30
0.0
 10
106.189411648
 20
39.8591425608
 30
0.0
 10
106.3840107673
 20
39.8426193488
 30
0.0
 10
106.467255546
 20
39.8303881576
 30
0.0
 10
106.515307387
 20
39.8208372715
 30
0.0
 10
106.5539849061
 20
39.809773954
 30
0.0
 10
106.5854999215
 20
39.7971019326
 30
0.0
 10
106.6066889517
 20
39.7806544642
 30
0.0
 10
106.6075981932
 20
39.768647124
 30
0.0
  0
SPLINE
  5
280
100
AcDbEntity
  8
_1
100
AcDbSpline
 62
7
  6
CONTINUOUS
 70
0
 71
3
 72
8
 73
4
 74
0
 42
0.0000001
 43
0.0000001
 44
0.0000000001
 40
0.0
 40
0.0
 40
0.0
 40
0.0
 40
1.0
 40
1.0
 40
1.0
 40
1.0
 10
103.6026375101
 20
182.5035869642
 30
0.0
 10
104.6041050015
 20
175.8368907623
 30
0.0
 10
105.6057673805
 20
169.1702238331
 30
0.0
 10
106.6076297823
 20
162.5035869664
 30
0.0
  0
SPLINE
  5
281
100
AcDbEntity
  8
_1
100
AcDbSpline
 62
7
  6
CONTINUOUS
 70
0
 71
3
 72
13
 73
9
 74
0
 42
0.0000001
 43
0.0000001
 44
0.0000000001
 40
0.0
 40
0.0
 40
0.0
 40
0.0
 40
0.3408533445
 40
0.6423865069
 40
0.7674516044
 40
0.8704441658
 40
0.9486124276
 40
1.0
 40
1.0
 40
1.0
 40
1.0
 10
52.0954038238
 20
162.5035504587
 30
0.0
 10
51.9278212282
 20
162.5022445059
 30
0.0
 10
51.6121093784
 20
162.4912816906
 30
0.0
 10
51.2352002767
 20
162.471846992
 30
0.0
 10
50.9757871903
 20
162.4494214698
 30
0.0
 10
50.8260814483
 20
162.4325495993
 30
0.0
 10
50.7132549933
 20
162.4146442513
 30
0.0
 10
50.6508053514
 20
162.400528376
 30
0.0
 10
50.6271274254
 20
162.3917127505
 30
0.0
  0
SPLINE
  5
282
100
AcDbEntity
  8
_1
100
AcDbSpline
 62
7
  6
CONTINUOUS
 70
0
 71
3
 72
8
 73
4
 74
0
 42
0.0000001
 43
0.0000001
 44
0.0000000001
 40
0.0
 40
0.0
 40
0.0
 40
0.0
 40
1.0
 40
1.0
 40
1.0
 40
1.0
 10
65.8388796183
 20
182.503587001
 30
0.0
 10
64.8097886348
 20
175.7995977813
 30
0.0
 10
63.780496522
 20
169.0956394325
 30
0.0
 10
62.7509979501
 20
162.391712792
 30
0.0
  0
SPLINE
  5
283
100
AcDbEntity
  8
_1
100
AcDbSpline
 62
7
  6
CONTINUOUS
 70
0
 71
3
 72
17
 73
13
 74
0
 42
0.0000001
 43
0.0000001
 44
0.0000000001
 40
0.0
 40
0.0
 40
0.0
 40
0.0
 40
0.203049107
 40
0.3936714606
 40
0.5655241535
 40
0.7138257842
 40
0.8344036011
 40
0.9239731197
 40
0.9562258193
 40
0.9797894278
 40
0.9944556971
 40
1.0
 40
1.0
 40
1.0
 40
1.0
 10
62.7509982228
 20
162.3917171032
 30
0.0
 10
62.6701110815
 20
162.3980224623
 30
0.0
 10
62.5133015528
 20
162.4104322558
 30
0.0
 10
62.2880936292
 20
162.4289489181
 30
0.0
 10
62.0847616698
 20
162.4465371211
 30
0.0
 10
61.9093698498
 20
162.462390863
 30
0.0
 10
61.7667641184
 20
162.4756214941
 30
0.0
 10
61.6704235888
 20
162.4858288744
 30
0.0
 10
61.6128783149
 20
162.4937271202
 30
0.0
 10
61.5851236652
 20
162.4987266181
 30
0.0
 10
61.5678731343
 20
162.501221029
 30
0.0
 10
61.560014609
 20
162.5035948829
 30
0.0
 10
61.5577992665
 20
162.50359453
 30
0.0
  0
SPLINE
  5
284
100
AcDbEntity
  8
_1
100
AcDbSpline
 62
7
  6
CONTINUOUS
 70
0
 71
3
 72
17
 73
13
 74
0
 42
0.0000001
 43
0.0000001
 44
0.0000000001
 40
0.0
 40
0.0
 40
0.0
 40
0.0
 40
0.0055443367
 40
0.0202106795
 40
0.0437743579
 40
0.0760270776
 40
0.1655965199
 40
0.2861741205
 40
0.4344753484
 40
0.6063279774
 40
0.7969506987
 40
1.0
 40
1.0
 40
1.0
 40
1.0
 10
106.6075981863
 20
162.5035900766
 30
0.0
 10
106.6053828303
 20
162.5035904285
 30
0.0
 10
106.5975242584
 20
162.5012165897
 30
0.0
 10
106.5802736602
 20
162.4987221529
 30
0.0
 10
106.5525189566
 20
162.4937225849
 30
0.0
 10
106.4949737269
 20
162.4858239829
 30
0.0
 10
106.3986333078
 20
162.4756165156
 30
0.0
 10
106.2560278337
 20
162.46238613
 30
0.0
 10
106.080636272
 20
162.4465325347
 30
0.0
 10
105.8773043332
 20
162.428944535
 30
0.0
 10
105.6520962024
 20
162.410427942
 30
0.0
 10
105.4952864494
 20
162.3980181192
 30
0.0
 10
105.4143992299
 20
162.3917127544
 30
0.0
  0
SPLINE
  5
285
100
AcDbEntity
  8
_1
100
AcDbSpline
 62
7
  6
CONTINUOUS
 70
0
 71
3
 72
13
 73
9
 74
0
 42
0.0000001
 43
0.0000001
 44
0.0000000001
 40
0.0
 40
0.0
 40
0.0
 40
0.0
 40
0.0513875737
 40
0.1295558368
 40
0.2325483987
 40
0.3576134945
 40
0.6591466526
 40
1.0
 40
1.0
 40
1.0
 40
1.0
 10
117.5382700274
 20
162.3917128144
 30
0.0
 10
117.5145921008
 20
162.4005284402
 30
0.0
 10
117.4521424562
 20
162.4146443096
 30
0.0
 10
117.3393159995
 20
162.4325496516
 30
0.0
 10
117.1896102571
 20
162.4494215159
 30
0.0
 10
116.9301971734
 20
162.4718470273
 30
0.0
 10
116.553288074
 20
162.4912817199
 30
0.0
 10
116.2375762255
 20
162.5022445155
 30
0.0
 10
116.069993629
 20
162.5035504683
 30
0.0
  0
SPLINE
  5
286
100
AcDbEntity
  8
_1
100
AcDbSpline
 62
7
  6
CONTINUOUS
 70
0
 71
3
 72
8
 73
4
 74
0
 42
0.0000001
 43
0.0000001
 44
0.0000000001
 40
0.0
 40
0.0
 40
0.0
 40
0.0
 40
1.0
 40
1.0
 40
1.0
 40
1.0
 10
105.4143995026
 20
162.391712792
 30
0.0
 10
104.3849009308
 20
169.0956394325
 30
0.0
 10
103.355608818
 20
175.7995977813
 30
0.0
 10
102.3265178344
 20
182.503587001
 30
0.0
  0
SPLINE
  5
287
100
AcDbEntity
  8
_1
100
AcDbSpline
 62
7
  6
CONTINUOUS
 70
0
 71
3
 72
8
 73
4
 74
0
 42
0.0000001
 43
0.0000001
 44
0.0000000001
 40
0.0
 40
0.0
 40
0.0
 40
0.0
 40
1.0
 40
1.0
 40
1.0
 40
1.0
 10
61.5577676705
 20
162.5035869664
 30
0.0
 10
62.5596300723
 20
169.1702238332
 30
0.0
 10
63.5612924512
 20
175.8368907623
 30
0.0
 10
64.5627599427
 20
182.5035869642
 30
0.0
  0
ENDSEC
  0
SECTION
  2
OBJECTS
  0
DICTIONARY
  5
C
100
AcDbDictionary
280
0
281
1
  3
ACAD_GROUP
350
D
  3
ACAD_MLINESTYLE
350
17
  3
ACAD_LAYOUT
350
1A
  3
ACAD_PLOTSETTINGS
350
19
  3
ACAD_PLOTSTYLENAME
350
E
  0
DICTIONARY
  5
D
102
{ACAD_REACTORS
330
C
102
}
100
AcDbDictionary
280
0
281
1
  0
ACDBDICTIONARYWDFLT
  5
E
102
{ACAD_REACTORS
330
C
102
}
100
AcDbDictionary
281
1
  3
Normal
350
F
100
AcDbDictionaryWithDefault
340
F
  0
DICTIONARY
  5
17
102
{ACAD_REACTORS
330
C
102
}
100
AcDbDictionary
280
0
281
1
  3
Standard
350
18
  0
DICTIONARY
  5
19
102
{ACAD_REACTORS
330
C
102
}
100
AcDbDictionary
281
1
  0
DICTIONARY
  5
1A
102
{ACAD_REACTORS
330
C
102
}
100
AcDbDictionary
281
1
  3
Model
350
288
  3
Layout1
350
289
  0
ACDBPLACEHOLDER
  5
F
102
{ACAD_REACTORS
330
E
102
}
  0
MLINESTYLE
  5
18
102
{ACAD_REACTORS
330
17
102
}
100
AcDbMlineStyle
  2
STANDARD
 70
0
  3

 62
256
 51
90.0
 52
90.0
 71
2
 49
0.5
 62
256
  6
BYLAYER
 49
-0.5
 62
256
  6
BYLAYER
  0
LAYOUT
  5
288
102
{ACAD_REACTORS
330
1A
102
}
100
AcDbPlotSettings
  1

  2
none_device
  4

  6

 40
0.0
 41
0.0
 42
0.0
 43
0.0
 44
210.0
 45
297.0
 46
0.0
 47
0.0
 48
0.0
 49
0.0
140
0.0
141
0.0
142
1.0
143
1.0
 70
1024
 72
1
 73
0
 74
0
  7

 75
0
147
1.0
148
0.0
149
0.0
100
AcDbLayout
  1
Model
 70
0
 71
0
 10
0.0
 20
0.0
 11
210.0
 21
297.0
 12
0.0
 22
0.0
 32
0.0
 14
0.0
 24
0.0
 34
0.0
 15
0.0
 25
0.0
 35
0.0
146
0.0
 13
0.0
 23
0.0
 33
0.0
 16
1.0
 26
0.0
 36
0.0
 17
0.0
 27
1.0
 37
0.0
 76
0
330
211
345
0
346
0
  0
LAYOUT
  5
289
102
{ACAD_REACTORS
330
1A
102
}
100
AcDbPlotSettings
  1

  2
none_device
  4

  6

 40
0.0
 41
0.0
 42
0.0
 43
0.0
 44
210.0
 45
297.0
 46
0.0
 47
0.0
 48
0.0
 49
0.0
140
0.0
141
0.0
142
1.0
143
1.0
 70
0
 72
1
 73
0
 74
0
  7

 75
0
147
1.0
148
0.0
149
0.0
100
AcDbLayout
  1
Layout1
 70
0
 71
1
 10
0.0
 20
0.0
 11
210.0
 21
297.0
 12
0.0
 22
0.0
 32
0.0
 14
0.0
 24
0.0
 34
0.0
 15
0.0
 25
0.0
 35
0.0
146
0.0
 13
0.0
 23
0.0
 33
0.0
 16
1.0
 26
0.0
 36
0.0
 17
0.0
 27
1.0
 37
0.0
 76
0
330
212
345
0
346
0
  0
ENDSEC
  0
EOF
