999
DXF file: C:\Users\sesa63760\Dev\_Creo\CAD\MCADID0000265_3D-CAD\drw0001_3.dxf
999
Pro/ENGINEER 2019471 by Parametric Technology Corporation
  0
SECTION
  2
HEADER
  9
$ACADVER
  1
AC1024
  9
$DWGCODEPAGE
  3
ANSI_1252
  9
$EXTMAX
 10
94.2961029347
 20
133.3616312933
 30
0.0
  9
$EXTMIN
 10
0.0
 20
0.0
 30
0.0
  9
$LIMMIN
 10
0.0
 20
0.0
  9
$LIMMAX
 10
94.2961029347
 20
133.3616312933
  9
$VIEWCTR
 10
47.1480514673
 20
66.6808156467
  9
$VIEWSIZE
 40
133.3616312933
  9
$CLAYER
  8
0
  9
$LTSCALE
 40
8.6932026325
  9
$CELTYPE
  6
BYLAYER
  9
$DIMSCALE
 40
1.0
  9
$DIMASZ
 40
1.122572654
  9
$DIMEXO
 40
1.0
  9
$DIMDLI
 40
6.0062127279
  9
$DIMEXE
 40
1.0
  9
$DIMCEN
 40
1.4225240671
  9
$DIMLFAC
 40
1.0
  9
$DIMBLK
  1
_FILLED
  9
$DIMALT
 70
0
  9
$DIMALTF
 40
0.0393700787
  9
$DIMTXT
 40
1.5716017156
  9
$DIMTOL
 70
1
  9
$DIMLIM
 70
0
  9
$DIMTFAC
 40
1.0
  9
$DIMTP
 40
0.01
  9
$DIMTM
 40
0.01
  9
$DIMGAP
 40
0.625
  9
$DIMDSEP
 70
46
  9
$AUNITS
 70
0
  9
$PDMODE
 70
3
  9
$PDSIZE
 40
0.3125
  9
$HANDSEED
  5
2D5
  9
$TILEMODE
 70
1
  9
$MEASUREMENT
 70
1
  9
$INSUNITS
 70
4
  0
ENDSEC
  0
SECTION
  2
CLASSES
  0
CLASS
  1
ACDBDICTIONARYWDFLT
  2
AcDbDictionaryWithDefault
  3
AutoCAD 2000
 90
0
 91
1
280
0
281
0
  0
CLASS
  1
ACDBPLACEHOLDER
  2
AcDbPlaceHolder
  3
AutoCAD 2000
 90
0
 91
1
280
0
281
0
  0
CLASS
  1
LAYOUT
  2
AcDbLayout
  3
AutoCAD 2000
 90
0
 91
0
280
0
281
0
  0
ENDSEC
  0
SECTION
  2
TABLES
  0
TABLE
  2
VPORT
  5
8
100
AcDbSymbolTable
 70
2
  0
VPORT
  5
1F4
100
AcDbSymbolTableRecord
100
AcDbViewportTableRecord
  2
*ACTIVE
 70
0
 10
0.0
 20
0.0
 11
1.0
 21
1.0
 12
47.1480514673
 22
66.6808156467
 13
0.0
 23
0.0
 14
1.0
 24
1.0
 15
0.0
 25
0.0
 16
0.0
 26
0.0
 36
1.0
 17
0.0
 27
0.0
 37
0.0
 40
133.3616312933
 41
0.7070707071
 42
50.0
 43
0.0
 44
0.0
 50
0.0
 51
0.0
 71
0
 72
100
 73
1
 74
1
 75
0
 76
0
 77
0
 78
0
  0
ENDTAB
  0
TABLE
  2
LTYPE
  5
5
100
AcDbSymbolTable
 70
6
  0
LTYPE
  5
14
100
AcDbSymbolTableRecord
100
AcDbLinetypeTableRecord
  2
BYBLOCK
 70
0
  3

 72
65
 73
0
 40
0.0
  0
LTYPE
  5
15
100
AcDbSymbolTableRecord
100
AcDbLinetypeTableRecord
  2
BYLAYER
 70
0
  3

 72
65
 73
0
 40
0.0
  0
LTYPE
  5
16
100
AcDbSymbolTableRecord
100
AcDbLinetypeTableRecord
  2
CONTINUOUS
 70
64
  3
Solid line
 72
65
 73
0
 40
0.0
  0
LTYPE
  5
1F5
100
AcDbSymbolTableRecord
100
AcDbLinetypeTableRecord
  2
CENTER
 70
64
  3
____ _ ____ _ ____ _ ____ _ ____ _ ____ _ ____
 72
65
 73
4
 40
0.6
 49
0.375
 74
0
 49
-0.075
 74
0
 49
0.075
 74
0
 49
-0.075
 74
0
  0
LTYPE
  5
1F6
100
AcDbSymbolTableRecord
100
AcDbLinetypeTableRecord
  2
HIDDEN
 70
64
  3
- - - - - - - - - - - - - - - - - - - -
 72
65
 73
2
 40
0.2
 49
0.1
 74
0
 49
-0.1
 74
0
  0
LTYPE
  5
1F7
100
AcDbSymbolTableRecord
100
AcDbLinetypeTableRecord
  2
PHANTOM
 70
64
  3
_____ _ _ _____ _ _ _____ _ _ _____
 72
65
 73
6
 40
0.8
 49
0.45
 74
0
 49
-0.05
 74
0
 49
0.1
 74
0
 49
-0.05
 74
0
 49
0.1
 74
0
 49
-0.05
 74
0
  0
LTYPE
  5
1F8
100
AcDbSymbolTableRecord
100
AcDbLinetypeTableRecord
  2
DOT
 70
64
  3
. . . . . . . . . . . . . . . . . . . .
 72
65
 73
2
 40
0.2
 49
0.1
 74
0
 49
-0.1
 74
0
  0
LTYPE
  5
1F9
100
AcDbSymbolTableRecord
100
AcDbLinetypeTableRecord
  2
DASHED
 70
64
  3
- - - - - - - - - - - - - - - - - - - -
 72
65
 73
2
 40
0.2
 49
0.1
 74
0
 49
-0.1
 74
0
  0
ENDTAB
  0
TABLE
  2
LAYER
  5
2
100
AcDbSymbolTable
 70
36
  0
LAYER
  5
10
100
AcDbSymbolTableRecord
100
AcDbLayerTableRecord
  2
0
 70
0
 62
7
  6
CONTINUOUS
370
-3
390
F
  0
LAYER
  5
1FA
100
AcDbSymbolTableRecord
100
AcDbLayerTableRecord
  2
DEFAULT_1
 70
0
 62
7
  6
CENTER
370
-3
390
F
  0
LAYER
  5
1FB
100
AcDbSymbolTableRecord
100
AcDbLayerTableRecord
  2
DEFAULT_2
 70
0
 62
8
  6
HIDDEN
370
-3
390
F
  0
LAYER
  5
1FC
100
AcDbSymbolTableRecord
100
AcDbLayerTableRecord
  2
DEFAULT_3
 70
0
 62
7
  6
PHANTOM
370
-3
390
F
  0
LAYER
  5
1FD
100
AcDbSymbolTableRecord
100
AcDbLayerTableRecord
  2
00_COMPONENTS
 70
0
 62
7
  6
CONTINUOUS
370
-3
390
F
  0
LAYER
  5
1FE
100
AcDbSymbolTableRecord
100
AcDbLayerTableRecord
  2
01_1_DEFAULT_DATUMS
 70
0
 62
7
  6
CONTINUOUS
370
-3
390
F
  0
LAYER
  5
1FF
100
AcDbSymbolTableRecord
100
AcDbLayerTableRecord
  2
01_PLANES
 70
0
 62
7
  6
CONTINUOUS
370
-3
390
F
  0
LAYER
  5
200
100
AcDbSymbolTableRecord
100
AcDbLayerTableRecord
  2
02_COORD_SYS
 70
0
 62
7
  6
CONTINUOUS
370
-3
390
F
  0
LAYER
  5
201
100
AcDbSymbolTableRecord
100
AcDbLayerTableRecord
  2
03_AXES
 70
0
 62
7
  6
CONTINUOUS
370
-3
390
F
  0
LAYER
  5
202
100
AcDbSymbolTableRecord
100
AcDbLayerTableRecord
  2
04_POINTS
 70
0
 62
7
  6
CONTINUOUS
370
-3
390
F
  0
LAYER
  5
203
100
AcDbSymbolTableRecord
100
AcDbLayerTableRecord
  2
05_CURVES
 70
0
 62
7
  6
CONTINUOUS
370
-3
390
F
  0
LAYER
  5
204
100
AcDbSymbolTableRecord
100
AcDbLayerTableRecord
  2
06_SURFS
 70
0
 62
7
  6
CONTINUOUS
370
-3
390
F
  0
LAYER
  5
205
100
AcDbSymbolTableRecord
100
AcDbLayerTableRecord
  2
07_COSMETICS
 70
0
 62
7
  6
CONTINUOUS
370
-3
390
F
  0
LAYER
  5
206
100
AcDbSymbolTableRecord
100
AcDbLayerTableRecord
  2
10_NOTES
 70
0
 62
7
  6
CONTINUOUS
370
-3
390
F
  0
LAYER
  5
207
100
AcDbSymbolTableRecord
100
AcDbLayerTableRecord
  2
11_NOTES_PUB
 70
0
 62
7
  6
CONTINUOUS
370
-3
390
F
  0
LAYER
  5
208
100
AcDbSymbolTableRecord
100
AcDbLayerTableRecord
  2
13_REF_GTOL
 70
0
 62
7
  6
CONTINUOUS
370
-3
390
F
  0
LAYER
  5
209
100
AcDbSymbolTableRecord
100
AcDbLayerTableRecord
  2
16_MISC
 70
0
 62
7
  6
CONTINUOUS
370
-3
390
F
  0
LAYER
  5
20A
100
AcDbSymbolTableRecord
100
AcDbLayerTableRecord
  2
17_NO_PRINT
 70
0
 62
7
  6
CONTINUOUS
370
-3
390
F
  0
LAYER
  5
20B
100
AcDbSymbolTableRecord
100
AcDbLayerTableRecord
  2
18_DATUM_CAMS_JOINTS
 70
0
 62
7
  6
CONTINUOUS
370
-3
390
F
  0
LAYER
  5
20C
100
AcDbSymbolTableRecord
100
AcDbLayerTableRecord
  2
19_DATUM_FUNCTIONAL
 70
0
 62
7
  6
CONTINUOUS
370
-3
390
F
  0
LAYER
  5
20D
100
AcDbSymbolTableRecord
100
AcDbLayerTableRecord
  2
20_DATUM_KINEMATIC_SCHEME
 70
0
 62
7
  6
CONTINUOUS
370
-3
390
F
  0
ENDTAB
  0
TABLE
  2
STYLE
  5
3
100
AcDbSymbolTable
 70
1
  0
STYLE
  5
11
100
AcDbSymbolTableRecord
100
AcDbTextStyleTableRecord
  2
STANDARD
 70
0
 40
0.0
 41
0.8
 50
0.0
 71
0
 42
0.2
  3
txt
  4

  0
STYLE
  5
20E
100
AcDbSymbolTableRecord
100
AcDbTextStyleTableRecord
  2
TEXTSTYLE_1
 70
0
 40
0.0
 41
0.8
 50
0.0
 71
0
 42
0.2
  3
gdt
  4

  0
ENDTAB
  0
TABLE
  2
VIEW
  5
6
100
AcDbSymbolTable
 70
0
  0
ENDTAB
  0
TABLE
  2
UCS
  5
7
100
AcDbSymbolTable
 70
0
  0
ENDTAB
  0
TABLE
  2
APPID
  5
9
100
AcDbSymbolTable
 70
1
  0
APPID
  5
20F
100
AcDbSymbolTableRecord
100
AcDbRegAppTableRecord
  2
ACAD
 70
0
  0
ENDTAB
  0
TABLE
  2
BLOCK_RECORD
  5
1
100
AcDbSymbolTable
 70
0
  0
BLOCK_RECORD
  5
210
100
AcDbSymbolTableRecord
100
AcDbBlockTableRecord
  2
*Model_Space
  0
BLOCK_RECORD
  5
211
100
AcDbSymbolTableRecord
100
AcDbBlockTableRecord
  2
*Paper_Space
  0
BLOCK_RECORD
  5
212
100
AcDbSymbolTableRecord
100
AcDbBlockTableRecord
  2
_FILLED
  0
ENDTAB
  0
TABLE
  2
DIMSTYLE
  5
A
100
AcDbSymbolTable
 70
1
100
AcDbDimStyleTable
 71
0
  0
DIMSTYLE
105
213
100
AcDbSymbolTableRecord
100
AcDbDimStyleTableRecord
  2
STANDARD
 70
0
  3

  4

 40
1.0
 41
1.122572654
 42
1.0
 43
0.38
 44
1.0
 45
0.0
 46
0.0
 47
0.01
 48
0.01
140
1.5716017156
141
0.09
142
0.0
143
25.4
144
1.0
145
0.0
146
1.0
147
0.625
 71
1
 72
0
 73
0
 74
0
 75
0
 76
0
 77
1
 78
8
 79
2
170
0
171
1
172
0
173
0
174
0
175
0
176
0
177
0
178
0
270
2
179
2
271
2
272
2
273
2
274
2
275
0
280
0
281
0
282
0
283
1
284
8
285
0
286
0
287
3
288
0
340
11
278
46
341
212
342
212
343
212
344
212
  0
ENDTAB
  0
ENDSEC
  0
SECTION
  2
BLOCKS
  0
BLOCK
  5
20
100
AcDbEntity
  8
0
100
AcDbBlockBegin
  2
*Model_Space
 70
0
 10
0.0
 20
0.0
 30
0.0
  3
*Model_Space
  1

  0
ENDBLK
  5
21
100
AcDbEntity
  8
0
100
AcDbBlockEnd
  0
BLOCK
  5
1C
100
AcDbEntity
  8
0
100
AcDbBlockBegin
  2
*Paper_Space
 70
0
 10
0.0
 20
0.0
 30
0.0
  3
*Paper_Space
  1

  0
ENDBLK
  5
1D
100
AcDbEntity
  8
0
100
AcDbBlockEnd
  0
BLOCK
  5
214
100
AcDbEntity
  8
0
100
AcDbBlockBegin
  2
_FILLED
 70
64
 10
0.0
 20
0.0
  3
_FILLED
  1

  0
SOLID
  5
215
100
AcDbEntity
  8
0
  6
BYBLOCK
 62
0
100
AcDbTrace
 10
0.0
 20
0.0
 11
-1.0
 21
0.25
 12
-1.0
 22
-0.25
 13
-1.0
 23
-0.25
  0
ENDBLK
  5
216
100
AcDbEntity
  8
0
  6
BYBLOCK
 62
0
100
AcDbBlockEnd
  0
ENDSEC
  0
SECTION
  2
ENTITIES
  0
LINE
  5
217
100
AcDbEntity
  8
0
100
AcDbLine
 62
7
  6
CONTINUOUS
 10
49.1442066015
 20
10.6917831698
 11
47.9442476269
 21
10.6917831698
  0
LINE
  5
218
100
AcDbEntity
  8
0
100
AcDbLine
 62
7
  6
CONTINUOUS
 10
50.2942201709
 20
13.0918018596
 11
46.7942340575
 21
13.0918018597
  0
LINE
  5
219
100
AcDbEntity
  8
0
100
AcDbLine
 62
7
  6
CONTINUOUS
 10
46.7942340575
 20
20.2917831698
 11
50.2942201709
 21
20.2917831698
  0
LINE
  5
21A
100
AcDbEntity
  8
0
100
AcDbLine
 62
7
  6
CONTINUOUS
 10
50.0342199523
 20
20.5517844203
 11
47.0542342762
 21
20.5517844205
  0
LINE
  5
21B
100
AcDbEntity
  8
0
100
AcDbLine
 62
7
  6
CONTINUOUS
 10
64.5442271142
 20
22.9751518368
 11
59.8191590945
 21
22.9751518368
  0
LINE
  5
21C
100
AcDbEntity
  8
0
100
AcDbLine
 62
7
  6
CONTINUOUS
 10
37.269295133
 20
22.9751518368
 11
32.5442271142
 21
22.9751518368
  0
LINE
  5
21D
100
AcDbEntity
  8
0
100
AcDbLine
 62
7
  6
CONTINUOUS
 10
34.4089606634
 20
23.004771525
 11
37.269295133
 21
23.004771525
  0
LINE
  5
21E
100
AcDbEntity
  8
0
100
AcDbLine
 62
7
  6
CONTINUOUS
 10
59.8191590954
 20
23.0047715245
 11
62.6850744144
 21
23.0047715245
  0
LINE
  5
21F
100
AcDbEntity
  8
0
100
AcDbLine
 62
7
  6
CONTINUOUS
 10
32.5442271142
 20
23.6937766677
 11
34.408960663
 21
23.6937766677
  0
LINE
  5
220
100
AcDbEntity
  8
0
100
AcDbLine
 62
7
  6
CONTINUOUS
 10
62.6850688851
 20
23.6937766677
 11
64.5442271142
 21
23.6937766677
  0
LINE
  5
221
100
AcDbEntity
  8
0
100
AcDbLine
 62
7
  6
CONTINUOUS
 10
64.5442271142
 20
26.0472113682
 11
59.8191590945
 21
26.0472113682
  0
LINE
  5
222
100
AcDbEntity
  8
0
100
AcDbLine
 62
7
  6
CONTINUOUS
 10
37.269295133
 20
26.0472113683
 11
32.5442271142
 21
26.0472113683
  0
LINE
  5
223
100
AcDbEntity
  8
0
100
AcDbLine
 62
7
  6
CONTINUOUS
 10
64.5442271142
 20
26.7751518365
 11
59.8191590945
 21
26.7751518365
  0
LINE
  5
224
100
AcDbEntity
  8
0
100
AcDbLine
 62
7
  6
CONTINUOUS
 10
37.269295133
 20
26.7751518368
 11
32.5442271142
 21
26.7751518368
  0
LINE
  5
225
100
AcDbEntity
  8
0
100
AcDbLine
 62
7
  6
CONTINUOUS
 10
64.5442271142
 20
27.4751518368
 11
62.6850264653
 21
27.4751518368
  0
LINE
  5
226
100
AcDbEntity
  8
0
100
AcDbLine
 62
7
  6
CONTINUOUS
 10
34.4089606634
 20
27.4751518368
 11
32.5442271142
 21
27.4751518368
  0
LINE
  5
227
100
AcDbEntity
  8
0
100
AcDbLine
 62
7
  6
CONTINUOUS
 10
58.7796100214
 20
31.0065685608
 11
52.5442271142
 21
30.9751518368
  0
LINE
  5
228
100
AcDbEntity
  8
0
100
AcDbLine
 62
7
  6
CONTINUOUS
 10
64.5442271142
 20
28.9751518368
 11
32.5442271142
 21
28.9751518368
  0
LINE
  5
229
100
AcDbEntity
  8
0
100
AcDbLine
 62
7
  6
CONTINUOUS
 10
49.5442271142
 20
30.2751518368
 11
47.5442271142
 21
30.2751518368
  0
LINE
  5
22A
100
AcDbEntity
  8
0
100
AcDbLine
 62
7
  6
CONTINUOUS
 10
64.5442271142
 20
31.5154743734
 11
32.5442271142
 21
31.5154743734
  0
LINE
  5
22B
100
AcDbEntity
  8
0
100
AcDbLine
 62
7
  6
CONTINUOUS
 10
38.308844207
 20
31.0065685603
 11
44.5442271142
 21
30.9751518368
  0
LINE
  5
22C
100
AcDbEntity
  8
0
100
AcDbLine
 62
7
  6
CONTINUOUS
 10
53.1525978408
 20
33.9751518368
 11
43.9358563873
 21
33.9751518368
  0
LINE
  5
22D
100
AcDbEntity
  8
0
100
AcDbLine
 62
7
  6
CONTINUOUS
 10
52.0872879215
 20
33.9860603871
 11
45.0011663069
 21
33.9860603871
  0
LINE
  5
22E
100
AcDbEntity
  8
0
100
AcDbLine
 62
7
  6
CONTINUOUS
 10
52.2942183998
 20
34.1929426213
 11
44.7942358286
 21
34.1929426209
  0
LINE
  5
22F
100
AcDbEntity
  8
0
100
AcDbLine
 62
7
  6
CONTINUOUS
 10
44.7942358286
 20
35.1969579214
 11
52.2942183998
 21
35.1969579214
  0
LINE
  5
230
100
AcDbEntity
  8
0
100
AcDbLine
 62
7
  6
CONTINUOUS
 10
51.9865862523
 20
35.691080532
 11
45.1018679762
 21
35.691080532
  0
LINE
  5
231
100
AcDbEntity
  8
0
100
AcDbLine
 62
7
  6
CONTINUOUS
 10
50.0342199523
 20
20.5517844201
 11
50.2942201709
 21
20.2917831698
  0
LINE
  5
232
100
AcDbEntity
  8
0
100
AcDbLine
 62
7
  6
CONTINUOUS
 10
43.9358563873
 20
42.9751518367
 11
45.4383600655
 21
42.9751518367
  0
LINE
  5
233
100
AcDbEntity
  8
0
100
AcDbLine
 62
7
  6
CONTINUOUS
 10
51.650094163
 20
42.9751518368
 11
53.1525978412
 21
42.9751518368
  0
LINE
  5
234
100
AcDbEntity
  8
0
100
AcDbLine
 62
7
  6
CONTINUOUS
 10
47.9442325652
 20
10.6917831698
 11
46.7942340575
 21
13.0918018597
  0
LINE
  5
235
100
AcDbEntity
  8
0
100
AcDbLine
 62
7
  6
CONTINUOUS
 10
38.1568810952
 20
115.7935448109
 11
38.1696811701
 21
115.8464228688
  0
LINE
  5
236
100
AcDbEntity
  8
0
100
AcDbLine
 62
7
  6
CONTINUOUS
 10
44.050393727
 20
42.8606145756
 11
43.9358563876
 21
42.9751518368
  0
LINE
  5
237
100
AcDbEntity
  8
0
100
AcDbLine
 62
7
  6
CONTINUOUS
 10
45.5483385086
 20
42.8641474619
 11
45.4383600644
 21
42.9751518367
  0
LINE
  5
238
100
AcDbEntity
  8
0
100
AcDbLine
 62
7
  6
CONTINUOUS
 10
32.1636091149
 20
92.6251518368
 11
32.1636091149
 21
87.2251518368
  0
LINE
  5
239
100
AcDbEntity
  8
0
100
AcDbLine
 62
7
  6
CONTINUOUS
 10
32.5442271142
 20
95.9751518368
 11
32.5442271142
 21
22.9751518368
  0
LINE
  5
23A
100
AcDbEntity
  8
0
100
AcDbLine
 62
7
  6
CONTINUOUS
 10
32.5442271142
 20
95.9851518366
 11
32.5442271142
 21
114.9890970829
  0
LINE
  5
23B
100
AcDbEntity
  8
0
100
AcDbLine
 62
7
  6
CONTINUOUS
 10
33.1942271142
 20
114.9890970829
 11
33.1942271142
 21
116.4773010096
  0
LINE
  5
23C
100
AcDbEntity
  8
0
100
AcDbLine
 62
7
  6
CONTINUOUS
 10
33.5179878848
 20
115.7537518465
 11
33.5179878848
 21
114.9890970829
  0
LINE
  5
23D
100
AcDbEntity
  8
0
100
AcDbLine
 62
7
  6
CONTINUOUS
 10
33.5636091142
 20
92.7751518368
 11
33.5636091142
 21
86.4751518368
  0
LINE
  5
23E
100
AcDbEntity
  8
0
100
AcDbLine
 62
7
  6
CONTINUOUS
 10
34.4089606634
 20
28.9751518368
 11
34.4089606634
 21
23.0047715249
  0
LINE
  5
23F
100
AcDbEntity
  8
0
100
AcDbLine
 62
7
  6
CONTINUOUS
 10
33.4986701602
 20
115.7533616724
 11
33.4996464075
 21
116.4728517924
  0
LINE
  5
240
100
AcDbEntity
  8
0
100
AcDbLine
 62
7
  6
CONTINUOUS
 10
37.269295133
 20
22.9751518368
 11
37.269295133
 21
28.9751518368
  0
LINE
  5
241
100
AcDbEntity
  8
0
100
AcDbLine
 62
7
  6
CONTINUOUS
 10
37.9532749752
 20
115.8116931116
 11
37.9532749752
 21
114.9890970829
  0
LINE
  5
242
100
AcDbEntity
  8
0
100
AcDbLine
 62
7
  6
CONTINUOUS
 10
38.308844207
 20
31.0065685603
 11
38.308844207
 21
28.9751518368
  0
LINE
  5
243
100
AcDbEntity
  8
0
100
AcDbLine
 62
7
  6
CONTINUOUS
 10
38.3942271142
 20
115.7885650667
 11
38.3942271142
 21
114.9890970829
  0
LINE
  5
244
100
AcDbEntity
  8
0
100
AcDbLine
 62
7
  6
CONTINUOUS
 10
43.9358563876
 20
42.9751518368
 11
43.9358563876
 21
33.9751518368
  0
LINE
  5
245
100
AcDbEntity
  8
0
100
AcDbLine
 62
7
  6
CONTINUOUS
 10
44.050422201
 20
42.8606159933
 11
44.050422201
 21
33.9751518368
  0
LINE
  5
246
100
AcDbEntity
  8
0
100
AcDbLine
 62
7
  6
CONTINUOUS
 10
44.5442271142
 20
33.9751518368
 11
44.5442271143
 21
28.9751518368
  0
LINE
  5
247
100
AcDbEntity
  8
0
100
AcDbLine
 62
7
  6
CONTINUOUS
 10
44.7942358286
 20
35.1969579214
 11
44.7942358286
 21
34.1929426209
  0
LINE
  5
248
100
AcDbEntity
  8
0
100
AcDbLine
 62
7
  6
CONTINUOUS
 10
45.54833851
 20
42.8641474633
 11
45.54833851
 21
65.4827095251
  0
LINE
  5
249
100
AcDbEntity
  8
0
100
AcDbLine
 62
7
  6
CONTINUOUS
 10
46.5442271142
 20
33.9751518368
 11
46.5442271142
 21
28.9751518368
  0
LINE
  5
24A
100
AcDbEntity
  8
0
100
AcDbLine
 62
7
  6
CONTINUOUS
 10
46.7942340575
 20
20.2917831698
 11
46.7942340575
 21
13.0918018597
  0
LINE
  5
24B
100
AcDbEntity
  8
0
100
AcDbLine
 62
7
  6
CONTINUOUS
 10
47.0142271142
 20
33.9751518368
 11
47.0142271142
 21
28.9751518368
  0
LINE
  5
24C
100
AcDbEntity
  8
0
100
AcDbLine
 62
7
  6
CONTINUOUS
 10
47.0189297772
 20
33.9751518368
 11
47.0189297772
 21
28.9751518368
  0
LINE
  5
24D
100
AcDbEntity
  8
0
100
AcDbLine
 62
7
  6
CONTINUOUS
 10
47.0542342762
 20
33.9860603871
 11
47.0542342762
 21
20.5517844205
  0
LINE
  5
24E
100
AcDbEntity
  8
0
100
AcDbLine
 62
7
  6
CONTINUOUS
 10
47.1038067303
 20
33.9751518368
 11
47.1038067303
 21
28.9751518368
  0
LINE
  5
24F
100
AcDbEntity
  8
0
100
AcDbLine
 62
7
  6
CONTINUOUS
 10
47.1140334947
 20
28.9751518368
 11
47.1140334947
 21
33.9751518368
  0
LINE
  5
250
100
AcDbEntity
  8
0
100
AcDbLine
 62
7
  6
CONTINUOUS
 10
47.1642271142
 20
33.9751518368
 11
47.1642271142
 21
28.9751518368
  0
LINE
  5
251
100
AcDbEntity
  8
0
100
AcDbLine
 62
7
  6
CONTINUOUS
 10
47.3192271142
 20
33.9751518368
 11
47.3192271142
 21
28.9751518368
  0
LINE
  5
252
100
AcDbEntity
  8
0
100
AcDbLine
 62
7
  6
CONTINUOUS
 10
47.5442271142
 20
33.9751518368
 11
47.5442271142
 21
30.2751518375
  0
LINE
  5
253
100
AcDbEntity
  8
0
100
AcDbLine
 62
7
  6
CONTINUOUS
 10
48.536658149
 20
95.9752300698
 11
48.536658149
 21
65.332282819
  0
LINE
  5
254
100
AcDbEntity
  8
0
100
AcDbLine
 62
7
  6
CONTINUOUS
 10
45.4383600655
 20
42.9751518367
 11
45.5483385104
 21
65.4827095251
  0
LINE
  5
255
100
AcDbEntity
  8
0
100
AcDbLine
 62
7
  6
CONTINUOUS
 10
45.5483385104
 20
65.4827095251
 11
48.536663255
 21
95.9751518368
  0
LINE
  5
256
100
AcDbEntity
  8
0
100
AcDbLine
 62
7
  6
CONTINUOUS
 10
49.4576527313
 20
114.0704968335
 11
49.4942271142
 21
111.9751518368
  0
LINE
  5
257
100
AcDbEntity
  8
0
100
AcDbLine
 62
7
  6
CONTINUOUS
 10
51.6500941638
 20
42.9751518368
 11
51.5401157185
 21
65.4827095257
  0
LINE
  5
258
100
AcDbEntity
  8
0
100
AcDbLine
 62
7
  6
CONTINUOUS
 10
49.5442271142
 20
33.9751518368
 11
49.5442271142
 21
30.275151837
  0
LINE
  5
259
100
AcDbEntity
  8
0
100
AcDbLine
 62
7
  6
CONTINUOUS
 10
49.769179579
 20
33.9751518368
 11
49.769179579
 21
28.9751518368
  0
LINE
  5
25A
100
AcDbEntity
  8
0
100
AcDbLine
 62
7
  6
CONTINUOUS
 10
49.9242271142
 20
33.9751518368
 11
49.9242271142
 21
28.9751518368
  0
LINE
  5
25B
100
AcDbEntity
  8
0
100
AcDbLine
 62
7
  6
CONTINUOUS
 10
49.9742358134
 20
28.9751518368
 11
49.9742358134
 21
33.9751518368
  0
LINE
  5
25C
100
AcDbEntity
  8
0
100
AcDbLine
 62
7
  6
CONTINUOUS
 10
49.9846464726
 20
33.9751518368
 11
49.9846464726
 21
28.9751518368
  0
LINE
  5
25D
100
AcDbEntity
  8
0
100
AcDbLine
 62
7
  6
CONTINUOUS
 10
50.0342199523
 20
33.9860603871
 11
50.0342199523
 21
20.5517844203
  0
LINE
  5
25E
100
AcDbEntity
  8
0
100
AcDbLine
 62
7
  6
CONTINUOUS
 10
50.0695244512
 20
28.9751518368
 11
50.0695244512
 21
33.9751518368
  0
LINE
  5
25F
100
AcDbEntity
  8
0
100
AcDbLine
 62
7
  6
CONTINUOUS
 10
50.0741548693
 20
33.9751518368
 11
50.0741548693
 21
28.9751518368
  0
LINE
  5
260
100
AcDbEntity
  8
0
100
AcDbLine
 62
7
  6
CONTINUOUS
 10
50.2442271142
 20
112.191152265
 11
50.2442271142
 21
114.0934814295
  0
LINE
  5
261
100
AcDbEntity
  8
0
100
AcDbLine
 62
7
  6
CONTINUOUS
 10
50.2942201709
 20
20.2917831698
 11
50.2942201709
 21
13.0918018597
  0
LINE
  5
262
100
AcDbEntity
  8
0
100
AcDbLine
 62
7
  6
CONTINUOUS
 10
50.5442271142
 20
33.9751518368
 11
50.5442271142
 21
28.9751518368
  0
LINE
  5
263
100
AcDbEntity
  8
0
100
AcDbLine
 62
7
  6
CONTINUOUS
 10
51.5401157185
 20
42.8641474633
 11
51.5401157185
 21
65.4827095257
  0
LINE
  5
264
100
AcDbEntity
  8
0
100
AcDbLine
 62
7
  6
CONTINUOUS
 10
52.2942183998
 20
35.1969579214
 11
52.2942183998
 21
34.1929426213
  0
LINE
  5
265
100
AcDbEntity
  8
0
100
AcDbLine
 62
7
  6
CONTINUOUS
 10
52.5442271142
 20
33.9751518368
 11
52.5442271142
 21
28.9751518368
  0
LINE
  5
266
100
AcDbEntity
  8
0
100
AcDbLine
 62
7
  6
CONTINUOUS
 10
53.0380320275
 20
33.9751518368
 11
53.0380320275
 21
42.8606158609
  0
LINE
  5
267
100
AcDbEntity
  8
0
100
AcDbLine
 62
7
  6
CONTINUOUS
 10
53.1525978412
 20
42.9751518368
 11
53.1525978412
 21
33.9751518368
  0
LINE
  5
268
100
AcDbEntity
  8
0
100
AcDbLine
 62
7
  6
CONTINUOUS
 10
54.5442271142
 20
114.9890970829
 11
54.5442271142
 21
117.3395286206
  0
LINE
  5
269
100
AcDbEntity
  8
0
100
AcDbLine
 62
7
  6
CONTINUOUS
 10
54.5442271142
 20
121.6345006748
 11
54.5442271142
 21
122.9751298702
  0
LINE
  5
26A
100
AcDbEntity
  8
0
100
AcDbLine
 62
7
  6
CONTINUOUS
 10
54.1642243231
 20
117.3428448555
 11
54.1930217575
 21
120.6427039909
  0
LINE
  5
26B
100
AcDbEntity
  8
0
100
AcDbLine
 62
7
  6
CONTINUOUS
 10
54.4513602823
 20
121.5611221485
 11
54.4302365025
 21
119.1405767315
  0
LINE
  5
26C
100
AcDbEntity
  8
0
100
AcDbLine
 62
7
  6
CONTINUOUS
 10
54.8532089378
 20
121.7721916422
 11
54.8302127209
 21
119.137086192
  0
LINE
  5
26D
100
AcDbEntity
  8
0
100
AcDbLine
 62
7
  6
CONTINUOUS
 10
55.5049779609
 20
122.0070768476
 11
55.5165324777
 21
123.3310933292
  0
LINE
  5
26E
100
AcDbEntity
  8
0
100
AcDbLine
 62
7
  6
CONTINUOUS
 10
58.7796100213
 20
31.0065685603
 11
58.7796100213
 21
28.9751518368
  0
LINE
  5
26F
100
AcDbEntity
  8
0
100
AcDbLine
 62
7
  6
CONTINUOUS
 10
59.8191590954
 20
22.9751518368
 11
59.8191590945
 21
28.9751518361
  0
LINE
  5
270
100
AcDbEntity
  8
0
100
AcDbLine
 62
7
  6
CONTINUOUS
 10
60.4529933858
 20
121.7233236343
 11
60.429997164
 21
119.0882176134
  0
LINE
  5
271
100
AcDbEntity
  8
0
100
AcDbLine
 62
7
  6
CONTINUOUS
 10
60.8511312392
 20
121.5084519955
 11
60.8299797117
 21
119.0847270187
  0
LINE
  5
272
100
AcDbEntity
  8
0
100
AcDbLine
 62
7
  6
CONTINUOUS
 10
62.0861160796
 20
119.7751518368
 11
62.0861160796
 21
114.9890970829
  0
LINE
  5
273
100
AcDbEntity
  8
0
100
AcDbLine
 62
7
  6
CONTINUOUS
 10
62.4668560671
 20
114.9890970829
 11
62.4668560671
 21
119.7751518375
  0
LINE
  5
274
100
AcDbEntity
  8
0
100
AcDbLine
 62
7
  6
CONTINUOUS
 10
62.6850744149
 20
23.0047715245
 11
62.6850688851
 21
28.9751518368
  0
LINE
  5
275
100
AcDbEntity
  8
0
100
AcDbLine
 62
7
  6
CONTINUOUS
 10
63.5248451142
 20
92.7751518368
 11
63.5248451142
 21
86.4751539632
  0
LINE
  5
276
100
AcDbEntity
  8
0
100
AcDbLine
 62
7
  6
CONTINUOUS
 10
64.5442271142
 20
122.9751298702
 11
64.5442271142
 21
120.5515248433
  0
LINE
  5
277
100
AcDbEntity
  8
0
100
AcDbLine
 62
7
  6
CONTINUOUS
 10
64.5442271142
 20
22.9751518368
 11
64.5442271142
 21
95.9751518368
  0
LINE
  5
278
100
AcDbEntity
  8
0
100
AcDbLine
 62
7
  6
CONTINUOUS
 10
64.5442271142
 20
95.9851518366
 11
64.5442271142
 21
119.7751518375
  0
LINE
  5
279
100
AcDbEntity
  8
0
100
AcDbLine
 62
7
  6
CONTINUOUS
 10
61.8665961603
 20
123.2756771635
 11
61.8142385056
 21
117.2760841924
  0
LINE
  5
27A
100
AcDbEntity
  8
0
100
AcDbLine
 62
7
  6
CONTINUOUS
 10
62.0616808498
 20
116.9751518368
 11
62.0861160796
 21
119.7751518368
  0
LINE
  5
27B
100
AcDbEntity
  8
0
100
AcDbLine
 62
7
  6
CONTINUOUS
 10
64.6141318955
 20
117.2516504971
 11
64.6429294626
 21
120.5515248433
  0
LINE
  5
27C
100
AcDbEntity
  8
0
100
AcDbLine
 62
7
  6
CONTINUOUS
 10
64.7442271142
 20
92.6251518368
 11
64.7442271142
 21
87.2251518368
  0
LINE
  5
27D
100
AcDbEntity
  8
0
100
AcDbLine
 62
7
  6
CONTINUOUS
 10
51.6500941638
 20
42.9751518368
 11
51.5401157185
 21
42.8641474613
  0
LINE
  5
27E
100
AcDbEntity
  8
0
100
AcDbLine
 62
7
  6
CONTINUOUS
 10
32.5442271142
 20
86.4751518368
 11
33.5636091142
 21
86.4751518368
  0
LINE
  5
27F
100
AcDbEntity
  8
0
100
AcDbLine
 62
7
  6
CONTINUOUS
 10
64.5442271142
 20
86.4751539632
 11
63.5248451142
 21
86.4751539632
  0
LINE
  5
280
100
AcDbEntity
  8
0
100
AcDbLine
 62
7
  6
CONTINUOUS
 10
33.5636091142
 20
86.9836666738
 11
32.5442271142
 21
86.9836666738
  0
LINE
  5
281
100
AcDbEntity
  8
0
100
AcDbLine
 62
7
  6
CONTINUOUS
 10
63.5248451142
 20
86.9836666738
 11
64.5442271142
 21
86.9836666738
  0
LINE
  5
282
100
AcDbEntity
  8
0
100
AcDbLine
 62
7
  6
CONTINUOUS
 10
53.1525978408
 20
42.9751518368
 11
53.0380605015
 21
42.8606144974
  0
LINE
  5
283
100
AcDbEntity
  8
0
100
AcDbLine
 62
7
  6
CONTINUOUS
 10
32.1636091149
 20
87.2251518368
 11
33.5636091142
 21
87.2251518368
  0
LINE
  5
284
100
AcDbEntity
  8
0
100
AcDbLine
 62
7
  6
CONTINUOUS
 10
63.5248451142
 20
87.2251518368
 11
64.7442271142
 21
87.2251518368
  0
LINE
  5
285
100
AcDbEntity
  8
0
100
AcDbLine
 62
7
  6
CONTINUOUS
 10
64.7442271142
 20
87.6535674986
 11
63.5248451142
 21
87.6535674986
  0
LINE
  5
286
100
AcDbEntity
  8
0
100
AcDbLine
 62
7
  6
CONTINUOUS
 10
32.1636091149
 20
87.6535674986
 11
33.5636091142
 21
87.6535674986
  0
LINE
  5
287
100
AcDbEntity
  8
0
100
AcDbLine
 62
7
  6
CONTINUOUS
 10
64.7442271142
 20
90.9573519703
 11
63.5248451142
 21
90.9573519703
  0
LINE
  5
288
100
AcDbEntity
  8
0
100
AcDbLine
 62
7
  6
CONTINUOUS
 10
32.1636091149
 20
90.9573519703
 11
33.5636091142
 21
90.9573519703
  0
LINE
  5
289
100
AcDbEntity
  8
0
100
AcDbLine
 62
7
  6
CONTINUOUS
 10
49.1442216632
 20
10.6917831698
 11
50.2942201709
 21
13.0918018596
  0
LINE
  5
28A
100
AcDbEntity
  8
0
100
AcDbLine
 62
7
  6
CONTINUOUS
 10
64.7442271135
 20
91.1251518368
 11
63.5248451142
 21
91.1251518368
  0
LINE
  5
28B
100
AcDbEntity
  8
0
100
AcDbLine
 62
7
  6
CONTINUOUS
 10
33.5636091142
 20
91.1251518368
 11
32.1636091149
 21
91.1251518368
  0
LINE
  5
28C
100
AcDbEntity
  8
0
100
AcDbLine
 62
7
  6
CONTINUOUS
 10
33.5636091142
 20
91.1353058465
 11
32.5442271142
 21
91.1353058465
  0
LINE
  5
28D
100
AcDbEntity
  8
0
100
AcDbLine
 62
7
  6
CONTINUOUS
 10
63.5248451142
 20
91.1353058465
 11
64.5442271142
 21
91.1353058465
  0
LINE
  5
28E
100
AcDbEntity
  8
0
100
AcDbLine
 62
7
  6
CONTINUOUS
 10
64.5442271142
 20
91.2751518368
 11
63.5248451142
 21
91.2751518368
  0
LINE
  5
28F
100
AcDbEntity
  8
0
100
AcDbLine
 62
7
  6
CONTINUOUS
 10
33.5636091142
 20
91.2751518368
 11
32.5442271142
 21
91.2751518368
  0
LINE
  5
290
100
AcDbEntity
  8
0
100
AcDbLine
 62
7
  6
CONTINUOUS
 10
64.7442271135
 20
92.1251518368
 11
63.5248451142
 21
92.1251518368
  0
LINE
  5
291
100
AcDbEntity
  8
0
100
AcDbLine
 62
7
  6
CONTINUOUS
 10
33.5636091142
 20
92.1251518368
 11
32.1636091149
 21
92.1251518368
  0
LINE
  5
292
100
AcDbEntity
  8
0
100
AcDbLine
 62
7
  6
CONTINUOUS
 10
64.5442271142
 20
92.2751518368
 11
63.5248451142
 21
92.2751518368
  0
LINE
  5
293
100
AcDbEntity
  8
0
100
AcDbLine
 62
7
  6
CONTINUOUS
 10
33.5636091142
 20
92.2751518368
 11
32.5442271142
 21
92.2751518368
  0
LINE
  5
294
100
AcDbEntity
  8
0
100
AcDbLine
 62
7
  6
CONTINUOUS
 10
64.7442271135
 20
92.6251518368
 11
63.5248451142
 21
92.6251518368
  0
LINE
  5
295
100
AcDbEntity
  8
0
100
AcDbLine
 62
7
  6
CONTINUOUS
 10
33.5636091142
 20
92.6251518368
 11
32.1636091149
 21
92.6251518368
  0
LINE
  5
296
100
AcDbEntity
  8
0
100
AcDbLine
 62
7
  6
CONTINUOUS
 10
64.5442271142
 20
92.7751518368
 11
63.5248451142
 21
92.7751518368
  0
LINE
  5
297
100
AcDbEntity
  8
0
100
AcDbLine
 62
7
  6
CONTINUOUS
 10
33.5636091142
 20
92.7751518368
 11
32.5442271142
 21
92.7751518368
  0
LINE
  5
298
100
AcDbEntity
  8
0
100
AcDbLine
 62
7
  6
CONTINUOUS
 10
64.5442271142
 20
95.9751518368
 11
32.5442271142
 21
95.9751518368
  0
LINE
  5
299
100
AcDbEntity
  8
0
100
AcDbLine
 62
7
  6
CONTINUOUS
 10
32.5442271142
 20
95.9851518366
 11
64.5442271142
 21
95.9851518366
  0
LINE
  5
29A
100
AcDbEntity
  8
0
100
AcDbLine
 62
7
  6
CONTINUOUS
 10
47.0542342762
 20
20.5517844201
 11
46.7942340575
 21
20.2917831698
  0
LINE
  5
29B
100
AcDbEntity
  8
0
100
AcDbLine
 62
7
  6
CONTINUOUS
 10
49.4942271135
 20
111.9751518368
 11
64.5442271142
 21
111.9751518368
  0
LINE
  5
29C
100
AcDbEntity
  8
0
100
AcDbLine
 62
7
  6
CONTINUOUS
 10
50.2442271142
 20
112.191152265
 11
64.5442271142
 21
112.191152265
  0
LINE
  5
29D
100
AcDbEntity
  8
0
100
AcDbLine
 62
7
  6
CONTINUOUS
 10
49.486983117
 20
112.3901602088
 11
50.2442271142
 21
112.3901602088
  0
LINE
  5
29E
100
AcDbEntity
  8
0
100
AcDbLine
 62
7
  6
CONTINUOUS
 10
49.4839944693
 20
112.5613797171
 11
50.2442271142
 21
112.5613797171
  0
LINE
  5
29F
100
AcDbEntity
  8
0
100
AcDbLine
 62
7
  6
CONTINUOUS
 10
50.2442271142
 20
112.8577661347
 11
64.5442271142
 21
112.8577661347
  0
LINE
  5
2A0
100
AcDbEntity
  8
0
100
AcDbLine
 62
7
  6
CONTINUOUS
 10
32.5442271142
 20
112.8751518371
 11
49.478517555
 21
112.8751518371
  0
LINE
  5
2A1
100
AcDbEntity
  8
0
100
AcDbLine
 62
7
  6
CONTINUOUS
 10
50.2442271142
 20
112.9831414579
 11
49.4766325899
 21
112.9831414579
  0
LINE
  5
2A2
100
AcDbEntity
  8
0
100
AcDbLine
 62
7
  6
CONTINUOUS
 10
32.5442271142
 20
114.0704968337
 11
49.4576527311
 21
114.0704968337
  0
LINE
  5
2A3
100
AcDbEntity
  8
0
100
AcDbLine
 62
7
  6
CONTINUOUS
 10
32.5442271142
 20
114.0934814291
 11
64.5442271142
 21
114.0934814298
  0
LINE
  5
2A4
100
AcDbEntity
  8
0
100
AcDbLine
 62
7
  6
CONTINUOUS
 10
38.3942271142
 20
115.7885650667
 11
38.1696345258
 21
115.8462407953
  0
LINE
  5
2A5
100
AcDbEntity
  8
0
100
AcDbLine
 62
7
  6
CONTINUOUS
 10
64.5442271142
 20
114.9890970829
 11
32.5442271142
 21
114.9890970829
  0
LINE
  5
2A6
100
AcDbEntity
  8
0
100
AcDbLine
 62
7
  6
CONTINUOUS
 10
54.5442271142
 20
116.9751518368
 11
62.0861160796
 21
116.9751518368
  0
LINE
  5
2A7
100
AcDbEntity
  8
0
100
AcDbLine
 62
7
  6
CONTINUOUS
 10
62.0861160796
 20
117.5751518375
 11
62.0669169708
 21
117.5751518375
  0
LINE
  5
2A8
100
AcDbEntity
  8
0
100
AcDbLine
 62
7
  6
CONTINUOUS
 10
54.1642243231
 20
117.3428448547
 11
62.0642880086
 21
117.2739026476
  0
LINE
  5
2A9
100
AcDbEntity
  8
0
100
AcDbLine
 62
7
  6
CONTINUOUS
 10
64.5442271142
 20
117.2522605469
 11
64.6141318954
 21
117.2516504971
  0
LINE
  5
2AA
100
AcDbEntity
  8
0
100
AcDbLine
 62
7
  6
CONTINUOUS
 10
33.4987956127
 20
115.8434242889
 11
33.2571629849
 21
115.8471044006
  0
LINE
  5
2AB
100
AcDbEntity
  8
0
100
AcDbLine
 62
7
  6
CONTINUOUS
 10
33.4996464075
 20
116.4728517924
 11
33.1942271142
 21
116.4775033873
  0
LINE
  5
2AC
100
AcDbEntity
  8
0
100
AcDbLine
 62
7
  6
CONTINUOUS
 10
62.0861160796
 20
119.7751518368
 11
64.5442271142
 21
119.7751518368
  0
LINE
  5
2AD
100
AcDbEntity
  8
0
100
AcDbLine
 62
7
  6
CONTINUOUS
 10
54.5442271142
 20
121.8751509994
 11
55.1303022515
 21
121.8751509994
  0
LINE
  5
2AE
100
AcDbEntity
  8
0
100
AcDbLine
 62
7
  6
CONTINUOUS
 10
61.8543739545
 20
121.8751509994
 11
64.5442271142
 21
121.8751509994
  0
LINE
  5
2AF
100
AcDbEntity
  8
0
100
AcDbLine
 62
7
  6
CONTINUOUS
 10
64.5442271142
 20
122.9751511423
 11
61.8639735094
 21
122.9751511423
  0
LINE
  5
2B0
100
AcDbEntity
  8
0
100
AcDbLine
 62
7
  6
CONTINUOUS
 10
55.5134262173
 20
122.9751511423
 11
54.5442271142
 21
122.9751511423
  0
LINE
  5
2B1
100
AcDbEntity
  8
0
100
AcDbLine
 62
7
  6
CONTINUOUS
 10
61.8261065984
 20
118.636033012
 11
62.0761560969
 21
118.633850863
  0
LINE
  5
2B2
100
AcDbEntity
  8
0
100
AcDbLine
 62
7
  6
CONTINUOUS
 10
64.5442271142
 20
118.6123123336
 11
64.6259999837
 21
118.6115987126
  0
LINE
  5
2B3
100
AcDbEntity
  8
0
100
AcDbLine
 62
7
  6
CONTINUOUS
 10
54.1789259103
 20
119.0274798906
 11
61.8289400928
 21
118.9607192282
  0
LINE
  5
2B4
100
AcDbEntity
  8
0
100
AcDbLine
 62
7
  6
CONTINUOUS
 10
60.8299045137
 20
119.0847276749
 11
54.4303079687
 21
119.1405761079
  0
LINE
  5
2B5
100
AcDbEntity
  8
0
100
AcDbLine
 62
7
  6
CONTINUOUS
 10
54.1930217575
 20
120.6427039908
 11
54.4562506067
 21
120.6404068275
  0
LINE
  5
2B6
100
AcDbEntity
  8
0
100
AcDbLine
 62
7
  6
CONTINUOUS
 10
64.6429294626
 20
120.5515248433
 11
60.830142274
 21
120.5847827176
  0
LINE
  5
2B7
100
AcDbEntity
  8
0
100
AcDbLine
 62
7
  6
CONTINUOUS
 10
60.288649771
 20
121.7895697605
 11
61.8535079206
 21
121.7759134503
  0
LINE
  5
2B8
100
AcDbEntity
  8
0
100
AcDbLine
 62
7
  6
CONTINUOUS
 10
55.5165340413
 20
123.3312725011
 11
61.8665977239
 21
123.2758563349
  0
ARC
  5
2B9
100
AcDbEntity
  8
0
100
AcDbCircle
 62
7
  6
CONTINUOUS
 10
30.3875982562
 20
185.6772318731
 40
69.9935168302
100
AcDbArc
 50
272.5633511365
 51
273.349558328
  0
ARC
  5
2BA
100
AcDbEntity
  8
0
100
AcDbCircle
 62
7
  6
CONTINUOUS
 10
33.1942271142
 20
96.4751518368
 40
20.0000321115
100
AcDbArc
 50
75.5951246804
 51
89.125056644
  0
ARC
  5
2BB
100
AcDbEntity
  8
0
100
AcDbCircle
 62
7
  6
CONTINUOUS
 10
33.1942271142
 20
96.4751518368
 40
19.3706669929
100
AcDbArc
 50
86.2025209533
 51
89.0990909793
  0
ARC
  5
2BC
100
AcDbEntity
  8
0
100
AcDbCircle
 62
7
  6
CONTINUOUS
 10
48.5442271142
 20
28.6917831698
 40
7.8
100
AcDbArc
 50
63.8113504617
 51
116.1886495383
  0
ARC
  5
2BD
100
AcDbEntity
  8
0
100
AcDbCircle
 62
7
  6
CONTINUOUS
 10
57.5987012797
 20
116.9817564751
 40
5.4303162706
100
AcDbArc
 50
105.1156443992
 51
108.157252643
  0
ARC
  5
2BE
100
AcDbEntity
  8
0
100
AcDbCircle
 62
7
  6
CONTINUOUS
 10
57.6260632407
 20
116.9870234211
 40
5.4245567253
100
AcDbArc
 50
70.8411425867
 51
73.8859791168
  0
ARC
  5
2BF
100
AcDbEntity
  8
0
100
AcDbCircle
 62
7
  6
CONTINUOUS
 10
38.3641723905
 20
119.2646914581
 40
3.4773602441
100
AcDbArc
 50
263.2138692827
 51
266.5823527869
  0
ARC
  5
2C0
100
AcDbEntity
  8
0
100
AcDbCircle
 62
7
  6
CONTINUOUS
 10
38.3448654131
 20
118.9179734865
 40
3.1301082542
100
AcDbArc
 50
266.5567893879
 51
266.8672050974
  0
ARC
  5
2C1
100
AcDbEntity
  8
0
100
AcDbCircle
 62
7
  6
CONTINUOUS
 10
45.3448848672
 20
35.1969579214
 40
0.5506490385
100
AcDbArc
 50
116.1886495407
 51
180.0
  0
ARC
  5
2C2
100
AcDbEntity
  8
0
100
AcDbCircle
 62
7
  6
CONTINUOUS
 10
51.7435693613
 20
35.1969579214
 40
0.5506490385
100
AcDbArc
 50
0.0
 51
63.8113504593
  0
ARC
  5
2C3
100
AcDbEntity
  8
0
100
AcDbCircle
 62
7
  6
CONTINUOUS
 10
52.0873361663
 20
34.1929426206
 40
0.2068822335
100
AcDbArc
 50
270.0
 51
360.0
  0
ARC
  5
2C4
100
AcDbEntity
  8
0
100
AcDbCircle
 62
7
  6
CONTINUOUS
 10
45.0011180621
 20
34.1929426206
 40
0.2068822335
100
AcDbArc
 50
180.0
 51
270.0
  0
SPLINE
  5
2C5
100
AcDbEntity
  8
0
100
AcDbSpline
 62
7
  6
CONTINUOUS
 70
0
 71
3
 72
11
 73
7
 74
0
 42
0.0000001
 43
0.0000001
 44
0.0000000001
 40
0.0
 40
0.0
 40
0.0
 40
0.0
 40
0.2442159656
 40
0.500000014
 40
0.7557839649
 40
1.0
 40
1.0
 40
1.0
 40
1.0
 10
59.131647646
 20
122.1984561669
 30
0.0
 10
58.8982978928
 20
122.2657416289
 30
0.0
 10
58.4105778697
 20
122.3706524196
 30
0.0
 10
57.6590672773
 20
122.4313052991
 30
0.0
 10
56.9066056951
 20
122.3838158716
 30
0.0
 10
56.4171365033
 20
122.2873944665
 30
0.0
 10
56.1826479277
 20
122.2241917587
 30
0.0
  0
SPLINE
  5
2C6
100
AcDbEntity
  8
0
100
AcDbSpline
 62
7
  6
CONTINUOUS
 70
0
 71
3
 72
9
 73
5
 74
0
 42
0.0000001
 43
0.0000001
 44
0.0000000001
 40
0.0
 40
0.0
 40
0.0
 40
0.0
 40
0.5409241342
 40
1.0
 40
1.0
 40
1.0
 40
1.0
 10
55.9064731371
 20
122.1416691403
 30
0.0
 10
55.715327882
 20
122.0786260552
 30
0.0
 10
55.362544621
 20
121.9603110486
 30
0.0
 10
55.0124519457
 20
121.8340021409
 30
0.0
 10
54.8532089378
 20
121.7721916422
 30
0.0
  0
SPLINE
  5
2C7
100
AcDbEntity
  8
0
100
AcDbSpline
 62
7
  6
CONTINUOUS
 70
0
 71
3
 72
11
 73
7
 74
0
 42
0.0000001
 43
0.0000001
 44
0.0000000001
 40
0.0
 40
0.0
 40
0.0
 40
0.0
 40
0.279161558
 40
0.5404525397
 40
0.7816350741
 40
1.0
 40
1.0
 40
1.0
 40
1.0
 10
59.4063399972
 20
122.1111263021
 30
0.0
 10
59.5044173109
 20
122.0768695084
 30
0.0
 10
59.6949038014
 20
122.0123223984
 30
0.0
 10
59.9691973002
 20
121.9154303167
 30
0.0
 10
60.219546028
 20
121.8189675082
 30
0.0
 10
60.3777641705
 20
121.7540456109
 30
0.0
 10
60.4529956447
 20
121.7233230358
 30
0.0
  0
SPLINE
  5
2C8
100
AcDbEntity
  8
0
100
AcDbSpline
 62
7
  6
CONTINUOUS
 70
0
 71
3
 72
13
 73
9
 74
0
 42
0.0000001
 43
0.0000001
 44
0.0000000001
 40
0.0
 40
0.0
 40
0.0
 40
0.0
 40
0.3996689916
 40
0.7023248123
 40
0.815028695
 40
0.9015748727
 40
0.9623614406
 40
1.0
 40
1.0
 40
1.0
 40
1.0
 10
60.4529933858
 20
121.7233236343
 30
0.0
 10
60.5097256762
 20
121.7001551046
 30
0.0
 10
60.6092581383
 20
121.659167462
 30
0.0
 10
60.7229869318
 20
121.6068434334
 30
0.0
 10
60.7898120334
 20
121.5687424407
 30
0.0
 10
60.8226726494
 20
121.5456903959
 30
0.0
 10
60.8431891134
 20
121.5265206925
 30
0.0
 10
60.8511474703
 20
121.5123096494
 30
0.0
 10
60.8511119101
 20
121.5065386829
 30
0.0
  0
SPLINE
  5
2C9
100
AcDbEntity
  8
0
100
AcDbSpline
 62
7
  6
CONTINUOUS
 70
0
 71
3
 72
13
 73
9
 74
0
 42
0.0000001
 43
0.0000001
 44
0.0000000001
 40
0.0
 40
0.0
 40
0.0
 40
0.0
 40
0.4009549507
 40
0.7048984119
 40
0.8177386113
 40
0.9037599457
 40
0.9633918659
 40
1.0
 40
1.0
 40
1.0
 40
1.0
 10
54.8532115958
 20
121.7721922961
 30
0.0
 10
54.795977193
 20
121.7499766696
 30
0.0
 10
54.695789622
 20
121.7098876184
 30
0.0
 10
54.5814699306
 20
121.658338016
 30
0.0
 10
54.5139148551
 20
121.6215110183
 30
0.0
 10
54.4806676221
 20
121.5995702643
 30
0.0
 10
54.459691174
 20
121.5816375169
 30
0.0
 10
54.4514287835
 20
121.5679575016
 30
0.0
 10
54.451373843
 20
121.5623522885
 30
0.0
  0
SPLINE
  5
2CA
100
AcDbEntity
  8
0
100
AcDbSpline
 62
7
  6
CONTINUOUS
 70
0
 71
3
 72
11
 73
7
 74
0
 42
0.0000001
 43
0.0000001
 44
0.0000000001
 40
0.0
 40
0.0
 40
0.0
 40
0.0
 40
0.2400559222
 40
0.4876603977
 40
0.7414883495
 40
1.0
 40
1.0
 40
1.0
 40
1.0
 10
37.9532749752
 20
115.8116931119
 30
0.0
 10
37.6767342959
 20
115.8446573239
 30
0.0
 10
37.1116444675
 20
115.8846868559
 30
0.0
 10
36.251092485
 20
115.8884718833
 30
0.0
 10
35.3699252074
 20
115.8553957655
 30
0.0
 10
34.7765369639
 20
115.8209256484
 30
0.0
 10
34.4771463547
 20
115.8032882703
 30
0.0
  0
SPLINE
  5
2CB
100
AcDbEntity
  8
0
100
AcDbSpline
 62
7
  6
CONTINUOUS
 70
0
 71
3
 72
9
 73
5
 74
0
 42
0.0000001
 43
0.0000001
 44
0.0000000001
 40
0.0
 40
0.0
 40
0.0
 40
0.0
 40
0.4600317769
 40
1.0
 40
1.0
 40
1.0
 40
1.0
 10
33.2571629849
 20
115.8471044006
 30
0.0
 10
33.2855389465
 20
115.8182914843
 30
0.0
 10
33.3628681166
 20
115.7711989615
 30
0.0
 10
33.4512037332
 20
115.7535405253
 30
0.0
 10
33.4986701602
 20
115.7533616724
 30
0.0
  0
SPLINE
  5
2CC
100
AcDbEntity
  8
0
100
AcDbSpline
 62
7
  6
CONTINUOUS
 70
0
 71
3
 72
9
 73
5
 74
0
 42
0.0000001
 43
0.0000001
 44
0.0000000001
 40
0.0
 40
0.0
 40
0.0
 40
0.0
 40
0.4608586839
 40
1.0
 40
1.0
 40
1.0
 40
1.0
 10
33.1942271142
 20
115.9798583583
 30
0.0
 10
33.1942283383
 20
115.9568656911
 30
0.0
 10
33.2076200873
 20
115.9068379844
 30
0.0
 10
33.238283857
 20
115.8662763423
 30
0.0
 10
33.2571569446
 20
115.8471106705
 30
0.0
  0
SPLINE
  5
2CD
100
AcDbEntity
  8
0
100
AcDbSpline
 62
7
  6
CONTINUOUS
 70
0
 71
3
 72
19
 73
15
 74
0
 42
0.0000001
 43
0.0000001
 44
0.0000000001
 40
0.0
 40
0.0
 40
0.0
 40
0.0
 40
0.0040821072
 40
0.009178228
 40
0.0163105631
 40
0.0366823297
 40
0.0651923448
 40
0.1017842171
 40
0.1463467693
 40
0.2589319551
 40
0.4020550755
 40
0.5746417992
 40
0.7747024577
 40
1.0
 40
1.0
 40
1.0
 40
1.0
 10
38.3941834094
 20
115.7886174223
 30
0.0
 10
38.3941187954
 20
115.7889103689
 30
0.0
 10
38.3930731681
 20
115.7884418825
 30
0.0
 10
38.3920664653
 20
115.7886645233
 30
0.0
 10
38.3895616224
 20
115.7884944703
 30
0.0
 10
38.3855270561
 20
115.7885319338
 30
0.0
 10
38.3792074042
 20
115.7883788784
 30
0.0
 10
38.3711644777
 20
115.7882705042
 30
0.0
 10
38.3569207845
 20
115.788082258
 30
0.0
 10
38.3348589712
 20
115.7879623514
 30
0.0
 10
38.3033819586
 20
115.7881273
 30
0.0
 10
38.2654842709
 20
115.7887955391
 30
0.0
 10
38.2215622609
 20
115.7901775676
 30
0.0
 10
38.1903359405
 20
115.791638203
 30
0.0
 10
38.1738039154
 20
115.7925430127
 30
0.0
  0
SPLINE
  5
2CE
100
AcDbEntity
  8
0
100
AcDbSpline
 62
7
  6
CONTINUOUS
 70
0
 71
3
 72
8
 73
4
 74
0
 42
0.0000001
 43
0.0000001
 44
0.0000000001
 40
0.0
 40
0.0
 40
0.0
 40
0.0
 40
1.0
 40
1.0
 40
1.0
 40
1.0
 10
33.5179878848
 20
115.7533616726
 30
0.0
 10
33.5115551864
 20
115.7530714615
 30
0.0
 10
33.5051093414
 20
115.7533337994
 30
0.0
 10
33.4986701602
 20
115.7533616726
 30
0.0
  0
SPLINE
  5
2CF
100
AcDbEntity
  8
0
100
AcDbSpline
 62
7
  6
CONTINUOUS
 70
0
 71
3
 72
47
 73
43
 74
0
 42
0.0000001
 43
0.0000001
 44
0.0000000001
 40
0.0
 40
0.0
 40
0.0
 40
0.0
 40
0.0882753546
 40
0.1680784417
 40
0.2404992042
 40
0.3064211203
 40
0.3665850719
 40
0.4216143666
 40
0.4720215137
 40
0.5182325086
 40
0.5606197759
 40
0.5995173303
 40
0.6352208097
 40
0.6680031785
 40
0.6981166418
 40
0.7257853409
 40
0.7512140938
 40
0.7745941712
 40
0.7960946599
 40
0.8158622228
 40
0.8340300297
 40
0.8507245862
 40
0.8660667308
 40
0.8801649757
 40
0.8931105855
 40
0.9049866551
 40
0.9158748565
 40
0.9258522892
 40
0.9349866806
 40
0.9433438165
 40
0.9509812941
 40
0.9579484069
 40
0.964294374
 40
0.9700666648
 40
0.9753131638
 40
0.9800799945
 40
0.9843807535
 40
0.9882501304
 40
0.9917393916
 40
0.9948225985
 40
0.9975378537
 40
1.0
 40
1.0
 40
1.0
 40
1.0
 10
51.5401157181
 20
65.4827095244
 30
0.0
 10
51.5352978135
 20
66.3931524838
 30
0.0
 10
51.5211394201
 20
68.1266466972
 30
0.0
 10
51.4789704239
 20
70.6067779989
 30
0.0
 10
51.4254956053
 20
72.8560745552
 30
0.0
 10
51.3621322344
 20
74.9024717313
 30
0.0
 10
51.2916770461
 20
76.7691448518
 30
0.0
 10
51.2157130328
 20
78.4754395632
 30
0.0
 10
51.1357123138
 20
80.0374674205
 30
0.0
 10
51.0528532015
 20
81.4687577672
 30
0.0
 10
50.9680798355
 20
82.7810004876
 30
0.0
 10
50.8820895599
 20
83.9845381678
 30
0.0
 10
50.7951937329
 20
85.0886663499
 30
0.0
 10
50.7080775959
 20
86.1018721356
 30
0.0
 10
50.6211278528
 20
87.0318915046
 30
0.0
 10
50.5344692214
 20
87.8857364142
 30
0.0
 10
50.4485612224
 20
88.6698275347
 30
0.0
 10
50.3638748804
 20
89.3900309456
 30
0.0
 10
50.2802922775
 20
90.0515498766
 30
0.0
 10
50.1975025352
 20
90.6589547022
 30
0.0
 10
50.1155989259
 20
91.2164238088
 30
0.0
 10
50.0348153552
 20
91.7278934519
 30
0.0
 10
49.9555256629
 20
92.1970776557
 30
0.0
 10
49.8777164043
 20
92.6272699141
 30
0.0
 10
49.8010668172
 20
93.0213101461
 30
0.0
 10
49.7254349712
 20
93.3817806552
 30
0.0
 10
49.6509130061
 20
93.7111621009
 30
0.0
 10
49.5774921109
 20
94.0117576651
 30
0.0
 10
49.5049299413
 20
94.2856362329
 30
0.0
 10
49.4334613022
 20
94.5347855255
 30
0.0
 10
49.362548554
 20
94.7607722266
 30
0.0
 10
49.2919026848
 20
94.9650142352
 30
0.0
 10
49.2214060773
 20
95.1488438581
 30
0.0
 10
49.1510747809
 20
95.3136038807
 30
0.0
 10
49.0809295436
 20
95.4605862372
 30
0.0
 10
49.0106386445
 20
95.5905120934
 30
0.0
 10
48.9383709184
 20
95.7028946869
 30
0.0
 10
48.8633207812
 20
95.7971335256
 30
0.0
 10
48.7871392584
 20
95.8736420747
 30
0.0
 10
48.7092547218
 20
95.9304624151
 30
0.0
 10
48.6305558009
 20
95.9648212003
 30
0.0
 10
48.5773113755
 20
95.9743521888
 30
0.0
 10
48.5519298467
 20
95.9751518368
 30
0.0
  0
SPLINE
  5
2D0
100
AcDbEntity
  8
0
100
AcDbSpline
 62
7
  6
CONTINUOUS
 70
0
 71
3
 72
26
 73
22
 74
0
 42
0.0000001
 43
0.0000001
 44
0.0000000001
 40
0.0
 40
0.0
 40
0.0
 40
0.0
 40
0.0816655972
 40
0.3393898097
 40
0.4656260775
 40
0.5883798334
 40
0.7269515209
 40
0.7917512154
 40
0.8518708317
 40
0.8886600136
 40
0.9218661154
 40
0.9368707923
 40
0.950616419
 40
0.9629848991
 40
0.9740604401
 40
0.9825240755
 40
0.9895134076
 40
0.992788012
 40
0.9956770473
 40
0.9980671926
 40
1.0
 40
1.0
 40
1.0
 40
1.0
 10
48.536658149
 20
65.3322828192
 30
0.0
 10
48.4550211801
 20
65.3323106503
 30
0.0
 10
48.1157511972
 20
65.3331561065
 30
0.0
 10
47.6502971527
 20
65.3383438195
 30
0.0
 10
47.1438898416
 20
65.350059005
 30
0.0
 10
46.7566669143
 20
65.3627483608
 30
0.0
 10
46.4309716161
 20
65.3775219195
 30
0.0
 10
46.1680642593
 20
65.3936913603
 30
0.0
 10
46.0068665728
 20
65.4059225284
 30
0.0
 10
45.8773547299
 20
65.4179983401
 30
0.0
 10
45.7929056902
 20
65.4274765471
 30
0.0
 10
45.7315182787
 20
65.4357089764
 30
0.0
 10
45.6908752681
 20
65.441868596
 30
0.0
 10
45.6542445978
 20
65.4482330399
 30
0.0
 10
45.6229947589
 20
65.4546766478
 30
0.0
 10
45.5972669113
 20
65.461109021
 30
0.0
 10
45.5793158613
 20
65.4665183651
 30
0.0
 10
45.5671099286
 20
65.4714181107
 30
0.0
 10
45.5593057517
 20
65.4749341343
 30
0.0
 10
45.5530841463
 20
65.4786090491
 30
0.0
 10
45.5496983747
 20
65.4813369747
 30
0.0
 10
45.54833851
 20
65.482709525
 30
0.0
  0
SPLINE
  5
2D1
100
AcDbEntity
  8
0
100
AcDbSpline
 62
7
  6
CONTINUOUS
 70
0
 71
3
 72
41
 73
37
 74
0
 42
0.0000001
 43
0.0000001
 44
0.0000000001
 40
0.0
 40
0.0
 40
0.0
 40
0.0
 40
0.0008174652
 40
0.0017723391
 40
0.0039341172
 40
0.0067335106
 40
0.0114883661
 40
0.0208505135
 40
0.0338278222
 40
0.0489895374
 40
0.0659706673
 40
0.0844003898
 40
0.1278242094
 40
0.1748157
 40
0.2240573704
 40
0.2748382268
 40
0.4071675427
 40
0.5419889843
 40
0.670526615
 40
0.733485817
 40
0.7947081476
 40
0.8638195293
 40
0.8961377935
 40
0.9261219109
 40
0.9444701842
 40
0.9610314285
 40
0.968514876
 40
0.9753703836
 40
0.9815390517
 40
0.987062878
 40
0.99128404
 40
0.9947699064
 40
0.9964030859
 40
0.9978439663
 40
0.9990360297
 40
1.0
 40
1.0
 40
1.0
 40
1.0
 10
51.5401157185
 20
42.8641474633
 30
0.0
 10
51.5389625272
 20
42.8629835145
 30
0.0
 10
51.5362071666
 20
42.8607152787
 30
0.0
 10
51.5295832171
 20
42.8564199045
 30
0.0
 10
51.5187950487
 20
42.8513799361
 30
0.0
 10
51.5003347507
 20
42.845138157
 30
0.0
 10
51.4675792011
 20
42.8362952612
 30
0.0
 10
51.4142703779
 20
42.8257346879
 30
0.0
 10
51.3399420063
 20
42.8144694141
 30
0.0
 10
51.2501507867
 20
42.8035995453
 30
0.0
 10
51.1492867462
 20
42.7934893368
 30
0.0
 10
50.9918398737
 20
42.7800864583
 30
0.0
 10
50.7741449413
 20
42.7655427709
 30
0.0
 10
50.4945785142
 20
42.751332475
 30
0.0
 10
50.2001366254
 20
42.7396821369
 30
0.0
 10
49.7346352487
 20
42.7254913571
 30
0.0
 10
49.0974537349
 20
42.7143195611
 30
0.0
 10
48.3043361379
 20
42.7124950468
 30
0.0
 10
47.6502975471
 20
42.719781412
 30
0.0
 10
47.1438897707
 20
42.7314970055
 30
0.0
 10
46.7566669363
 20
42.7441862799
 30
0.0
 10
46.4309716134
 20
42.7589598602
 30
0.0
 10
46.1680642597
 20
42.7751292983
 30
0.0
 10
46.0068665728
 20
42.7873604667
 30
0.0
 10
45.8773547299
 20
42.7994362784
 30
0.0
 10
45.7929056902
 20
42.8089144854
 30
0.0
 10
45.7315182787
 20
42.8171469147
 30
0.0
 10
45.6908752681
 20
42.8233065343
 30
0.0
 10
45.6542445978
 20
42.8296709782
 30
0.0
 10
45.6229947589
 20
42.8361145862
 30
0.0
 10
45.5972669113
 20
42.8425469594
 30
0.0
 10
45.5793158613
 20
42.8479563034
 30
0.0
 10
45.5671099286
 20
42.8528560491
 30
0.0
 10
45.5593057517
 20
42.8563720726
 30
0.0
 10
45.5530841463
 20
42.8600469874
 30
0.0
 10
45.5496983747
 20
42.8627749131
 30
0.0
 10
45.54833851
 20
42.8641474633
 30
0.0
  0
SPLINE
  5
2D2
100
AcDbEntity
  8
0
100
AcDbSpline
 62
7
  6
CONTINUOUS
 70
0
 71
3
 72
20
 73
16
 74
0
 42
0.0000001
 43
0.0000001
 44
0.0000000001
 40
0.0
 40
0.0
 40
0.0
 40
0.0
 40
0.020573306
 40
0.0665926139
 40
0.13589518
 40
0.224052449
 40
0.3274919443
 40
0.4404084086
 40
0.5563189328
 40
0.6692724948
 40
0.7732217698
 40
0.8624265306
 40
0.9327289709
 40
0.9793181147
 40
1.0
 40
1.0
 40
1.0
 40
1.0
 10
44.0501903956
 20
42.8608463223
 30
0.0
 10
44.0939114707
 20
42.8171252474
 30
0.0
 10
44.3149036086
 20
42.8019509842
 30
0.0
 10
44.7019898851
 20
42.7392435162
 30
0.0
 10
45.3217462335
 20
42.7083688769
 30
0.0
 10
46.1015133573
 20
42.6714989596
 30
0.0
 10
47.0176903465
 20
42.6492468205
 30
0.0
 10
48.0158192152
 20
42.6366487337
 30
0.0
 10
49.0432470427
 20
42.6364756492
 30
0.0
 10
50.0430235238
 20
42.6487327857
 30
0.0
 10
50.964008244
 20
42.6707091683
 30
0.0
 10
51.751417547
 20
42.7075707144
 30
0.0
 10
52.379215786
 20
42.7384350446
 30
0.0
 10
52.7710409628
 20
42.8017576275
 30
0.0
 10
52.9943307698
 20
42.8168847651
 30
0.0
 10
53.0382825906
 20
42.8608365859
 30
0.0
  0
ENDSEC
  0
SECTION
  2
OBJECTS
  0
DICTIONARY
  5
C
100
AcDbDictionary
280
0
281
1
  3
ACAD_GROUP
350
D
  3
ACAD_MLINESTYLE
350
17
  3
ACAD_LAYOUT
350
1A
  3
ACAD_PLOTSETTINGS
350
19
  3
ACAD_PLOTSTYLENAME
350
E
  0
DICTIONARY
  5
D
102
{ACAD_REACTORS
330
C
102
}
100
AcDbDictionary
280
0
281
1
  0
ACDBDICTIONARYWDFLT
  5
E
102
{ACAD_REACTORS
330
C
102
}
100
AcDbDictionary
281
1
  3
Normal
350
F
100
AcDbDictionaryWithDefault
340
F
  0
DICTIONARY
  5
17
102
{ACAD_REACTORS
330
C
102
}
100
AcDbDictionary
280
0
281
1
  3
Standard
350
18
  0
DICTIONARY
  5
19
102
{ACAD_REACTORS
330
C
102
}
100
AcDbDictionary
281
1
  0
DICTIONARY
  5
1A
102
{ACAD_REACTORS
330
C
102
}
100
AcDbDictionary
281
1
  3
Model
350
2D3
  3
Layout1
350
2D4
  0
ACDBPLACEHOLDER
  5
F
102
{ACAD_REACTORS
330
E
102
}
  0
MLINESTYLE
  5
18
102
{ACAD_REACTORS
330
17
102
}
100
AcDbMlineStyle
  2
STANDARD
 70
0
  3

 62
256
 51
90.0
 52
90.0
 71
2
 49
0.5
 62
256
  6
BYLAYER
 49
-0.5
 62
256
  6
BYLAYER
  0
LAYOUT
  5
2D3
102
{ACAD_REACTORS
330
1A
102
}
100
AcDbPlotSettings
  1

  2
none_device
  4

  6

 40
0.0
 41
0.0
 42
0.0
 43
0.0
 44
210.0
 45
297.0
 46
0.0
 47
0.0
 48
0.0
 49
0.0
140
0.0
141
0.0
142
1.0
143
1.0
 70
1024
 72
1
 73
0
 74
0
  7

 75
0
147
1.0
148
0.0
149
0.0
100
AcDbLayout
  1
Model
 70
0
 71
0
 10
0.0
 20
0.0
 11
210.0
 21
297.0
 12
0.0
 22
0.0
 32
0.0
 14
0.0
 24
0.0
 34
0.0
 15
0.0
 25
0.0
 35
0.0
146
0.0
 13
0.0
 23
0.0
 33
0.0
 16
1.0
 26
0.0
 36
0.0
 17
0.0
 27
1.0
 37
0.0
 76
0
330
210
345
0
346
0
  0
LAYOUT
  5
2D4
102
{ACAD_REACTORS
330
1A
102
}
100
AcDbPlotSettings
  1

  2
none_device
  4

  6

 40
0.0
 41
0.0
 42
0.0
 43
0.0
 44
210.0
 45
297.0
 46
0.0
 47
0.0
 48
0.0
 49
0.0
140
0.0
141
0.0
142
1.0
143
1.0
 70
0
 72
1
 73
0
 74
0
  7

 75
0
147
1.0
148
0.0
149
0.0
100
AcDbLayout
  1
Layout1
 70
0
 71
1
 10
0.0
 20
0.0
 11
210.0
 21
297.0
 12
0.0
 22
0.0
 32
0.0
 14
0.0
 24
0.0
 34
0.0
 15
0.0
 25
0.0
 35
0.0
146
0.0
 13
0.0
 23
0.0
 33
0.0
 16
1.0
 26
0.0
 36
0.0
 17
0.0
 27
1.0
 37
0.0
 76
0
330
211
345
0
346
0
  0
ENDSEC
  0
EOF
