999
DXF file: C:\Gen2D\CAD\NSYAEDLPADS3D_3D-CAD\drw0001_2.dxf
999
Pro/ENGINEER 2019471 by Parametric Technology Corporation
  0
SECTION
  2
HEADER
  9
$ACADVER
  1
AC1024
  9
$DWGCODEPAGE
  3
ANSI_1252
  9
$EXTMAX
 10
68.0618120719
 20
96.2588485017
 30
0.0
  9
$EXTMIN
 10
0.0
 20
0.0
 30
0.0
  9
$LIMMIN
 10
0.0
 20
0.0
  9
$LIMMAX
 10
68.0618120719
 20
96.2588485017
  9
$VIEWCTR
 10
34.0309060359
 20
48.1294242508
  9
$VIEWSIZE
 40
96.2588485017
  9
$CLAYER
  8
0
  9
$LTSCALE
 40
6.2746508653
  9
$CELTYPE
  6
BYLAYER
  9
$DIMSCALE
 40
1.0
  9
$DIMASZ
 40
0.8102596675
  9
$DIMEXO
 40
1.0
  9
$DIMDLI
 40
4.3352133251
  9
$DIMEXE
 40
1.0
  9
$DIMCEN
 40
1.0267610507
  9
$DIMLFAC
 40
1.0
  9
$DIMBLK
  1
_FILLED
  9
$DIMALT
 70
0
  9
$DIMALTF
 40
0.0393700787
  9
$DIMTXT
 40
1.1343635345
  9
$DIMTOL
 70
1
  9
$DIMLIM
 70
0
  9
$DIMTFAC
 40
1.0
  9
$DIMTP
 40
0.01
  9
$DIMTM
 40
0.01
  9
$DIMGAP
 40
0.625
  9
$DIMDSEP
 70
46
  9
$AUNITS
 70
0
  9
$PDMODE
 70
3
  9
$PDSIZE
 40
0.3125
  9
$HANDSEED
  5
40D
  9
$TILEMODE
 70
1
  9
$MEASUREMENT
 70
1
  9
$INSUNITS
 70
4
  0
ENDSEC
  0
SECTION
  2
CLASSES
  0
CLASS
  1
ACDBDICTIONARYWDFLT
  2
AcDbDictionaryWithDefault
  3
AutoCAD 2000
 90
0
 91
1
280
0
281
0
  0
CLASS
  1
ACDBPLACEHOLDER
  2
AcDbPlaceHolder
  3
AutoCAD 2000
 90
0
 91
1
280
0
281
0
  0
CLASS
  1
LAYOUT
  2
AcDbLayout
  3
AutoCAD 2000
 90
0
 91
0
280
0
281
0
  0
ENDSEC
  0
SECTION
  2
TABLES
  0
TABLE
  2
VPORT
  5
8
100
AcDbSymbolTable
 70
2
  0
VPORT
  5
1F4
100
AcDbSymbolTableRecord
100
AcDbViewportTableRecord
  2
*ACTIVE
 70
0
 10
0.0
 20
0.0
 11
1.0
 21
1.0
 12
34.0309060359
 22
48.1294242508
 13
0.0
 23
0.0
 14
1.0
 24
1.0
 15
0.0
 25
0.0
 16
0.0
 26
0.0
 36
1.0
 17
0.0
 27
0.0
 37
0.0
 40
96.2588485017
 41
0.7070707071
 42
50.0
 43
0.0
 44
0.0
 50
0.0
 51
0.0
 71
0
 72
100
 73
1
 74
1
 75
0
 76
0
 77
0
 78
0
  0
ENDTAB
  0
TABLE
  2
LTYPE
  5
5
100
AcDbSymbolTable
 70
6
  0
LTYPE
  5
14
100
AcDbSymbolTableRecord
100
AcDbLinetypeTableRecord
  2
BYBLOCK
 70
0
  3

 72
65
 73
0
 40
0.0
  0
LTYPE
  5
15
100
AcDbSymbolTableRecord
100
AcDbLinetypeTableRecord
  2
BYLAYER
 70
0
  3

 72
65
 73
0
 40
0.0
  0
LTYPE
  5
16
100
AcDbSymbolTableRecord
100
AcDbLinetypeTableRecord
  2
CONTINUOUS
 70
64
  3
Solid line
 72
65
 73
0
 40
0.0
  0
LTYPE
  5
1F5
100
AcDbSymbolTableRecord
100
AcDbLinetypeTableRecord
  2
CENTER
 70
64
  3
____ _ ____ _ ____ _ ____ _ ____ _ ____ _ ____
 72
65
 73
4
 40
0.6
 49
0.375
 74
0
 49
-0.075
 74
0
 49
0.075
 74
0
 49
-0.075
 74
0
  0
LTYPE
  5
1F6
100
AcDbSymbolTableRecord
100
AcDbLinetypeTableRecord
  2
HIDDEN
 70
64
  3
- - - - - - - - - - - - - - - - - - - -
 72
65
 73
2
 40
0.2
 49
0.1
 74
0
 49
-0.1
 74
0
  0
LTYPE
  5
1F7
100
AcDbSymbolTableRecord
100
AcDbLinetypeTableRecord
  2
PHANTOM
 70
64
  3
_____ _ _ _____ _ _ _____ _ _ _____
 72
65
 73
6
 40
0.8
 49
0.45
 74
0
 49
-0.05
 74
0
 49
0.1
 74
0
 49
-0.05
 74
0
 49
0.1
 74
0
 49
-0.05
 74
0
  0
LTYPE
  5
1F8
100
AcDbSymbolTableRecord
100
AcDbLinetypeTableRecord
  2
DOT
 70
64
  3
. . . . . . . . . . . . . . . . . . . .
 72
65
 73
2
 40
0.2
 49
0.1
 74
0
 49
-0.1
 74
0
  0
LTYPE
  5
1F9
100
AcDbSymbolTableRecord
100
AcDbLinetypeTableRecord
  2
DASHED
 70
64
  3
- - - - - - - - - - - - - - - - - - - -
 72
65
 73
2
 40
0.2
 49
0.1
 74
0
 49
-0.1
 74
0
  0
ENDTAB
  0
TABLE
  2
LAYER
  5
2
100
AcDbSymbolTable
 70
36
  0
LAYER
  5
10
100
AcDbSymbolTableRecord
100
AcDbLayerTableRecord
  2
0
 70
0
 62
7
  6
CONTINUOUS
370
-3
390
F
  0
LAYER
  5
1FA
100
AcDbSymbolTableRecord
100
AcDbLayerTableRecord
  2
DEFAULT_1
 70
0
 62
7
  6
CENTER
370
-3
390
F
  0
LAYER
  5
1FB
100
AcDbSymbolTableRecord
100
AcDbLayerTableRecord
  2
DEFAULT_2
 70
0
 62
8
  6
HIDDEN
370
-3
390
F
  0
LAYER
  5
1FC
100
AcDbSymbolTableRecord
100
AcDbLayerTableRecord
  2
DEFAULT_3
 70
0
 62
7
  6
PHANTOM
370
-3
390
F
  0
LAYER
  5
1FD
100
AcDbSymbolTableRecord
100
AcDbLayerTableRecord
  2
00_COMPONENTS
 70
0
 62
7
  6
CONTINUOUS
370
-3
390
F
  0
LAYER
  5
1FE
100
AcDbSymbolTableRecord
100
AcDbLayerTableRecord
  2
00_COMPONENTS_1
 70
0
 62
7
  6
CONTINUOUS
370
-3
390
F
  0
LAYER
  5
1FF
100
AcDbSymbolTableRecord
100
AcDbLayerTableRecord
  2
01_1_DEFAULT_DATUMS
 70
0
 62
7
  6
CONTINUOUS
370
-3
390
F
  0
LAYER
  5
200
100
AcDbSymbolTableRecord
100
AcDbLayerTableRecord
  2
01_PLANES
 70
0
 62
7
  6
CONTINUOUS
370
-3
390
F
  0
LAYER
  5
201
100
AcDbSymbolTableRecord
100
AcDbLayerTableRecord
  2
02_COORD_SYS
 70
0
 62
7
  6
CONTINUOUS
370
-3
390
F
  0
LAYER
  5
202
100
AcDbSymbolTableRecord
100
AcDbLayerTableRecord
  2
03_AXES
 70
0
 62
7
  6
CONTINUOUS
370
-3
390
F
  0
LAYER
  5
203
100
AcDbSymbolTableRecord
100
AcDbLayerTableRecord
  2
04_POINTS
 70
0
 62
7
  6
CONTINUOUS
370
-3
390
F
  0
LAYER
  5
204
100
AcDbSymbolTableRecord
100
AcDbLayerTableRecord
  2
05_CURVES
 70
0
 62
7
  6
CONTINUOUS
370
-3
390
F
  0
LAYER
  5
205
100
AcDbSymbolTableRecord
100
AcDbLayerTableRecord
  2
06_SURFS
 70
0
 62
7
  6
CONTINUOUS
370
-3
390
F
  0
LAYER
  5
206
100
AcDbSymbolTableRecord
100
AcDbLayerTableRecord
  2
07_COSMETICS
 70
0
 62
7
  6
CONTINUOUS
370
-3
390
F
  0
LAYER
  5
207
100
AcDbSymbolTableRecord
100
AcDbLayerTableRecord
  2
10_NOTES
 70
0
 62
7
  6
CONTINUOUS
370
-3
390
F
  0
LAYER
  5
208
100
AcDbSymbolTableRecord
100
AcDbLayerTableRecord
  2
11_NOTES_PUB
 70
0
 62
7
  6
CONTINUOUS
370
-3
390
F
  0
LAYER
  5
209
100
AcDbSymbolTableRecord
100
AcDbLayerTableRecord
  2
13_REF_GTOL
 70
0
 62
7
  6
CONTINUOUS
370
-3
390
F
  0
LAYER
  5
20A
100
AcDbSymbolTableRecord
100
AcDbLayerTableRecord
  2
16_MISC
 70
0
 62
7
  6
CONTINUOUS
370
-3
390
F
  0
LAYER
  5
20B
100
AcDbSymbolTableRecord
100
AcDbLayerTableRecord
  2
17_NO_PRINT
 70
0
 62
7
  6
CONTINUOUS
370
-3
390
F
  0
LAYER
  5
20C
100
AcDbSymbolTableRecord
100
AcDbLayerTableRecord
  2
18_DATUM_CAMS_JOINTS
 70
0
 62
7
  6
CONTINUOUS
370
-3
390
F
  0
LAYER
  5
20D
100
AcDbSymbolTableRecord
100
AcDbLayerTableRecord
  2
19_DATUM_FUNCTIONAL
 70
0
 62
7
  6
CONTINUOUS
370
-3
390
F
  0
LAYER
  5
20E
100
AcDbSymbolTableRecord
100
AcDbLayerTableRecord
  2
20_DATUM_KINEMATIC_SCHEME
 70
0
 62
7
  6
CONTINUOUS
370
-3
390
F
  0
LAYER
  5
20F
100
AcDbSymbolTableRecord
100
AcDbLayerTableRecord
  2
COLOR54
 70
0
 62
7
  6
CONTINUOUS
370
-3
390
F
  0
LAYER
  5
210
100
AcDbSymbolTableRecord
100
AcDbLayerTableRecord
  2
COLOR59
 70
0
 62
7
  6
CONTINUOUS
370
-3
390
F
  0
LAYER
  5
211
100
AcDbSymbolTableRecord
100
AcDbLayerTableRecord
  2
COLOR6
 70
0
 62
7
  6
CONTINUOUS
370
-3
390
F
  0
LAYER
  5
212
100
AcDbSymbolTableRecord
100
AcDbLayerTableRecord
  2
ENN0842A-S01_D
 70
0
 62
7
  6
CONTINUOUS
370
-3
390
F
  0
LAYER
  5
213
100
AcDbSymbolTableRecord
100
AcDbLayerTableRecord
  2
ENN0846A-S_D
 70
0
 62
7
  6
CONTINUOUS
370
-3
390
F
  0
LAYER
  5
214
100
AcDbSymbolTableRecord
100
AcDbLayerTableRecord
  2
ENN0876A-S_D
 70
0
 62
7
  6
CONTINUOUS
370
-3
390
F
  0
LAYER
  5
215
100
AcDbSymbolTableRecord
100
AcDbLayerTableRecord
  2
INTFCLR_34
 70
0
 62
7
  6
CONTINUOUS
370
-3
390
F
  0
LAYER
  5
216
100
AcDbSymbolTableRecord
100
AcDbLayerTableRecord
  2
INTF_BLANK
 70
0
 62
7
  6
CONTINUOUS
370
-3
390
F
  0
LAYER
  5
217
100
AcDbSymbolTableRecord
100
AcDbLayerTableRecord
  2
_BLACK_HOLE
 70
0
 62
7
  6
CONTINUOUS
370
-3
390
F
  0
ENDTAB
  0
TABLE
  2
STYLE
  5
3
100
AcDbSymbolTable
 70
1
  0
STYLE
  5
11
100
AcDbSymbolTableRecord
100
AcDbTextStyleTableRecord
  2
STANDARD
 70
0
 40
0.0
 41
0.8
 50
0.0
 71
0
 42
0.2
  3
txt
  4

  0
STYLE
  5
218
100
AcDbSymbolTableRecord
100
AcDbTextStyleTableRecord
  2
TEXTSTYLE_1
 70
0
 40
0.0
 41
0.8
 50
0.0
 71
0
 42
0.2
  3
gdt
  4

  0
ENDTAB
  0
TABLE
  2
VIEW
  5
6
100
AcDbSymbolTable
 70
0
  0
ENDTAB
  0
TABLE
  2
UCS
  5
7
100
AcDbSymbolTable
 70
0
  0
ENDTAB
  0
TABLE
  2
APPID
  5
9
100
AcDbSymbolTable
 70
1
  0
APPID
  5
219
100
AcDbSymbolTableRecord
100
AcDbRegAppTableRecord
  2
ACAD
 70
0
  0
ENDTAB
  0
TABLE
  2
BLOCK_RECORD
  5
1
100
AcDbSymbolTable
 70
0
  0
BLOCK_RECORD
  5
21A
100
AcDbSymbolTableRecord
100
AcDbBlockTableRecord
  2
*Model_Space
  0
BLOCK_RECORD
  5
21B
100
AcDbSymbolTableRecord
100
AcDbBlockTableRecord
  2
*Paper_Space
  0
BLOCK_RECORD
  5
21C
100
AcDbSymbolTableRecord
100
AcDbBlockTableRecord
  2
_FILLED
  0
ENDTAB
  0
TABLE
  2
DIMSTYLE
  5
A
100
AcDbSymbolTable
 70
1
100
AcDbDimStyleTable
 71
0
  0
DIMSTYLE
105
21D
100
AcDbSymbolTableRecord
100
AcDbDimStyleTableRecord
  2
STANDARD
 70
0
  3

  4

 40
1.0
 41
0.8102596675
 42
1.0
 43
0.38
 44
1.0
 45
0.0
 46
0.0
 47
0.01
 48
0.01
140
1.1343635345
141
0.09
142
0.0
143
25.4
144
1.0
145
0.0
146
1.0
147
0.625
 71
1
 72
0
 73
0
 74
0
 75
0
 76
0
 77
1
 78
8
 79
2
170
0
171
1
172
0
173
0
174
0
175
0
176
0
177
0
178
0
270
2
179
2
271
2
272
2
273
2
274
2
275
0
280
0
281
0
282
0
283
1
284
8
285
0
286
0
287
3
288
0
340
11
278
46
341
21C
342
21C
343
21C
344
21C
  0
ENDTAB
  0
ENDSEC
  0
SECTION
  2
BLOCKS
  0
BLOCK
  5
20
100
AcDbEntity
  8
0
100
AcDbBlockBegin
  2
*Model_Space
 70
0
 10
0.0
 20
0.0
 30
0.0
  3
*Model_Space
  1

  0
ENDBLK
  5
21
100
AcDbEntity
  8
0
100
AcDbBlockEnd
  0
BLOCK
  5
1C
100
AcDbEntity
  8
0
100
AcDbBlockBegin
  2
*Paper_Space
 70
0
 10
0.0
 20
0.0
 30
0.0
  3
*Paper_Space
  1

  0
ENDBLK
  5
1D
100
AcDbEntity
  8
0
100
AcDbBlockEnd
  0
BLOCK
  5
21E
100
AcDbEntity
  8
0
100
AcDbBlockBegin
  2
_FILLED
 70
64
 10
0.0
 20
0.0
  3
_FILLED
  1

  0
SOLID
  5
21F
100
AcDbEntity
  8
0
  6
BYBLOCK
 62
0
100
AcDbTrace
 10
0.0
 20
0.0
 11
-1.0
 21
0.25
 12
-1.0
 22
-0.25
 13
-1.0
 23
-0.25
  0
ENDBLK
  5
220
100
AcDbEntity
  8
0
  6
BYBLOCK
 62
0
100
AcDbBlockEnd
  0
ENDSEC
  0
SECTION
  2
ENTITIES
  0
LINE
  5
221
100
AcDbEntity
  8
00_COMPONENTS_1
100
AcDbLine
 62
7
  6
CONTINUOUS
 10
56.0240659007
 20
6.424839635
 11
56.036884825
 21
6.4265606452
  0
LINE
  5
222
100
AcDbEntity
  8
00_COMPONENTS_1
100
AcDbLine
 62
7
  6
CONTINUOUS
 10
12.9773398603
 20
6.4248396331
 11
14.8021855879
 21
6.4248396331
  0
LINE
  5
223
100
AcDbEntity
  8
00_COMPONENTS_1
100
AcDbLine
 62
7
  6
CONTINUOUS
 10
15.8866155221
 20
6.4248396331
 11
53.1177537145
 21
6.4248396331
  0
LINE
  5
224
100
AcDbEntity
  8
00_COMPONENTS_1
100
AcDbLine
 62
7
  6
CONTINUOUS
 10
54.202185588
 20
6.4248396331
 11
56.027101538
 21
6.4248396331
  0
LINE
  5
225
100
AcDbEntity
  8
00_COMPONENTS_1
100
AcDbLine
 62
7
  6
CONTINUOUS
 10
12.9674942986
 20
6.426560521
 11
12.9803090185
 21
6.4248396349
  0
LINE
  5
226
100
AcDbEntity
  8
00_COMPONENTS_1
100
AcDbLine
 62
7
  6
CONTINUOUS
 10
19.7228022827
 20
8.6872195144
 11
49.2815688932
 21
8.6872195144
  0
LINE
  5
227
100
AcDbEntity
  8
00_COMPONENTS_1
100
AcDbLine
 62
7
  6
CONTINUOUS
 10
49.2815688932
 20
10.1872195144
 11
19.7228022827
 21
10.1872195144
  0
LINE
  5
228
100
AcDbEntity
  8
00_COMPONENTS_1
100
AcDbLine
 62
7
  6
CONTINUOUS
 10
48.8687126452
 20
10.6000757624
 11
20.1356585307
 21
10.6000757624
  0
LINE
  5
229
100
AcDbEntity
  8
00_COMPONENTS_1
100
AcDbLine
 62
7
  6
CONTINUOUS
 10
48.8205480947
 20
11.2200053545
 11
46.002185588
 21
11.2200053545
  0
LINE
  5
22A
100
AcDbEntity
  8
00_COMPONENTS_1
100
AcDbLine
 62
7
  6
CONTINUOUS
 10
23.002185588
 20
11.2200053545
 11
20.1838230812
 21
11.2200053545
  0
LINE
  5
22B
100
AcDbEntity
  8
00_COMPONENTS_1
100
AcDbLine
 62
7
  6
CONTINUOUS
 10
46.002185588
 20
11.2248396331
 11
23.002185588
 21
11.2248396331
  0
LINE
  5
22C
100
AcDbEntity
  8
00_COMPONENTS_1
100
AcDbLine
 62
7
  6
CONTINUOUS
 10
53.453021685
 20
12.9711366395
 11
49.3994502316
 21
12.9711058545
  0
LINE
  5
22D
100
AcDbEntity
  8
00_COMPONENTS_1
100
AcDbLine
 62
7
  6
CONTINUOUS
 10
19.6049209443
 20
12.9711058545
 11
15.5513494915
 21
12.9711366362
  0
LINE
  5
22E
100
AcDbEntity
  8
00_COMPONENTS_1
100
AcDbLine
 62
7
  6
CONTINUOUS
 10
20.0009664994
 20
13.4248396538
 11
19.9997481534
 21
13.4254486669
  0
LINE
  5
22F
100
AcDbEntity
  8
00_COMPONENTS_1
100
AcDbLine
 62
7
  6
CONTINUOUS
 10
16.252185588
 20
13.7248396331
 11
15.252185588
 21
14.7248396331
  0
LINE
  5
230
100
AcDbEntity
  8
00_COMPONENTS_1
100
AcDbLine
 62
7
  6
CONTINUOUS
 10
9.913664947
 20
21.9911375809
 11
10.1158798444
 21
21.7889226835
  0
LINE
  5
231
100
AcDbEntity
  8
00_COMPONENTS_1
100
AcDbLine
 62
7
  6
CONTINUOUS
 10
53.6130603827
 20
13.3273372424
 11
49.0432188437
 21
13.3273372424
  0
LINE
  5
232
100
AcDbEntity
  8
00_COMPONENTS_1
100
AcDbLine
 62
7
  6
CONTINUOUS
 10
19.9611523322
 20
13.3273372424
 11
15.3913107932
 21
13.3273372424
  0
LINE
  5
233
100
AcDbEntity
  8
00_COMPONENTS_1
100
AcDbLine
 62
7
  6
CONTINUOUS
 10
54.202185588
 20
13.4248396331
 11
49.0034046766
 21
13.4248396331
  0
LINE
  5
234
100
AcDbEntity
  8
00_COMPONENTS_1
100
AcDbLine
 62
7
  6
CONTINUOUS
 10
20.0009664994
 20
13.4248396331
 11
14.802185588
 21
13.4248396331
  0
LINE
  5
235
100
AcDbEntity
  8
00_COMPONENTS_1
100
AcDbLine
 62
7
  6
CONTINUOUS
 10
52.752185588
 20
13.7248396331
 11
48.002185588
 21
13.7248396331
  0
LINE
  5
236
100
AcDbEntity
  8
00_COMPONENTS_1
100
AcDbLine
 62
7
  6
CONTINUOUS
 10
21.002185588
 20
13.7248396331
 11
16.252185588
 21
13.7248396331
  0
LINE
  5
237
100
AcDbEntity
  8
00_COMPONENTS_1
100
AcDbLine
 62
7
  6
CONTINUOUS
 10
11.5180968485
 20
21.8867056793
 11
11.413664947
 21
21.9911375809
  0
LINE
  5
238
100
AcDbEntity
  8
00_COMPONENTS_1
100
AcDbLine
 62
7
  6
CONTINUOUS
 10
15.3913107932
 20
21.5223420239
 11
14.932344049
 21
21.9813087681
  0
LINE
  5
239
100
AcDbEntity
  8
00_COMPONENTS_1
100
AcDbLine
 62
7
  6
CONTINUOUS
 10
23.002185588
 20
11.2248396331
 11
21.002185588
 21
13.7248396331
  0
LINE
  5
23A
100
AcDbEntity
  8
00_COMPONENTS_1
100
AcDbLine
 62
7
  6
CONTINUOUS
 10
15.7942864503
 20
72.816894804
 11
15.707376409
 21
72.7299847627
  0
LINE
  5
23B
100
AcDbEntity
  8
00_COMPONENTS_1
100
AcDbLine
 62
7
  6
CONTINUOUS
 10
16.0073307176
 20
72.4300304542
 11
16.1066113447
 21
72.5293110813
  0
LINE
  5
23C
100
AcDbEntity
  8
00_COMPONENTS_1
100
AcDbLine
 62
7
  6
CONTINUOUS
 10
10.1180106992
 20
17.4248396331
 11
12.3333338195
 21
17.4248396331
  0
LINE
  5
23D
100
AcDbEntity
  8
00_COMPONENTS_1
100
AcDbLine
 62
7
  6
CONTINUOUS
 10
56.6710373562
 20
17.4248396331
 11
58.8863604795
 21
17.4248396331
  0
LINE
  5
23E
100
AcDbEntity
  8
00_COMPONENTS_1
100
AcDbLine
 62
7
  6
CONTINUOUS
 10
12.0974732746
 20
18.9284451869
 11
14.4216626774
 21
18.9284451869
  0
LINE
  5
23F
100
AcDbEntity
  8
00_COMPONENTS_1
100
AcDbLine
 62
7
  6
CONTINUOUS
 10
54.5827084986
 20
18.9284451869
 11
56.4991892072
 21
18.9284451869
  0
LINE
  5
240
100
AcDbEntity
  8
00_COMPONENTS_1
100
AcDbLine
 62
7
  6
CONTINUOUS
 10
56.3839629006
 20
19.0436714934
 11
54.467482192
 21
19.0436714935
  0
LINE
  5
241
100
AcDbEntity
  8
00_COMPONENTS_1
100
AcDbLine
 62
7
  6
CONTINUOUS
 10
14.5368889839
 20
19.0436714935
 11
11.6210174483
 21
19.0436714935
  0
LINE
  5
242
100
AcDbEntity
  8
00_COMPONENTS_1
100
AcDbLine
 62
7
  6
CONTINUOUS
 10
9.9428202798
 20
30.986350242
 11
10.002185588
 21
30.9269849339
  0
LINE
  5
243
100
AcDbEntity
  8
00_COMPONENTS_1
100
AcDbLine
 62
7
  6
CONTINUOUS
 10
19.961044399
 20
21.5224499571
 11
19.502185588
 21
21.9813087681
  0
LINE
  5
244
100
AcDbEntity
  8
00_COMPONENTS_1
100
AcDbLine
 62
7
  6
CONTINUOUS
 10
12.3575760262
 20
72.913939045
 11
14.099516667
 21
80.1607584332
  0
LINE
  5
245
100
AcDbEntity
  8
00_COMPONENTS_1
100
AcDbLine
 62
7
  6
CONTINUOUS
 10
55.2609456116
 20
83.6848180014
 11
57.2385543713
 21
84.4741730659
  0
LINE
  5
246
100
AcDbEntity
  8
00_COMPONENTS_1
100
AcDbLine
 62
7
  6
CONTINUOUS
 10
54.4067564699
 20
20.1889899408
 11
56.3535993847
 21
20.1889899408
  0
LINE
  5
247
100
AcDbEntity
  8
00_COMPONENTS_1
100
AcDbLine
 62
7
  6
CONTINUOUS
 10
11.6817432477
 20
20.1889936108
 11
14.5976147833
 21
20.1889936108
  0
LINE
  5
248
100
AcDbEntity
  8
00_COMPONENTS_1
100
AcDbLine
 62
7
  6
CONTINUOUS
 10
16.252185588
 20
21.2248396331
 11
21.002185588
 21
21.2248396331
  0
LINE
  5
249
100
AcDbEntity
  8
00_COMPONENTS_1
100
AcDbLine
 62
7
  6
CONTINUOUS
 10
48.002185588
 20
21.2248396331
 11
52.752185588
 21
21.2248396331
  0
LINE
  5
24A
100
AcDbEntity
  8
00_COMPONENTS_1
100
AcDbLine
 62
7
  6
CONTINUOUS
 10
14.802185588
 20
21.4248396331
 11
20.0009664994
 21
21.4248396331
  0
LINE
  5
24B
100
AcDbEntity
  8
00_COMPONENTS_1
100
AcDbLine
 62
7
  6
CONTINUOUS
 10
49.0034046766
 20
21.4248396331
 11
54.202185588
 21
21.4248396331
  0
LINE
  5
24C
100
AcDbEntity
  8
00_COMPONENTS_1
100
AcDbLine
 62
7
  6
CONTINUOUS
 10
15.3913107932
 20
21.5223420239
 11
19.9611523322
 21
21.5223420239
  0
LINE
  5
24D
100
AcDbEntity
  8
00_COMPONENTS_1
100
AcDbLine
 62
7
  6
CONTINUOUS
 10
49.0432188437
 20
21.5223420239
 11
53.6130603827
 21
21.5223420239
  0
LINE
  5
24E
100
AcDbEntity
  8
00_COMPONENTS_1
100
AcDbLine
 62
7
  6
CONTINUOUS
 10
14.932344049
 20
21.9813087681
 11
19.502185588
 21
21.9813087681
  0
LINE
  5
24F
100
AcDbEntity
  8
00_COMPONENTS_1
100
AcDbLine
 62
7
  6
CONTINUOUS
 10
49.502185588
 20
21.9813087681
 11
54.072027127
 21
21.9813087681
  0
LINE
  5
250
100
AcDbEntity
  8
00_COMPONENTS_1
100
AcDbLine
 62
7
  6
CONTINUOUS
 10
59.090706229
 20
21.9911375809
 11
57.590706229
 21
21.9911375809
  0
LINE
  5
251
100
AcDbEntity
  8
00_COMPONENTS_1
100
AcDbLine
 62
7
  6
CONTINUOUS
 10
11.413664947
 20
21.9911375809
 11
9.913664947
 21
21.9911375809
  0
LINE
  5
252
100
AcDbEntity
  8
00_COMPONENTS_1
100
AcDbLine
 62
7
  6
CONTINUOUS
 10
15.002185588
 20
27.7248396331
 11
13.002185588
 21
29.7248396331
  0
LINE
  5
253
100
AcDbEntity
  8
00_COMPONENTS_1
100
AcDbLine
 62
7
  6
CONTINUOUS
 10
9.8799628947
 20
27.3494131526
 11
9.8799628947
 21
22.9905284079
  0
LINE
  5
254
100
AcDbEntity
  8
00_COMPONENTS_1
100
AcDbLine
 62
7
  6
CONTINUOUS
 10
9.9428202798
 20
30.986350242
 11
9.9428202798
 21
85.9862829082
  0
LINE
  5
255
100
AcDbEntity
  8
00_COMPONENTS_1
100
AcDbLine
 62
7
  6
CONTINUOUS
 10
10.002185588
 20
30.9269849339
 11
10.002185588
 21
30.8135147677
  0
LINE
  5
256
100
AcDbEntity
  8
00_COMPONENTS_1
100
AcDbLine
 62
7
  6
CONTINUOUS
 10
10.1180106653
 20
21.7889252676
 11
10.1180106653
 21
17.4248396331
  0
LINE
  5
257
100
AcDbEntity
  8
00_COMPONENTS_1
100
AcDbLine
 62
7
  6
CONTINUOUS
 10
11.3799628948
 20
22.9905284079
 11
11.3799628948
 21
27.3494131526
  0
LINE
  5
258
100
AcDbEntity
  8
00_COMPONENTS_1
100
AcDbLine
 62
7
  6
CONTINUOUS
 10
11.502185588
 20
30.8135147677
 11
11.502185588
 21
30.9269849339
  0
LINE
  5
259
100
AcDbEntity
  8
00_COMPONENTS_1
100
AcDbLine
 62
7
  6
CONTINUOUS
 10
11.5180968485
 20
21.8867056793
 11
11.5180968485
 21
18.9407508937
  0
LINE
  5
25A
100
AcDbEntity
  8
00_COMPONENTS_1
100
AcDbLine
 62
7
  6
CONTINUOUS
 10
11.7483190719
 20
30.986350242
 11
11.7483412064
 21
84.8796490158
  0
LINE
  5
25B
100
AcDbEntity
  8
00_COMPONENTS_1
100
AcDbLine
 62
7
  6
CONTINUOUS
 10
11.7657946341
 20
84.8754346881
 11
11.7658168046
 21
84.4741730659
  0
LINE
  5
25C
100
AcDbEntity
  8
00_COMPONENTS_1
100
AcDbLine
 62
7
  6
CONTINUOUS
 10
11.8970497999
 20
65.400653282
 11
11.8970497999
 21
30.9269849339
  0
LINE
  5
25D
100
AcDbEntity
  8
00_COMPONENTS_1
100
AcDbLine
 62
7
  6
CONTINUOUS
 10
12.3252611056
 20
28.8704916736
 11
12.3252611056
 21
30.9269849339
  0
LINE
  5
25E
100
AcDbEntity
  8
00_COMPONENTS_1
100
AcDbLine
 62
7
  6
CONTINUOUS
 10
9.9934553956
 20
30.3805020658
 11
9.9148836642
 21
29.0814639602
  0
LINE
  5
25F
100
AcDbEntity
  8
00_COMPONENTS_1
100
AcDbLine
 62
7
  6
CONTINUOUS
 10
14.24316044
 20
72.9141300421
 11
14.6385643015
 21
77.0353231947
  0
LINE
  5
260
100
AcDbEntity
  8
00_COMPONENTS_1
100
AcDbLine
 62
7
  6
CONTINUOUS
 10
14.6385643015
 20
74.9069676498
 11
14.2670293281
 21
71.0345538034
  0
LINE
  5
261
100
AcDbEntity
  8
00_COMPONENTS_1
100
AcDbLine
 62
7
  6
CONTINUOUS
 10
14.1446236677
 20
67.6581995515
 11
14.0637521717
 21
66.8152966661
  0
LINE
  5
262
100
AcDbEntity
  8
00_COMPONENTS_1
100
AcDbLine
 62
7
  6
CONTINUOUS
 10
13.002185588
 20
60.2248396331
 11
15.002185588
 21
62.2248396331
  0
LINE
  5
263
100
AcDbEntity
  8
00_COMPONENTS_1
100
AcDbLine
 62
7
  6
CONTINUOUS
 10
48.002185588
 20
22.7248396331
 11
21.002185588
 21
22.7248396331
  0
LINE
  5
264
100
AcDbEntity
  8
00_COMPONENTS_1
100
AcDbLine
 62
7
  6
CONTINUOUS
 10
9.8799628948
 20
22.9905284079
 11
11.3799628948
 21
22.9905284079
  0
LINE
  5
265
100
AcDbEntity
  8
00_COMPONENTS_1
100
AcDbLine
 62
7
  6
CONTINUOUS
 10
57.6244082812
 20
22.9905284079
 11
59.1244082812
 21
22.9905284079
  0
LINE
  5
266
100
AcDbEntity
  8
00_COMPONENTS_1
100
AcDbLine
 62
7
  6
CONTINUOUS
 10
57.4470547268
 20
23.1028572992
 11
54.5311831912
 21
23.1028572992
  0
LINE
  5
267
100
AcDbEntity
  8
00_COMPONENTS_1
100
AcDbLine
 62
7
  6
CONTINUOUS
 10
14.4731879848
 20
23.1028572992
 11
11.5573164492
 21
23.1028572992
  0
LINE
  5
268
100
AcDbEntity
  8
00_COMPONENTS_1
100
AcDbLine
 62
7
  6
CONTINUOUS
 10
14.932344049
 20
23.6899659429
 11
14.802185588
 21
23.6899657516
  0
LINE
  5
269
100
AcDbEntity
  8
00_COMPONENTS_1
100
AcDbLine
 62
7
  6
CONTINUOUS
 10
54.202185588
 20
23.6899653381
 11
54.072027127
 21
23.6899656357
  0
LINE
  5
26A
100
AcDbEntity
  8
00_COMPONENTS_1
100
AcDbLine
 62
7
  6
CONTINUOUS
 10
48.002185588
 20
23.7248396331
 11
21.002185588
 21
23.7248396331
  0
LINE
  5
26B
100
AcDbEntity
  8
00_COMPONENTS_1
100
AcDbLine
 62
7
  6
CONTINUOUS
 10
11.8970497999
 20
30.9269849339
 11
11.7483190719
 21
30.986350242
  0
LINE
  5
26C
100
AcDbEntity
  8
00_COMPONENTS_1
100
AcDbLine
 62
7
  6
CONTINUOUS
 10
19.9681655647
 20
26.4182660433
 11
19.502185588
 21
26.9285553913
  0
LINE
  5
26D
100
AcDbEntity
  8
00_COMPONENTS_1
100
AcDbLine
 62
7
  6
CONTINUOUS
 10
13.002185588
 20
60.2248396331
 11
13.002185588
 21
29.7248396331
  0
LINE
  5
26E
100
AcDbEntity
  8
00_COMPONENTS_1
100
AcDbLine
 62
7
  6
CONTINUOUS
 10
14.099516667
 20
80.1607584332
 11
14.099516667
 21
83.4049606969
  0
LINE
  5
26F
100
AcDbEntity
  8
00_COMPONENTS_1
100
AcDbLine
 62
7
  6
CONTINUOUS
 10
14.3240410508
 20
71.6287723833
 11
14.324041548
 21
66.6505120907
  0
LINE
  5
270
100
AcDbEntity
  8
00_COMPONENTS_1
100
AcDbLine
 62
7
  6
CONTINUOUS
 10
14.6385643015
 20
74.9069676498
 11
14.6385643015
 21
77.0353231947
  0
LINE
  5
271
100
AcDbEntity
  8
00_COMPONENTS_1
100
AcDbLine
 62
7
  6
CONTINUOUS
 10
14.802185588
 20
27.9248396331
 11
14.802185588
 21
21.4245632013
  0
LINE
  5
272
100
AcDbEntity
  8
00_COMPONENTS_1
100
AcDbLine
 62
7
  6
CONTINUOUS
 10
14.802185588
 20
6.4251959172
 11
14.802185588
 21
13.4251716591
  0
LINE
  5
273
100
AcDbEntity
  8
00_COMPONENTS_1
100
AcDbLine
 62
7
  6
CONTINUOUS
 10
14.932344049
 20
21.9813087681
 11
14.932344049
 21
27.7946811721
  0
LINE
  5
274
100
AcDbEntity
  8
00_COMPONENTS_1
100
AcDbLine
 62
7
  6
CONTINUOUS
 10
14.9528521552
 20
86.4729547199
 11
14.9528521552
 21
87.7310499555
  0
LINE
  5
275
100
AcDbEntity
  8
00_COMPONENTS_1
100
AcDbLine
 62
7
  6
CONTINUOUS
 10
15.1067636495
 20
72.8121149578
 11
15.1067636495
 21
74.1375643085
  0
LINE
  5
276
100
AcDbEntity
  8
00_COMPONENTS_1
100
AcDbLine
 62
7
  6
CONTINUOUS
 10
15.252185588
 20
14.7248396331
 11
15.252185588
 21
20.2248396331
  0
LWPOLYLINE
  5
277
100
AcDbEntity
  8
00_COMPONENTS_1
100
AcDbPolyline
 62
7
  6
CONTINUOUS
 90
4
 70
0
 10
14.4731854524
 20
23.1028509548
 10
14.5555526515
 20
25.8579306287
 10
14.6647056281
 20
27.6962784772
 10
14.7183993751
 20
28.008625846
  0
LINE
  5
278
100
AcDbEntity
  8
00_COMPONENTS_1
100
AcDbLine
 62
7
  6
CONTINUOUS
 10
11.4148836642
 20
29.0814639602
 11
11.4934553956
 21
30.3805020658
  0
LINE
  5
279
100
AcDbEntity
  8
00_COMPONENTS_1
100
AcDbLine
 62
7
  6
CONTINUOUS
 10
16.0366566871
 20
64.6662006381
 11
16.1064982261
 21
65.3941411067
  0
LINE
  5
27A
100
AcDbEntity
  8
00_COMPONENTS_1
100
AcDbLine
 62
7
  6
CONTINUOUS
 10
35.5643858964
 20
75.7851372905
 11
35.5040882389
 21
75.7248396331
  0
LINE
  5
27B
100
AcDbEntity
  8
00_COMPONENTS_1
100
AcDbLine
 62
7
  6
CONTINUOUS
 10
21.002185588
 20
26.2248396331
 11
48.002185588
 21
26.2248396331
  0
LINE
  5
27C
100
AcDbEntity
  8
00_COMPONENTS_1
100
AcDbLine
 62
7
  6
CONTINUOUS
 10
19.9681655647
 20
26.4182660433
 11
21.002185588
 21
26.4182660433
  0
LINE
  5
27D
100
AcDbEntity
  8
00_COMPONENTS_1
100
AcDbLine
 62
7
  6
CONTINUOUS
 10
48.002185588
 20
26.4182660433
 11
49.0362056113
 21
26.4182660433
  0
LINE
  5
27E
100
AcDbEntity
  8
00_COMPONENTS_1
100
AcDbLine
 62
7
  6
CONTINUOUS
 10
19.502185588
 20
26.9285553913
 11
21.002185588
 21
26.9285553913
  0
LINE
  5
27F
100
AcDbEntity
  8
00_COMPONENTS_1
100
AcDbLine
 62
7
  6
CONTINUOUS
 10
48.002185588
 20
26.9285553913
 11
49.502185588
 21
26.9285553913
  0
LINE
  5
280
100
AcDbEntity
  8
00_COMPONENTS_1
100
AcDbLine
 62
7
  6
CONTINUOUS
 10
59.1244082812
 20
27.3494131526
 11
57.6244082812
 21
27.3494131526
  0
LINE
  5
281
100
AcDbEntity
  8
00_COMPONENTS_1
100
AcDbLine
 62
7
  6
CONTINUOUS
 10
11.3799628948
 20
27.3494131526
 11
9.8799628948
 21
27.3494131526
  0
LINE
  5
282
100
AcDbEntity
  8
00_COMPONENTS_1
100
AcDbLine
 62
7
  6
CONTINUOUS
 10
56.002185588
 20
27.7248396331
 11
48.002185588
 21
27.7248396331
  0
LINE
  5
283
100
AcDbEntity
  8
00_COMPONENTS_1
100
AcDbLine
 62
7
  6
CONTINUOUS
 10
21.002185588
 20
27.7248396331
 11
15.002185588
 21
27.7248396331
  0
LINE
  5
284
100
AcDbEntity
  8
00_COMPONENTS_1
100
AcDbLine
 62
7
  6
CONTINUOUS
 10
14.3088864943
 20
28.4181387268
 11
11.8729081563
 21
28.4181387243
  0
LINE
  5
285
100
AcDbEntity
  8
00_COMPONENTS_1
100
AcDbLine
 62
7
  6
CONTINUOUS
 10
56.002185588
 20
28.4181387303
 11
57.1314630136
 21
28.4181387303
  0
LINE
  5
286
100
AcDbEntity
  8
00_COMPONENTS_1
100
AcDbLine
 62
7
  6
CONTINUOUS
 10
16.1453480457
 20
75.693683512
 11
16.1592811723
 21
75.4031521733
  0
LINE
  5
287
100
AcDbEntity
  8
00_COMPONENTS_1
100
AcDbLine
 62
7
  6
CONTINUOUS
 10
15.707376409
 20
65.4418898845
 11
15.707376409
 21
72.7299847627
  0
LINE
  5
288
100
AcDbEntity
  8
00_COMPONENTS_1
100
AcDbLine
 62
7
  6
CONTINUOUS
 10
15.707376409
 20
74.2248396331
 11
15.707376409
 21
75.5916141633
  0
LINE
  5
289
100
AcDbEntity
  8
00_COMPONENTS_1
100
AcDbLine
 62
7
  6
CONTINUOUS
 10
16.0073307176
 20
75.680955579
 11
16.0073307176
 21
74.2196945035
  0
LINE
  5
28A
100
AcDbEntity
  8
00_COMPONENTS_1
100
AcDbLine
 62
7
  6
CONTINUOUS
 10
16.0073307176
 20
72.4300304542
 11
16.0073307176
 21
65.3941411067
  0
LINE
  5
28B
100
AcDbEntity
  8
00_COMPONENTS_1
100
AcDbLine
 62
7
  6
CONTINUOUS
 10
16.0919060631
 20
85.3973500931
 11
16.0919060631
 21
80.8252547095
  0
LINE
  5
28C
100
AcDbEntity
  8
00_COMPONENTS_1
100
AcDbLine
 62
7
  6
CONTINUOUS
 10
16.1066113447
 20
74.1204138764
 11
16.1066113447
 21
72.5293110813
  0
LINE
  5
28D
100
AcDbEntity
  8
00_COMPONENTS_1
100
AcDbLine
 62
7
  6
CONTINUOUS
 10
16.1592811723
 20
75.4031521733
 11
16.1592811723
 21
73.2675069751
  0
LINE
  5
28E
100
AcDbEntity
  8
00_COMPONENTS_1
100
AcDbLine
 62
7
  6
CONTINUOUS
 10
17.1370413691
 20
77.9134928354
 11
17.1370413691
 21
75.7851372905
  0
LINE
  5
28F
100
AcDbEntity
  8
00_COMPONENTS_1
100
AcDbLine
 62
7
  6
CONTINUOUS
 10
17.3450900036
 20
75.4031521733
 11
17.3450900036
 21
73.2675069751
  0
LINE
  5
290
100
AcDbEntity
  8
00_COMPONENTS_1
100
AcDbLine
 62
7
  6
CONTINUOUS
 10
17.4970404584
 20
65.3941411067
 11
17.4970404584
 21
75.7851372905
  0
LINE
  5
291
100
AcDbEntity
  8
00_COMPONENTS_1
100
AcDbLine
 62
7
  6
CONTINUOUS
 10
17.7969947669
 20
75.7851372905
 11
17.7969947669
 21
65.3941411067
  0
LINE
  5
292
100
AcDbEntity
  8
00_COMPONENTS_1
100
AcDbLine
 62
7
  6
CONTINUOUS
 10
17.3450900036
 20
75.4031521733
 11
17.3634090154
 21
75.7851372905
  0
LINE
  5
293
100
AcDbEntity
  8
00_COMPONENTS_1
100
AcDbLine
 62
7
  6
CONTINUOUS
 10
10.1165506205
 20
21.7889257037
 11
10.1164685666
 21
21.7885212339
  0
LINE
  5
294
100
AcDbEntity
  8
00_COMPONENTS_1
100
AcDbLine
 62
7
  6
CONTINUOUS
 10
36.002185588
 20
75.2267422841
 11
36.1809754847
 21
75.4055321808
  0
LINE
  5
295
100
AcDbEntity
  8
00_COMPONENTS_1
100
AcDbLine
 62
7
  6
CONTINUOUS
 10
9.9148836642
 20
29.0814639602
 11
11.4148836642
 21
29.0814639602
  0
LINE
  5
296
100
AcDbEntity
  8
00_COMPONENTS_1
100
AcDbLine
 62
7
  6
CONTINUOUS
 10
57.5894875117
 20
29.0814639602
 11
59.0894875117
 21
29.0814639602
  0
LINE
  5
297
100
AcDbEntity
  8
00_COMPONENTS_1
100
AcDbLine
 62
7
  6
CONTINUOUS
 10
59.0109157803
 20
30.3805020658
 11
57.5109157803
 21
30.3805020658
  0
LINE
  5
298
100
AcDbEntity
  8
00_COMPONENTS_1
100
AcDbLine
 62
7
  6
CONTINUOUS
 10
11.4934553956
 20
30.3805020658
 11
9.9934553956
 21
30.3805020658
  0
LINE
  5
299
100
AcDbEntity
  8
00_COMPONENTS_1
100
AcDbLine
 62
7
  6
CONTINUOUS
 10
10.002185588
 20
30.8135147677
 11
11.502185588
 21
30.8135147677
  0
LINE
  5
29A
100
AcDbEntity
  8
00_COMPONENTS_1
100
AcDbLine
 62
7
  6
CONTINUOUS
 10
57.502185588
 20
30.8135147677
 11
59.002185588
 21
30.8135147677
  0
LINE
  5
29B
100
AcDbEntity
  8
00_COMPONENTS_1
100
AcDbLine
 62
7
  6
CONTINUOUS
 10
59.002185588
 20
30.9269849339
 11
56.002185588
 21
30.9269849339
  0
LINE
  5
29C
100
AcDbEntity
  8
00_COMPONENTS_1
100
AcDbLine
 62
7
  6
CONTINUOUS
 10
10.002185588
 20
30.9269849339
 11
13.002185588
 21
30.9269849339
  0
LINE
  5
29D
100
AcDbEntity
  8
00_COMPONENTS_1
100
AcDbLine
 62
7
  6
CONTINUOUS
 10
59.0615508961
 20
30.986350242
 11
57.256052104
 21
30.986350242
  0
LINE
  5
29E
100
AcDbEntity
  8
00_COMPONENTS_1
100
AcDbLine
 62
7
  6
CONTINUOUS
 10
9.9428202798
 20
30.986350242
 11
11.7483190719
 21
30.986350242
  0
LINE
  5
29F
100
AcDbEntity
  8
00_COMPONENTS_1
100
AcDbLine
 62
7
  6
CONTINUOUS
 10
49.0046239989
 20
21.4242300108
 11
49.0034046676
 21
21.4248396331
  0
LINE
  5
2A0
100
AcDbEntity
  8
00_COMPONENTS_1
100
AcDbLine
 62
7
  6
CONTINUOUS
 10
48.8687126452
 20
10.6000757624
 11
49.2815688932
 21
10.1872195144
  0
LINE
  5
2A1
100
AcDbEntity
  8
00_COMPONENTS_1
100
AcDbLine
 62
7
  6
CONTINUOUS
 10
19.502185588
 20
21.9813087681
 11
19.502185588
 21
26.9285553913
  0
LINE
  5
2A2
100
AcDbEntity
  8
00_COMPONENTS_1
100
AcDbLine
 62
7
  6
CONTINUOUS
 10
19.7228022827
 20
10.1872195144
 11
19.7228022827
 21
8.6872195144
  0
LINE
  5
2A3
100
AcDbEntity
  8
00_COMPONENTS_1
100
AcDbLine
 62
7
  6
CONTINUOUS
 10
19.9997481534
 20
13.4257569448
 11
19.9997481534
 21
13.7248396331
  0
LINE
  5
2A4
100
AcDbEntity
  8
00_COMPONENTS_1
100
AcDbLine
 62
7
  6
CONTINUOUS
 10
19.9997481534
 20
21.2248396331
 11
19.9997481534
 21
21.4239223191
  0
LINE
  5
2A5
100
AcDbEntity
  8
00_COMPONENTS_1
100
AcDbLine
 62
7
  6
CONTINUOUS
 10
21.002185588
 20
21.2248396331
 11
21.002185588
 21
27.7248396331
  0
LINE
  5
2A6
100
AcDbEntity
  8
00_COMPONENTS_1
100
AcDbLine
 62
7
  6
CONTINUOUS
 10
53.2579175884
 20
85.7428025687
 11
52.9124651128
 21
85.3973500931
  0
LINE
  5
2A7
100
AcDbEntity
  8
00_COMPONENTS_1
100
AcDbLine
 62
7
  6
CONTINUOUS
 10
54.0515190207
 20
86.4729547199
 11
53.2164144544
 21
85.6378501536
  0
LINE
  5
2A8
100
AcDbEntity
  8
00_COMPONENTS_1
100
AcDbLine
 62
7
  6
CONTINUOUS
 10
49.0433267769
 20
13.3272293092
 11
49.3994502316
 21
12.9711058545
  0
LINE
  5
2A9
100
AcDbEntity
  8
00_COMPONENTS_1
100
AcDbLine
 62
7
  6
CONTINUOUS
 10
24.602185588
 20
41.4300507952
 11
24.602185588
 21
51.019628471
  0
LINE
  5
2AA
100
AcDbEntity
  8
00_COMPONENTS_1
100
AcDbLine
 62
7
  6
CONTINUOUS
 10
24.9163767567
 20
51.0137678021
 11
24.9163767567
 21
41.4359114642
  0
LINE
  5
2AB
100
AcDbEntity
  8
00_COMPONENTS_1
100
AcDbLine
 62
7
  6
CONTINUOUS
 10
15.0545620089
 20
12.9905843104
 11
15.0543995224
 21
12.9899579271
  0
LINE
  5
2AC
100
AcDbEntity
  8
00_COMPONENTS_1
100
AcDbLine
 62
7
  6
CONTINUOUS
 10
14.7824709364
 20
23.8777185776
 11
14.4731854524
 21
23.1028509548
  0
LINE
  5
2AD
100
AcDbEntity
  8
00_COMPONENTS_1
100
AcDbLine
 62
7
  6
CONTINUOUS
 10
54.904854509
 20
83.4049606969
 11
55.1340670562
 21
83.6351433823
  0
LINE
  5
2AE
100
AcDbEntity
  8
00_COMPONENTS_1
100
AcDbLine
 62
7
  6
CONTINUOUS
 10
33.002185588
 20
62.7229369822
 11
32.8233956345
 21
62.5441470854
  0
LINE
  5
2AF
100
AcDbEntity
  8
00_COMPONENTS_1
100
AcDbLine
 62
7
  6
CONTINUOUS
 10
55.2609456093
 20
83.6848180004
 11
56.0503006748
 21
84.4741730659
  0
LINE
  5
2B0
100
AcDbEntity
  8
00_COMPONENTS_1
100
AcDbLine
 62
7
  6
CONTINUOUS
 10
53.9496495159
 20
12.9907481177
 11
53.6131679713
 21
13.3272296538
  0
LINE
  5
2B1
100
AcDbEntity
  8
00_COMPONENTS_1
100
AcDbLine
 62
7
  6
CONTINUOUS
 10
28.4149102633
 20
46.356706513
 11
28.4149102633
 21
46.1039275358
  0
LINE
  5
2B2
100
AcDbEntity
  8
00_COMPONENTS_1
100
AcDbLine
 62
7
  6
CONTINUOUS
 10
32.3272082609
 20
64.6662006381
 11
32.502185588
 21
65.3941411067
  0
LINE
  5
2B3
100
AcDbEntity
  8
00_COMPONENTS_1
100
AcDbLine
 62
7
  6
CONTINUOUS
 10
54.467482192
 20
19.0436714935
 11
54.5827236875
 21
18.928429998
  0
LINE
  5
2B4
100
AcDbEntity
  8
00_COMPONENTS_1
100
AcDbLine
 62
7
  6
CONTINUOUS
 10
28.502185588
 20
45.2746220918
 11
28.502185588
 21
47.2611480353
  0
LINE
  5
2B5
100
AcDbEntity
  8
00_COMPONENTS_1
100
AcDbLine
 62
7
  6
CONTINUOUS
 10
31.2124789346
 20
65.3941411067
 11
31.2124788575
 21
75.7851372905
  0
LINE
  5
2B6
100
AcDbEntity
  8
00_COMPONENTS_1
100
AcDbLine
 62
7
  6
CONTINUOUS
 10
31.5122962036
 20
75.7851372905
 11
31.5122962036
 21
65.3941411067
  0
LINE
  5
2B7
100
AcDbEntity
  8
00_COMPONENTS_1
100
AcDbLine
 62
7
  6
CONTINUOUS
 10
31.5269957422
 20
75.7851372905
 11
31.5269957473
 21
65.3941411067
  0
LINE
  5
2B8
100
AcDbEntity
  8
00_COMPONENTS_1
100
AcDbLine
 62
7
  6
CONTINUOUS
 10
52.8977592838
 20
74.1204133289
 11
52.9970404584
 21
74.2196945035
  0
LINE
  5
2B9
100
AcDbEntity
  8
00_COMPONENTS_1
100
AcDbLine
 62
7
  6
CONTINUOUS
 10
43.7881314727
 20
44.0248396331
 11
41.4103329518
 21
44.0248396331
  0
LINE
  5
2BA
100
AcDbEntity
  8
00_COMPONENTS_1
100
AcDbLine
 62
7
  6
CONTINUOUS
 10
43.7478020715
 20
44.1055230181
 11
41.3933282529
 21
44.1055230181
  0
LINE
  5
2BB
100
AcDbEntity
  8
00_COMPONENTS_1
100
AcDbLine
 62
7
  6
CONTINUOUS
 10
41.4732633912
 20
44.4053402663
 11
44.0477563801
 21
44.4053402663
  0
LINE
  5
2BC
100
AcDbEntity
  8
00_COMPONENTS_1
100
AcDbLine
 62
7
  6
CONTINUOUS
 10
52.752185588
 20
21.2248396331
 11
53.752185588
 21
20.2248396331
  0
LINE
  5
2BD
100
AcDbEntity
  8
00_COMPONENTS_1
100
AcDbLine
 62
7
  6
CONTINUOUS
 10
56.3839629006
 20
19.0436714934
 11
56.4991892072
 21
18.9284451869
  0
LINE
  5
2BE
100
AcDbEntity
  8
00_COMPONENTS_1
100
AcDbLine
 62
7
  6
CONTINUOUS
 10
57.4862743274
 20
19.9401417207
 11
57.383358716
 21
20.0430573101
  0
LINE
  5
2BF
100
AcDbEntity
  8
00_COMPONENTS_1
100
AcDbLine
 62
7
  6
CONTINUOUS
 10
14.9528521552
 20
87.7310499555
 11
15.746453568
 21
85.7428026176
  0
LINE
  5
2C0
100
AcDbEntity
  8
00_COMPONENTS_1
100
AcDbLine
 62
7
  6
CONTINUOUS
 10
31.8268129917
 20
65.3941411067
 11
31.8268129901
 21
75.7851372905
  0
LINE
  5
2C1
100
AcDbEntity
  8
00_COMPONENTS_1
100
AcDbLine
 62
7
  6
CONTINUOUS
 10
32.3252983277
 20
75.4053183822
 11
32.3252983463
 21
65.3941411067
  0
LINE
  5
2C2
100
AcDbEntity
  8
00_COMPONENTS_1
100
AcDbLine
 62
7
  6
CONTINUOUS
 10
32.3272082609
 20
64.6662006381
 11
32.3272082609
 21
62.2248396331
  0
LINE
  5
2C3
100
AcDbEntity
  8
00_COMPONENTS_1
100
AcDbLine
 62
7
  6
CONTINUOUS
 10
32.502185588
 20
62.2248396331
 11
32.502185588
 21
65.3941411067
  0
LINE
  5
2C4
100
AcDbEntity
  8
00_COMPONENTS_1
100
AcDbLine
 62
7
  6
CONTINUOUS
 10
32.6805684629
 20
17.6135391913
 11
32.6805780564
 21
17.2360474928
  0
LINE
  5
2C5
100
AcDbEntity
  8
00_COMPONENTS_1
100
AcDbLine
 62
7
  6
CONTINUOUS
 10
32.8233956345
 20
62.5441470854
 11
32.8233956912
 21
75.4055321809
  0
LINE
  5
2C6
100
AcDbEntity
  8
00_COMPONENTS_1
100
AcDbLine
 62
7
  6
CONTINUOUS
 10
33.002185588
 20
62.7229369822
 11
33.002185588
 21
75.2267422841
  0
LINE
  5
2C7
100
AcDbEntity
  8
00_COMPONENTS_1
100
AcDbLine
 62
7
  6
CONTINUOUS
 10
33.752185588
 20
62.2248396331
 11
33.752185588
 21
73.2248396331
  0
LINE
  5
2C8
100
AcDbEntity
  8
00_COMPONENTS_1
100
AcDbLine
 62
7
  6
CONTINUOUS
 10
34.502185079
 20
19.2564921723
 11
34.5021858728
 21
18.8349083812
  0
LINE
  5
2C9
100
AcDbEntity
  8
00_COMPONENTS_1
100
AcDbLine
 62
7
  6
CONTINUOUS
 10
34.5021855097
 20
16.0147712699
 11
34.5021857164
 21
15.5931705595
  0
LINE
  5
2CA
100
AcDbEntity
  8
00_COMPONENTS_1
100
AcDbLine
 62
7
  6
CONTINUOUS
 10
12.3252611056
 20
28.8704916736
 11
11.8729281512
 21
28.4181587192
  0
LINE
  5
2CB
100
AcDbEntity
  8
00_COMPONENTS_1
100
AcDbLine
 62
7
  6
CONTINUOUS
 10
44.0477563801
 20
48.0564824131
 11
43.7478020715
 21
48.0564824131
  0
LINE
  5
2CC
100
AcDbEntity
  8
00_COMPONENTS_1
100
AcDbLine
 62
7
  6
CONTINUOUS
 10
41.4484796372
 20
48.1367765218
 11
43.7478020715
 21
48.0564824131
  0
LINE
  5
2CD
100
AcDbEntity
  8
00_COMPONENTS_1
100
AcDbLine
 62
7
  6
CONTINUOUS
 10
30.2119256424
 20
49.2294750373
 11
29.6716187779
 21
49.6072385771
  0
LINE
  5
2CE
100
AcDbEntity
  8
00_COMPONENTS_1
100
AcDbLine
 62
7
  6
CONTINUOUS
 10
35.252185588
 20
62.2248396331
 11
35.252185588
 21
62.7248396331
  0
LINE
  5
2CF
100
AcDbEntity
  8
00_COMPONENTS_1
100
AcDbLine
 62
7
  6
CONTINUOUS
 10
36.002185588
 20
75.2267422841
 11
36.002185588
 21
73.2248396331
  0
LINE
  5
2D0
100
AcDbEntity
  8
00_COMPONENTS_1
100
AcDbLine
 62
7
  6
CONTINUOUS
 10
36.1809754847
 20
62.544147085
 11
36.1809754847
 21
62.7248396331
  0
LINE
  5
2D1
100
AcDbEntity
  8
00_COMPONENTS_1
100
AcDbLine
 62
7
  6
CONTINUOUS
 10
36.1809754847
 20
73.2248396331
 11
36.1809754847
 21
75.4055321808
  0
LINE
  5
2D2
100
AcDbEntity
  8
00_COMPONENTS_1
100
AcDbLine
 62
7
  6
CONTINUOUS
 10
36.252185588
 20
73.2248396331
 11
36.252185588
 21
62.7248396331
  0
LINE
  5
2D3
100
AcDbEntity
  8
00_COMPONENTS_1
100
AcDbLine
 62
7
  6
CONTINUOUS
 10
36.3238027882
 20
17.236140801
 11
36.3237932296
 21
17.6136307133
  0
LINE
  5
2D4
100
AcDbEntity
  8
00_COMPONENTS_1
100
AcDbLine
 62
7
  6
CONTINUOUS
 10
36.502185588
 20
62.7248396331
 11
36.502185588
 21
62.2248396331
  0
LINE
  5
2D5
100
AcDbEntity
  8
00_COMPONENTS_1
100
AcDbLine
 62
7
  6
CONTINUOUS
 10
36.677162915
 20
62.2248396331
 11
36.677162915
 21
62.7248396331
  0
LINE
  5
2D6
100
AcDbEntity
  8
00_COMPONENTS_1
100
AcDbLine
 62
7
  6
CONTINUOUS
 10
36.6790728916
 20
73.2248396331
 11
36.6790728482
 21
75.4053183792
  0
LINE
  5
2D7
100
AcDbEntity
  8
00_COMPONENTS_1
100
AcDbLine
 62
7
  6
CONTINUOUS
 10
37.1775581859
 20
75.7851372905
 11
37.1775581855
 21
73.2248396331
  0
LINE
  5
2D8
100
AcDbEntity
  8
00_COMPONENTS_1
100
AcDbLine
 62
7
  6
CONTINUOUS
 10
37.4773754341
 20
75.7851372905
 11
37.4773754341
 21
73.2248396331
  0
LINE
  5
2D9
100
AcDbEntity
  8
00_COMPONENTS_1
100
AcDbLine
 62
7
  6
CONTINUOUS
 10
37.4920749723
 20
73.2248396331
 11
37.4920749723
 21
75.7851372905
  0
LINE
  5
2DA
100
AcDbEntity
  8
00_COMPONENTS_1
100
AcDbLine
 62
7
  6
CONTINUOUS
 10
37.7918918284
 20
75.7851372905
 11
37.7918919043
 21
73.2248396331
  0
LINE
  5
2DB
100
AcDbEntity
  8
00_COMPONENTS_1
100
AcDbLine
 62
7
  6
CONTINUOUS
 10
54.0515190207
 20
87.7310499555
 11
53.2579175884
 21
85.7428025687
  0
LINE
  5
2DC
100
AcDbEntity
  8
00_COMPONENTS_1
100
AcDbLine
 62
7
  6
CONTINUOUS
 10
39.3327523991
 20
49.6072385753
 11
38.7924455335
 21
49.2294750366
  0
LINE
  5
2DD
100
AcDbEntity
  8
00_COMPONENTS_1
100
AcDbLine
 62
7
  6
CONTINUOUS
 10
41.3631987677
 20
48.4397545954
 11
43.7582655426
 21
48.3561170206
  0
LINE
  5
2DE
100
AcDbEntity
  8
00_COMPONENTS_1
100
AcDbLine
 62
7
  6
CONTINUOUS
 10
43.7985949438
 20
48.435441252
 11
41.3793280281
 21
48.5199239143
  0
LINE
  5
2DF
100
AcDbEntity
  8
00_COMPONENTS_1
100
AcDbLine
 62
7
  6
CONTINUOUS
 10
57.1314430156
 20
28.4181587284
 11
56.6791100704
 21
28.8704916736
  0
LINE
  5
2E0
100
AcDbEntity
  8
00_COMPONENTS_1
100
AcDbLine
 62
7
  6
CONTINUOUS
 10
40.002185588
 20
62.7248396331
 11
40.002185588
 21
62.4248396331
  0
LINE
  5
2E1
100
AcDbEntity
  8
00_COMPONENTS_1
100
AcDbLine
 62
7
  6
CONTINUOUS
 10
40.502185588
 20
47.2615143101
 11
40.502185588
 21
45.2790482852
  0
LINE
  5
2E2
100
AcDbEntity
  8
00_COMPONENTS_1
100
AcDbLine
 62
7
  6
CONTINUOUS
 10
40.5894609126
 20
46.1044907545
 11
40.5894609126
 21
46.3567531203
  0
LINE
  5
2E3
100
AcDbEntity
  8
00_COMPONENTS_1
100
AcDbLine
 62
7
  6
CONTINUOUS
 10
11.6210174483
 20
19.0436714935
 11
11.5180968485
 21
18.9407508937
  0
LINE
  5
2E4
100
AcDbEntity
  8
00_COMPONENTS_1
100
AcDbLine
 62
7
  6
CONTINUOUS
 10
15.252185588
 20
20.2248396331
 11
16.252185588
 21
21.2248396331
  0
LINE
  5
2E5
100
AcDbEntity
  8
00_COMPONENTS_1
100
AcDbLine
 62
7
  6
CONTINUOUS
 10
14.5368889839
 20
19.0436714935
 11
14.4216626774
 21
18.9284451869
  0
LINE
  5
2E6
100
AcDbEntity
  8
00_COMPONENTS_1
100
AcDbLine
 62
7
  6
CONTINUOUS
 10
16.1066113447
 20
74.1204138764
 11
16.0073307176
 21
74.2196945035
  0
LINE
  5
2E7
100
AcDbEntity
  8
00_COMPONENTS_1
100
AcDbLine
 62
7
  6
CONTINUOUS
 10
43.7478020715
 20
44.1055230181
 11
43.7881314727
 21
44.0248396331
  0
LINE
  5
2E8
100
AcDbEntity
  8
00_COMPONENTS_1
100
AcDbLine
 62
7
  6
CONTINUOUS
 10
43.7478020715
 20
44.1055230181
 11
43.7478020715
 21
48.0564824131
  0
LINE
  5
2E9
100
AcDbEntity
  8
00_COMPONENTS_1
100
AcDbLine
 62
7
  6
CONTINUOUS
 10
44.0477563801
 20
48.0564824131
 11
44.0477563801
 21
44.4053402663
  0
LINE
  5
2EA
100
AcDbEntity
  8
00_COMPONENTS_1
100
AcDbLine
 62
7
  6
CONTINUOUS
 10
44.0879944193
 20
41.4359114641
 11
44.0879944193
 21
44.324839661
  0
LINE
  5
2EB
100
AcDbEntity
  8
00_COMPONENTS_1
100
AcDbLine
 62
7
  6
CONTINUOUS
 10
44.0879944193
 20
48.1356269438
 11
44.0879944193
 21
51.0137678021
  0
LINE
  5
2EC
100
AcDbEntity
  8
00_COMPONENTS_1
100
AcDbLine
 62
7
  6
CONTINUOUS
 10
44.402185588
 20
41.4300507952
 11
44.402185588
 21
51.019628471
  0
LINE
  5
2ED
100
AcDbEntity
  8
00_COMPONENTS_1
100
AcDbLine
 62
7
  6
CONTINUOUS
 10
43.7478020715
 20
48.0564824131
 11
43.7582655426
 21
48.3561170206
  0
LINE
  5
2EE
100
AcDbEntity
  8
00_COMPONENTS_1
100
AcDbLine
 62
7
  6
CONTINUOUS
 10
43.7985949438
 20
48.435441252
 11
43.7582655426
 21
48.3561170206
  0
LINE
  5
2EF
100
AcDbEntity
  8
00_COMPONENTS_1
100
AcDbLine
 62
7
  6
CONTINUOUS
 10
44.0477563801
 20
48.0564824131
 11
44.0879944193
 21
48.1356269438
  0
LINE
  5
2F0
100
AcDbEntity
  8
00_COMPONENTS_1
100
AcDbLine
 62
7
  6
CONTINUOUS
 10
44.0879944193
 20
44.324839661
 11
44.0477563801
 21
44.4053402663
  0
LINE
  5
2F1
100
AcDbEntity
  8
00_COMPONENTS_1
100
AcDbLine
 62
7
  6
CONTINUOUS
 10
54.5311857235
 20
23.1028509547
 11
54.2219002395
 21
23.8777185776
  0
LINE
  5
2F2
100
AcDbEntity
  8
00_COMPONENTS_1
100
AcDbLine
 62
7
  6
CONTINUOUS
 10
15.0545620089
 20
12.9905843104
 11
15.3913107932
 21
13.3273372424
  0
LINE
  5
2F3
100
AcDbEntity
  8
00_COMPONENTS_1
100
AcDbLine
 62
7
  6
CONTINUOUS
 10
12.9540705012
 20
84.4741730659
 11
13.7434255666
 21
83.6848180004
  0
LINE
  5
2F4
100
AcDbEntity
  8
00_COMPONENTS_1
100
AcDbLine
 62
7
  6
CONTINUOUS
 10
36.1809754847
 20
62.544147085
 11
36.002185588
 21
62.7229369822
  0
LINE
  5
2F5
100
AcDbEntity
  8
00_COMPONENTS_1
100
AcDbLine
 62
7
  6
CONTINUOUS
 10
13.8703041197
 20
83.6351433823
 11
14.099516667
 21
83.4049606969
  0
LINE
  5
2F6
100
AcDbEntity
  8
00_COMPONENTS_1
100
AcDbLine
 62
7
  6
CONTINUOUS
 10
48.002185588
 20
21.2248396331
 11
48.002185588
 21
27.7248396331
  0
LINE
  5
2F7
100
AcDbEntity
  8
00_COMPONENTS_1
100
AcDbLine
 62
7
  6
CONTINUOUS
 10
49.0034046766
 20
13.7248396331
 11
49.0034046766
 21
13.4248396537
  0
LINE
  5
2F8
100
AcDbEntity
  8
00_COMPONENTS_1
100
AcDbLine
 62
7
  6
CONTINUOUS
 10
49.0034046766
 20
21.2248396331
 11
49.0034046766
 21
21.4248396331
  0
LINE
  5
2F9
100
AcDbEntity
  8
00_COMPONENTS_1
100
AcDbLine
 62
7
  6
CONTINUOUS
 10
49.2815688932
 20
8.6872195144
 11
49.2815688932
 21
10.1872195144
  0
LINE
  5
2FA
100
AcDbEntity
  8
00_COMPONENTS_1
100
AcDbLine
 62
7
  6
CONTINUOUS
 10
49.502185588
 20
21.9813087681
 11
49.502185588
 21
26.9285553913
  0
LINE
  5
2FB
100
AcDbEntity
  8
00_COMPONENTS_1
100
AcDbLine
 62
7
  6
CONTINUOUS
 10
19.9611523322
 20
13.3273372424
 11
19.6049209443
 21
12.9711058545
  0
LINE
  5
2FC
100
AcDbEntity
  8
00_COMPONENTS_1
100
AcDbLine
 62
7
  6
CONTINUOUS
 10
19.7228022827
 20
10.1872195144
 11
20.1356585307
 21
10.6000757624
  0
LINE
  5
2FD
100
AcDbEntity
  8
00_COMPONENTS_1
100
AcDbLine
 62
7
  6
CONTINUOUS
 10
39.802185588
 20
62.2248396331
 11
15.002185588
 21
62.2248396331
  0
LINE
  5
2FE
100
AcDbEntity
  8
00_COMPONENTS_1
100
AcDbLine
 62
7
  6
CONTINUOUS
 10
32.502185588
 20
62.5441470854
 11
32.8233956912
 21
62.5441470854
  0
LINE
  5
2FF
100
AcDbEntity
  8
00_COMPONENTS_1
100
AcDbLine
 62
7
  6
CONTINUOUS
 10
36.1809754847
 20
62.5441470854
 11
36.502185588
 21
62.5441470854
  0
LINE
  5
300
100
AcDbEntity
  8
00_COMPONENTS_1
100
AcDbLine
 62
7
  6
CONTINUOUS
 10
33.752185588
 20
62.7248396331
 11
40.002185588
 21
62.7248396331
  0
LINE
  5
301
100
AcDbEntity
  8
00_COMPONENTS_1
100
AcDbLine
 62
7
  6
CONTINUOUS
 10
15.7879567214
 20
85.6378501536
 11
14.9528521552
 21
86.4729547199
  0
LINE
  5
302
100
AcDbEntity
  8
00_COMPONENTS_1
100
AcDbLine
 62
7
  6
CONTINUOUS
 10
16.0919060631
 20
85.3973500931
 11
15.7464535876
 21
85.7428025687
  0
LWPOLYLINE
  5
303
100
AcDbEntity
  8
00_COMPONENTS_1
100
AcDbPolyline
 62
7
  6
CONTINUOUS
 90
3
 70
0
 10
54.3347557723
 20
27.7248396331
 10
54.3396655478
 20
27.6962784775
 10
54.4488185244
 20
25.857930629
  0
LINE
  5
304
100
AcDbEntity
  8
00_COMPONENTS_1
100
AcDbLine
 62
7
  6
CONTINUOUS
 10
51.6409621605
 20
75.7851372905
 11
51.6592811723
 21
75.4031521733
  0
LINE
  5
305
100
AcDbEntity
  8
00_COMPONENTS_1
100
AcDbLine
 62
7
  6
CONTINUOUS
 10
54.4488185244
 20
25.857930629
 11
54.5311857235
 21
23.1028509547
  0
LINE
  5
306
100
AcDbEntity
  8
00_COMPONENTS_1
100
AcDbLine
 62
7
  6
CONTINUOUS
 10
51.207376409
 20
73.2248396331
 11
51.207376409
 21
75.7851372905
  0
LINE
  5
307
100
AcDbEntity
  8
00_COMPONENTS_1
100
AcDbLine
 62
7
  6
CONTINUOUS
 10
51.5073307176
 20
75.7851372905
 11
51.5073307176
 21
73.2248396331
  0
LINE
  5
308
100
AcDbEntity
  8
00_COMPONENTS_1
100
AcDbLine
 62
7
  6
CONTINUOUS
 10
51.6592811723
 20
73.2675069751
 11
51.6592811723
 21
75.4031521733
  0
LINE
  5
309
100
AcDbEntity
  8
00_COMPONENTS_1
100
AcDbLine
 62
7
  6
CONTINUOUS
 10
51.8673298069
 20
75.7851372905
 11
51.8673298069
 21
77.9134928354
  0
LINE
  5
30A
100
AcDbEntity
  8
00_COMPONENTS_1
100
AcDbLine
 62
7
  6
CONTINUOUS
 10
52.8450900036
 20
73.2675069751
 11
52.8450900036
 21
75.4031521733
  0
LINE
  5
30B
100
AcDbEntity
  8
00_COMPONENTS_1
100
AcDbLine
 62
7
  6
CONTINUOUS
 10
52.8977598313
 20
73.2248396331
 11
52.8977598313
 21
74.1204138764
  0
LINE
  5
30C
100
AcDbEntity
  8
00_COMPONENTS_1
100
AcDbLine
 62
7
  6
CONTINUOUS
 10
52.9124651128
 20
80.8252547095
 11
52.9124651128
 21
85.3973500931
  0
LINE
  5
30D
100
AcDbEntity
  8
00_COMPONENTS_1
100
AcDbLine
 62
7
  6
CONTINUOUS
 10
52.9970404584
 20
74.2196945035
 11
52.9970404584
 21
75.6867854476
  0
LINE
  5
30E
100
AcDbEntity
  8
00_COMPONENTS_1
100
AcDbLine
 62
7
  6
CONTINUOUS
 10
53.2969947669
 20
75.5869924662
 11
53.2969947669
 21
74.2248396331
  0
LINE
  5
30F
100
AcDbEntity
  8
00_COMPONENTS_1
100
AcDbLine
 62
7
  6
CONTINUOUS
 10
53.752185588
 20
20.2248396331
 11
53.752185588
 21
14.7248396331
  0
LINE
  5
310
100
AcDbEntity
  8
00_COMPONENTS_1
100
AcDbLine
 62
7
  6
CONTINUOUS
 10
53.8976075264
 20
74.1375643085
 11
53.8976075264
 21
73.2248396331
  0
LINE
  5
311
100
AcDbEntity
  8
00_COMPONENTS_1
100
AcDbLine
 62
7
  6
CONTINUOUS
 10
54.0515190207
 20
86.4730509405
 11
54.0515190207
 21
87.7310499555
  0
LINE
  5
312
100
AcDbEntity
  8
00_COMPONENTS_1
100
AcDbLine
 62
7
  6
CONTINUOUS
 10
54.072027127
 20
27.7248396331
 11
54.072027127
 21
21.9813087681
  0
LINE
  5
313
100
AcDbEntity
  8
00_COMPONENTS_1
100
AcDbLine
 62
7
  6
CONTINUOUS
 10
54.202185588
 20
27.7248396331
 11
54.202185588
 21
21.4248396331
  0
LINE
  5
314
100
AcDbEntity
  8
00_COMPONENTS_1
100
AcDbLine
 62
7
  6
CONTINUOUS
 10
54.202185588
 20
6.4252965001
 11
54.202185588
 21
13.425116065
  0
LINE
  5
315
100
AcDbEntity
  8
00_COMPONENTS_1
100
AcDbLine
 62
7
  6
CONTINUOUS
 10
52.8592767732
 20
75.6989724338
 11
52.8450900036
 21
75.4031521733
  0
LINE
  5
316
100
AcDbEntity
  8
00_COMPONENTS_1
100
AcDbLine
 62
7
  6
CONTINUOUS
 10
19.9997481534
 20
21.4242305955
 11
20.0009664994
 21
21.4248396376
  0
LINE
  5
317
100
AcDbEntity
  8
00_COMPONENTS_1
100
AcDbLine
 62
7
  6
CONTINUOUS
 10
16.0366566887
 20
64.6662006382
 11
32.3272082609
 21
64.6662006381
  0
LINE
  5
318
100
AcDbEntity
  8
00_COMPONENTS_1
100
AcDbLine
 62
7
  6
CONTINUOUS
 10
32.502185588
 20
65.3941411067
 11
16.1064982482
 21
65.3941411067
  0
LINE
  5
319
100
AcDbEntity
  8
00_COMPONENTS_1
100
AcDbLine
 62
7
  6
CONTINUOUS
 10
57.107321376
 20
65.3963980787
 11
56.002185588
 21
65.3963980787
  0
LINE
  5
31A
100
AcDbEntity
  8
00_COMPONENTS_1
100
AcDbLine
 62
7
  6
CONTINUOUS
 10
14.5361186997
 20
65.3963980787
 11
11.8970497999
 21
65.3963980787
  0
LINE
  5
31B
100
AcDbEntity
  8
00_COMPONENTS_1
100
AcDbLine
 62
7
  6
CONTINUOUS
 10
32.8233956912
 20
75.4055321809
 11
33.002185588
 21
75.2267422841
  0
LINE
  5
31C
100
AcDbEntity
  8
00_COMPONENTS_1
100
AcDbLine
 62
7
  6
CONTINUOUS
 10
33.500282937
 20
75.7248396331
 11
33.4399852806
 21
75.7851372905
  0
LINE
  5
31D
100
AcDbEntity
  8
00_COMPONENTS_1
100
AcDbLine
 62
7
  6
CONTINUOUS
 10
54.527197008
 20
73.2248396331
 11
54.3658068744
 21
74.9069676498
  0
LINE
  5
31E
100
AcDbEntity
  8
00_COMPONENTS_1
100
AcDbLine
 62
7
  6
CONTINUOUS
 10
54.731400007
 20
73.2248396331
 11
54.3658068744
 21
77.0353231947
  0
LINE
  5
31F
100
AcDbEntity
  8
00_COMPONENTS_1
100
AcDbLine
 62
7
  6
CONTINUOUS
 10
57.5109157803
 20
30.3805020658
 11
57.5894875117
 21
29.0814639602
  0
LINE
  5
320
100
AcDbEntity
  8
00_COMPONENTS_1
100
AcDbLine
 62
7
  6
CONTINUOUS
 10
54.3658068744
 20
77.0353231947
 11
54.3658068744
 21
74.9069676498
  0
LINE
  5
321
100
AcDbEntity
  8
00_COMPONENTS_1
100
AcDbLine
 62
7
  6
CONTINUOUS
 10
54.904854509
 20
83.4049606969
 11
54.904854509
 21
80.1607584332
  0
LINE
  5
322
100
AcDbEntity
  8
00_COMPONENTS_1
100
AcDbLine
 62
7
  6
CONTINUOUS
 10
56.002185588
 20
73.2248396331
 11
56.002185588
 21
27.7248396331
  0
LINE
  5
323
100
AcDbEntity
  8
00_COMPONENTS_1
100
AcDbLine
 62
7
  6
CONTINUOUS
 10
56.6791100704
 20
30.9269849339
 11
56.6791100704
 21
28.8704916736
  0
LINE
  5
324
100
AcDbEntity
  8
00_COMPONENTS_1
100
AcDbLine
 62
7
  6
CONTINUOUS
 10
57.107321376
 20
30.9269849339
 11
57.107321376
 21
65.4006142178
  0
LINE
  5
325
100
AcDbEntity
  8
00_COMPONENTS_1
100
AcDbLine
 62
7
  6
CONTINUOUS
 10
57.256052104
 20
30.986350242
 11
57.253138185
 21
84.8796490158
  0
LINE
  5
326
100
AcDbEntity
  8
00_COMPONENTS_1
100
AcDbLine
 62
7
  6
CONTINUOUS
 10
57.2414730298
 20
84.8754346881
 11
57.2385543713
 21
84.4741730659
  0
LINE
  5
327
100
AcDbEntity
  8
00_COMPONENTS_1
100
AcDbLine
 62
7
  6
CONTINUOUS
 10
59.0894875117
 20
29.0814639602
 11
59.0109157804
 21
30.3805020658
  0
LINE
  5
328
100
AcDbEntity
  8
00_COMPONENTS_1
100
AcDbLine
 62
7
  6
CONTINUOUS
 10
57.4862742425
 20
21.4003690218
 11
57.4862743274
 21
19.9401417207
  0
LINE
  5
329
100
AcDbEntity
  8
00_COMPONENTS_1
100
AcDbLine
 62
7
  6
CONTINUOUS
 10
57.502185588
 20
30.9269849339
 11
57.502185588
 21
30.8135147677
  0
LINE
  5
32A
100
AcDbEntity
  8
00_COMPONENTS_1
100
AcDbLine
 62
7
  6
CONTINUOUS
 10
57.6244082812
 20
22.9905284079
 11
57.6244082812
 21
27.3494131526
  0
LINE
  5
32B
100
AcDbEntity
  8
00_COMPONENTS_1
100
AcDbLine
 62
7
  6
CONTINUOUS
 10
58.8863605107
 20
17.4248396331
 11
58.8863605107
 21
21.288621356
  0
LINE
  5
32C
100
AcDbEntity
  8
00_COMPONENTS_1
100
AcDbLine
 62
7
  6
CONTINUOUS
 10
59.002185588
 20
30.8135147677
 11
59.002185588
 21
30.9269849339
  0
LINE
  5
32D
100
AcDbEntity
  8
00_COMPONENTS_1
100
AcDbLine
 62
7
  6
CONTINUOUS
 10
59.0615508961
 20
85.9862829083
 11
59.0615508961
 21
30.986350242
  0
LINE
  5
32E
100
AcDbEntity
  8
00_COMPONENTS_1
100
AcDbLine
 62
7
  6
CONTINUOUS
 10
59.1244082812
 20
27.3494131526
 11
59.1244082812
 21
22.9905284079
  0
LINE
  5
32F
100
AcDbEntity
  8
00_COMPONENTS_1
100
AcDbLine
 62
7
  6
CONTINUOUS
 10
58.8863180254
 20
21.2886162756
 11
58.8880745994
 21
21.3302822231
  0
LINE
  5
330
100
AcDbEntity
  8
00_COMPONENTS_1
100
AcDbLine
 62
7
  6
CONTINUOUS
 10
53.9497320682
 20
12.9899581121
 11
53.9498092666
 21
12.9905843102
  0
LINE
  5
331
100
AcDbEntity
  8
00_COMPONENTS_1
100
AcDbLine
 62
7
  6
CONTINUOUS
 10
49.0365144007
 20
26.418604195
 11
49.502185588
 21
26.9285553913
  0
LINE
  5
332
100
AcDbEntity
  8
00_COMPONENTS_1
100
AcDbLine
 62
7
  6
CONTINUOUS
 10
57.256052104
 20
30.986350242
 11
57.107321376
 21
30.9269849339
  0
LINE
  5
333
100
AcDbEntity
  8
00_COMPONENTS_1
100
AcDbLine
 62
7
  6
CONTINUOUS
 10
16.1454071071
 20
72.2887718631
 11
17.358964309
 21
72.2887718631
  0
LINE
  5
334
100
AcDbEntity
  8
00_COMPONENTS_1
100
AcDbLine
 62
7
  6
CONTINUOUS
 10
16.0073307176
 20
72.4300304542
 11
14.4009169756
 21
72.4300304536
  0
LINE
  5
335
100
AcDbEntity
  8
00_COMPONENTS_1
100
AcDbLine
 62
7
  6
CONTINUOUS
 10
14.4296957996
 20
72.7299847627
 11
15.707376409
 21
72.7299847627
  0
LINE
  5
336
100
AcDbEntity
  8
00_COMPONENTS_1
100
AcDbLine
 62
7
  6
CONTINUOUS
 10
15.1067636495
 20
72.8121149578
 11
14.4375757011
 21
72.8121149578
  0
LINE
  5
337
100
AcDbEntity
  8
00_COMPONENTS_1
100
AcDbLine
 62
7
  6
CONTINUOUS
 10
12.3575760262
 20
72.913939045
 11
14.2431421149
 21
72.913939045
  0
LINE
  5
338
100
AcDbEntity
  8
00_COMPONENTS_1
100
AcDbLine
 62
7
  6
CONTINUOUS
 10
56.002185588
 20
72.913939045
 11
56.6467951497
 21
72.913939045
  0
LINE
  5
339
100
AcDbEntity
  8
00_COMPONENTS_1
100
AcDbLine
 62
7
  6
CONTINUOUS
 10
56.002185588
 20
73.2248396331
 11
33.752185588
 21
73.2248396331
  0
LINE
  5
33A
100
AcDbEntity
  8
00_COMPONENTS_1
100
AcDbLine
 62
7
  6
CONTINUOUS
 10
16.1592811723
 20
73.2675069751
 11
17.3450900036
 21
73.2675069751
  0
LINE
  5
33B
100
AcDbEntity
  8
00_COMPONENTS_1
100
AcDbLine
 62
7
  6
CONTINUOUS
 10
51.6592811723
 20
73.2675069751
 11
52.8450900036
 21
73.2675069751
  0
LINE
  5
33C
100
AcDbEntity
  8
00_COMPONENTS_1
100
AcDbLine
 62
7
  6
CONTINUOUS
 10
13.7434255666
 20
83.6848180004
 11
11.7658168046
 21
84.4741730659
  0
LINE
  5
33D
100
AcDbEntity
  8
00_COMPONENTS_1
100
AcDbLine
 62
7
  6
CONTINUOUS
 10
49.502185588
 20
21.9813087681
 11
49.0433263826
 21
21.5224495628
  0
LINE
  5
33E
100
AcDbEntity
  8
00_COMPONENTS_1
100
AcDbLine
 62
7
  6
CONTINUOUS
 10
59.0615508961
 20
30.986350242
 11
59.002185588
 21
30.9269849339
  0
LINE
  5
33F
100
AcDbEntity
  8
00_COMPONENTS_1
100
AcDbLine
 62
7
  6
CONTINUOUS
 10
14.5647446476
 20
74.1375643085
 11
15.1067636495
 21
74.1375643085
  0
LINE
  5
340
100
AcDbEntity
  8
00_COMPONENTS_1
100
AcDbLine
 62
7
  6
CONTINUOUS
 10
53.8976075264
 20
74.1375643085
 11
54.4396265283
 21
74.1375643085
  0
LINE
  5
341
100
AcDbEntity
  8
00_COMPONENTS_1
100
AcDbLine
 62
7
  6
CONTINUOUS
 10
54.4312529824
 20
74.2248396331
 11
53.2969947669
 21
74.2248396331
  0
LINE
  5
342
100
AcDbEntity
  8
00_COMPONENTS_1
100
AcDbLine
 62
7
  6
CONTINUOUS
 10
14.5731181936
 20
74.2248396331
 11
15.707376409
 21
74.2248396331
  0
LINE
  5
343
100
AcDbEntity
  8
00_COMPONENTS_1
100
AcDbLine
 62
7
  6
CONTINUOUS
 10
17.3450900036
 20
75.4031521733
 11
16.1592811723
 21
75.4031521733
  0
LINE
  5
344
100
AcDbEntity
  8
00_COMPONENTS_1
100
AcDbLine
 62
7
  6
CONTINUOUS
 10
51.6592811723
 20
75.4031521733
 11
52.8450900036
 21
75.4031521733
  0
LINE
  5
345
100
AcDbEntity
  8
00_COMPONENTS_1
100
AcDbLine
 62
7
  6
CONTINUOUS
 10
36.6790729761
 20
75.4055321809
 11
36.1809754847
 21
75.4055321809
  0
LINE
  5
346
100
AcDbEntity
  8
00_COMPONENTS_1
100
AcDbLine
 62
7
  6
CONTINUOUS
 10
32.8233956912
 20
75.4055321809
 11
32.3252983396
 21
75.4055321809
  0
LINE
  5
347
100
AcDbEntity
  8
00_COMPONENTS_1
100
AcDbLine
 62
7
  6
CONTINUOUS
 10
33.500282937
 20
75.7248396331
 11
35.5040882389
 21
75.7248396331
  0
LINE
  5
348
100
AcDbEntity
  8
00_COMPONENTS_1
100
AcDbLine
 62
7
  6
CONTINUOUS
 10
51.8673298069
 20
75.7851372905
 11
17.1370413691
 21
75.7851372905
  0
LINE
  5
349
100
AcDbEntity
  8
00_COMPONENTS_1
100
AcDbLine
 62
7
  6
CONTINUOUS
 10
56.6464065983
 20
72.9155554961
 11
54.904854509
 21
80.1607584332
  0
LINE
  5
34A
100
AcDbEntity
  8
00_COMPONENTS_1
100
AcDbLine
 62
7
  6
CONTINUOUS
 10
48.002185588
 20
13.7248396331
 11
46.002185588
 21
11.2248396331
  0
LINE
  5
34B
100
AcDbEntity
  8
00_COMPONENTS_1
100
AcDbLine
 62
7
  6
CONTINUOUS
 10
53.6131675834
 20
21.5224492246
 11
54.0720271269
 21
21.9813087681
  0
LINE
  5
34C
100
AcDbEntity
  8
00_COMPONENTS_1
100
AcDbLine
 62
7
  6
CONTINUOUS
 10
17.1370413691
 20
77.9134928354
 11
51.8673298069
 21
77.9134928354
  0
LINE
  5
34D
100
AcDbEntity
  8
00_COMPONENTS_1
100
AcDbLine
 62
7
  6
CONTINUOUS
 10
57.590706229
 20
21.9911375809
 11
57.5063360368
 21
21.9067676536
  0
LINE
  5
34E
100
AcDbEntity
  8
00_COMPONENTS_1
100
AcDbLine
 62
7
  6
CONTINUOUS
 10
58.9512402579
 20
21.8516714554
 11
59.090706229
 21
21.9911375809
  0
LINE
  5
34F
100
AcDbEntity
  8
00_COMPONENTS_1
100
AcDbLine
 62
7
  6
CONTINUOUS
 10
52.9124651128
 20
80.8252547095
 11
16.0919060631
 21
80.8252547095
  0
LINE
  5
350
100
AcDbEntity
  8
00_COMPONENTS_1
100
AcDbLine
 62
7
  6
CONTINUOUS
 10
54.904854509
 20
83.4049606969
 11
14.099516667
 21
83.4049606969
  0
LINE
  5
351
100
AcDbEntity
  8
00_COMPONENTS_1
100
AcDbLine
 62
7
  6
CONTINUOUS
 10
53.752185588
 20
14.7248396331
 11
52.752185588
 21
13.7248396331
  0
LINE
  5
352
100
AcDbEntity
  8
00_COMPONENTS_1
100
AcDbLine
 62
7
  6
CONTINUOUS
 10
49.0034046869
 20
13.4248396331
 11
49.0046240294
 21
13.4254492709
  0
LINE
  5
353
100
AcDbEntity
  8
00_COMPONENTS_1
100
AcDbLine
 62
7
  6
CONTINUOUS
 10
57.2385543713
 20
84.4741730659
 11
56.0503968956
 21
84.4741730659
  0
LINE
  5
354
100
AcDbEntity
  8
00_COMPONENTS_1
100
AcDbLine
 62
7
  6
CONTINUOUS
 10
11.7658168046
 20
84.4741730659
 11
12.9540705012
 21
84.4741730659
  0
LINE
  5
355
100
AcDbEntity
  8
00_COMPONENTS_1
100
AcDbLine
 62
7
  6
CONTINUOUS
 10
16.0919060631
 20
85.3973500931
 11
52.9124651128
 21
85.3973500931
  0
LINE
  5
356
100
AcDbEntity
  8
00_COMPONENTS_1
100
AcDbLine
 62
7
  6
CONTINUOUS
 10
54.0515190207
 20
87.7310499555
 11
54.5054097789
 21
87.7339687953
  0
LINE
  5
357
100
AcDbEntity
  8
00_COMPONENTS_1
100
AcDbLine
 62
7
  6
CONTINUOUS
 10
54.5100258325
 20
87.7456339504
 11
14.4943453435
 21
87.7456339504
  0
LINE
  5
358
100
AcDbEntity
  8
00_COMPONENTS_1
100
AcDbLine
 62
7
  6
CONTINUOUS
 10
55.5636830015
 20
89.4842049413
 11
13.4406881744
 21
89.4842049413
  0
LINE
  5
359
100
AcDbEntity
  8
00_COMPONENTS_1
100
AcDbLine
 62
7
  6
CONTINUOUS
 10
14.498961397
 20
87.7339687953
 11
14.9528521552
 21
87.7310499555
  0
ARC
  5
35A
100
AcDbEntity
  8
00_COMPONENTS_1
100
AcDbCircle
 62
7
  6
CONTINUOUS
 10
-116.7652367114
 20
15.6871929623
 40
137.0219007201
100
AcDbArc
 50
358.1322621558
 51
359.1666452146
  0
ARC
  5
35B
100
AcDbEntity
  8
00_COMPONENTS_1
100
AcDbCircle
 62
7
  6
CONTINUOUS
 10
3.0605378533
 20
-41.6419797384
 40
95.1985569558
100
AcDbArc
 50
76.7275587878
 51
76.9034332667
  0
CIRCLE
  5
35C
100
AcDbEntity
  8
00_COMPONENTS_1
100
AcDbCircle
 62
7
  6
CONTINUOUS
 10
34.502185588
 20
17.4748396331
 40
2.25
  0
CIRCLE
  5
35D
100
AcDbEntity
  8
00_COMPONENTS_1
100
AcDbCircle
 62
7
  6
CONTINUOUS
 10
34.502185588
 20
17.4248396331
 40
1.8739527982
  0
ARC
  5
35E
100
AcDbEntity
  8
00_COMPONENTS_1
100
AcDbCircle
 62
7
  6
CONTINUOUS
 10
34.5020180925
 20
17.4250879204
 40
1.8314721463
100
AcDbArc
 50
5.9087520881
 51
174.0940778025
  0
ARC
  5
35F
100
AcDbEntity
  8
00_COMPONENTS_1
100
AcDbCircle
 62
7
  6
CONTINUOUS
 10
34.502353016
 20
17.4245910887
 40
1.831471963
100
AcDbArc
 50
185.9087776483
 51
354.0941005865
  0
CIRCLE
  5
360
100
AcDbEntity
  8
00_COMPONENTS_1
100
AcDbCircle
 62
7
  6
CONTINUOUS
 10
49.502185588
 20
34.2248396331
 40
1.65
  0
CIRCLE
  5
361
100
AcDbEntity
  8
00_COMPONENTS_1
100
AcDbCircle
 62
7
  6
CONTINUOUS
 10
19.502185588
 20
34.2248396331
 40
1.65
  0
CIRCLE
  5
362
100
AcDbEntity
  8
00_COMPONENTS_1
100
AcDbCircle
 62
7
  6
CONTINUOUS
 10
49.502185588
 20
34.2248396331
 40
1.5
  0
CIRCLE
  5
363
100
AcDbEntity
  8
00_COMPONENTS_1
100
AcDbCircle
 62
7
  6
CONTINUOUS
 10
19.502185588
 20
34.2248396331
 40
1.5
  0
CIRCLE
  5
364
100
AcDbEntity
  8
00_COMPONENTS_1
100
AcDbCircle
 62
7
  6
CONTINUOUS
 10
49.502185588
 20
34.2248396331
 40
1.351269272
  0
CIRCLE
  5
365
100
AcDbEntity
  8
00_COMPONENTS_1
100
AcDbCircle
 62
7
  6
CONTINUOUS
 10
19.502185588
 20
34.2248396331
 40
1.351269272
  0
ARC
  5
366
100
AcDbEntity
  8
00_COMPONENTS_1
100
AcDbCircle
 62
7
  6
CONTINUOUS
 10
43.7476560066
 20
44.4056329986
 40
0.3001062949
100
AcDbArc
 50
270.0278861124
 51
359.9441109602
  0
ARC
  5
367
100
AcDbEntity
  8
00_COMPONENTS_1
100
AcDbCircle
 62
7
  6
CONTINUOUS
 10
-0.8569112542
 20
79.1163668281
 40
17.8768390576
100
AcDbArc
 50
21.3953176954
 51
21.757039974
  0
ARC
  5
368
100
AcDbEntity
  8
00_COMPONENTS_1
100
AcDbCircle
 62
7
  6
CONTINUOUS
 10
11.6751494883
 20
84.020876841
 40
4.4192438268
100
AcDbArc
 50
17.9700855881
 51
21.4625866262
  0
ARC
  5
369
100
AcDbEntity
  8
00_COMPONENTS_1
100
AcDbCircle
 62
7
  6
CONTINUOUS
 10
13.4399753609
 20
85.9870498602
 40
3.4971511401
100
AcDbArc
 50
89.9874346104
 51
180.0125653896
  0
ARC
  5
36A
100
AcDbEntity
  8
00_COMPONENTS_1
100
AcDbCircle
 62
7
  6
CONTINUOUS
 10
12.9283809469
 20
86.4986442742
 40
2.0
100
AcDbArc
 50
38.5305836512
 51
233.9796439808
  0
ARC
  5
36B
100
AcDbEntity
  8
00_COMPONENTS_1
100
AcDbCircle
 62
7
  6
CONTINUOUS
 10
12.9544935612
 20
86.4725316599
 40
1.9983453211
100
AcDbArc
 50
269.9851167157
 51
0.0148834934
  0
ARC
  5
36C
100
AcDbEntity
  8
00_COMPONENTS_1
100
AcDbCircle
 62
7
  6
CONTINUOUS
 10
16.1071925344
 20
83.4008587347
 40
1.9965498791
100
AcDbArc
 50
90.4386861815
 51
96.5682876658
  0
ARC
  5
36D
100
AcDbEntity
  8
00_COMPONENTS_1
100
AcDbCircle
 62
7
  6
CONTINUOUS
 10
16.0942651798
 20
83.389770999
 40
1.9948063456
100
AcDbArc
 50
175.2669199809
 51
179.5637100321
  0
ARC
  5
36E
100
AcDbEntity
  8
00_COMPONENTS_1
100
AcDbCircle
 62
7
  6
CONTINUOUS
 10
15.7072667225
 20
72.4299207676
 40
0.3000646363
100
AcDbArc
 50
0.0209441261
 51
89.9790558743
  0
ARC
  5
36F
100
AcDbEntity
  8
00_COMPONENTS_1
100
AcDbCircle
 62
7
  6
CONTINUOUS
 10
3.0605378528
 20
134.0916590054
 40
95.1985569566
100
AcDbArc
 50
283.0965667335
 51
283.2724412124
  0
CIRCLE
  5
370
100
AcDbEntity
  8
00_COMPONENTS_1
100
AcDbCircle
 62
7
  6
CONTINUOUS
 10
34.502185588
 20
46.2248396331
 40
14.5
  0
ARC
  5
371
100
AcDbEntity
  8
00_COMPONENTS_1
100
AcDbCircle
 62
7
  6
CONTINUOUS
 10
34.502185588
 20
46.2248396331
 40
11.0
100
AcDbArc
 50
205.8419327632
 51
334.1580672368
  0
ARC
  5
372
100
AcDbEntity
  8
00_COMPONENTS_1
100
AcDbCircle
 62
7
  6
CONTINUOUS
 10
34.502185588
 20
46.2248396331
 40
11.0
100
AcDbArc
 50
25.8419327632
 51
154.1580672368
  0
ARC
  5
373
100
AcDbEntity
  8
00_COMPONENTS_1
100
AcDbCircle
 62
7
  6
CONTINUOUS
 10
34.502185588
 20
46.2248396331
 40
10.7154824417
100
AcDbArc
 50
26.5460347369
 51
153.4539652631
  0
ARC
  5
374
100
AcDbEntity
  8
00_COMPONENTS_1
100
AcDbCircle
 62
7
  6
CONTINUOUS
 10
34.502185588
 20
46.2248396331
 40
10.7154824417
100
AcDbArc
 50
206.5460347369
 51
333.4539652631
  0
ARC
  5
375
100
AcDbEntity
  8
00_COMPONENTS_1
100
AcDbCircle
 62
7
  6
CONTINUOUS
 10
34.502185588
 20
46.2248396331
 40
7.25
100
AcDbArc
 50
18.4552175789
 51
342.3351672
  0
ARC
  5
376
100
AcDbEntity
  8
00_COMPONENTS_1
100
AcDbCircle
 62
7
  6
CONTINUOUS
 10
34.502185588
 20
46.2248396331
 40
7.2046168312
100
AcDbArc
 50
345.3717592331
 51
15.3893330257
  0
CIRCLE
  5
377
100
AcDbEntity
  8
00_COMPONENTS_1
100
AcDbCircle
 62
7
  6
CONTINUOUS
 10
34.502185588
 20
46.2248396331
 40
7.1766887273
  0
ARC
  5
378
100
AcDbEntity
  8
00_COMPONENTS_1
100
AcDbCircle
 62
7
  6
CONTINUOUS
 10
34.502185588
 20
46.2248396331
 40
6.1
100
AcDbArc
 50
146.9258785162
 51
33.0703120168
  0
ARC
  5
379
100
AcDbEntity
  8
00_COMPONENTS_1
100
AcDbCircle
 62
7
  6
CONTINUOUS
 10
34.502185588
 20
46.2248396331
 40
5.0419049234
100
AcDbArc
 50
37.1432761049
 51
142.8642218058
  0
ARC
  5
37A
100
AcDbEntity
  8
00_COMPONENTS_1
100
AcDbCircle
 62
7
  6
CONTINUOUS
 10
52.8971854014
 20
83.4009690943
 40
1.9964394712
100
AcDbArc
 50
83.4322613306
 51
89.5614835647
  0
ARC
  5
37B
100
AcDbEntity
  8
00_COMPONENTS_1
100
AcDbCircle
 62
7
  6
CONTINUOUS
 10
52.9099572579
 20
83.3897642847
 40
1.9949551307
100
AcDbArc
 50
0.4364502701
 51
4.7335543647
  0
ARC
  5
37C
100
AcDbEntity
  8
00_COMPONENTS_1
100
AcDbCircle
 62
7
  6
CONTINUOUS
 10
35.678632167
 20
75.4056605554
 40
1.0004407397
100
AcDbArc
 50
359.9804033886
 51
23.3947228056
  0
ARC
  5
37D
100
AcDbEntity
  8
00_COMPONENTS_1
100
AcDbCircle
 62
7
  6
CONTINUOUS
 10
33.3257368236
 20
75.4056610331
 40
1.0004385546
100
AcDbArc
 50
156.6055459648
 51
180.0196238465
  0
ARC
  5
37E
100
AcDbEntity
  8
00_COMPONENTS_1
100
AcDbCircle
 62
7
  6
CONTINUOUS
 10
43.7476596184
 20
48.0561986918
 40
0.300102285
100
AcDbArc
 50
0.0541692824
 51
87.9747100457
  0
ARC
  5
37F
100
AcDbEntity
  8
00_COMPONENTS_1
100
AcDbCircle
 62
7
  6
CONTINUOUS
 10
39.802185588
 20
62.4248396331
 40
0.2
100
AcDbArc
 50
270.0
 51
360.0
  0
ARC
  5
380
100
AcDbEntity
  8
00_COMPONENTS_1
100
AcDbCircle
 62
7
  6
CONTINUOUS
 10
185.6378364518
 20
15.6839072922
 40
136.890092199
100
AcDbArc
 50
180.8329820275
 51
181.8681612481
  0
ARC
  5
381
100
AcDbEntity
  8
00_COMPONENTS_1
100
AcDbCircle
 62
7
  6
CONTINUOUS
 10
65.9438333234
 20
-41.6419797429
 40
95.1985569604
100
AcDbArc
 50
103.0965667331
 51
103.272441212
  0
ARC
  5
382
100
AcDbEntity
  8
00_COMPONENTS_1
100
AcDbCircle
 62
7
  6
CONTINUOUS
 10
56.3824648021
 20
20.0445564562
 40
1.0008948559
100
AcDbArc
 50
270.0858389591
 51
359.9146140589
  0
ARC
  5
383
100
AcDbEntity
  8
00_COMPONENTS_1
100
AcDbCircle
 62
7
  6
CONTINUOUS
 10
56.499448554
 20
19.9207491803
 40
0.9923040046
100
AcDbArc
 50
269.9850239698
 51
296.1334526515
  0
ARC
  5
384
100
AcDbEntity
  8
00_COMPONENTS_1
100
AcDbCircle
 62
7
  6
CONTINUOUS
 10
225.8125369665
 20
65.484803561
 40
211.7529647348
100
AcDbArc
 50
179.4034634042
 51
179.6399949286
  0
ARC
  5
385
100
AcDbEntity
  8
00_COMPONENTS_1
100
AcDbCircle
 62
7
  6
CONTINUOUS
 10
65.9438333242
 20
134.0916590088
 40
95.1985569602
100
AcDbArc
 50
256.7275587875
 51
256.9034332664
  0
ARC
  5
386
100
AcDbEntity
  8
00_COMPONENTS_1
100
AcDbCircle
 62
7
  6
CONTINUOUS
 10
69.7282241684
 20
79.16898433
 40
17.7337555265
100
AcDbArc
 50
158.2415008856
 51
158.6061415464
  0
ARC
  5
387
100
AcDbEntity
  8
00_COMPONENTS_1
100
AcDbCircle
 62
7
  6
CONTINUOUS
 10
57.4226138073
 20
83.9871498595
 40
4.5185112505
100
AcDbArc
 50
158.5727520262
 51
161.9885339956
  0
ARC
  5
388
100
AcDbEntity
  8
00_COMPONENTS_1
100
AcDbCircle
 62
7
  6
CONTINUOUS
 10
55.5643957488
 20
85.9870497939
 40
3.49715114
100
AcDbArc
 50
359.9874356989
 51
90.0125643013
  0
ARC
  5
389
100
AcDbEntity
  8
00_COMPONENTS_1
100
AcDbCircle
 62
7
  6
CONTINUOUS
 10
56.075990229
 20
86.4986442742
 40
2.0
100
AcDbArc
 50
306.0203560192
 51
141.4694163486
  0
ARC
  5
38A
100
AcDbEntity
  8
00_COMPONENTS_1
100
AcDbCircle
 62
7
  6
CONTINUOUS
 10
56.0498268686
 20
86.4724809138
 40
1.9982782113
100
AcDbArc
 50
179.9836561077
 51
270.0163438994
  0
SPLINE
  5
38B
100
AcDbEntity
  8
00_COMPONENTS_1
100
AcDbSpline
 62
7
  6
CONTINUOUS
 70
0
 71
3
 72
25
 73
21
 74
0
 42
0.0000001
 43
0.0000001
 44
0.0000000001
 40
0.0
 40
0.0
 40
0.0
 40
0.0
 40
0.1556299513
 40
0.3020424718
 40
0.4309797977
 40
0.4868039835
 40
0.5361632211
 40
0.5790513303
 40
0.6164639527
 40
0.6522425594
 40
0.6729143537
 40
0.6988515583
 40
0.7310963642
 40
0.7673794141
 40
0.8053200494
 40
0.843933533
 40
0.8828030422
 40
0.9217932768
 40
0.9608686578
 40
1.0
 40
1.0
 40
1.0
 40
1.0
 10
58.8863619639
 20
17.42483963
 30
0.0
 10
58.8863464917
 20
16.7916768168
 30
0.0
 10
58.8811489578
 20
15.5628430369
 30
0.0
 10
58.8580176483
 20
13.8095817668
 30
0.0
 10
58.8260303256
 20
12.4625744324
 30
0.0
 10
58.7921227426
 20
11.5106721924
 30
0.0
 10
58.764703215
 20
10.9088735588
 30
0.0
 10
58.7335777889
 20
10.3822568384
 30
0.0
 10
58.6961776425
 20
9.911457343
 30
0.0
 10
58.6522653242
 20
9.5319160529
 30
0.0
 10
58.5950896159
 20
9.2015154392
 30
0.0
 10
58.5206722178
 20
8.8891492562
 30
0.0
 10
58.3980799126
 20
8.5241645016
 30
0.0
 10
58.2138453707
 20
8.1309351832
 30
0.0
 10
57.9675136417
 20
7.7420089115
 30
0.0
 10
57.665198787
 20
7.380857647
 30
0.0
 10
57.3143167007
 20
7.0602612628
 30
0.0
 10
56.9216994608
 20
6.7889893962
 30
0.0
 10
56.4952199806
 20
6.572692683
 30
0.0
 10
56.1934379291
 20
6.4682486974
 30
0.0
 10
56.039792832
 20
6.4265560201
 30
0.0
  0
SPLINE
  5
38C
100
AcDbEntity
  8
00_COMPONENTS_1
100
AcDbSpline
 62
7
  6
CONTINUOUS
 70
0
 71
3
 72
25
 73
21
 74
0
 42
0.0000001
 43
0.0000001
 44
0.0000000001
 40
0.0
 40
0.0
 40
0.0
 40
0.0
 40
0.1556300257
 40
0.3020426156
 40
0.4309799951
 40
0.4868041968
 40
0.5361634385
 40
0.5790515335
 40
0.6164641099
 40
0.6522426132
 40
0.6729143255
 40
0.6988514568
 40
0.7310962384
 40
0.7673792992
 40
0.8053199529
 40
0.8439334577
 40
0.8828029833
 40
0.9217932378
 40
0.9608686371
 40
1.0
 40
1.0
 40
1.0
 40
1.0
 10
10.11803832
 20
17.4248396306
 30
0.0
 10
10.1180550724
 20
16.7916751987
 30
0.0
 10
10.1232551044
 20
15.5628382898
 30
0.0
 10
10.1463900173
 20
13.8095726191
 30
0.0
 10
10.1783801423
 20
12.4625619843
 30
0.0
 10
10.2122897303
 20
11.5106575346
 30
0.0
 10
10.2397105317
 20
10.9088576817
 30
0.0
 10
10.2708370735
 20
10.3822401572
 30
0.0
 10
10.3082381943
 20
9.9114404224
 30
0.0
 10
10.3521512658
 20
9.5318993677
 30
0.0
 10
10.4093276233
 20
9.201499227
 30
0.0
 10
10.4837457632
 20
8.8891332831
 30
0.0
 10
10.6063393615
 20
8.5241484782
 30
0.0
 10
10.7905759611
 20
8.1309190795
 30
0.0
 10
11.0369104865
 20
7.7419931712
 30
0.0
 10
11.3392285984
 20
7.3808430213
 30
0.0
 10
11.6901142588
 20
7.060248693
 30
0.0
 10
12.0827351224
 20
6.7889798812
 30
0.0
 10
12.5092181056
 20
6.572687284
 30
0.0
 10
12.8110022471
 20
6.4682467453
 30
0.0
 10
12.9646482912
 20
6.426555974
 30
0.0
  0
SPLINE
  5
38D
100
AcDbEntity
  8
00_COMPONENTS_1
100
AcDbSpline
 62
7
  6
CONTINUOUS
 70
0
 71
3
 72
17
 73
13
 74
0
 42
0.0000001
 43
0.0000001
 44
0.0000000001
 40
0.0
 40
0.0
 40
0.0
 40
0.0
 40
0.172118125
 40
0.3392510581
 40
0.4977890823
 40
0.6437532358
 40
0.7726568565
 40
0.8798894376
 40
0.9233224938
 40
0.9584583192
 40
0.984244658
 40
1.0
 40
1.0
 40
1.0
 40
1.0
 10
58.888074309
 20
21.3298395179
 30
0.0
 10
58.8905922737
 20
21.3599602111
 30
0.0
 10
58.8955827287
 20
21.4193268429
 30
0.0
 10
58.9031609011
 20
21.5064153092
 30
0.0
 10
58.9107774119
 20
21.5888879292
 30
0.0
 10
58.9184168593
 20
21.6646192183
 30
0.0
 10
58.9261207025
 20
21.7312691181
 30
0.0
 10
58.9328321577
 20
21.7799361028
 30
0.0
 10
58.9385136317
 20
21.8120393553
 30
0.0
 10
58.9424056862
 20
21.8300205148
 30
0.0
 10
58.9462537089
 20
21.8427933627
 30
0.0
 10
58.9492830747
 20
21.8497157872
 30
0.0
 10
58.9512402579
 20
21.8516714554
 30
0.0
  0
SPLINE
  5
38E
100
AcDbEntity
  8
00_COMPONENTS_1
100
AcDbSpline
 62
7
  6
CONTINUOUS
 70
0
 71
3
 72
26
 73
22
 74
0
 42
0.0000001
 43
0.0000001
 44
0.0000000001
 40
0.0
 40
0.0
 40
0.0
 40
0.0
 40
0.0223475523
 40
0.043222119
 40
0.0610243585
 40
0.0750040851
 40
0.0856014934
 40
0.0939254625
 40
0.1074783214
 40
0.1324651441
 40
0.1613636043
 40
0.1964688975
 40
0.2383967118
 40
0.2872645519
 40
0.3429852658
 40
0.4053616085
 40
0.4741241419
 40
0.5489501285
 40
0.6294747915
 40
0.8059544206
 40
1.0
 40
1.0
 40
1.0
 40
1.0
 10
15.8864015901
 20
6.4211723587
 30
0.0
 10
15.8351570134
 20
6.4211871999
 30
0.0
 10
15.7352934297
 20
6.4362033408
 30
0.0
 10
15.607638233
 20
6.4974116558
 30
0.0
 10
15.5134987008
 20
6.5748454525
 30
0.0
 10
15.4534542296
 20
6.6518838684
 30
0.0
 10
15.4152565802
 20
6.7171485151
 30
0.0
 10
15.385371388
 20
6.7854617058
 30
0.0
 10
15.3514063951
 20
6.8876104468
 30
0.0
 10
15.3203265142
 20
7.0394198679
 30
0.0
 10
15.291247608
 20
7.2413954661
 30
0.0
 10
15.2649337905
 20
7.482925914
 30
0.0
 10
15.2398390143
 20
7.7705399273
 30
0.0
 10
15.2157606129
 20
8.1056611167
 30
0.0
 10
15.1926653547
 20
8.4878320076
 30
0.0
 10
15.1706275542
 20
8.915752485
 30
0.0
 10
15.1497371273
 20
9.3875860608
 30
0.0
 10
15.1300916542
 20
9.9011210936
 30
0.0
 10
15.1049209744
 20
10.6616185963
 30
0.0
 10
15.0777932012
 20
11.6955654919
 30
0.0
 10
15.0615233395
 20
12.545057629
 30
0.0
 10
15.0543072296
 20
12.9899598777
 30
0.0
  0
SPLINE
  5
38F
100
AcDbEntity
  8
00_COMPONENTS_1
100
AcDbSpline
 62
7
  6
CONTINUOUS
 70
0
 71
3
 72
28
 73
24
 74
0
 42
0.0000001
 43
0.0000001
 44
0.0000000001
 40
0.0
 40
0.0
 40
0.0
 40
0.0
 40
0.1940173186
 40
0.370472938
 40
0.4509867796
 40
0.525803074
 40
0.594557004
 40
0.6569256541
 40
0.7126397231
 40
0.7615019211
 40
0.8034248221
 40
0.8385266692
 40
0.8674210907
 40
0.8924053581
 40
0.9059437721
 40
0.9143048945
 40
0.9248640111
 40
0.9388209892
 40
0.9566367242
 40
0.9667983234
 40
0.9775584499
 40
0.9886813769
 40
1.0
 40
1.0
 40
1.0
 40
1.0
 10
53.9500642385
 20
12.9899598277
 30
0.0
 10
53.9428482966
 20
12.5450658588
 30
0.0
 10
53.9265786434
 20
11.695585651
 30
0.0
 10
53.8994515116
 20
10.6616520367
 30
0.0
 10
53.8742812074
 20
9.9011599563
 30
0.0
 10
53.8546360061
 20
9.3876264144
 30
0.0
 10
53.8337459663
 20
8.9157923714
 30
0.0
 10
53.8117079589
 20
8.4878702259
 30
0.0
 10
53.7886141143
 20
8.1056959659
 30
0.0
 10
53.7645321385
 20
7.7705731498
 30
0.0
 10
53.7394485556
 20
7.4829497001
 30
0.0
 10
53.7131042536
 20
7.2414306085
 30
0.0
 10
53.6841134065
 20
7.0394125896
 30
0.0
 10
53.6528166824
 20
6.8877344029
 30
0.0
 10
53.6192643249
 20
6.7853314576
 30
0.0
 10
53.588677497
 20
6.7173933551
 30
0.0
 10
53.5515327465
 20
6.6515444678
 30
0.0
 10
53.4903446502
 20
6.5755562798
 30
0.0
 10
53.416263128
 20
6.5127715117
 30
0.0
 10
53.3384294649
 20
6.4694185999
 30
0.0
 10
53.2698242543
 20
6.4424183635
 30
0.0
 10
53.195384793
 20
6.4250522045
 30
0.0
 10
53.1438042131
 20
6.4214283744
 30
0.0
 10
53.1178465186
 20
6.421472275
 30
0.0
  0
SPLINE
  5
390
100
AcDbEntity
  8
00_COMPONENTS_1
100
AcDbSpline
 62
7
  6
CONTINUOUS
 70
0
 71
3
 72
9
 73
5
 74
0
 42
0.0000001
 43
0.0000001
 44
0.0000000001
 40
0.0
 40
0.0
 40
0.0
 40
0.0
 40
0.3852681833
 40
1.0
 40
1.0
 40
1.0
 40
1.0
 10
53.6131679713
 20
13.3272296538
 30
0.0
 10
53.6103346214
 20
13.3300630036
 30
0.0
 10
53.6055401309
 20
13.3396337655
 30
0.0
 10
53.6023499133
 20
13.349448467
 30
0.0
 10
53.6006032183
 20
13.3555987292
 30
0.0
  0
SPLINE
  5
391
100
AcDbEntity
  8
00_COMPONENTS_1
100
AcDbSpline
 62
7
  6
CONTINUOUS
 70
0
 71
3
 72
9
 73
5
 74
0
 42
0.0000001
 43
0.0000001
 44
0.0000000001
 40
0.0
 40
0.0
 40
0.0
 40
0.0
 40
0.6143601367
 40
1.0
 40
1.0
 40
1.0
 40
1.0
 10
53.6006689274
 20
21.4943112919
 30
0.0
 10
53.6024072019
 20
21.5004089107
 30
0.0
 10
53.6055830269
 20
21.5101462359
 30
0.0
 10
53.6103532813
 20
21.5196349225
 30
0.0
 10
53.6131675834
 20
21.5224492246
 30
0.0
  0
SPLINE
  5
392
100
AcDbEntity
  8
00_COMPONENTS_1
100
AcDbSpline
 62
7
  6
CONTINUOUS
 70
0
 71
3
 72
9
 73
5
 74
0
 42
0.0000001
 43
0.0000001
 44
0.0000000001
 40
0.0
 40
0.0
 40
0.0
 40
0.0
 40
0.385098445
 40
1.0
 40
1.0
 40
1.0
 40
1.0
 10
15.3912028601
 20
13.3272293092
 30
0.0
 10
15.3940434681
 20
13.3300699172
 30
0.0
 10
15.3988467675
 20
13.3396732332
 30
0.0
 10
15.4020419505
 20
13.3495183439
 30
0.0
 10
15.4037916031
 20
13.355689569
 30
0.0
  0
SPLINE
  5
393
100
AcDbEntity
  8
00_COMPONENTS_1
100
AcDbSpline
 62
7
  6
CONTINUOUS
 70
0
 71
3
 72
9
 73
5
 74
0
 42
0.0000001
 43
0.0000001
 44
0.0000000001
 40
0.0
 40
0.0
 40
0.0
 40
0.0
 40
0.6145335122
 40
1.0
 40
1.0
 40
1.0
 40
1.0
 10
15.403726316
 20
21.4942191352
 30
0.0
 10
15.4019850281
 20
21.5003380065
 30
0.0
 10
15.3988041494
 20
21.5101061864
 30
0.0
 10
15.3940249293
 20
21.5196278878
 30
0.0
 10
15.3912032544
 20
21.5224495628
 30
0.0
  0
SPLINE
  5
394
100
AcDbEntity
  8
00_COMPONENTS_1
100
AcDbSpline
 62
7
  6
CONTINUOUS
 70
0
 71
3
 72
11
 73
7
 74
0
 42
0.0000001
 43
0.0000001
 44
0.0000000001
 40
0.0
 40
0.0
 40
0.0
 40
0.0
 40
0.2499390561
 40
0.4999491336
 40
0.7499993427
 40
1.0
 40
1.0
 40
1.0
 40
1.0
 10
39.3327523991
 20
49.6072385753
 30
0.0
 10
39.3544093465
 20
49.6224189548
 30
0.0
 10
39.4044052717
 20
49.6443221464
 30
0.0
 10
39.4858068855
 20
49.645194666
 30
0.0
 10
39.5613407596
 20
49.614569762
 30
0.0
 10
39.5995281408
 20
49.5755604432
 30
0.0
 10
39.6140954529
 20
49.5534786512
 30
0.0
  0
SPLINE
  5
395
100
AcDbEntity
  8
00_COMPONENTS_1
100
AcDbSpline
 62
7
  6
CONTINUOUS
 70
0
 71
3
 72
11
 73
7
 74
0
 42
0.0000001
 43
0.0000001
 44
0.0000000001
 40
0.0
 40
0.0
 40
0.0
 40
0.0
 40
0.2499060745
 40
0.4999238564
 40
0.749971637
 40
1.0
 40
1.0
 40
1.0
 40
1.0
 10
29.3905642803
 20
49.5537747382
 30
0.0
 10
29.4051070843
 20
49.5758198044
 30
0.0
 10
29.4432743716
 20
49.6147475734
 30
0.0
 10
29.5187471223
 20
49.6452061768
 30
0.0
 10
29.600043803
 20
49.6442953431
 30
0.0
 10
29.6499822257
 20
49.622405003
 30
0.0
 10
29.6716187779
 20
49.6072385771
 30
0.0
  0
SPLINE
  5
396
100
AcDbEntity
  8
00_COMPONENTS_1
100
AcDbSpline
 62
7
  6
CONTINUOUS
 70
0
 71
3
 72
11
 73
7
 74
0
 42
0.0000001
 43
0.0000001
 44
0.0000000001
 40
0.0
 40
0.0
 40
0.0
 40
0.0
 40
0.2496601578
 40
0.5000326642
 40
0.7502043616
 40
1.0
 40
1.0
 40
1.0
 40
1.0
 10
30.4823394341
 20
49.2689732242
 30
0.0
 10
30.4670384033
 20
49.249276178
 30
0.0
 10
30.428102292
 20
49.2157194486
 30
0.0
 10
30.3557480104
 20
49.1903261859
 30
0.0
 10
30.2790698216
 20
49.1938269
 30
0.0
 10
30.2322773181
 20
49.2150327444
 30
0.0
 10
30.2119256424
 20
49.2294750373
 30
0.0
  0
SPLINE
  5
397
100
AcDbEntity
  8
00_COMPONENTS_1
100
AcDbSpline
 62
7
  6
CONTINUOUS
 70
0
 71
3
 72
11
 73
7
 74
0
 42
0.0000001
 43
0.0000001
 44
0.0000000001
 40
0.0
 40
0.0
 40
0.0
 40
0.0
 40
0.2497987996
 40
0.4998578784
 40
0.7503096133
 40
1.0
 40
1.0
 40
1.0
 40
1.0
 10
38.7924455335
 20
49.2294750366
 30
0.0
 10
38.7720473165
 20
49.2149997164
 30
0.0
 10
38.7251692508
 20
49.1937057084
 30
0.0
 10
38.6482852702
 20
49.190365769
 30
0.0
 10
38.5758560643
 20
49.2160212125
 30
0.0
 10
38.5368328313
 20
49.2496503365
 30
0.0
 10
38.5214951465
 20
49.2693945674
 30
0.0
  0
SPLINE
  5
398
100
AcDbEntity
  8
00_COMPONENTS_1
100
AcDbSpline
 62
7
  6
CONTINUOUS
 70
0
 71
3
 72
14
 73
10
 74
0
 42
0.0000001
 43
0.0000001
 44
0.0000000001
 40
0.0
 40
0.0
 40
0.0
 40
0.0
 40
0.1271496798
 40
0.2542855142
 40
0.3813664593
 40
0.5081769184
 40
0.6342297096
 40
0.7588082213
 40
1.0
 40
1.0
 40
1.0
 40
1.0
 10
16.014392824
 20
65.3963980787
 30
0.0
 10
15.876717889
 20
65.403150756
 30
0.0
 10
15.6019022542
 20
65.4472586721
 30
0.0
 10
15.215159309
 20
65.6024077674
 30
0.0
 10
14.8722083276
 20
65.83868507
 30
0.0
 10
14.5891460345
 20
66.142111831
 30
0.0
 10
14.3753841733
 20
66.4942161435
 30
0.0
 10
14.1870420867
 20
66.9954725234
 30
0.0
 10
14.1409078899
 20
67.3967547468
 30
0.0
 10
14.1446236677
 20
67.6581995515
 30
0.0
  0
SPLINE
  5
399
100
AcDbEntity
  8
00_COMPONENTS_1
100
AcDbSpline
 62
7
  6
CONTINUOUS
 70
0
 71
3
 72
11
 73
7
 74
0
 42
0.0000001
 43
0.0000001
 44
0.0000000001
 40
0.0
 40
0.0
 40
0.0
 40
0.0
 40
0.2500433415
 40
0.5000238812
 40
0.7499975528
 40
1.0
 40
1.0
 40
1.0
 40
1.0
 10
33.002185588
 20
62.7229369822
 30
0.0
 10
33.002185588
 20
62.6581191076
 30
0.0
 10
33.0278463333
 20
62.5270349606
 30
0.0
 10
33.1387505882
 20
62.3613796995
 30
0.0
 10
33.3044047166
 20
62.2504941114
 30
0.0
 10
33.4354756633
 20
62.2248393518
 30
0.0
 10
33.500282937
 20
62.2248396331
 30
0.0
  0
SPLINE
  5
39A
100
AcDbEntity
  8
00_COMPONENTS_1
100
AcDbSpline
 62
7
  6
CONTINUOUS
 70
0
 71
3
 72
9
 73
5
 74
0
 42
0.0000001
 43
0.0000001
 44
0.0000000001
 40
0.0
 40
0.0
 40
0.0
 40
0.0
 40
0.5001607697
 40
1.0
 40
1.0
 40
1.0
 40
1.0
 10
55.2609456116
 20
83.6848180014
 30
0.0
 10
55.2398475107
 20
83.6763967741
 30
0.0
 10
55.1974589562
 20
83.6600837573
 30
0.0
 10
55.1553150044
 20
83.6431376512
 30
0.0
 10
55.1340670562
 20
83.6351433823
 30
0.0
  0
SPLINE
  5
39B
100
AcDbEntity
  8
00_COMPONENTS_1
100
AcDbSpline
 62
7
  6
CONTINUOUS
 70
0
 71
3
 72
9
 73
5
 74
0
 42
0.0000001
 43
0.0000001
 44
0.0000000001
 40
0.0
 40
0.0
 40
0.0
 40
0.0
 40
0.5039156896
 40
1.0
 40
1.0
 40
1.0
 40
1.0
 10
54.8981080553
 20
83.5543922901
 30
0.0
 10
54.9381110594
 20
83.5668418269
 30
0.0
 10
55.0170211094
 20
83.5930517896
 30
0.0
 10
55.0954625497
 20
83.6206426132
 30
0.0
 10
55.1340667615
 20
83.635162041
 30
0.0
  0
SPLINE
  5
39C
100
AcDbEntity
  8
00_COMPONENTS_1
100
AcDbSpline
 62
7
  6
CONTINUOUS
 70
0
 71
3
 72
27
 73
23
 74
0
 42
0.0000001
 43
0.0000001
 44
0.0000000001
 40
0.0
 40
0.0
 40
0.0
 40
0.0
 40
0.0066685167
 40
0.0168756057
 40
0.030634561
 40
0.0479215966
 40
0.0929308645
 40
0.1515534837
 40
0.2232866177
 40
0.3071656856
 40
0.4010462046
 40
0.5008066202
 40
0.6005146558
 40
0.6942540746
 40
0.7779375468
 40
0.8494434012
 40
0.9078230549
 40
0.9525807008
 40
0.9697418106
 40
0.9833734479
 40
0.993451594
 40
1.0
 40
1.0
 40
1.0
 40
1.0
 10
53.1255545773
 20
85.3843179377
 30
0.0
 10
53.1236081997
 20
85.3783050246
 30
0.0
 10
53.1209301548
 20
85.3624347128
 30
0.0
 10
53.1184580929
 20
85.3335286653
 30
0.0
 10
53.117446643
 20
85.2944078592
 30
0.0
 10
53.1189474509
 20
85.2223308283
 30
0.0
 10
53.1292328874
 20
85.1080250518
 30
0.0
 10
53.158904084
 20
84.944242995
 30
0.0
 10
53.215893268
 20
84.7489064648
 30
0.0
 10
53.3093779622
 20
84.5309873441
 30
0.0
 10
53.4457478324
 20
84.3049928322
 30
0.0
 10
53.6240457893
 20
84.090221242
 30
0.0
 10
53.8331823138
 20
83.9055483261
 30
0.0
 10
54.0546095774
 20
83.7625610728
 30
0.0
 10
54.2691045033
 20
83.6627277546
 30
0.0
 10
54.4620325037
 20
83.6000630066
 30
0.0
 10
54.6241864697
 20
83.565656139
 30
0.0
 10
54.7375615838
 20
83.5520944088
 30
0.0
 10
54.8090888964
 20
83.5485825387
 30
0.0
 10
54.8478640248
 20
83.5485313524
 30
0.0
 10
54.876462219
 20
83.5502617399
 30
0.0
 10
54.8921639085
 20
83.5525682974
 30
0.0
 10
54.8980898205
 20
83.5544125154
 30
0.0
  0
SPLINE
  5
39D
100
AcDbEntity
  8
00_COMPONENTS_1
100
AcDbSpline
 62
7
  6
CONTINUOUS
 70
0
 71
3
 72
9
 73
5
 74
0
 42
0.0000001
 43
0.0000001
 44
0.0000000001
 40
0.0
 40
0.0
 40
0.0
 40
0.0
 40
0.4998391719
 40
1.0
 40
1.0
 40
1.0
 40
1.0
 10
13.8703041197
 20
83.6351433823
 30
0.0
 10
13.8490562614
 20
83.6431378824
 30
0.0
 10
13.8069121637
 20
83.660083602
 30
0.0
 10
13.7645236679
 20
83.676396773
 30
0.0
 10
13.7434255646
 20
83.6848180013
 30
0.0
  0
SPLINE
  5
39E
100
AcDbEntity
  8
00_COMPONENTS_1
100
AcDbSpline
 62
7
  6
CONTINUOUS
 70
0
 71
3
 72
27
 73
23
 74
0
 42
0.0000001
 43
0.0000001
 44
0.0000000001
 40
0.0
 40
0.0
 40
0.0
 40
0.0
 40
0.0065539641
 40
0.016640409
 40
0.0302730581
 40
0.0474314444
 40
0.092186257
 40
0.1505610693
 40
0.2220613929
 40
0.3057384751
 40
0.3994744806
 40
0.4991798775
 40
0.5989387779
 40
0.6928193754
 40
0.7767024572
 40
0.8484394014
 40
0.9070658617
 40
0.9520779216
 40
0.9693664352
 40
0.9831261069
 40
0.993332341
 40
1.0
 40
1.0
 40
1.0
 40
1.0
 10
14.1062398012
 20
83.5544077703
 30
0.0
 10
14.1121707725
 20
83.5525618972
 30
0.0
 10
14.1278871881
 20
83.5502606111
 30
0.0
 10
14.156499308
 20
83.5485323205
 30
0.0
 10
14.1952811688
 20
83.5485833553
 30
0.0
 10
14.2668048143
 20
83.5520934191
 30
0.0
 10
14.3801712054
 20
83.5656543202
 30
0.0
 10
14.5423147174
 20
83.6000566099
 30
0.0
 10
14.735230118
 20
83.6627143326
 30
0.0
 10
14.9497164771
 20
83.7625361614
 30
0.0
 10
15.171140013
 20
83.9055116819
 30
0.0
 10
15.3802793526
 20
84.0901741056
 30
0.0
 10
15.5585844678
 20
84.3049379659
 30
0.0
 10
15.6949645025
 20
84.5309318899
 30
0.0
 10
15.7884608431
 20
84.7488565704
 30
0.0
 10
15.8454579614
 20
84.9442042462
 30
0.0
 10
15.8751347457
 20
85.1079969042
 30
0.0
 10
15.885422289
 20
85.2223112156
 30
0.0
 10
15.8869249854
 20
85.2943935725
 30
0.0
 10
15.8859139896
 20
85.3335160116
 30
0.0
 10
15.8834416868
 20
85.3624213916
 30
0.0
 10
15.8807633831
 20
85.3782901106
 30
0.0
 10
15.8788172647
 20
85.3843023117
 30
0.0
  0
SPLINE
  5
39F
100
AcDbEntity
  8
00_COMPONENTS_1
100
AcDbSpline
 62
7
  6
CONTINUOUS
 70
0
 71
3
 72
9
 73
5
 74
0
 42
0.0000001
 43
0.0000001
 44
0.0000000001
 40
0.0
 40
0.0
 40
0.0
 40
0.0
 40
0.4959520497
 40
1.0
 40
1.0
 40
1.0
 40
1.0
 10
13.8703043878
 20
83.6351541131
 30
0.0
 10
13.9088981586
 20
83.6206380912
 30
0.0
 10
13.9874110536
 20
83.5932519721
 30
0.0
 10
14.0662479586
 20
83.566823686
 30
0.0
 10
14.1062612972
 20
83.5543702678
 30
0.0
  0
SPLINE
  5
3A0
100
AcDbEntity
  8
00_COMPONENTS_1
100
AcDbSpline
 62
7
  6
CONTINUOUS
 70
0
 71
3
 72
15
 73
11
 74
0
 42
0.0000001
 43
0.0000001
 44
0.0000000001
 40
0.0
 40
0.0
 40
0.0
 40
0.0
 40
0.3195261406
 40
0.4699185928
 40
0.6094008296
 40
0.7347442035
 40
0.8431209088
 40
0.9321540122
 40
0.9688152785
 40
1.0
 40
1.0
 40
1.0
 40
1.0
 10
11.8970497999
 20
65.400653282
 30
0.0
 10
11.8970497999
 20
66.2036142012
 30
0.0
 10
11.9122609167
 20
67.3846097639
 30
0.0
 10
11.9654016582
 20
68.91514199
 30
0.0
 10
12.0187005745
 20
69.9572652992
 30
0.0
 10
12.0847594751
 20
70.8928672951
 30
0.0
 10
12.1618688284
 20
71.7003382189
 30
0.0
 10
12.2372868555
 20
72.2839313779
 30
0.0
 10
12.3044804852
 20
72.6724482588
 30
0.0
 10
12.3396462772
 20
72.8393477244
 30
0.0
 10
12.3579617561
 20
72.915543758
 30
0.0
  0
SPLINE
  5
3A1
100
AcDbEntity
  8
00_COMPONENTS_1
100
AcDbSpline
 62
7
  6
CONTINUOUS
 70
0
 71
3
 72
18
 73
14
 74
0
 42
0.0000001
 43
0.0000001
 44
0.0000000001
 40
0.0
 40
0.0
 40
0.0
 40
0.0
 40
0.1862672166
 40
0.3672420153
 40
0.5360685723
 40
0.6867790794
 40
0.813690424
 40
0.8664847291
 40
0.9112549646
 40
0.947350677
 40
0.974364216
 40
0.991996269
 40
1.0
 40
1.0
 40
1.0
 40
1.0
 10
41.4484796372
 20
48.1367765218
 30
0.0
 10
41.4432926653
 20
48.1556214072
 30
0.0
 10
41.4329683426
 20
48.1927488972
 30
0.0
 10
41.417655151
 20
48.2468761859
 30
0.0
 10
41.4031351195
 20
48.2973501266
 30
0.0
 10
41.3900680466
 20
48.342337385
 30
0.0
 10
41.3803717709
 20
48.375628094
 30
0.0
 10
41.3738647852
 20
48.3982628159
 30
0.0
 10
41.3700236637
 20
48.4117605695
 30
0.0
 10
41.367066987
 20
48.4226655265
 30
0.0
 10
41.3648127332
 20
48.4308869033
 30
0.0
 10
41.3637734258
 20
48.4362198712
 30
0.0
 10
41.3630294122
 20
48.4389319869
 30
0.0
 10
41.3631987677
 20
48.4397545954
 30
0.0
  0
SPLINE
  5
3A2
100
AcDbEntity
  8
00_COMPONENTS_1
100
AcDbSpline
 62
7
  6
CONTINUOUS
 70
0
 71
3
 72
18
 73
14
 74
0
 42
0.0000001
 43
0.0000001
 44
0.0000000001
 40
0.0
 40
0.0
 40
0.0
 40
0.0
 40
0.1875297714
 40
0.3695336058
 40
0.5388159511
 40
0.6893523699
 40
0.8155618237
 40
0.8679015245
 40
0.9122137307
 40
0.9478990916
 40
0.9745935444
 40
0.9920314936
 40
1.0
 40
1.0
 40
1.0
 40
1.0
 10
41.4732633912
 20
44.4053402663
 30
0.0
 10
41.4683641582
 20
44.3865697544
 30
0.0
 10
41.4586120267
 20
44.3496073658
 30
0.0
 10
41.4441575217
 20
44.2957753542
 30
0.0
 10
41.4304870254
 20
44.2456953763
 30
0.0
 10
41.4182316369
 20
44.2012134433
 30
0.0
 10
41.4091750177
 20
44.1683951817
 30
0.0
 10
41.4031256818
 20
44.1461522198
 30
0.0
 10
41.3995694956
 20
44.1329243611
 30
0.0
 10
41.3968418004
 20
44.1222505347
 30
0.0
 10
41.3947701145
 20
44.1142072832
 30
0.0
 10
41.3938268354
 20
44.108987664
 30
0.0
 10
41.3931546687
 20
44.1063288503
 30
0.0
 10
41.3933282529
 20
44.1055230181
 30
0.0
  0
SPLINE
  5
3A3
100
AcDbEntity
  8
00_COMPONENTS_1
100
AcDbSpline
 62
7
  6
CONTINUOUS
 70
0
 71
3
 72
17
 73
13
 74
0
 42
0.0000001
 43
0.0000001
 44
0.0000000001
 40
0.0
 40
0.0
 40
0.0
 40
0.0
 40
0.0106602172
 40
0.0282195113
 40
0.0529758467
 40
0.08498152
 40
0.1706533277
 40
0.2846921569
 40
0.4260886517
 40
0.5937097627
 40
0.7857544339
 40
1.0
 40
1.0
 40
1.0
 40
1.0
 10
20.1356585307
 20
10.6000757624
 30
0.0
 10
20.1372278881
 20
10.6016451197
 30
0.0
 10
20.1397813357
 20
10.6071499796
 30
0.0
 10
20.1429517424
 20
10.6176283115
 30
0.0
 10
20.146164182
 20
10.6328207835
 30
0.0
 10
20.1509609236
 20
10.6620657604
 30
0.0
 10
20.1564807795
 20
10.7100284112
 30
0.0
 10
20.1625828071
 20
10.7807763888
 30
0.0
 10
20.1684657304
 20
10.8686662069
 30
0.0
 10
20.1740690255
 20
10.972834913
 30
0.0
 10
20.1793184338
 20
11.092207121
 30
0.0
 10
20.1823862032
 20
11.1767398164
 30
0.0
 10
20.1838679099
 20
11.2213201059
 30
0.0
  0
SPLINE
  5
3A4
100
AcDbEntity
  8
00_COMPONENTS_1
100
AcDbSpline
 62
7
  6
CONTINUOUS
 70
0
 71
3
 72
17
 73
13
 74
0
 42
0.0000001
 43
0.0000001
 44
0.0000000001
 40
0.0
 40
0.0
 40
0.0
 40
0.0
 40
0.2142456388
 40
0.4062903366
 40
0.5739114388
 40
0.7153079047
 40
0.8293467008
 40
0.9150184857
 40
0.9470241532
 40
0.971780486
 40
0.9893397803
 40
1.0
 40
1.0
 40
1.0
 40
1.0
 10
48.8205032991
 20
11.2213193403
 30
0.0
 10
48.8219850045
 20
11.1767390903
 30
0.0
 10
48.8250527714
 20
11.092206478
 30
0.0
 10
48.8303021765
 20
10.9728343978
 30
0.0
 10
48.8359054685
 20
10.8686658219
 30
0.0
 10
48.8417883884
 20
10.7807761267
 30
0.0
 10
48.8478904123
 20
10.7100282539
 30
0.0
 10
48.8534102644
 20
10.6620656753
 30
0.0
 10
48.8582070023
 20
10.6328207412
 30
0.0
 10
48.8614194395
 20
10.61762829
 30
0.0
 10
48.8645898437
 20
10.6071499712
 30
0.0
 10
48.8671432894
 20
10.6016451182
 30
0.0
 10
48.8687126452
 20
10.6000757624
 30
0.0
  0
SPLINE
  5
3A5
100
AcDbEntity
  8
00_COMPONENTS_1
100
AcDbSpline
 62
7
  6
CONTINUOUS
 70
0
 71
3
 72
22
 73
18
 74
0
 42
0.0000001
 43
0.0000001
 44
0.0000000001
 40
0.0
 40
0.0
 40
0.0
 40
0.0
 40
0.2075926017
 40
0.3974968274
 40
0.5661819933
 40
0.6415742427
 40
0.7105188527
 40
0.7726949594
 40
0.8278294028
 40
0.8756577868
 40
0.9159714419
 40
0.9486074451
 40
0.9734344825
 40
0.9829195941
 40
0.9904722418
 40
0.9961316667
 40
1.0
 40
1.0
 40
1.0
 40
1.0
 10
48.7638792906
 20
21.2589151206
 30
0.0
 10
48.7697651474
 20
21.6169796808
 30
0.0
 10
48.7829366367
 20
22.3025705812
 30
0.0
 10
48.8082321532
 20
23.2789571123
 30
0.0
 10
48.8336856859
 20
24.0271882599
 30
0.0
 10
48.8565349364
 20
24.5666941642
 30
0.0
 10
48.8738909922
 20
24.9225246461
 30
0.0
 10
48.8920263414
 20
25.2433202334
 30
0.0
 10
48.9108262326
 20
25.5275828067
 30
0.0
 10
48.9301964433
 20
25.773990846
 30
0.0
 10
48.9499786463
 20
25.9814219183
 30
0.0
 10
48.9700635935
 20
26.1488971126
 30
0.0
 10
48.987994932
 20
26.2630719063
 30
0.0
 10
49.0032649937
 20
26.333660947
 30
0.0
 10
49.0136321349
 20
26.3714899923
 30
0.0
 10
49.0238752201
 20
26.3990743017
 30
0.0
 10
49.0320145533
 20
26.4136764636
 30
0.0
 10
49.0365144007
 20
26.418604195
 30
0.0
  0
SPLINE
  5
3A6
100
AcDbEntity
  8
00_COMPONENTS_1
100
AcDbSpline
 62
7
  6
CONTINUOUS
 70
0
 71
3
 72
22
 73
18
 74
0
 42
0.0000001
 43
0.0000001
 44
0.0000000001
 40
0.0
 40
0.0
 40
0.0
 40
0.0
 40
0.207568308
 40
0.3974440653
 40
0.5661047699
 40
0.6414880375
 40
0.7104262757
 40
0.7726008595
 40
0.8277438259
 40
0.8755953841
 40
0.915940722
 40
0.9486032712
 40
0.9734401119
 40
0.9829247816
 40
0.9904753779
 40
0.9961326123
 40
1.0
 40
1.0
 40
1.0
 40
1.0
 10
20.2404924896
 20
21.2591414868
 30
0.0
 10
20.2346044696
 20
21.6171483661
 30
0.0
 10
20.2214288277
 20
22.3026180306
 30
0.0
 10
20.1961271387
 20
23.2788282295
 30
0.0
 10
20.1706704734
 20
24.0269194985
 30
0.0
 10
20.1478206875
 20
24.5663328946
 30
0.0
 10
20.1304645228
 20
24.9221185542
 30
0.0
 10
20.1123291364
 20
25.2429010839
 30
0.0
 10
20.0935291992
 20
25.5272032563
 30
0.0
 10
20.0741616032
 20
25.7737102326
 30
0.0
 10
20.0543847693
 20
25.9812736342
 30
0.0
 10
20.0343073635
 20
26.1488604153
 30
0.0
 10
20.0163778243
 20
26.2630932667
 30
0.0
 10
20.0011056337
 20
26.3336916423
 30
0.0
 10
19.9907383528
 20
26.3715103953
 30
0.0
 10
19.980494726
 20
26.3990840333
 30
0.0
 10
19.9723549211
 20
26.4136783269
 30
0.0
 10
19.9678563714
 20
26.4186046373
 30
0.0
  0
SPLINE
  5
3A7
100
AcDbEntity
  8
00_COMPONENTS_1
100
AcDbSpline
 62
7
  6
CONTINUOUS
 70
0
 71
3
 72
9
 73
5
 74
0
 42
0.0000001
 43
0.0000001
 44
0.0000000001
 40
0.0
 40
0.0
 40
0.0
 40
0.0
 40
0.3826000067
 40
1.0
 40
1.0
 40
1.0
 40
1.0
 10
49.0433267769
 20
13.3272293092
 30
0.0
 10
49.0403555722
 20
13.3302005139
 30
0.0
 10
49.0353900736
 20
13.3403725743
 30
0.0
 10
49.0320975437
 20
13.3507509066
 30
0.0
 10
49.0302910339
 20
13.3572864471
 30
0.0
  0
SPLINE
  5
3A8
100
AcDbEntity
  8
00_COMPONENTS_1
100
AcDbSpline
 62
7
  6
CONTINUOUS
 70
0
 71
3
 72
9
 73
5
 74
0
 42
0.0000001
 43
0.0000001
 44
0.0000000001
 40
0.0
 40
0.0
 40
0.0
 40
0.0
 40
0.3930982408
 40
1.0
 40
1.0
 40
1.0
 40
1.0
 10
49.0302910339
 20
13.3572864471
 30
0.0
 10
49.0237527449
 20
13.3809404868
 30
0.0
 10
49.0133993895
 20
13.4427002408
 30
0.0
 10
49.0060763642
 20
13.5046507633
 30
0.0
 10
49.0021982777
 20
13.5423405247
 30
0.0
  0
SPLINE
  5
3A9
100
AcDbEntity
  8
00_COMPONENTS_1
100
AcDbSpline
 62
7
  6
CONTINUOUS
 70
0
 71
3
 72
9
 73
5
 74
0
 42
0.0000001
 43
0.0000001
 44
0.0000000001
 40
0.0
 40
0.0
 40
0.0
 40
0.0
 40
0.6011197148
 40
1.0
 40
1.0
 40
1.0
 40
1.0
 10
49.0048581538
 20
21.3323578441
 30
0.0
 10
49.0084141894
 20
21.3647027103
 30
0.0
 10
49.0151367336
 20
21.4183845311
 30
0.0
 10
49.0245866875
 20
21.4718348346
 30
0.0
 10
49.0303598592
 20
21.4926408782
 30
0.0
  0
SPLINE
  5
3AA
100
AcDbEntity
  8
00_COMPONENTS_1
100
AcDbSpline
 62
7
  6
CONTINUOUS
 70
0
 71
3
 72
9
 73
5
 74
0
 42
0.0000001
 43
0.0000001
 44
0.0000000001
 40
0.0
 40
0.0
 40
0.0
 40
0.0
 40
0.6170239944
 40
1.0
 40
1.0
 40
1.0
 40
1.0
 10
49.0303598592
 20
21.4926408782
 30
0.0
 10
49.0321575759
 20
21.4991197034
 30
0.0
 10
49.035434993
 20
21.5094151411
 30
0.0
 10
49.0403754644
 20
21.5194986446
 30
0.0
 10
49.0433263826
 20
21.5224495628
 30
0.0
  0
LINE
  5
3AB
100
AcDbEntity
  8
00_COMPONENTS_1
100
AcDbLine
 62
7
  6
CONTINUOUS
 10
53.4689367464
 20
12.9711452244
 11
53.453021685
 21
12.9711366395
  0
SPLINE
  5
3AC
100
AcDbEntity
  8
00_COMPONENTS_1
100
AcDbSpline
 62
7
  6
CONTINUOUS
 70
0
 71
3
 72
25
 73
21
 74
0
 42
0.0000001
 43
0.0000001
 44
0.0000000001
 40
0.0
 40
0.0
 40
0.0
 40
0.0
 40
0.0022975215
 40
0.0039905091
 40
0.0061428817
 40
0.0119320643
 40
0.019782472
 40
0.0297302866
 40
0.0417835586
 40
0.0559344087
 40
0.0721702694
 40
0.1108343104
 40
0.1576011054
 40
0.2122342079
 40
0.2744675161
 40
0.3439751647
 40
0.4204109585
 40
0.5924169289
 40
0.7869742499
 40
1.0
 40
1.0
 40
1.0
 40
1.0
 10
53.1177733523
 20
6.4248396373
 30
0.0
 10
53.1228063165
 20
6.4248437745
 30
0.0
 10
53.1309085453
 20
6.4307139111
 30
0.0
 10
53.1383923448
 20
6.4416332271
 30
0.0
 10
53.1481284988
 20
6.460532197
 30
0.0
 10
53.1592850473
 20
6.4933331169
 30
0.0
 10
53.1720297361
 20
6.5434433965
 30
0.0
 10
53.1847439218
 20
6.6076080701
 30
0.0
 10
53.1975076359
 20
6.6857773526
 30
0.0
 10
53.2102209429
 20
6.7778805661
 30
0.0
 10
53.2281313762
 20
6.9280858428
 30
0.0
 10
53.2495535272
 20
7.1497890824
 30
0.0
 10
53.2735002135
 20
7.4556871947
 30
0.0
 10
53.2967459218
 20
7.8133973331
 30
0.0
 10
53.3191468981
 20
8.2210595042
 30
0.0
 10
53.3405664208
 20
8.6765935904
 30
0.0
 10
53.3687361819
 20
9.3725296496
 30
0.0
 10
53.3999017499
 20
10.342482335
 30
0.0
 10
53.4304530551
 20
11.6117760922
 30
0.0
 10
53.4459690053
 20
12.5045018572
 30
0.0
 10
53.4529254483
 20
12.9711056434
 30
0.0
  0
SPLINE
  5
3AD
100
AcDbEntity
  8
00_COMPONENTS_1
100
AcDbSpline
 62
7
  6
CONTINUOUS
 70
0
 71
3
 72
18
 73
14
 74
0
 42
0.0000001
 43
0.0000001
 44
0.0000000001
 40
0.0
 40
0.0
 40
0.0
 40
0.0
 40
0.2034300582
 40
0.3968993431
 40
0.5714507267
 40
0.7208200235
 40
0.8401644097
 40
0.8878734522
 40
0.9273383538
 40
0.9583672175
 40
0.9807912009
 40
0.994513765
 40
1.0
 40
1.0
 40
1.0
 40
1.0
 10
53.4689367464
 20
12.9711452244
 30
0.0
 10
53.5016625205
 20
12.9711845242
 30
0.0
 10
53.565511912
 20
12.9715242684
 30
0.0
 10
53.657433082
 20
12.9727251201
 30
0.0
 10
53.740651252
 20
12.9745161412
 30
0.0
 10
53.8119136186
 20
12.9767965618
 30
0.0
 10
53.8627893078
 20
12.9791846918
 30
0.0
 10
53.8959026273
 20
12.9813582854
 30
0.0
 10
53.9149361791
 20
12.9829579687
 30
0.0
 10
53.9295853766
 20
12.984480849
 30
0.0
 10
53.9407738471
 20
12.9862441552
 30
0.0
 10
53.9464107757
 20
12.9874232068
 30
0.0
 10
53.9503006419
 20
12.9890830586
 30
0.0
 10
53.9501862479
 20
12.9899581844
 30
0.0
  0
SPLINE
  5
3AE
100
AcDbEntity
  8
00_COMPONENTS_1
100
AcDbSpline
 62
7
  6
CONTINUOUS
 70
0
 71
3
 72
25
 73
21
 74
0
 42
0.0000001
 43
0.0000001
 44
0.0000000001
 40
0.0
 40
0.0
 40
0.0
 40
0.0
 40
0.2130303795
 40
0.4075913625
 40
0.5795997702
 40
0.6560362483
 40
0.7255441954
 40
0.7877773972
 40
0.8424099722
 40
0.8891758117
 40
0.9278384564
 40
0.9440734573
 40
0.9582233401
 40
0.9702755383
 40
0.9802221769
 40
0.9880713219
 40
0.9938591805
 40
0.9960108934
 40
0.9977032592
 40
1.0
 40
1.0
 40
1.0
 40
1.0
 10
15.5514671376
 20
12.9711056435
 30
0.0
 10
15.5584236432
 20
12.5044911613
 30
0.0
 10
15.5739396692
 20
11.6117461707
 30
0.0
 10
15.6044909184
 20
10.3424273941
 30
0.0
 10
15.6356563099
 20
9.3724586813
 30
0.0
 10
15.6638258658
 20
8.6765142874
 30
0.0
 10
15.6852451366
 20
8.2209777247
 30
0.0
 10
15.7076458017
 20
7.8133157862
 30
0.0
 10
15.7308911506
 20
7.4556086858
 30
0.0
 10
15.7548373913
 20
7.1497165003
 30
0.0
 10
15.7762590787
 20
6.9280200143
 30
0.0
 10
15.7941691481
 20
6.7778216249
 30
0.0
 10
15.8068821095
 20
6.6857246615
 30
0.0
 10
15.8196455039
 20
6.6075623801
 30
0.0
 10
15.8323593404
 20
6.5434053641
 30
0.0
 10
15.8451038277
 20
6.4933035304
 30
0.0
 10
15.8562600601
 20
6.4605097922
 30
0.0
 10
15.8659965791
 20
6.4416174293
 30
0.0
 10
15.8734800535
 20
6.4307031551
 30
0.0
 10
15.8815842549
 20
6.4248396353
 30
0.0
 10
15.8866155167
 20
6.4248396331
 30
0.0
  0
SPLINE
  5
3AF
100
AcDbEntity
  8
00_COMPONENTS_1
100
AcDbSpline
 62
7
  6
CONTINUOUS
 70
0
 71
3
 72
39
 73
35
 74
0
 42
0.0000001
 43
0.0000001
 44
0.0000000001
 40
0.0
 40
0.0
 40
0.0
 40
0.0
 40
0.0010426222
 40
0.0019039945
 40
0.0030340607
 40
0.0061383309
 40
0.0103943415
 40
0.0223864943
 40
0.038949129
 40
0.0599252135
 40
0.0851279143
 40
0.1143070363
 40
0.1471955797
 40
0.1834778097
 40
0.222802795
 40
0.309060026
 40
0.4026560981
 40
0.4999928658
 40
0.5973294002
 40
0.6909254187
 40
0.7771844071
 40
0.8165106977
 40
0.8527952525
 40
0.8856854472
 40
0.9148668465
 40
0.940071497
 40
0.9610487997
 40
0.9776125491
 40
0.9896051822
 40
0.9938613731
 40
0.9969658031
 40
0.9980959322
 40
0.9989573505
 40
1.0
 40
1.0
 40
1.0
 40
1.0
 10
14.802185588
 20
13.425116065
 30
0.0
 10
14.7993985205
 20
13.425116065
 30
0.0
 10
14.7951605995
 20
13.429520296
 30
0.0
 10
14.7915314542
 20
13.4364561614
 30
0.0
 10
14.7864428066
 20
13.4492615205
 30
0.0
 10
14.7807203975
 20
13.4711823487
 30
0.0
 10
14.7707778828
 20
13.5220119073
 30
0.0
 10
14.7596569286
 20
13.6090466063
 30
0.0
 10
14.7471917569
 20
13.7408713663
 30
0.0
 10
14.7351782791
 20
13.9081678757
 30
0.0
 10
14.7236558283
 20
14.1092836814
 30
0.0
 10
14.7128224275
 20
14.3423210744
 30
0.0
 10
14.7028030703
 20
14.6050346904
 30
0.0
 10
14.6937044579
 20
14.8949173883
 30
0.0
 10
14.6825841247
 20
15.3274614532
 30
0.0
 10
14.671920664
 20
15.9132656341
 30
0.0
 10
14.6642253573
 20
16.6541976464
 30
0.0
 10
14.6616263305
 20
17.424781672
 30
0.0
 10
14.6642246105
 20
18.1953655582
 30
0.0
 10
14.671919357
 20
18.9363015039
 30
0.0
 10
14.6825815496
 20
19.5221137559
 30
0.0
 10
14.693702175
 20
19.954672218
 30
0.0
 10
14.7028001672
 20
20.2445690612
 30
0.0
 10
14.7128202556
 20
20.5072993787
 30
0.0
 10
14.7236536868
 20
20.7403524971
 30
0.0
 10
14.7351761545
 20
20.9414828868
 30
0.0
 10
14.7471904211
 20
21.1087908111
 30
0.0
 10
14.7596557425
 20
21.2406231219
 30
0.0
 10
14.7707774723
 20
21.3276624953
 30
0.0
 10
14.7807202665
 20
21.3784942469
 30
0.0
 10
14.786442743
 20
21.4004161412
 30
0.0
 10
14.7915314252
 20
21.4132222911
 30
0.0
 10
14.7951605365
 20
21.4201585111
 30
0.0
 10
14.7993984474
 20
21.4245632013
 30
0.0
 10
14.802185588
 20
21.4245632013
 30
0.0
  0
SPLINE
  5
3B0
100
AcDbEntity
  8
00_COMPONENTS_1
100
AcDbSpline
 62
7
  6
CONTINUOUS
 70
0
 71
3
 72
9
 73
5
 74
0
 42
0.0000001
 43
0.0000001
 44
0.0000000001
 40
0.0
 40
0.0
 40
0.0
 40
0.0
 40
0.3826000212
 40
1.0
 40
1.0
 40
1.0
 40
1.0
 10
19.961044399
 20
21.5224499571
 30
0.0
 10
19.9640156029
 20
21.5194787532
 30
0.0
 10
19.9689811006
 20
21.5093066962
 30
0.0
 10
19.97227363
 20
21.4989283671
 30
0.0
 10
19.9740801394
 20
21.4923928288
 30
0.0
  0
SPLINE
  5
3B1
100
AcDbEntity
  8
00_COMPONENTS_1
100
AcDbSpline
 62
7
  6
CONTINUOUS
 70
0
 71
3
 72
9
 73
5
 74
0
 42
0.0000001
 43
0.0000001
 44
0.0000000001
 40
0.0
 40
0.0
 40
0.0
 40
0.0
 40
0.3988052472
 40
1.0
 40
1.0
 40
1.0
 40
1.0
 10
19.9740801394
 20
21.4923928288
 30
0.0
 10
19.9798830338
 20
21.4713992824
 30
0.0
 10
19.9893761773
 20
21.4174654019
 30
0.0
 10
19.996127778
 20
21.3633004696
 30
0.0
 10
19.9996991959
 20
21.3306609751
 30
0.0
  0
SPLINE
  5
3B2
100
AcDbEntity
  8
00_COMPONENTS_1
100
AcDbSpline
 62
7
  6
CONTINUOUS
 70
0
 71
3
 72
9
 73
5
 74
0
 42
0.0000001
 43
0.0000001
 44
0.0000000001
 40
0.0
 40
0.0
 40
0.0
 40
0.0
 40
0.607307986
 40
1.0
 40
1.0
 40
1.0
 40
1.0
 10
20.0021913858
 20
13.5425206393
 30
0.0
 10
19.9983033453
 20
13.5047173184
 30
0.0
 10
19.990961919
 20
13.4426234445
 30
0.0
 10
19.9805814853
 20
13.3807167441
 30
0.0
 10
19.9740113167
 20
13.357038388
 30
0.0
  0
SPLINE
  5
3B3
100
AcDbEntity
  8
00_COMPONENTS_1
100
AcDbSpline
 62
7
  6
CONTINUOUS
 70
0
 71
3
 72
9
 73
5
 74
0
 42
0.0000001
 43
0.0000001
 44
0.0000000001
 40
0.0
 40
0.0
 40
0.0
 40
0.0
 40
0.6170239944
 40
1.0
 40
1.0
 40
1.0
 40
1.0
 10
19.9740113167
 20
13.357038388
 30
0.0
 10
19.9722136001
 20
13.3505595628
 30
0.0
 10
19.968936183
 20
13.3402641252
 30
0.0
 10
19.9639957115
 20
13.3301806217
 30
0.0
 10
19.9610447933
 20
13.3272297035
 30
0.0
  0
LINE
  5
3B4
100
AcDbEntity
  8
00_COMPONENTS_1
100
AcDbLine
 62
7
  6
CONTINUOUS
 10
15.5513494915
 20
12.9711366362
 11
15.5354347047
 21
12.971145227
  0
SPLINE
  5
3B5
100
AcDbEntity
  8
00_COMPONENTS_1
100
AcDbSpline
 62
7
  6
CONTINUOUS
 70
0
 71
3
 72
25
 73
21
 74
0
 42
0.0000001
 43
0.0000001
 44
0.0000000001
 40
0.0
 40
0.0
 40
0.0
 40
0.0
 40
0.0037808431
 40
0.0062292209
 40
0.0091303794
 40
0.0164109307
 40
0.025775456
 40
0.0372767735
 40
0.0509241121
 40
0.0667100534
 40
0.0846190027
 40
0.1266847288
 40
0.176800268
 40
0.2345738426
 40
0.2995132962
 40
0.3710799754
 40
0.4486555803
 40
0.6191283604
 40
0.805057934
 40
1.0
 40
1.0
 40
1.0
 40
1.0
 10
56.0367903414
 20
6.4265692004
 30
0.0
 10
56.0494278516
 20
6.4300079201
 30
0.0
 10
56.0678098791
 20
6.4435540395
 30
0.0
 10
56.0877748012
 20
6.4679216161
 30
0.0
 10
56.1111870456
 20
6.5050775773
 30
0.0
 10
56.1388319415
 20
6.5671179329
 30
0.0
 10
56.1696579995
 20
6.6596969957
 30
0.0
 10
56.1999205147
 20
6.7754255022
 30
0.0
 10
56.2296382265
 20
6.9141061541
 30
0.0
 10
56.2587161082
 20
7.0755268592
 30
0.0
 10
56.2987343657
 20
7.334916285
 30
0.0
 10
56.3453902812
 20
7.7134868392
 30
0.0
 10
56.3958379657
 20
8.230512665
 30
0.0
 10
56.4427767824
 20
8.8273843244
 30
0.0
 10
56.4860010443
 20
9.4990046454
 30
0.0
 10
56.525215326
 20
10.2395689099
 30
0.0
 10
56.5733192445
 20
11.345696794
 30
0.0
 10
56.6202227108
 20
12.8483375047
 30
0.0
 10
56.6568974586
 20
14.7579074074
 30
0.0
 10
56.6668453781
 20
16.0772490034
 30
0.0
 10
56.669957625
 20
16.7525294774
 30
0.0
  0
SPLINE
  5
3B6
100
AcDbEntity
  8
00_COMPONENTS_1
100
AcDbSpline
 62
7
  6
CONTINUOUS
 70
0
 71
3
 72
18
 73
14
 74
0
 42
0.0000001
 43
0.0000001
 44
0.0000000001
 40
0.0
 40
0.0
 40
0.0
 40
0.0
 40
0.0054855281
 40
0.0192051686
 40
0.041623593
 40
0.0726439495
 40
0.1120983317
 40
0.1598005483
 40
0.2791699532
 40
0.4286310867
 40
0.6032201935
 40
0.796616414
 40
1.0
 40
1.0
 40
1.0
 40
1.0
 10
15.0541849471
 20
12.9899579612
 30
0.0
 10
15.0540707487
 20
12.9890829246
 30
0.0
 10
15.057959732
 20
12.9874236871
 30
0.0
 10
15.0635956383
 20
12.9862448668
 30
0.0
 10
15.074781175
 20
12.9844821872
 30
0.0
 10
15.0894265241
 20
12.9829594746
 30
0.0
 10
15.1084558412
 20
12.9813595685
 30
0.0
 10
15.1415703441
 20
12.9791850333
 30
0.0
 10
15.1924637246
 20
12.9767959505
 30
0.0
 10
15.2637509959
 20
12.9745165258
 30
0.0
 10
15.3469782536
 20
12.97272584
 30
0.0
 10
15.438886249
 20
12.9715244175
 30
0.0
 10
15.502716408
 20
12.9711845178
 30
0.0
 10
15.5354347047
 20
12.971145227
 30
0.0
  0
SPLINE
  5
3B7
100
AcDbEntity
  8
00_COMPONENTS_1
100
AcDbSpline
 62
7
  6
CONTINUOUS
 70
0
 71
3
 72
18
 73
14
 74
0
 42
0.0000001
 43
0.0000001
 44
0.0000000001
 40
0.0
 40
0.0
 40
0.0
 40
0.0
 40
0.0091957673
 40
0.0260314577
 40
0.0507100887
 40
0.0832165108
 40
0.123463707
 40
0.1712490086
 40
0.2884828737
 40
0.4328627398
 40
0.6017893959
 40
0.7922305178
 40
1.0
 40
1.0
 40
1.0
 40
1.0
 10
57.383358716
 20
20.0430573101
 30
0.0
 10
57.3821102339
 20
20.0442988258
 30
0.0
 10
57.3804148863
 20
20.0492489102
 30
0.0
 10
57.3781646449
 20
20.0585374615
 30
0.0
 10
57.3759700713
 20
20.0726271046
 30
0.0
 10
57.3737198253
 20
20.0911148862
 30
0.0
 10
57.3715216315
 20
20.1141034846
 30
0.0
 10
57.3684301298
 20
20.1532793702
 30
0.0
 10
57.3649136927
 20
20.2124232653
 30
0.0
 10
57.3612239914
 20
20.2947755477
 30
0.0
 10
57.3579334481
 20
20.3911733941
 30
0.0
 10
57.3551182539
 20
20.4997265965
 30
0.0
 10
57.3536468591
 20
20.5759578707
 30
0.0
 10
57.3529910026
 20
20.6157338089
 30
0.0
  0
SPLINE
  5
3B8
100
AcDbEntity
  8
00_COMPONENTS_1
100
AcDbSpline
 62
7
  6
CONTINUOUS
 70
0
 71
3
 72
9
 73
5
 74
0
 42
0.0000001
 43
0.0000001
 44
0.0000000001
 40
0.0
 40
0.0
 40
0.0
 40
0.0
 40
0.5406731307
 40
1.0
 40
1.0
 40
1.0
 40
1.0
 10
57.3529910026
 20
20.6157338089
 30
0.0
 10
57.3455605397
 20
21.0666724041
 30
0.0
 10
57.3283310421
 20
21.900650783
 30
0.0
 10
57.3018526881
 20
22.7344089242
 30
0.0
 10
57.2861570516
 20
23.1172325308
 30
0.0
  0
SPLINE
  5
3B9
100
AcDbEntity
  8
00_COMPONENTS_1
100
AcDbSpline
 62
7
  6
CONTINUOUS
 70
0
 71
3
 72
22
 73
18
 74
0
 42
0.0000001
 43
0.0000001
 44
0.0000000001
 40
0.0
 40
0.0
 40
0.0
 40
0.0
 40
0.2106429881
 40
0.4017296114
 40
0.5702130489
 40
0.6451858149
 40
0.7135907809
 40
0.7751544794
 40
0.8296562784
 40
0.8768912501
 40
0.9166859006
 40
0.9489170958
 40
0.9734889017
 40
0.9829014289
 40
0.9904174763
 40
0.9960794055
 40
1.0
 40
1.0
 40
1.0
 40
1.0
 10
57.4470572591
 20
23.1028509548
 30
0.0
 10
57.439175934
 20
23.4773300911
 30
0.0
 10
57.4221370175
 20
24.1914819953
 30
0.0
 10
57.3909632748
 20
25.2049548019
 30
0.0
 10
57.3606439255
 20
25.9770718195
 30
0.0
 10
57.3339770577
 20
26.5309802997
 30
0.0
 10
57.3139652169
 20
26.8948576054
 30
0.0
 10
57.2932346407
 20
27.2222286113
 30
0.0
 10
57.2718934608
 20
27.5118292271
 30
0.0
 10
57.2500407544
 20
27.7625543052
 30
0.0
 10
57.2278270845
 20
27.9734800068
 30
0.0
 10
57.2053546125
 20
28.1437771764
 30
0.0
 10
57.1853620915
 20
28.259908475
 30
0.0
 10
57.1683842344
 20
28.3317305785
 30
0.0
 10
57.1568397261
 20
28.370284534
 30
0.0
 10
57.1454373248
 20
28.3984353086
 30
0.0
 10
57.1363726386
 20
28.4132291053
 30
0.0
 10
57.1314430156
 20
28.4181587284
 30
0.0
  0
SPLINE
  5
3BA
100
AcDbEntity
  8
00_COMPONENTS_1
100
AcDbSpline
 62
7
  6
CONTINUOUS
 70
0
 71
3
 72
22
 73
18
 74
0
 42
0.0000001
 43
0.0000001
 44
0.0000000001
 40
0.0
 40
0.0
 40
0.0
 40
0.0
 40
0.0039205952
 40
0.0095825255
 40
0.0170985741
 40
0.0265111026
 40
0.051082911
 40
0.0833141079
 40
0.1231087594
 40
0.1703437319
 40
0.2248455313
 40
0.2864092299
 40
0.3548141957
 40
0.429786961
 40
0.5982703964
 40
0.7893570163
 40
1.0
 40
1.0
 40
1.0
 40
1.0
 10
11.8729281512
 20
28.4181587192
 30
0.0
 10
11.8679985281
 20
28.4132290944
 30
0.0
 10
11.8589338423
 20
28.3984352939
 30
0.0
 10
11.8475314413
 20
28.3702845134
 30
0.0
 10
11.8359869335
 20
28.3317305512
 30
0.0
 10
11.8190090771
 20
28.2599084385
 30
0.0
 10
11.7990165567
 20
28.1437771305
 30
0.0
 10
11.7765440852
 20
27.9734799519
 30
0.0
 10
11.7543304158
 20
27.7625542445
 30
0.0
 10
11.73247771
 20
27.5118291628
 30
0.0
 10
11.7111365308
 20
27.2222285452
 30
0.0
 10
11.6904059551
 20
26.8948575395
 30
0.0
 10
11.670394115
 20
26.5309802359
 30
0.0
 10
11.643727248
 20
25.9770717625
 30
0.0
 10
11.6134078996
 20
25.2049547578
 30
0.0
 10
11.5822341579
 20
24.1914819713
 30
0.0
 10
11.5651952417
 20
23.4773300824
 30
0.0
 10
11.5573139168
 20
23.1028509547
 30
0.0
  0
SPLINE
  5
3BB
100
AcDbEntity
  8
00_COMPONENTS_1
100
AcDbSpline
 62
7
  6
CONTINUOUS
 70
0
 71
3
 72
18
 73
14
 74
0
 42
0.0000001
 43
0.0000001
 44
0.0000000001
 40
0.0
 40
0.0
 40
0.0
 40
0.0
 40
0.2196795527
 40
0.4167881696
 40
0.5882266333
 40
0.7317709123
 40
0.845572664
 40
0.8909234962
 40
0.9284004127
 40
0.9579081188
 40
0.9794577854
 40
0.9932012553
 40
1.0
 40
1.0
 40
1.0
 40
1.0
 10
11.5180968485
 20
21.8867056793
 30
0.0
 10
11.4149011095
 20
21.8840030967
 30
0.0
 10
11.2191265706
 20
21.8782879391
 30
0.0
 10
10.9428933393
 20
21.8681521705
 30
0.0
 10
10.7025007959
 20
21.8570258502
 30
0.0
 10
10.5013663403
 20
21.8451078488
 30
0.0
 10
10.3595113316
 20
21.8340413202
 30
0.0
 10
10.2676379959
 20
21.8245158102
 30
0.0
 10
10.2151897646
 20
21.817769043
 30
0.0
 10
10.1743220737
 20
21.8112304062
 30
0.0
 10
10.144090399
 20
21.8042304638
 30
0.0
 10
10.1262332664
 20
21.7986010144
 30
0.0
 10
10.1167874441
 20
21.7921064578
 30
0.0
 10
10.1164876418
 20
21.788925711
 30
0.0
  0
SPLINE
  5
3BC
100
AcDbEntity
  8
00_COMPONENTS_1
100
AcDbSpline
 62
7
  6
CONTINUOUS
 70
0
 71
3
 72
13
 73
9
 74
0
 42
0.0000001
 43
0.0000001
 44
0.0000000001
 40
0.0
 40
0.0
 40
0.0
 40
0.0
 40
0.2490101041
 40
0.3738042983
 40
0.4988053057
 40
0.6240128573
 40
0.7493627135
 40
1.0
 40
1.0
 40
1.0
 40
1.0
 10
12.0974732746
 20
18.9284451869
 30
0.0
 10
12.132331953
 20
18.8065960797
 30
0.0
 10
12.1823533685
 20
18.6229367994
 30
0.0
 10
12.2367546401
 20
18.3748942237
 30
0.0
 10
12.2698412458
 20
18.1868691839
 30
0.0
 10
12.2960247887
 20
17.9974816488
 30
0.0
 10
12.3229616739
 20
17.7438164401
 30
0.0
 10
12.3333338218
 20
17.5524050682
 30
0.0
 10
12.3333338195
 20
17.4248396331
 30
0.0
  0
SPLINE
  5
3BD
100
AcDbEntity
  8
00_COMPONENTS_1
100
AcDbSpline
 62
7
  6
CONTINUOUS
 70
0
 71
3
 72
20
 73
16
 74
0
 42
0.0000001
 43
0.0000001
 44
0.0000000001
 40
0.0
 40
0.0
 40
0.0
 40
0.0
 40
0.2026055208
 40
0.3908561167
 40
0.5602209645
 40
0.7064558317
 40
0.7697717141
 40
0.8260089183
 40
0.8748254831
 40
0.9159574437
 40
0.9491517191
 40
0.9742149734
 40
0.9910941805
 40
0.99650285
 40
1.0
 40
1.0
 40
1.0
 40
1.0
 10
13.7764863951
 20
28.9352274461
 30
0.0
 10
13.6782441948
 20
28.9342512848
 30
0.0
 10
13.4887252124
 20
28.9318238577
 30
0.0
 10
13.2171127042
 20
28.9265605952
 30
0.0
 10
12.9728741304
 20
28.9199239109
 30
0.0
 10
12.7892521134
 20
28.9131264065
 30
0.0
 10
12.6605130335
 20
28.9069528445
 30
0.0
 10
12.5789987002
 20
28.9023211415
 30
0.0
 10
12.5082696951
 20
28.8975019988
 30
0.0
 10
12.448768602
 20
28.89252458
 30
0.0
 10
12.4008091499
 20
28.8874854163
 30
0.0
 10
12.3647794415
 20
28.8823440272
 30
0.0
 10
12.3421412393
 20
28.8778526773
 30
0.0
 10
12.3303616082
 20
28.8737830168
 30
0.0
 10
12.326460239
 20
28.871690807
 30
0.0
 10
12.3252611056
 20
28.8704916736
 30
0.0
  0
SPLINE
  5
3BE
100
AcDbEntity
  8
00_COMPONENTS_1
100
AcDbSpline
 62
7
  6
CONTINUOUS
 70
0
 71
3
 72
22
 73
18
 74
0
 42
0.0000001
 43
0.0000001
 44
0.0000000001
 40
0.0
 40
0.0
 40
0.0
 40
0.0
 40
0.0021959408
 40
0.0066583779
 40
0.0134275655
 40
0.0224977486
 40
0.0338544707
 40
0.0474804712
 40
0.0814441124
 40
0.1240485067
 40
0.1748728317
 40
0.2334859203
 40
0.2993261694
 40
0.4500304821
 40
0.6214119682
 40
0.8072609866
 40
1.0
 40
1.0
 40
1.0
 40
1.0
 10
16.1066118905
 20
74.1204133306
 30
0.0
 10
16.1060941223
 20
74.1209310988
 30
0.0
 10
16.1037709396
 20
74.1214394076
 30
0.0
 10
16.0994936784
 20
74.1222942242
 30
0.0
 10
16.0927005818
 20
74.1230423229
 30
0.0
 10
16.0836959219
 20
74.1238693763
 30
0.0
 10
16.0723587663
 20
74.1246702278
 30
0.0
 10
16.0527417411
 20
74.1258299179
 30
0.0
 10
16.0226926544
 20
74.1271782656
 30
0.0
 10
15.9802407249
 20
74.128662929
 30
0.0
 10
15.9295613949
 20
74.1300767653
 30
0.0
 10
15.8711302588
 20
74.1314051967
 30
0.0
 10
15.7793949026
 20
74.1331197642
 30
0.0
 10
15.6500526157
 20
74.1348890223
 30
0.0
 10
15.480688529
 20
74.1364137591
 30
0.0
 10
15.2973035944
 20
74.1373517559
 30
0.0
 10
15.1710635895
 20
74.1375643085
 30
0.0
 10
15.1067949057
 20
74.1375643085
 30
0.0
  0
SPLINE
  5
3BF
100
AcDbEntity
  8
00_COMPONENTS_1
100
AcDbSpline
 62
7
  6
CONTINUOUS
 70
0
 71
3
 72
17
 73
13
 74
0
 42
0.0000001
 43
0.0000001
 44
0.0000000001
 40
0.0
 40
0.0
 40
0.0
 40
0.0
 40
0.0105996929
 40
0.0281110335
 40
0.052834256
 40
0.0848246702
 40
0.1705288281
 40
0.284625152
 40
0.4260215251
 40
0.59350487
 40
0.7854361128
 40
1.0
 40
1.0
 40
1.0
 40
1.0
 10
56.6791100704
 20
28.8704916736
 30
0.0
 10
56.6775198799
 20
28.8720818641
 30
0.0
 10
56.6719227621
 20
28.8746601277
 30
0.0
 10
56.6612693766
 20
28.8778626081
 30
0.0
 10
56.6458011127
 20
28.8811062186
 30
0.0
 10
56.6159957808
 20
28.8859518901
 30
0.0
 10
56.5670965314
 20
28.8915215458
 30
0.0
 10
56.4949758931
 20
28.8976780588
 30
0.0
 10
56.4054234639
 20
28.9036061584
 30
0.0
 10
56.2993188667
 20
28.9092452035
 30
0.0
 10
56.177653847
 20
28.9145207606
 30
0.0
 10
56.0914645226
 20
28.917594846
 30
0.0
 10
56.0459660933
 20
28.9190794756
 30
0.0
  0
SPLINE
  5
3C0
100
AcDbEntity
  8
00_COMPONENTS_1
100
AcDbSpline
 62
7
  6
CONTINUOUS
 70
0
 71
3
 72
15
 73
11
 74
0
 42
0.0000001
 43
0.0000001
 44
0.0000000001
 40
0.0
 40
0.0
 40
0.0
 40
0.0
 40
0.0689728671
 40
0.15285929
 40
0.2579378906
 40
0.384529082
 40
0.52956907
 40
0.6858951178
 40
0.8451464073
 40
1.0
 40
1.0
 40
1.0
 40
1.0
 10
57.352991435
 20
20.615729358
 30
0.0
 10
57.3510350744
 20
20.5892447278
 30
0.0
 10
57.3331521665
 20
20.5312746758
 30
0.0
 10
57.2711728833
 20
20.4517440718
 30
0.0
 10
57.1734276676
 20
20.3780004336
 30
0.0
 10
57.043576856
 20
20.3121179774
 30
0.0
 10
56.8871445693
 20
20.2590136764
 30
0.0
 10
56.7139423159
 20
20.2196413446
 30
0.0
 10
56.5341275881
 20
20.1960789565
 30
0.0
 10
56.413217578
 20
20.1897944418
 30
0.0
 10
56.3535993427
 20
20.1889909961
 30
0.0
  0
SPLINE
  5
3C1
100
AcDbEntity
  8
00_COMPONENTS_1
100
AcDbSpline
 62
7
  6
CONTINUOUS
 70
0
 71
3
 72
11
 73
7
 74
0
 42
0.0000001
 43
0.0000001
 44
0.0000000001
 40
0.0
 40
0.0
 40
0.0
 40
0.0
 40
0.261533872
 40
0.514594639
 40
0.7591560222
 40
1.0
 40
1.0
 40
1.0
 40
1.0
 10
57.4862743274
 20
19.9401417207
 30
0.0
 10
57.4862743274
 20
19.8429590202
 30
0.0
 10
57.4588389129
 20
19.6506628745
 30
0.0
 10
57.3426028318
 20
19.3899145501
 30
0.0
 10
57.1660652002
 20
19.1756719832
 30
0.0
 10
57.0161584748
 20
19.0707209447
 30
0.0
 10
56.9365221658
 20
19.0298878581
 30
0.0
  0
SPLINE
  5
3C2
100
AcDbEntity
  8
00_COMPONENTS_1
100
AcDbSpline
 62
7
  6
CONTINUOUS
 70
0
 71
3
 72
18
 73
14
 74
0
 42
0.0000001
 43
0.0000001
 44
0.0000000001
 40
0.0
 40
0.0
 40
0.0
 40
0.0
 40
0.218251948
 40
0.4139792885
 40
0.5847662342
 40
0.7282068274
 40
0.8421545305
 40
0.8877185682
 40
0.9255565272
 40
0.9555995091
 40
0.9778224088
 40
0.9923407013
 40
1.0
 40
1.0
 40
1.0
 40
1.0
 10
57.4862689619
 20
21.4003689564
 30
0.0
 10
57.5887929183
 20
21.3973002326
 30
0.0
 10
57.783241358
 20
21.3908111664
 30
0.0
 10
58.0578200204
 20
21.3792989461
 30
0.0
 10
58.2971572098
 20
21.3667001034
 30
0.0
 10
58.4979293224
 20
21.353215884
 30
0.0
 10
58.6397927494
 20
21.3406729346
 30
0.0
 10
58.7318872383
 20
21.3298698556
 30
0.0
 10
58.784721889
 20
21.3222333074
 30
0.0
 10
58.8262486382
 20
21.3147566966
 30
0.0
 10
58.8570973282
 20
21.3069223916
 30
0.0
 10
58.8760280984
 20
21.300232514
 30
0.0
 10
58.8856394078
 20
21.2930891828
 30
0.0
 10
58.886239641
 20
21.2895400098
 30
0.0
  0
SPLINE
  5
3C3
100
AcDbEntity
  8
00_COMPONENTS_1
100
AcDbSpline
 62
7
  6
CONTINUOUS
 70
0
 71
3
 72
18
 73
14
 74
0
 42
0.0000001
 43
0.0000001
 44
0.0000000001
 40
0.0
 40
0.0
 40
0.0
 40
0.0
 40
0.2056645556
 40
0.3991193576
 40
0.5708935074
 40
0.7162302731
 40
0.8328670118
 40
0.8799840518
 40
0.9194938183
 40
0.9513015936
 40
0.9753214492
 40
0.9915054766
 40
1.0
 40
1.0
 40
1.0
 40
1.0
 10
57.4862742425
 20
21.4003690218
 30
0.0
 10
57.4862742403
 20
21.4351623974
 30
0.0
 10
57.4865735023
 20
21.5026840066
 30
0.0
 10
57.4878582719
 20
21.5992576399
 30
0.0
 10
57.4898537157
 20
21.6856121004
 30
0.0
 10
57.4923955664
 20
21.7589472687
 30
0.0
 10
57.4949646092
 20
21.8111822392
 30
0.0
 10
57.4972860045
 20
21.8454858301
 30
0.0
 10
57.4989449154
 20
21.8654677675
 30
0.0
 10
57.5006649718
 20
21.8814705569
 30
0.0
 10
57.5023192047
 20
21.8936306732
 30
0.0
 10
57.5040767406
 20
21.9015160483
 30
0.0
 10
57.505319455
 20
21.90575192
 30
0.0
 10
57.5063360368
 20
21.9067676536
 30
0.0
  0
SPLINE
  5
3C4
100
AcDbEntity
  8
00_COMPONENTS_1
100
AcDbSpline
 62
7
  6
CONTINUOUS
 70
0
 71
3
 72
10
 73
6
 74
0
 42
0.0000001
 43
0.0000001
 44
0.0000000001
 40
0.0
 40
0.0
 40
0.0
 40
0.0
 40
0.1921496609
 40
0.425829471
 40
1.0
 40
1.0
 40
1.0
 40
1.0
 10
58.9512388321
 20
21.8516718408
 30
0.0
 10
58.8588368869
 20
21.8580128017
 30
0.0
 10
58.6538931153
 20
21.8695892545
 30
0.0
 10
58.1723096807
 20
21.8901654219
 30
0.0
 10
57.7830303511
 20
21.9007314314
 30
0.0
 10
57.5063366659
 20
21.9067680251
 30
0.0
  0
SPLINE
  5
3C5
100
AcDbEntity
  8
00_COMPONENTS_1
100
AcDbSpline
 62
7
  6
CONTINUOUS
 70
0
 71
3
 72
11
 73
7
 74
0
 42
0.0000001
 43
0.0000001
 44
0.0000000001
 40
0.0
 40
0.0
 40
0.0
 40
0.0
 40
0.2510868998
 40
0.5019172358
 40
0.7518174201
 40
1.0
 40
1.0
 40
1.0
 40
1.0
 10
14.5361186993
 20
65.3963980791
 30
0.0
 10
14.4559880002
 20
65.4955742379
 30
0.0
 10
14.3147546798
 20
65.7099082767
 30
0.0
 10
14.165819417
 20
66.0635379321
 30
0.0
 10
14.0801111769
 20
66.4358022529
 30
0.0
 10
14.0629609687
 20
66.6892919308
 30
0.0
 10
14.0637541157
 20
66.8153169282
 30
0.0
  0
SPLINE
  5
3C6
100
AcDbEntity
  8
00_COMPONENTS_1
100
AcDbSpline
 62
7
  6
CONTINUOUS
 70
0
 71
3
 72
22
 73
18
 74
0
 42
0.0000001
 43
0.0000001
 44
0.0000000001
 40
0.0
 40
0.0
 40
0.0
 40
0.0
 40
0.0021960819
 40
0.0066589076
 40
0.0134286503
 40
0.022499474
 40
0.0338568412
 40
0.0474834109
 40
0.0814470183
 40
0.1240494028
 40
0.1748713239
 40
0.2334830057
 40
0.2993227932
 40
0.4500292517
 40
0.621415163
 40
0.8072623876
 40
1.0
 40
1.0
 40
1.0
 40
1.0
 10
52.8977592838
 20
74.1204133289
 30
0.0
 10
52.8982770852
 20
74.1209311303
 30
0.0
 10
52.9006004945
 20
74.1214393835
 30
0.0
 10
52.9048780925
 20
74.122294218
 30
0.0
 10
52.9116717379
 20
74.1230422796
 30
0.0
 10
52.9206770087
 20
74.1238693176
 30
0.0
 10
52.9320147862
 20
74.1246701445
 30
0.0
 10
52.9516322054
 20
74.1258297796
 30
0.0
 10
52.9816807957
 20
74.1271781171
 30
0.0
 10
53.0241312322
 20
74.1286628707
 30
0.0
 10
53.0748086112
 20
74.1300767956
 30
0.0
 10
53.1332383126
 20
74.131405298
 30
0.0
 10
53.2249737464
 20
74.1331199844
 30
0.0
 10
53.3543180514
 20
74.1348893506
 30
0.0
 10
53.523683708
 20
74.1364140564
 30
0.0
 10
53.7070690281
 20
74.1373519255
 30
0.0
 10
53.8333079503
 20
74.1375643085
 30
0.0
 10
53.897576158
 20
74.1375643085
 30
0.0
  0
SPLINE
  5
3C7
100
AcDbEntity
  8
00_COMPONENTS_1
100
AcDbSpline
 62
7
  6
CONTINUOUS
 70
0
 71
3
 72
11
 73
7
 74
0
 42
0.0000001
 43
0.0000001
 44
0.0000000001
 40
0.0
 40
0.0
 40
0.0
 40
0.0
 40
0.2995595903
 40
0.5548631566
 40
0.7839914377
 40
1.0
 40
1.0
 40
1.0
 40
1.0
 10
15.7942864503
 20
72.816894804
 30
0.0
 10
15.8409228991
 20
72.8176655301
 30
0.0
 10
15.9289549721
 20
72.7992838405
 30
0.0
 10
16.0302403154
 20
72.72600256
 30
0.0
 10
16.0905457488
 20
72.6323569072
 30
0.0
 10
16.1055051608
 20
72.56292642
 30
0.0
 10
16.1066113446
 20
72.5293110813
 30
0.0
  0
SPLINE
  5
3C8
100
AcDbEntity
  8
00_COMPONENTS_1
100
AcDbSpline
 62
7
  6
CONTINUOUS
 70
0
 71
3
 72
13
 73
9
 74
0
 42
0.0000001
 43
0.0000001
 44
0.0000000001
 40
0.0
 40
0.0
 40
0.0
 40
0.0
 40
0.3416916193
 40
0.6439933861
 40
0.7691509769
 40
0.8721469276
 40
0.9498579592
 40
1.0
 40
1.0
 40
1.0
 40
1.0
 10
16.1592811723
 20
73.2675069751
 30
0.0
 10
16.1592811723
 20
73.1560026919
 30
0.0
 10
16.1586745132
 20
72.9458482672
 30
0.0
 10
16.1564137735
 20
72.6948573689
 30
0.0
 10
16.1535691267
 20
72.5217778914
 30
0.0
 10
16.1513129535
 20
72.421986434
 30
0.0
 10
16.1487760613
 20
72.3467012315
 30
0.0
 10
16.1467649319
 20
72.3050135368
 30
0.0
 10
16.1454068701
 20
72.2887071308
 30
0.0
  0
SPLINE
  5
3C9
100
AcDbEntity
  8
00_COMPONENTS_1
100
AcDbSpline
 62
7
  6
CONTINUOUS
 70
0
 71
3
 72
15
 73
11
 74
0
 42
0.0000001
 43
0.0000001
 44
0.0000000001
 40
0.0
 40
0.0
 40
0.0
 40
0.0
 40
0.3495469199
 40
0.5071031656
 40
0.6485978542
 40
0.7710068305
 40
0.8717176566
 40
0.9485985745
 40
0.9775674928
 40
1.0
 40
1.0
 40
1.0
 40
1.0
 10
16.026844557
 20
65.4043595624
 30
0.0
 10
16.0295828365
 20
66.2066865228
 30
0.0
 10
16.036396978
 20
67.3706532427
 30
0.0
 10
16.0524013847
 20
68.8593274464
 30
0.0
 10
16.0665349722
 20
69.8266233687
 30
0.0
 10
16.0828094969
 20
70.6633886207
 30
0.0
 10
16.100886167
 20
71.3517586088
 30
0.0
 10
16.1179521968
 20
71.8256039606
 30
0.0
 10
16.1332187816
 20
72.1196640194
 30
0.0
 10
16.1411333424
 20
72.2373943831
 30
0.0
 10
16.1454068701
 20
72.2887071308
 30
0.0
  0
SPLINE
  5
3CA
100
AcDbEntity
  8
00_COMPONENTS_1
100
AcDbSpline
 62
7
  6
CONTINUOUS
 70
0
 71
3
 72
15
 73
11
 74
0
 42
0.0000001
 43
0.0000001
 44
0.0000000001
 40
0.0
 40
0.0
 40
0.0
 40
0.0
 40
0.0224312204
 40
0.0514013598
 40
0.1282848669
 40
0.2289976342
 40
0.3514114625
 40
0.492911161
 40
0.6504677205
 40
1.0
 40
1.0
 40
1.0
 40
1.0
 10
17.3589644258
 20
72.2887399606
 30
0.0
 10
17.3632396679
 20
72.2374066287
 30
0.0
 10
17.3711563454
 20
72.1196223182
 30
0.0
 10
17.3864269034
 20
71.8254214733
 30
0.0
 10
17.40349822
 20
71.3513455404
 30
0.0
 10
17.4215792119
 20
70.6626382467
 30
0.0
 10
17.4378562809
 20
69.8254620991
 30
0.0
 10
17.451990503
 20
68.8576991772
 30
0.0
 10
17.4679933744
 20
67.3683636566
 30
0.0
 10
17.4748027392
 20
66.2038960649
 30
0.0
 10
17.4775374968
 20
65.4012348093
 30
0.0
  0
SPLINE
  5
3CB
100
AcDbEntity
  8
00_COMPONENTS_1
100
AcDbSpline
 62
7
  6
CONTINUOUS
 70
0
 71
3
 72
13
 73
9
 74
0
 42
0.0000001
 43
0.0000001
 44
0.0000000001
 40
0.0
 40
0.0
 40
0.0
 40
0.0
 40
0.0501313126
 40
0.1278263171
 40
0.2308217123
 40
0.3559873268
 40
0.6582983146
 40
1.0
 40
1.0
 40
1.0
 40
1.0
 10
17.3589644258
 20
72.2887399606
 30
0.0
 10
17.3576067001
 20
72.3050423316
 30
0.0
 10
17.3555948946
 20
72.3467198351
 30
0.0
 10
17.3530579188
 20
72.4219936111
 30
0.0
 10
17.3508019119
 20
72.5217789299
 30
0.0
 10
17.3479574821
 20
72.694858061
 30
0.0
 10
17.3456966193
 20
72.9458494612
 30
0.0
 10
17.3450900036
 20
73.1560031418
 30
0.0
 10
17.3450900036
 20
73.2675069751
 30
0.0
  0
LINE
  5
3CC
100
AcDbEntity
  8
00_COMPONENTS_1
100
AcDbLine
 62
7
  6
CONTINUOUS
 10
51.6592811723
 20
73.2675069751
 11
51.659264551
 21
73.2242160394
  0
LINE
  5
3CD
100
AcDbEntity
  8
00_COMPONENTS_1
100
AcDbLine
 62
7
  6
CONTINUOUS
 10
52.8450900036
 20
73.2675069751
 11
52.8451066096
 21
73.2242166409
  0
SPLINE
  5
3CE
100
AcDbEntity
  8
00_COMPONENTS_1
100
AcDbSpline
 62
7
  6
CONTINUOUS
 70
0
 71
3
 72
9
 73
5
 74
0
 42
0.0000001
 43
0.0000001
 44
0.0000000001
 40
0.0
 40
0.0
 40
0.0
 40
0.0
 40
0.5012076328
 40
1.0
 40
1.0
 40
1.0
 40
1.0
 10
36.1809719173
 20
62.5441472167
 30
0.0
 10
36.1814382348
 20
62.484871136
 30
0.0
 10
36.1602107122
 20
62.3656342405
 30
0.0
 10
36.0994162368
 20
62.260912398
 30
0.0
 10
36.0609723119
 20
62.2161669904
 30
0.0
  0
SPLINE
  5
3CF
100
AcDbEntity
  8
00_COMPONENTS_1
100
AcDbSpline
 62
7
  6
CONTINUOUS
 70
0
 71
3
 72
13
 73
9
 74
0
 42
0.0000001
 43
0.0000001
 44
0.0000000001
 40
0.0
 40
0.0
 40
0.0
 40
0.0
 40
0.3264366414
 40
0.6115993971
 40
0.7338157802
 40
0.8401899047
 40
0.9293222065
 40
1.0
 40
1.0
 40
1.0
 40
1.0
 10
14.0710491291
 20
67.6894355894
 30
0.0
 10
14.0769945531
 20
68.2583287417
 30
0.0
 10
14.0925803241
 20
69.3241444609
 30
0.0
 10
14.1244059187
 20
70.6027051862
 30
0.0
 10
14.1570322809
 20
71.4975050781
 30
0.0
 10
14.1824993541
 20
72.0506704453
 30
0.0
 10
14.2098396517
 20
72.5137883324
 30
0.0
 10
14.2313961238
 20
72.7915135882
 30
0.0
 10
14.24316044
 20
72.9141300421
 30
0.0
  0
SPLINE
  5
3D0
100
AcDbEntity
  8
00_COMPONENTS_1
100
AcDbSpline
 62
7
  6
CONTINUOUS
 70
0
 71
3
 72
10
 73
6
 74
0
 42
0.0000001
 43
0.0000001
 44
0.0000000001
 40
0.0
 40
0.0
 40
0.0
 40
0.0
 40
0.2501457793
 40
0.6252375309
 40
1.0
 40
1.0
 40
1.0
 40
1.0
 10
12.3332821436
 20
17.424839556
 30
0.0
 10
12.3333658473
 20
17.3687815284
 30
0.0
 10
12.3337369195
 20
17.2286650823
 30
0.0
 10
12.3333178507
 20
17.0045629406
 30
0.0
 10
12.3340366684
 20
16.8365201741
 30
0.0
 10
12.3344239815
 20
16.7525361673
 30
0.0
  0
SPLINE
  5
3D1
100
AcDbEntity
  8
00_COMPONENTS_1
100
AcDbSpline
 62
7
  6
CONTINUOUS
 70
0
 71
3
 72
25
 73
21
 74
0
 42
0.0000001
 43
0.0000001
 44
0.0000000001
 40
0.0
 40
0.0
 40
0.0
 40
0.0
 40
0.194942962
 40
0.3808732579
 40
0.5513462304
 40
0.6289218399
 40
0.7004884748
 40
0.765427964
 40
0.8232016485
 40
0.8733173685
 40
0.9153832356
 40
0.9332921816
 40
0.949078066
 40
0.9627252684
 40
0.9742263425
 40
0.9835905005
 40
0.9908705857
 40
0.9937714828
 40
0.9962195944
 40
1.0
 40
1.0
 40
1.0
 40
1.0
 10
12.3344239815
 20
16.7525361673
 30
0.0
 10
12.3375382143
 20
16.0772535487
 30
0.0
 10
12.3475260767
 20
14.757908449
 30
0.0
 10
12.384216849
 20
12.8483355451
 30
0.0
 10
12.4310892253
 20
11.3456929033
 30
0.0
 10
12.479168503
 20
10.2395649603
 30
0.0
 10
12.5183753749
 20
9.4990013049
 30
0.0
 10
12.5616132259
 20
8.8273823684
 30
0.0
 10
12.6085765642
 20
8.2305123206
 30
0.0
 10
12.659046166
 20
7.7134878612
 30
0.0
 10
12.7057122652
 20
7.3349181515
 30
0.0
 10
12.7457278063
 20
7.0755284519
 30
0.0
 10
12.7747992314
 20
6.9141075543
 30
0.0
 10
12.8045073488
 20
6.7754266496
 30
0.0
 10
12.8347582176
 20
6.6596980061
 30
0.0
 10
12.8655717703
 20
6.5671189405
 30
0.0
 10
12.8932058745
 20
6.505078105
 30
0.0
 10
12.9166107767
 20
6.4679216408
 30
0.0
 10
12.9365701352
 20
6.443553921
 30
0.0
 10
12.9549493633
 20
6.4300075853
 30
0.0
 10
12.9675853452
 20
6.4265690908
 30
0.0
  0
SPLINE
  5
3D2
100
AcDbEntity
  8
00_COMPONENTS_1
100
AcDbSpline
 62
7
  6
CONTINUOUS
 70
0
 71
3
 72
15
 73
11
 74
0
 42
0.0000001
 43
0.0000001
 44
0.0000000001
 40
0.0
 40
0.0
 40
0.0
 40
0.0
 40
0.3195157205
 40
0.4699181222
 40
0.6094362071
 40
0.7348269305
 40
0.8432396088
 40
0.9322280291
 40
0.9688397916
 40
1.0
 40
1.0
 40
1.0
 40
1.0
 10
57.107321376
 20
65.4006142178
 30
0.0
 10
57.107321376
 20
66.2035554814
 30
0.0
 10
57.0920021635
 20
67.3845579023
 30
0.0
 10
57.0389016541
 20
68.9151922546
 30
0.0
 10
56.9856444874
 20
69.9575605299
 30
0.0
 10
56.9196289878
 20
70.8934734314
 30
0.0
 10
56.8425751285
 20
71.7010535695
 30
0.0
 10
56.7671558515
 20
72.2845065115
 30
0.0
 10
56.6998853582
 20
72.6727114821
 30
0.0
 10
56.6647078289
 20
72.8394187382
 30
0.0
 10
56.6464065983
 20
72.9155554961
 30
0.0
  0
SPLINE
  5
3D3
100
AcDbEntity
  8
00_COMPONENTS_1
100
AcDbSpline
 62
7
  6
CONTINUOUS
 70
0
 71
3
 72
10
 73
6
 74
0
 42
0.0000001
 43
0.0000001
 44
0.0000000001
 40
0.0
 40
0.0
 40
0.0
 40
0.0
 40
0.2496892516
 40
0.5000524152
 40
1.0
 40
1.0
 40
1.0
 40
1.0
 10
35.986423348
 20
75.8032634213
 30
0.0
 10
36.0167934474
 20
75.7804401449
 30
0.0
 10
36.0723384455
 20
75.7270634262
 30
0.0
 10
36.154404087
 20
75.5979170575
 30
0.0
 10
36.1815600351
 20
75.4815976608
 30
0.0
 10
36.1809743439
 20
75.4055332043
 30
0.0
  0
SPLINE
  5
3D4
100
AcDbEntity
  8
00_COMPONENTS_1
100
AcDbSpline
 62
7
  6
CONTINUOUS
 70
0
 71
3
 72
27
 73
23
 74
0
 42
0.0000001
 43
0.0000001
 44
0.0000000001
 40
0.0
 40
0.0
 40
0.0
 40
0.0
 40
0.0020535001
 40
0.0038090476
 40
0.0061313983
 40
0.0090415696
 40
0.0125496217
 40
0.0166608802
 40
0.0213778727
 40
0.0326212719
 40
0.0462544546
 40
0.0805534178
 40
0.1239119858
 40
0.1758540521
 40
0.2357928812
 40
0.3030568506
 40
0.376875693
 40
0.4564188891
 40
0.5407805229
 40
0.6290027558
 40
0.8129675413
 40
1.0
 40
1.0
 40
1.0
 40
1.0
 10
14.802185588
 20
6.4252965217
 30
0.0
 10
14.7936084623
 20
6.4252965216
 30
0.0
 10
14.7809526456
 20
6.4400301897
 30
0.0
 10
14.7703003052
 20
6.4621275401
 30
0.0
 10
14.7600898516
 20
6.4899307765
 30
0.0
 10
14.7501974906
 20
6.5249432292
 30
0.0
 10
14.740158199
 20
6.5678249472
 30
0.0
 10
14.7301748198
 20
6.6183659177
 30
0.0
 10
14.7160488012
 20
6.701017254
 30
0.0
 10
14.6990061616
 20
6.8234655567
 30
0.0
 10
14.6710961816
 20
7.0690672228
 30
0.0
 10
14.6386915682
 20
7.449053781
 30
0.0
 10
14.6033217785
 20
7.9892259521
 30
0.0
 10
14.5699584888
 20
8.6367946718
 30
0.0
 10
14.538982639
 20
9.3844195922
 30
0.0
 10
14.5108676781
 20
10.2235898895
 30
0.0
 10
14.4859413889
 20
11.1447757515
 30
0.0
 10
14.4645348957
 20
12.1374812411
 30
0.0
 10
14.4468903977
 20
13.1904295784
 30
0.0
 10
14.4284262564
 20
14.6795629649
 30
0.0
 10
14.4163134297
 20
16.5976272298
 30
0.0
 10
14.4178832269
 20
18.1472358505
 30
0.0
 10
14.4216474876
 20
18.9284299972
 30
0.0
  0
SPLINE
  5
3D5
100
AcDbEntity
  8
00_COMPONENTS_1
100
AcDbSpline
 62
7
  6
CONTINUOUS
 70
0
 71
3
 72
19
 73
15
 74
0
 42
0.0000001
 43
0.0000001
 44
0.0000000001
 40
0.0
 40
0.0
 40
0.0
 40
0.0
 40
0.0614129638
 40
0.1230024874
 40
0.1848849324
 40
0.2472171867
 40
0.3728292484
 40
0.5000005414
 40
0.6271714997
 40
0.7527840347
 40
0.8151195695
 40
0.8769998899
 40
0.9385773399
 40
1.0
 40
1.0
 40
1.0
 40
1.0
 10
34.5021857018
 20
18.8348576859
 30
0.0
 10
34.5900150681
 20
18.8348271463
 30
0.0
 10
34.7664319048
 20
18.8159875993
 30
0.0
 10
35.0197388931
 20
18.7341034327
 30
0.0
 10
35.251911581
 20
18.6009187878
 30
0.0
 10
35.5221136103
 20
18.3641193492
 30
0.0
 10
35.7665185735
 20
17.9711639882
 30
0.0
 10
35.8672629187
 20
17.4248368471
 30
0.0
 10
35.7665243217
 20
16.8785068636
 30
0.0
 10
35.5221050674
 20
16.4855504111
 30
0.0
 10
35.2518866973
 20
16.2487671424
 30
0.0
 10
35.0197389458
 20
16.1155774243
 30
0.0
 10
34.7664501549
 20
16.0336522163
 30
0.0
 10
34.5900286867
 20
16.0148418772
 30
0.0
 10
34.5021854484
 20
16.0148332895
 30
0.0
  0
SPLINE
  5
3D6
100
AcDbEntity
  8
00_COMPONENTS_1
100
AcDbSpline
 62
7
  6
CONTINUOUS
 70
0
 71
3
 72
13
 73
9
 74
0
 42
0.0000001
 43
0.0000001
 44
0.0000000001
 40
0.0
 40
0.0
 40
0.0
 40
0.0
 40
0.0368120415
 40
0.0963220515
 40
0.1811617121
 40
0.292104309
 40
0.5931835893
 40
1.0
 40
1.0
 40
1.0
 40
1.0
 10
19.9997481534
 20
13.4257569448
 30
0.0
 10
19.9975169189
 20
13.4268726049
 30
0.0
 10
19.9933155801
 20
13.4323668071
 30
0.0
 10
19.9885097999
 20
13.4435369901
 30
0.0
 10
19.9834789522
 20
13.4601846966
 30
0.0
 10
19.9760188666
 20
13.4929957323
 30
0.0
 10
19.9673203213
 20
13.547869912
 30
0.0
 10
19.9616815351
 20
13.5955009544
 30
0.0
 10
19.9587532057
 20
13.622913425
 30
0.0
  0
SPLINE
  5
3D7
100
AcDbEntity
  8
00_COMPONENTS_1
100
AcDbSpline
 62
7
  6
CONTINUOUS
 70
0
 71
3
 72
11
 73
7
 74
0
 42
0.0000001
 43
0.0000001
 44
0.0000000001
 40
0.0
 40
0.0
 40
0.0
 40
0.0
 40
0.3925151912
 40
0.687861188
 40
0.8877991898
 40
1.0
 40
1.0
 40
1.0
 40
1.0
 10
19.9725659647
 20
21.3338534225
 30
0.0
 10
19.9745534751
 20
21.3461559686
 30
0.0
 10
19.9783511549
 20
21.3675993742
 30
0.0
 10
19.9848970003
 20
21.3952722363
 30
0.0
 10
19.99106899
 20
21.4131077534
 30
0.0
 10
19.9965619615
 20
21.4223291814
 30
0.0
 10
19.9997481534
 20
21.4239223191
 30
0.0
  0
SPLINE
  5
3D8
100
AcDbEntity
  8
00_COMPONENTS_1
100
AcDbSpline
 62
7
  6
CONTINUOUS
 70
0
 71
3
 72
10
 73
6
 74
0
 42
0.0000001
 43
0.0000001
 44
0.0000000001
 40
0.0
 40
0.0
 40
0.0
 40
0.0
 40
0.499951015
 40
0.7503152485
 40
1.0
 40
1.0
 40
1.0
 40
1.0
 10
32.8233968204
 20
75.4055331929
 30
0.0
 10
32.8228119608
 20
75.4814914627
 30
0.0
 10
32.8498894269
 20
75.5976429401
 30
0.0
 10
32.9317328689
 20
75.726671836
 30
0.0
 10
32.9871312832
 20
75.780040482
 30
0.0
 10
33.0174275446
 20
75.8028721058
 30
0.0
  0
SPLINE
  5
3D9
100
AcDbEntity
  8
00_COMPONENTS_1
100
AcDbSpline
 62
7
  6
CONTINUOUS
 70
0
 71
3
 72
19
 73
15
 74
0
 42
0.0000001
 43
0.0000001
 44
0.0000000001
 40
0.0
 40
0.0
 40
0.0
 40
0.0
 40
0.0614129582
 40
0.1230025112
 40
0.1848851144
 40
0.2472175658
 40
0.3728296959
 40
0.5000003442
 40
0.6271713247
 40
0.7527838541
 40
0.8151194354
 40
0.8769998164
 40
0.9385773074
 40
1.0
 40
1.0
 40
1.0
 40
1.0
 10
34.5021854743
 20
16.0148215879
 30
0.0
 10
34.4143561144
 20
16.0148521391
 30
0.0
 10
34.2379392354
 20
16.0336916139
 30
0.0
 10
33.9846319927
 20
16.1155758996
 30
0.0
 10
33.7524588848
 20
16.2487609449
 30
0.0
 10
33.4822565624
 20
16.4855609993
 30
0.0
 10
33.237852379
 20
16.8785162291
 30
0.0
 10
33.1371083849
 20
17.4248424667
 30
0.0
 10
33.2378465196
 20
17.9711716246
 30
0.0
 10
33.4822656033
 20
18.3641283132
 30
0.0
 10
33.752484032
 20
18.6009117435
 30
0.0
 10
33.984631885
 20
18.7341017229
 30
0.0
 10
34.2379208661
 20
18.8160270205
 30
0.0
 10
34.4143424413
 20
18.8348373596
 30
0.0
 10
34.5021857276
 20
18.8348459578
 30
0.0
  0
SPLINE
  5
3DA
100
AcDbEntity
  8
00_COMPONENTS_1
100
AcDbSpline
 62
7
  6
CONTINUOUS
 70
0
 71
3
 72
9
 73
5
 74
0
 42
0.0000001
 43
0.0000001
 44
0.0000000001
 40
0.0
 40
0.0
 40
0.0
 40
0.0
 40
0.4988035726
 40
1.0
 40
1.0
 40
1.0
 40
1.0
 10
32.9432608305
 20
62.2163315928
 30
0.0
 10
32.90486295
 20
62.2610712032
 30
0.0
 10
32.8441486685
 20
62.3657493097
 30
0.0
 10
32.8229396221
 20
62.4849083755
 30
0.0
 10
32.8233952754
 20
62.5441473212
 30
0.0
  0
SPLINE
  5
3DB
100
AcDbEntity
  8
00_COMPONENTS_1
100
AcDbSpline
 62
7
  6
CONTINUOUS
 70
0
 71
3
 72
39
 73
35
 74
0
 42
0.0000001
 43
0.0000001
 44
0.0000000001
 40
0.0
 40
0.0
 40
0.0
 40
0.0
 40
0.0010418796
 40
0.0019019278
 40
0.0030301478
 40
0.0061295556
 40
0.0103797664
 40
0.0223603484
 40
0.0389144241
 40
0.0598860024
 40
0.0850890613
 40
0.1142720623
 40
0.1471660485
 40
0.183454559
 40
0.2227857013
 40
0.3090531242
 40
0.402654386
 40
0.4999924713
 40
0.5973303259
 40
0.6909315528
 40
0.777200826
 40
0.8165333671
 40
0.8528243122
 40
0.8857200549
 40
0.9149054336
 40
0.9401105026
 40
0.9610833866
 40
0.9776386719
 40
0.9896197763
 40
0.9938701672
 40
0.9969697273
 40
0.9980980055
 40
0.9989580957
 40
1.0
 40
1.0
 40
1.0
 40
1.0
 10
54.202185588
 20
13.425116065
 30
0.0
 10
54.2049706787
 20
13.425116065
 30
0.0
 10
54.2092091202
 20
13.4295068481
 30
0.0
 10
54.2128401216
 20
13.4364321155
 30
0.0
 10
54.217929144
 20
13.4492133125
 30
0.0
 10
54.223652543
 20
13.4711002206
 30
0.0
 10
54.2335974776
 20
13.5218685117
 30
0.0
 10
54.2447199525
 20
13.6088339656
 30
0.0
 10
54.2571857531
 20
13.7405927185
 30
0.0
 10
54.2691998769
 20
13.9078557301
 30
0.0
 10
54.2807218987
 20
14.1089714079
 30
0.0
 10
54.2915544949
 20
14.342035437
 30
0.0
 10
54.3015728851
 20
14.6047915937
 30
0.0
 10
54.3106698159
 20
14.8947230141
 30
0.0
 10
54.3217874407
 20
15.3273289241
 30
0.0
 10
54.3324469024
 20
15.9131924723
 30
0.0
 10
54.3401388655
 20
16.6541713204
 30
0.0
 10
54.3427366425
 20
17.4247785206
 30
0.0
 10
54.340139629
 20
18.1953856315
 30
0.0
 10
54.3324482274
 20
18.9363687182
 30
0.0
 10
54.321790037
 20
19.5222408858
 30
0.0
 10
54.3106721178
 20
19.9548619852
 30
0.0
 10
54.3015758134
 20
20.2448083757
 30
0.0
 10
54.2915566736
 20
20.5075820772
 30
0.0
 10
54.2807240602
 20
20.740662544
 30
0.0
 10
54.2692019903
 20
20.9417934693
 30
0.0
 10
54.2571870629
 20
21.1090685455
 30
0.0
 10
54.2447211301
 20
21.2408354525
 30
0.0
 10
54.2335978975
 20
21.3278059537
 30
0.0
 10
54.2236526761
 20
21.3785765289
 30
0.0
 10
54.2179292095
 20
21.4004644719
 30
0.0
 10
54.2128401504
 20
21.4132464098
 30
0.0
 10
54.2092091795
 20
21.4201720038
 30
0.0
 10
54.2049707446
 20
21.4245632013
 30
0.0
 10
54.202185588
 20
21.4245632013
 30
0.0
  0
SPLINE
  5
3DC
100
AcDbEntity
  8
00_COMPONENTS_1
100
AcDbSpline
 62
7
  6
CONTINUOUS
 70
0
 71
3
 72
27
 73
23
 74
0
 42
0.0000001
 43
0.0000001
 44
0.0000000001
 40
0.0
 40
0.0
 40
0.0
 40
0.0
 40
0.1870324424
 40
0.370997216
 40
0.4592194469
 40
0.5435810786
 40
0.6231242753
 40
0.6969431198
 40
0.7642070921
 40
0.8241459259
 40
0.8760879959
 40
0.91944657
 40
0.9537455373
 40
0.9673787224
 40
0.9786221234
 40
0.9833391162
 40
0.9874503751
 40
0.9909584278
 40
0.9938685998
 40
0.9961909513
 40
0.9979464994
 40
1.0
 40
1.0
 40
1.0
 40
1.0
 10
54.5827236875
 20
18.928429998
 30
0.0
 10
54.586487948
 20
18.147235918
 30
0.0
 10
54.5880577459
 20
16.5976274129
 30
0.0
 10
54.575944921
 20
14.6795632713
 30
0.0
 10
54.5574807843
 20
13.1904299495
 30
0.0
 10
54.539836287
 20
12.1374816247
 30
0.0
 10
54.5184297965
 20
11.1447761312
 30
0.0
 10
54.4935035087
 20
10.223590245
 30
0.0
 10
54.4653885481
 20
9.3844199066
 30
0.0
 10
54.4344127007
 20
8.6367949379
 30
0.0
 10
54.4010494076
 20
7.9892261563
 30
0.0
 10
54.3656796204
 20
7.4490539259
 30
0.0
 10
54.3332750044
 20
7.0690673145
 30
0.0
 10
54.3053650235
 20
6.8234656134
 30
0.0
 10
54.2883223831
 20
6.7010172914
 30
0.0
 10
54.2741963617
 20
6.6183659447
 30
0.0
 10
54.2642129807
 20
6.5678249687
 30
0.0
 10
54.2541736879
 20
6.5249432434
 30
0.0
 10
54.244281326
 20
6.4899307821
 30
0.0
 10
54.2340708717
 20
6.4621275359
 30
0.0
 10
54.2234185314
 20
6.4400301787
 30
0.0
 10
54.2107627155
 20
6.4252965
 30
0.0
 10
54.202185588
 20
6.4252965001
 30
0.0
  0
SPLINE
  5
3DD
100
AcDbEntity
  8
00_COMPONENTS_1
100
AcDbSpline
 62
7
  6
CONTINUOUS
 70
0
 71
3
 72
10
 73
6
 74
0
 42
0.0000001
 43
0.0000001
 44
0.0000000001
 40
0.0
 40
0.0
 40
0.0
 40
0.0
 40
0.1911439289
 40
0.4255291644
 40
1.0
 40
1.0
 40
1.0
 40
1.0
 10
56.2427880848
 20
23.1072466273
 30
0.0
 10
56.256462577
 20
22.9216633534
 30
0.0
 10
56.2809396762
 20
22.5080785295
 30
0.0
 10
56.3230146628
 20
21.5354309355
 30
0.0
 10
56.3429636722
 20
20.7481592845
 30
0.0
 10
56.3535997161
 20
20.1889897139
 30
0.0
  0
SPLINE
  5
3DE
100
AcDbEntity
  8
00_COMPONENTS_1
100
AcDbSpline
 62
7
  6
CONTINUOUS
 70
0
 71
3
 72
18
 73
14
 74
0
 42
0.0000001
 43
0.0000001
 44
0.0000000001
 40
0.0
 40
0.0
 40
0.0
 40
0.0
 40
0.2081565203
 40
0.3989407846
 40
0.5681496131
 40
0.7127360439
 40
0.8300753462
 40
0.8778645551
 40
0.9180740882
 40
0.9504863184
 40
0.9749862498
 40
0.9914961368
 40
1.0
 40
1.0
 40
1.0
 40
1.0
 10
56.3535993847
 20
20.1889899408
 30
0.0
 10
56.3542552247
 20
20.1094631854
 30
0.0
 10
56.3557255747
 20
19.9570483676
 30
0.0
 10
56.3585387012
 20
19.7399958883
 30
0.0
 10
56.361827792
 20
19.5472400874
 30
0.0
 10
56.3655190531
 20
19.3825606379
 30
0.0
 10
56.3690306717
 20
19.2642752174
 30
0.0
 10
56.3721296624
 20
19.1858891831
 30
0.0
 10
56.374311533
 20
19.1399221868
 30
0.0
 10
56.3766017841
 20
19.1029196004
 30
0.0
 10
56.3786869431
 20
19.0748589689
 30
0.0
 10
56.3811240579
 20
19.0562530516
 30
0.0
 10
56.3825086297
 20
19.0465768874
 30
0.0
 10
56.3839629024
 20
19.0436714935
 30
0.0
  0
SPLINE
  5
3DF
100
AcDbEntity
  8
00_COMPONENTS_1
100
AcDbSpline
 62
7
  6
CONTINUOUS
 70
0
 71
3
 72
10
 73
6
 74
0
 42
0.0000001
 43
0.0000001
 44
0.0000000001
 40
0.0
 40
0.0
 40
0.0
 40
0.0
 40
0.4986359119
 40
0.7491583583
 40
1.0
 40
1.0
 40
1.0
 40
1.0
 10
56.9365663561
 20
19.0299114518
 30
0.0
 10
56.85896057
 20
18.7699796726
 30
0.0
 10
56.7584747896
 20
18.3736865839
 30
0.0
 10
56.6841391455
 20
17.8342245987
 30
0.0
 10
56.6710900215
 20
17.5613032679
 30
0.0
 10
56.671090024
 20
17.4248395546
 30
0.0
  0
SPLINE
  5
3E0
100
AcDbEntity
  8
00_COMPONENTS_1
100
AcDbSpline
 62
7
  6
CONTINUOUS
 70
0
 71
3
 72
10
 73
6
 74
0
 42
0.0000001
 43
0.0000001
 44
0.0000000001
 40
0.0
 40
0.0
 40
0.0
 40
0.0
 40
0.2497951666
 40
0.6247989209
 40
1.0
 40
1.0
 40
1.0
 40
1.0
 10
56.669957625
 20
16.7525294774
 30
0.0
 10
56.6702156244
 20
16.8085089554
 30
0.0
 10
56.6709340791
 20
16.9485274474
 30
0.0
 10
56.6706234799
 20
17.1726321338
 30
0.0
 10
56.6709647205
 20
17.3407556207
 30
0.0
 10
56.671090024
 20
17.4248395546
 30
0.0
  0
SPLINE
  5
3E1
100
AcDbEntity
  8
00_COMPONENTS_1
100
AcDbSpline
 62
7
  6
CONTINUOUS
 70
0
 71
3
 72
11
 73
7
 74
0
 42
0.0000001
 43
0.0000001
 44
0.0000000001
 40
0.0
 40
0.0
 40
0.0
 40
0.0
 40
0.111938763
 40
0.3118079372
 40
0.6072467999
 40
1.0
 40
1.0
 40
1.0
 40
1.0
 10
49.0046230225
 20
21.4239223214
 30
0.0
 10
49.0078334301
 20
21.4223170759
 30
0.0
 10
49.0133549392
 20
21.4129953147
 30
0.0
 10
49.0195599644
 20
21.3949861555
 30
0.0
 10
49.0261408787
 20
21.3670192832
 30
0.0
 10
49.0299586603
 20
21.3453494002
 30
0.0
 10
49.0319567003
 20
21.3329151111
 30
0.0
  0
SPLINE
  5
3E2
100
AcDbEntity
  8
00_COMPONENTS_1
100
AcDbSpline
 62
7
  6
CONTINUOUS
 70
0
 71
3
 72
13
 73
9
 74
0
 42
0.0000001
 43
0.0000001
 44
0.0000000001
 40
0.0
 40
0.0
 40
0.0
 40
0.0
 40
0.4066666185
 40
0.7076730036
 40
0.8186196301
 40
0.9034938093
 40
0.9630741799
 40
1.0
 40
1.0
 40
1.0
 40
1.0
 10
49.0454027267
 20
13.6209047951
 30
0.0
 10
49.0424886866
 20
13.5937762553
 30
0.0
 10
49.0368773651
 20
13.5466365075
 30
0.0
 10
49.028223322
 20
13.492328885
 30
0.0
 10
49.0208031032
 20
13.4598531939
 30
0.0
 10
49.0157988916
 20
13.4433711054
 30
0.0
 10
49.0110166213
 20
13.4323039177
 30
0.0
 10
49.0068389259
 20
13.4268649417
 30
0.0
 10
49.0046230225
 20
13.4257569471
 30
0.0
  0
ELLIPSE
  5
3E3
100
AcDbEntity
  8
00_COMPONENTS_1
100
AcDbEllipse
 62
7
  6
CONTINUOUS
 10
17.1370413691
 20
74.8752117048
 30
0.0
 11
2.5
 21
0.0
 31
0.0
 40
0.3639702343
 41
1.5707963268
 42
3.1066860685
  0
ELLIPSE
  5
3E4
100
AcDbEntity
  8
00_COMPONENTS_1
100
AcDbEllipse
 62
7
  6
CONTINUOUS
 10
16.1303854392
 20
67.5224966517
 30
0.0
 11
0.2033789799
 21
2.1197670052
 31
0.0
 40
0.9391870936
 41
-3.0977828324
 42
-3.0517259577
  0
ELLIPSE
  5
3E5
100
AcDbEntity
  8
00_COMPONENTS_1
100
AcDbEllipse
 62
7
  6
CONTINUOUS
 10
51.8673298069
 20
74.8752117048
 30
0.0
 11
2.5
 21
0.0
 31
0.0
 40
0.3639702343
 41
0.034906585
 42
1.5707963268
  0
ELLIPSE
  5
3E6
100
AcDbEntity
  8
00_COMPONENTS_1
100
AcDbEllipse
 62
7
  6
CONTINUOUS
 10
14.3386909676
 20
65.3963980787
 30
0.0
 11
0.0
 21
6.0
 31
0.0
 40
0.0349207695
 41
0.3490658504
 42
1.1842768924
  0
ELLIPSE
  5
3E7
100
AcDbEntity
  8
00_COMPONENTS_1
100
AcDbEllipse
 62
7
  6
CONTINUOUS
 10
9.9847252032
 20
30.8135147677
 30
0.0
 11
0.0
 21
0.5
 31
0.0
 40
0.0349207695
 41
-2.617993878
 42
-1.5707963268
  0
ELLIPSE
  5
3E8
100
AcDbEntity
  8
00_COMPONENTS_1
100
AcDbEllipse
 62
7
  6
CONTINUOUS
 10
9.9498044337
 20
27.3494131526
 30
0.0
 11
0.0
 21
2.0
 31
0.0
 40
0.0349207695
 41
0.5235987756
 42
1.5707963268
  0
ELLIPSE
  5
3E9
100
AcDbEntity
  8
00_COMPONENTS_1
100
AcDbEllipse
 62
7
  6
CONTINUOUS
 10
9.9148836642
 20
22.9905284079
 30
0.0
 11
0.0
 21
1.0
 31
0.0
 40
0.0349207695
 41
-4.7123889804
 42
-3.1764992386
  0
ELLIPSE
  5
3EA
100
AcDbEntity
  8
00_COMPONENTS_1
100
AcDbEllipse
 62
7
  6
CONTINUOUS
 10
59.0196459727
 20
30.8135147677
 30
0.0
 11
-0.0
 21
0.5
 31
0.0
 40
0.0349207695
 41
-4.7123889804
 42
-3.6651914292
  0
ELLIPSE
  5
3EB
100
AcDbEntity
  8
00_COMPONENTS_1
100
AcDbEllipse
 62
7
  6
CONTINUOUS
 10
59.0894875117
 20
22.9905284079
 30
0.0
 11
0.0
 21
1.0
 31
0.0
 40
0.0349207695
 41
-3.1066860686
 42
-1.5707963268
  0
ELLIPSE
  5
3EC
100
AcDbEntity
  8
00_COMPONENTS_1
100
AcDbEllipse
 62
7
  6
CONTINUOUS
 10
59.0545667422
 20
27.3494131526
 30
0.0
 11
0.0
 21
2.0
 31
0.0
 40
0.0349207695
 41
-1.5707963268
 42
-0.5235987756
  0
ELLIPSE
  5
3ED
100
AcDbEntity
  8
00_COMPONENTS_1
100
AcDbEllipse
 62
7
  6
CONTINUOUS
 10
35.5002756692
 20
62.7267495519
 30
0.0
 11
-0.356249304
 21
0.3562493039
 31
0.0
 40
0.9924325091
 41
2.3599925884
 42
3.9231927187
  0
ELLIPSE
  5
3EE
100
AcDbEntity
  8
00_COMPONENTS_1
100
AcDbEllipse
 62
7
  6
CONTINUOUS
 10
35.5002756692
 20
75.2229297144
 30
0.0
 11
-0.3562493039
 21
-0.356249304
 31
0.0
 40
0.9924325091
 41
2.3599925884
 42
3.9231927187
  0
ELLIPSE
  5
3EF
100
AcDbEntity
  8
00_COMPONENTS_1
100
AcDbEllipse
 62
7
  6
CONTINUOUS
 10
33.5040955067
 20
75.2229297144
 30
0.0
 11
-0.356249304
 21
0.3562493039
 31
0.0
 40
0.9924325091
 41
-0.7816000651
 42
0.7816000651
  0
ELLIPSE
  5
3F0
100
AcDbEntity
  8
00_COMPONENTS_1
100
AcDbEllipse
 62
7
  6
CONTINUOUS
 10
16.0919060631
 20
80.097314241
 30
0.0
 11
2.0
 21
0.0
 31
0.0
 40
0.3639702343
 41
1.5707963268
 42
3.054326191
  0
ELLIPSE
  5
3F1
100
AcDbEntity
  8
00_COMPONENTS_1
100
AcDbEllipse
 62
7
  6
CONTINUOUS
 10
34.502185588
 20
42.1266977406
 30
0.0
 11
0.0
 21
8.198781784
 31
0.0
 40
0.8661133393
 41
-1.3371615054
 42
-1.3270333961
  0
ELLIPSE
  5
3F2
100
AcDbEntity
  8
00_COMPONENTS_1
100
AcDbEllipse
 62
7
  6
CONTINUOUS
 10
49.0482155846
 20
17.4248396331
 30
0.0
 11
-0.0
 21
11.0
 31
0.0
 40
0.0349207695
 41
-2.4886987258
 42
-1.9876492625
  0
ELLIPSE
  5
3F3
100
AcDbEntity
  8
00_COMPONENTS_1
100
AcDbEllipse
 62
7
  6
CONTINUOUS
 10
34.6413299013
 20
50.2094114312
 30
0.0
 11
0.2783734412
 21
7.9715723691
 31
0.0
 40
0.8661133393
 41
-1.7643171659
 42
-1.7540197402
  0
ELLIPSE
  5
3F4
100
AcDbEntity
  8
00_COMPONENTS_1
100
AcDbEllipse
 62
7
  6
CONTINUOUS
 10
19.9561555914
 20
17.4248396331
 30
0.0
 11
-0.0
 21
11.0
 31
0.0
 40
0.0349207695
 41
-4.2955360447
 42
-3.7944865814
  0
ELLIPSE
  5
3F5
100
AcDbEntity
  8
00_COMPONENTS_1
100
AcDbEllipse
 62
7
  6
CONTINUOUS
 10
57.5545667422
 20
27.3494131526
 30
0.0
 11
0.0
 21
2.0
 31
0.0
 40
0.0349207695
 41
-1.5707963268
 42
-0.5235987756
  0
ELLIPSE
  5
3F6
100
AcDbEntity
  8
00_COMPONENTS_1
100
AcDbEllipse
 62
7
  6
CONTINUOUS
 10
57.5894875117
 20
22.9905284079
 30
0.0
 11
-0.0
 21
1.0
 31
0.0
 40
0.0349207695
 41
-3.1066860686
 42
-1.5707963268
  0
ELLIPSE
  5
3F7
100
AcDbEntity
  8
00_COMPONENTS_1
100
AcDbEllipse
 62
7
  6
CONTINUOUS
 10
51.8673298069
 20
77.0035672498
 30
0.0
 11
2.5
 21
0.0
 31
0.0
 40
0.3639702343
 41
0.034906585
 42
1.5707963268
  0
ELLIPSE
  5
3F8
100
AcDbEntity
  8
00_COMPONENTS_1
100
AcDbEllipse
 62
7
  6
CONTINUOUS
 10
53.2969947669
 20
74.2196031137
 30
0.0
 11
0.3
 21
-0.0
 31
0.0
 40
0.0174550649
 41
1.5707963268
 42
3.1241393609
  0
ELLIPSE
  5
3F9
100
AcDbEntity
  8
00_COMPONENTS_1
100
AcDbEllipse
 62
7
  6
CONTINUOUS
 10
15.707376409
 20
74.2196031137
 30
0.0
 11
0.3
 21
0.0
 31
0.0
 40
0.0174550649
 41
0.0174532927
 42
1.5707963268
  0
ELLIPSE
  5
3FA
100
AcDbEntity
  8
00_COMPONENTS_1
100
AcDbEllipse
 62
7
  6
CONTINUOUS
 10
11.8863140524
 20
17.4248396331
 30
0.0
 11
-0.0
 21
6.4775278937
 31
0.0
 40
0.0349207695
 41
0.5007899121
 42
1.129922644
  0
ELLIPSE
  5
3FB
100
AcDbEntity
  8
00_COMPONENTS_1
100
AcDbEllipse
 62
7
  6
CONTINUOUS
 10
11.6185800138
 20
21.0424531475
 30
0.0
 11
0.0
 21
2.0
 31
0.0
 40
0.0349207695
 41
-3.1066860685
 42
-2.0116700096
  0
ELLIPSE
  5
3FC
100
AcDbEntity
  8
00_COMPONENTS_1
100
AcDbEllipse
 62
7
  6
CONTINUOUS
 10
11.4148836642
 20
22.9905284079
 30
0.0
 11
-0.0
 21
1.0
 31
0.0
 40
0.0349207695
 41
-4.7123889804
 42
-3.1764992386
  0
ELLIPSE
  5
3FD
100
AcDbEntity
  8
00_COMPONENTS_1
100
AcDbEllipse
 62
7
  6
CONTINUOUS
 10
11.4498044337
 20
27.3494131526
 30
0.0
 11
-0.0
 21
2.0
 31
0.0
 40
0.0349207695
 41
0.5235987756
 42
1.5707963268
  0
ELLIPSE
  5
3FE
100
AcDbEntity
  8
00_COMPONENTS_1
100
AcDbEllipse
 62
7
  6
CONTINUOUS
 10
43.7879487209
 20
44.3250224964
 30
0.0
 11
0.1342335526
 21
-0.2685489265
 31
0.0
 40
0.9992388003
 41
-0.4632212593
 42
1.1069659871
  0
ELLIPSE
  5
3FF
100
AcDbEntity
  8
00_COMPONENTS_1
100
AcDbEllipse
 62
7
  6
CONTINUOUS
 10
11.4847252032
 20
30.8135147677
 30
0.0
 11
-0.0
 21
0.5
 31
0.0
 40
0.0349207695
 41
-2.617993878
 42
-1.5707963268
  0
ELLIPSE
  5
400
100
AcDbEntity
  8
00_COMPONENTS_1
100
AcDbEllipse
 62
7
  6
CONTINUOUS
 10
13.6180106653
 20
19.0385313054
 30
0.0
 11
3.5
 21
0.0
 31
0.0
 40
0.0349207695
 41
-2.2142666562
 42
-2.0202119445
  0
ELLIPSE
  5
401
100
AcDbEntity
  8
00_COMPONENTS_1
100
AcDbEllipse
 62
7
  6
CONTINUOUS
 10
14.5344515494
 20
21.0424531475
 30
0.0
 11
0.0
 21
2.0
 31
0.0
 40
0.0349207695
 41
-3.1066860685
 42
-2.0116700096
  0
ELLIPSE
  5
402
100
AcDbEntity
  8
00_COMPONENTS_1
100
AcDbEllipse
 62
7
  6
CONTINUOUS
 10
14.802185588
 20
17.4248396331
 30
0.0
 11
-0.0
 21
6.4775278937
 31
0.0
 40
0.0349207695
 41
0.0872664626
 42
1.129922644
  0
ELLIPSE
  5
403
100
AcDbEntity
  8
00_COMPONENTS_1
100
AcDbEllipse
 62
7
  6
CONTINUOUS
 10
43.7879487209
 20
48.1354471883
 30
0.0
 11
-0.136061538
 21
-0.2676205596
 31
0.0
 40
0.9992591239
 41
2.04145045
 42
3.5767573225
  0
ELLIPSE
  5
404
100
AcDbEntity
  8
00_COMPONENTS_1
100
AcDbEllipse
 62
7
  6
CONTINUOUS
 10
57.5196459727
 20
30.8135147677
 30
0.0
 11
-0.0
 21
0.5
 31
0.0
 40
0.0349207695
 41
1.5707963268
 42
2.617993878
  0
ELLIPSE
  5
405
100
AcDbEntity
  8
00_COMPONENTS_1
100
AcDbEllipse
 62
7
  6
CONTINUOUS
 10
16.0605439002
 20
66.7945561832
 30
0.0
 11
0.2033789799
 21
2.1197670052
 31
0.0
 40
0.9391870936
 41
-3.9057966983
 42
-3.0517259679
  0
ELLIPSE
  5
406
100
AcDbEntity
  8
00_COMPONENTS_1
100
AcDbEllipse
 62
7
  6
CONTINUOUS
 10
15.1067636495
 20
72.8295700227
 30
0.0
 11
1.0
 21
0.0
 31
0.0
 40
0.0174550649
 41
-1.5707963269
 42
-0.8127241628
  0
ELLIPSE
  5
407
100
AcDbEntity
  8
00_COMPONENTS_1
100
AcDbEllipse
 62
7
  6
CONTINUOUS
 10
17.1370413691
 20
77.0035672498
 30
0.0
 11
2.5
 21
-0.0
 31
0.0
 40
0.3639702343
 41
1.5707963268
 42
3.1066860685
  0
ELLIPSE
  5
408
100
AcDbEntity
  8
00_COMPONENTS_1
100
AcDbEllipse
 62
7
  6
CONTINUOUS
 10
52.9124651128
 20
80.097314241
 30
0.0
 11
2.0
 21
0.0
 31
0.0
 40
0.3639702343
 41
0.0872664626
 42
1.5707963268
  0
ELLIPSE
  5
409
100
AcDbEntity
  8
00_COMPONENTS_1
100
AcDbEllipse
 62
7
  6
CONTINUOUS
 10
54.202185588
 20
17.4248396331
 30
0.0
 11
0.0
 21
6.4775278937
 31
0.0
 40
0.0349207695
 41
-1.129922644
 42
-0.0872664626
  0
ELLIPSE
  5
40A
100
AcDbEntity
  8
00_COMPONENTS_1
100
AcDbEllipse
 62
7
  6
CONTINUOUS
 10
54.4699196266
 20
21.0424531475
 30
0.0
 11
-0.0
 21
2.0
 31
0.0
 40
0.0349207695
 41
-4.2715152975
 42
-3.1764992386
  0
ENDSEC
  0
SECTION
  2
OBJECTS
  0
DICTIONARY
  5
C
100
AcDbDictionary
280
0
281
1
  3
ACAD_GROUP
350
D
  3
ACAD_MLINESTYLE
350
17
  3
ACAD_LAYOUT
350
1A
  3
ACAD_PLOTSETTINGS
350
19
  3
ACAD_PLOTSTYLENAME
350
E
  0
DICTIONARY
  5
D
102
{ACAD_REACTORS
330
C
102
}
100
AcDbDictionary
280
0
281
1
  0
ACDBDICTIONARYWDFLT
  5
E
102
{ACAD_REACTORS
330
C
102
}
100
AcDbDictionary
281
1
  3
Normal
350
F
100
AcDbDictionaryWithDefault
340
F
  0
DICTIONARY
  5
17
102
{ACAD_REACTORS
330
C
102
}
100
AcDbDictionary
280
0
281
1
  3
Standard
350
18
  0
DICTIONARY
  5
19
102
{ACAD_REACTORS
330
C
102
}
100
AcDbDictionary
281
1
  0
DICTIONARY
  5
1A
102
{ACAD_REACTORS
330
C
102
}
100
AcDbDictionary
281
1
  3
Model
350
40B
  3
Layout1
350
40C
  0
ACDBPLACEHOLDER
  5
F
102
{ACAD_REACTORS
330
E
102
}
  0
MLINESTYLE
  5
18
102
{ACAD_REACTORS
330
17
102
}
100
AcDbMlineStyle
  2
STANDARD
 70
0
  3

 62
256
 51
90.0
 52
90.0
 71
2
 49
0.5
 62
256
  6
BYLAYER
 49
-0.5
 62
256
  6
BYLAYER
  0
LAYOUT
  5
40B
102
{ACAD_REACTORS
330
1A
102
}
100
AcDbPlotSettings
  1

  2
none_device
  4

  6

 40
0.0
 41
0.0
 42
0.0
 43
0.0
 44
210.0
 45
297.0
 46
0.0
 47
0.0
 48
0.0
 49
0.0
140
0.0
141
0.0
142
1.0
143
1.0
 70
1024
 72
1
 73
0
 74
0
  7

 75
0
147
1.0
148
0.0
149
0.0
100
AcDbLayout
  1
Model
 70
0
 71
0
 10
0.0
 20
0.0
 11
210.0
 21
297.0
 12
0.0
 22
0.0
 32
0.0
 14
0.0
 24
0.0
 34
0.0
 15
0.0
 25
0.0
 35
0.0
146
0.0
 13
0.0
 23
0.0
 33
0.0
 16
1.0
 26
0.0
 36
0.0
 17
0.0
 27
1.0
 37
0.0
 76
0
330
21A
345
0
346
0
  0
LAYOUT
  5
40C
102
{ACAD_REACTORS
330
1A
102
}
100
AcDbPlotSettings
  1

  2
none_device
  4

  6

 40
0.0
 41
0.0
 42
0.0
 43
0.0
 44
210.0
 45
297.0
 46
0.0
 47
0.0
 48
0.0
 49
0.0
140
0.0
141
0.0
142
1.0
143
1.0
 70
0
 72
1
 73
0
 74
0
  7

 75
0
147
1.0
148
0.0
149
0.0
100
AcDbLayout
  1
Layout1
 70
0
 71
1
 10
0.0
 20
0.0
 11
210.0
 21
297.0
 12
0.0
 22
0.0
 32
0.0
 14
0.0
 24
0.0
 34
0.0
 15
0.0
 25
0.0
 35
0.0
146
0.0
 13
0.0
 23
0.0
 33
0.0
 16
1.0
 26
0.0
 36
0.0
 17
0.0
 27
1.0
 37
0.0
 76
0
330
21B
345
0
346
0
  0
ENDSEC
  0
EOF
