999
DXF file: C:\2D\Gen2D\CAD\LC2D40AB7_3D-CAD\drw0001_4.dxf
999
Pro/ENGINEER 2019471 by Parametric Technology Corporation
  0
SECTION
  2
HEADER
  9
$ACADVER
  1
AC1024
  9
$DWGCODEPAGE
  3
ANSI_1252
  9
$EXTMAX
 10
147.9051724138
 20
209.1801724138
 30
0.0
  9
$EXTMIN
 10
0.0
 20
0.0
 30
0.0
  9
$LIMMIN
 10
0.0
 20
0.0
  9
$LIMMAX
 10
147.9051724138
 20
209.1801724138
  9
$VIEWCTR
 10
73.9525862069
 20
104.5900862069
  9
$VIEWSIZE
 40
209.1801724138
  9
$CLAYER
  8
0
  9
$LTSCALE
 40
13.6354482759
  9
$CELTYPE
  6
BYLAYER
  9
$DIMSCALE
 40
1.0
  9
$DIMASZ
 40
1.7607758621
  9
$DIMEXO
 40
1.0
  9
$DIMDLI
 40
9.4208551724
  9
$DIMEXE
 40
1.0
  9
$DIMCEN
 40
2.2312551724
  9
$DIMLFAC
 40
1.0
  9
$DIMBLK
  1
_FILLED
  9
$DIMALT
 70
0
  9
$DIMALTF
 40
0.0393700787
  9
$DIMTXT
 40
2.4650862069
  9
$DIMTOL
 70
1
  9
$DIMLIM
 70
0
  9
$DIMTFAC
 40
1.0
  9
$DIMTP
 40
0.01
  9
$DIMTM
 40
0.01
  9
$DIMGAP
 40
0.625
  9
$DIMDSEP
 70
46
  9
$AUNITS
 70
0
  9
$PDMODE
 70
3
  9
$PDSIZE
 40
0.3125
  9
$HANDSEED
  5
4F2
  9
$TILEMODE
 70
1
  9
$MEASUREMENT
 70
1
  9
$INSUNITS
 70
4
  0
ENDSEC
  0
SECTION
  2
CLASSES
  0
CLASS
  1
ACDBDICTIONARYWDFLT
  2
AcDbDictionaryWithDefault
  3
AutoCAD 2000
 90
0
 91
1
280
0
281
0
  0
CLASS
  1
ACDBPLACEHOLDER
  2
AcDbPlaceHolder
  3
AutoCAD 2000
 90
0
 91
1
280
0
281
0
  0
CLASS
  1
LAYOUT
  2
AcDbLayout
  3
AutoCAD 2000
 90
0
 91
0
280
0
281
0
  0
ENDSEC
  0
SECTION
  2
TABLES
  0
TABLE
  2
VPORT
  5
8
100
AcDbSymbolTable
 70
2
  0
VPORT
  5
1F4
100
AcDbSymbolTableRecord
100
AcDbViewportTableRecord
  2
*ACTIVE
 70
0
 10
0.0
 20
0.0
 11
1.0
 21
1.0
 12
73.9525862069
 22
104.5900862069
 13
0.0
 23
0.0
 14
1.0
 24
1.0
 15
0.0
 25
0.0
 16
0.0
 26
0.0
 36
1.0
 17
0.0
 27
0.0
 37
0.0
 40
209.1801724138
 41
0.7070707071
 42
50.0
 43
0.0
 44
0.0
 50
0.0
 51
0.0
 71
0
 72
100
 73
1
 74
1
 75
0
 76
0
 77
0
 78
0
  0
ENDTAB
  0
TABLE
  2
LTYPE
  5
5
100
AcDbSymbolTable
 70
6
  0
LTYPE
  5
14
100
AcDbSymbolTableRecord
100
AcDbLinetypeTableRecord
  2
BYBLOCK
 70
0
  3

 72
65
 73
0
 40
0.0
  0
LTYPE
  5
15
100
AcDbSymbolTableRecord
100
AcDbLinetypeTableRecord
  2
BYLAYER
 70
0
  3

 72
65
 73
0
 40
0.0
  0
LTYPE
  5
16
100
AcDbSymbolTableRecord
100
AcDbLinetypeTableRecord
  2
CONTINUOUS
 70
64
  3
Solid line
 72
65
 73
0
 40
0.0
  0
LTYPE
  5
1F5
100
AcDbSymbolTableRecord
100
AcDbLinetypeTableRecord
  2
CENTER
 70
64
  3
____ _ ____ _ ____ _ ____ _ ____ _ ____ _ ____
 72
65
 73
4
 40
0.6
 49
0.375
 74
0
 49
-0.075
 74
0
 49
0.075
 74
0
 49
-0.075
 74
0
  0
LTYPE
  5
1F6
100
AcDbSymbolTableRecord
100
AcDbLinetypeTableRecord
  2
HIDDEN
 70
64
  3
- - - - - - - - - - - - - - - - - - - -
 72
65
 73
2
 40
0.2
 49
0.1
 74
0
 49
-0.1
 74
0
  0
LTYPE
  5
1F7
100
AcDbSymbolTableRecord
100
AcDbLinetypeTableRecord
  2
PHANTOM
 70
64
  3
_____ _ _ _____ _ _ _____ _ _ _____
 72
65
 73
6
 40
0.8
 49
0.45
 74
0
 49
-0.05
 74
0
 49
0.1
 74
0
 49
-0.05
 74
0
 49
0.1
 74
0
 49
-0.05
 74
0
  0
LTYPE
  5
1F8
100
AcDbSymbolTableRecord
100
AcDbLinetypeTableRecord
  2
DOT
 70
64
  3
. . . . . . . . . . . . . . . . . . . .
 72
65
 73
2
 40
0.2
 49
0.1
 74
0
 49
-0.1
 74
0
  0
LTYPE
  5
1F9
100
AcDbSymbolTableRecord
100
AcDbLinetypeTableRecord
  2
DASHED
 70
64
  3
- - - - - - - - - - - - - - - - - - - -
 72
65
 73
2
 40
0.2
 49
0.1
 74
0
 49
-0.1
 74
0
  0
ENDTAB
  0
TABLE
  2
LAYER
  5
2
100
AcDbSymbolTable
 70
36
  0
LAYER
  5
10
100
AcDbSymbolTableRecord
100
AcDbLayerTableRecord
  2
0
 70
0
 62
7
  6
CONTINUOUS
370
-3
390
F
  0
LAYER
  5
1FA
100
AcDbSymbolTableRecord
100
AcDbLayerTableRecord
  2
DEFAULT_1
 70
0
 62
7
  6
CENTER
370
-3
390
F
  0
LAYER
  5
1FB
100
AcDbSymbolTableRecord
100
AcDbLayerTableRecord
  2
DEFAULT_2
 70
0
 62
8
  6
HIDDEN
370
-3
390
F
  0
LAYER
  5
1FC
100
AcDbSymbolTableRecord
100
AcDbLayerTableRecord
  2
DEFAULT_3
 70
0
 62
7
  6
PHANTOM
370
-3
390
F
  0
LAYER
  5
1FD
100
AcDbSymbolTableRecord
100
AcDbLayerTableRecord
  2
00_COMPONENTS
 70
0
 62
7
  6
CONTINUOUS
370
-3
390
F
  0
LAYER
  5
1FE
100
AcDbSymbolTableRecord
100
AcDbLayerTableRecord
  2
00_COMPONENTS_1
 70
0
 62
7
  6
CONTINUOUS
370
-3
390
F
  0
LAYER
  5
1FF
100
AcDbSymbolTableRecord
100
AcDbLayerTableRecord
  2
00_COMPONENTS_2
 70
0
 62
7
  6
CONTINUOUS
370
-3
390
F
  0
LAYER
  5
200
100
AcDbSymbolTableRecord
100
AcDbLayerTableRecord
  2
00_COMPONENTS_3
 70
0
 62
7
  6
CONTINUOUS
370
-3
390
F
  0
LAYER
  5
201
100
AcDbSymbolTableRecord
100
AcDbLayerTableRecord
  2
00_COMPONENTS_4
 70
0
 62
7
  6
CONTINUOUS
370
-3
390
F
  0
LAYER
  5
202
100
AcDbSymbolTableRecord
100
AcDbLayerTableRecord
  2
00_COMPONENTS_5
 70
0
 62
7
  6
CONTINUOUS
370
-3
390
F
  0
LAYER
  5
203
100
AcDbSymbolTableRecord
100
AcDbLayerTableRecord
  2
00_COMPONENTS_6
 70
0
 62
7
  6
CONTINUOUS
370
-3
390
F
  0
LAYER
  5
204
100
AcDbSymbolTableRecord
100
AcDbLayerTableRecord
  2
00_COMPONENTS_7
 70
0
 62
7
  6
CONTINUOUS
370
-3
390
F
  0
LAYER
  5
205
100
AcDbSymbolTableRecord
100
AcDbLayerTableRecord
  2
01_1_DEFAULT_DATUMS
 70
0
 62
7
  6
CONTINUOUS
370
-3
390
F
  0
LAYER
  5
206
100
AcDbSymbolTableRecord
100
AcDbLayerTableRecord
  2
01_PLANES
 70
0
 62
7
  6
CONTINUOUS
370
-3
390
F
  0
LAYER
  5
207
100
AcDbSymbolTableRecord
100
AcDbLayerTableRecord
  2
02_COORD_SYS
 70
0
 62
7
  6
CONTINUOUS
370
-3
390
F
  0
LAYER
  5
208
100
AcDbSymbolTableRecord
100
AcDbLayerTableRecord
  2
03_AXES
 70
0
 62
7
  6
CONTINUOUS
370
-3
390
F
  0
LAYER
  5
209
100
AcDbSymbolTableRecord
100
AcDbLayerTableRecord
  2
04_POINTS
 70
0
 62
7
  6
CONTINUOUS
370
-3
390
F
  0
LAYER
  5
20A
100
AcDbSymbolTableRecord
100
AcDbLayerTableRecord
  2
05_CURVES
 70
0
 62
7
  6
CONTINUOUS
370
-3
390
F
  0
LAYER
  5
20B
100
AcDbSymbolTableRecord
100
AcDbLayerTableRecord
  2
06_SURFS
 70
0
 62
7
  6
CONTINUOUS
370
-3
390
F
  0
LAYER
  5
20C
100
AcDbSymbolTableRecord
100
AcDbLayerTableRecord
  2
07_COSMETICS
 70
0
 62
7
  6
CONTINUOUS
370
-3
390
F
  0
LAYER
  5
20D
100
AcDbSymbolTableRecord
100
AcDbLayerTableRecord
  2
10_NOTES
 70
0
 62
7
  6
CONTINUOUS
370
-3
390
F
  0
LAYER
  5
20E
100
AcDbSymbolTableRecord
100
AcDbLayerTableRecord
  2
11_NOTES_PUB
 70
0
 62
7
  6
CONTINUOUS
370
-3
390
F
  0
LAYER
  5
20F
100
AcDbSymbolTableRecord
100
AcDbLayerTableRecord
  2
13_REF_GTOL
 70
0
 62
7
  6
CONTINUOUS
370
-3
390
F
  0
LAYER
  5
210
100
AcDbSymbolTableRecord
100
AcDbLayerTableRecord
  2
16_MISC
 70
0
 62
7
  6
CONTINUOUS
370
-3
390
F
  0
LAYER
  5
211
100
AcDbSymbolTableRecord
100
AcDbLayerTableRecord
  2
17_NO_PRINT
 70
0
 62
7
  6
CONTINUOUS
370
-3
390
F
  0
LAYER
  5
212
100
AcDbSymbolTableRecord
100
AcDbLayerTableRecord
  2
18_DATUM_CAMS_JOINTS
 70
0
 62
7
  6
CONTINUOUS
370
-3
390
F
  0
LAYER
  5
213
100
AcDbSymbolTableRecord
100
AcDbLayerTableRecord
  2
19_DATUM_FUNCTIONAL
 70
0
 62
7
  6
CONTINUOUS
370
-3
390
F
  0
LAYER
  5
214
100
AcDbSymbolTableRecord
100
AcDbLayerTableRecord
  2
20_DATUM_KINEMATIC_SCHEME
 70
0
 62
7
  6
CONTINUOUS
370
-3
390
F
  0
LAYER
  5
215
100
AcDbSymbolTableRecord
100
AcDbLayerTableRecord
  2
INTFCLR_5
 70
0
 62
7
  6
CONTINUOUS
370
-3
390
F
  0
ENDTAB
  0
TABLE
  2
STYLE
  5
3
100
AcDbSymbolTable
 70
1
  0
STYLE
  5
11
100
AcDbSymbolTableRecord
100
AcDbTextStyleTableRecord
  2
STANDARD
 70
0
 40
0.0
 41
0.8
 50
0.0
 71
0
 42
0.2
  3
txt
  4

  0
STYLE
  5
216
100
AcDbSymbolTableRecord
100
AcDbTextStyleTableRecord
  2
TEXTSTYLE_1
 70
0
 40
0.0
 41
0.8
 50
0.0
 71
0
 42
0.2
  3
gdt
  4

  0
ENDTAB
  0
TABLE
  2
VIEW
  5
6
100
AcDbSymbolTable
 70
0
  0
ENDTAB
  0
TABLE
  2
UCS
  5
7
100
AcDbSymbolTable
 70
0
  0
ENDTAB
  0
TABLE
  2
APPID
  5
9
100
AcDbSymbolTable
 70
1
  0
APPID
  5
217
100
AcDbSymbolTableRecord
100
AcDbRegAppTableRecord
  2
ACAD
 70
0
  0
ENDTAB
  0
TABLE
  2
BLOCK_RECORD
  5
1
100
AcDbSymbolTable
 70
0
  0
BLOCK_RECORD
  5
218
100
AcDbSymbolTableRecord
100
AcDbBlockTableRecord
  2
*Model_Space
  0
BLOCK_RECORD
  5
219
100
AcDbSymbolTableRecord
100
AcDbBlockTableRecord
  2
*Paper_Space
  0
BLOCK_RECORD
  5
21A
100
AcDbSymbolTableRecord
100
AcDbBlockTableRecord
  2
_FILLED
  0
ENDTAB
  0
TABLE
  2
DIMSTYLE
  5
A
100
AcDbSymbolTable
 70
1
100
AcDbDimStyleTable
 71
0
  0
DIMSTYLE
105
21B
100
AcDbSymbolTableRecord
100
AcDbDimStyleTableRecord
  2
STANDARD
 70
0
  3

  4

 40
1.0
 41
1.7607758621
 42
1.0
 43
0.38
 44
1.0
 45
0.0
 46
0.0
 47
0.01
 48
0.01
140
2.4650862069
141
0.09
142
0.0
143
25.4
144
1.0
145
0.0
146
1.0
147
0.625
 71
1
 72
0
 73
0
 74
0
 75
0
 76
0
 77
1
 78
8
 79
2
170
0
171
1
172
0
173
0
174
0
175
0
176
0
177
0
178
0
270
2
179
2
271
2
272
2
273
2
274
2
275
0
280
0
281
0
282
0
283
1
284
8
285
0
286
0
287
3
288
0
340
11
278
46
341
21A
342
21A
343
21A
344
21A
  0
ENDTAB
  0
ENDSEC
  0
SECTION
  2
BLOCKS
  0
BLOCK
  5
20
100
AcDbEntity
  8
0
100
AcDbBlockBegin
  2
*Model_Space
 70
0
 10
0.0
 20
0.0
 30
0.0
  3
*Model_Space
  1

  0
ENDBLK
  5
21
100
AcDbEntity
  8
0
100
AcDbBlockEnd
  0
BLOCK
  5
1C
100
AcDbEntity
  8
0
100
AcDbBlockBegin
  2
*Paper_Space
 70
0
 10
0.0
 20
0.0
 30
0.0
  3
*Paper_Space
  1

  0
ENDBLK
  5
1D
100
AcDbEntity
  8
0
100
AcDbBlockEnd
  0
BLOCK
  5
21C
100
AcDbEntity
  8
0
100
AcDbBlockBegin
  2
_FILLED
 70
64
 10
0.0
 20
0.0
  3
_FILLED
  1

  0
SOLID
  5
21D
100
AcDbEntity
  8
0
  6
BYBLOCK
 62
0
100
AcDbTrace
 10
0.0
 20
0.0
 11
-1.0
 21
0.25
 12
-1.0
 22
-0.25
 13
-1.0
 23
-0.25
  0
ENDBLK
  5
21E
100
AcDbEntity
  8
0
  6
BYBLOCK
 62
0
100
AcDbBlockEnd
  0
ENDSEC
  0
SECTION
  2
ENTITIES
  0
LINE
  5
21F
100
AcDbEntity
  8
00_COMPONENTS_2
100
AcDbLine
 62
7
  6
CONTINUOUS
 10
25.2181442892
 20
157.05
 11
24.0634437508
 21
155.05
  0
LINE
  5
220
100
AcDbEntity
  8
00_COMPONENTS_2
100
AcDbLine
 62
7
  6
CONTINUOUS
 10
24.0634437508
 20
57.25
 11
25.2181442892
 21
55.25
  0
LINE
  5
221
100
AcDbEntity
  8
00_COMPONENTS_2
100
AcDbLine
 62
7
  6
CONTINUOUS
 10
27.527545366
 20
153.05
 11
28.6822459043
 21
155.05
  0
LINE
  5
222
100
AcDbEntity
  8
00_COMPONENTS_2
100
AcDbLine
 62
7
  6
CONTINUOUS
 10
28.6822459043
 20
57.25
 11
27.527545366
 21
59.25
  0
LINE
  5
223
100
AcDbEntity
  8
00_COMPONENTS_2
100
AcDbLine
 62
7
  6
CONTINUOUS
 10
16.4728448276
 20
49.25
 11
16.4728448276
 21
163.05
  0
LINE
  5
224
100
AcDbEntity
  8
00_COMPONENTS_2
100
AcDbLine
 62
7
  6
CONTINUOUS
 10
17.1728448276
 20
86.1011087923
 11
17.1728448276
 21
84.5753041104
  0
LINE
  5
225
100
AcDbEntity
  8
00_COMPONENTS_2
100
AcDbLine
 62
7
  6
CONTINUOUS
 10
19.2728448276
 20
47.75
 11
19.2728448276
 21
49.25
  0
LINE
  5
226
100
AcDbEntity
  8
00_COMPONENTS_2
100
AcDbLine
 62
7
  6
CONTINUOUS
 10
19.2728448276
 20
163.05
 11
19.2728448276
 21
164.55
  0
LINE
  5
227
100
AcDbEntity
  8
00_COMPONENTS_2
100
AcDbLine
 62
7
  6
CONTINUOUS
 10
34.8728448276
 20
43.35
 11
41.3728448276
 21
43.35
  0
LINE
  5
228
100
AcDbEntity
  8
00_COMPONENTS_2
100
AcDbLine
 62
7
  6
CONTINUOUS
 10
46.3728448276
 20
43.35
 11
52.8728448276
 21
43.35
  0
LINE
  5
229
100
AcDbEntity
  8
00_COMPONENTS_2
100
AcDbLine
 62
7
  6
CONTINUOUS
 10
98.8728448276
 20
43.35
 11
105.3728448276
 21
43.35
  0
LINE
  5
22A
100
AcDbEntity
  8
00_COMPONENTS_2
100
AcDbLine
 62
7
  6
CONTINUOUS
 10
110.3728448276
 20
43.35
 11
116.8728448276
 21
43.35
  0
LINE
  5
22B
100
AcDbEntity
  8
00_COMPONENTS_2
100
AcDbLine
 62
7
  6
CONTINUOUS
 10
41.3728448276
 20
43.55
 11
46.3728448276
 21
43.55
  0
LINE
  5
22C
100
AcDbEntity
  8
00_COMPONENTS_2
100
AcDbLine
 62
7
  6
CONTINUOUS
 10
105.3728448276
 20
43.55
 11
110.3728448276
 21
43.55
  0
LINE
  5
22D
100
AcDbEntity
  8
00_COMPONENTS_2
100
AcDbLine
 62
7
  6
CONTINUOUS
 10
111.1228448276
 20
45.45
 11
104.6228448276
 21
45.45
  0
LINE
  5
22E
100
AcDbEntity
  8
00_COMPONENTS_2
100
AcDbLine
 62
7
  6
CONTINUOUS
 10
47.1228448276
 20
45.45
 11
40.6228448276
 21
45.45
  0
LINE
  5
22F
100
AcDbEntity
  8
00_COMPONENTS_2
100
AcDbLine
 62
7
  6
CONTINUOUS
 10
19.2728448276
 20
47.75
 11
68.4728448276
 21
47.75
  0
LINE
  5
230
100
AcDbEntity
  8
00_COMPONENTS_2
100
AcDbLine
 62
7
  6
CONTINUOUS
 10
83.2728448276
 20
47.75
 11
132.4728448276
 21
47.75
  0
LINE
  5
231
100
AcDbEntity
  8
00_COMPONENTS_2
100
AcDbLine
 62
7
  6
CONTINUOUS
 10
21.5228448276
 20
47.85
 11
31.2228448276
 21
47.85
  0
LINE
  5
232
100
AcDbEntity
  8
00_COMPONENTS_2
100
AcDbLine
 62
7
  6
CONTINUOUS
 10
39.0194813278
 20
47.85
 11
48.7212764259
 21
47.85
  0
LINE
  5
233
100
AcDbEntity
  8
00_COMPONENTS_2
100
AcDbLine
 62
7
  6
CONTINUOUS
 10
56.5169096565
 20
47.85
 11
66.2190103415
 21
47.85
  0
LINE
  5
234
100
AcDbEntity
  8
00_COMPONENTS_2
100
AcDbLine
 62
7
  6
CONTINUOUS
 10
85.5228448276
 20
47.85
 11
95.2228448276
 21
47.85
  0
LINE
  5
235
100
AcDbEntity
  8
00_COMPONENTS_2
100
AcDbLine
 62
7
  6
CONTINUOUS
 10
103.0194813278
 20
47.85
 11
112.7212764259
 21
47.85
  0
LINE
  5
236
100
AcDbEntity
  8
00_COMPONENTS_2
100
AcDbLine
 62
7
  6
CONTINUOUS
 10
120.5169096565
 20
47.85
 11
130.2190103415
 21
47.85
  0
LINE
  5
237
100
AcDbEntity
  8
00_COMPONENTS_2
100
AcDbLine
 62
7
  6
CONTINUOUS
 10
21.5228448276
 20
164.55
 11
21.5228448276
 21
164.05
  0
LINE
  5
238
100
AcDbEntity
  8
00_COMPONENTS_2
100
AcDbLine
 62
7
  6
CONTINUOUS
 10
21.5228448276
 20
48.25
 11
21.5228448276
 21
47.75
  0
LINE
  5
239
100
AcDbEntity
  8
00_COMPONENTS_2
100
AcDbLine
 62
7
  6
CONTINUOUS
 10
21.6721979858
 20
95.35
 11
21.6721979858
 21
116.85
  0
LINE
  5
23A
100
AcDbEntity
  8
00_COMPONENTS_2
100
AcDbLine
 62
7
  6
CONTINUOUS
 10
21.6728448276
 20
47.85
 11
21.6728448276
 21
48.25
  0
LINE
  5
23B
100
AcDbEntity
  8
00_COMPONENTS_2
100
AcDbLine
 62
7
  6
CONTINUOUS
 10
21.6728448276
 20
164.05
 11
21.6728448276
 21
164.45
  0
LINE
  5
23C
100
AcDbEntity
  8
00_COMPONENTS_2
100
AcDbLine
 62
7
  6
CONTINUOUS
 10
22.3103448276
 20
47.85
 11
22.3103448276
 21
47.75
  0
LINE
  5
23D
100
AcDbEntity
  8
00_COMPONENTS_2
100
AcDbLine
 62
7
  6
CONTINUOUS
 10
22.3103448276
 20
164.45
 11
22.3103448276
 21
164.55
  0
LINE
  5
23E
100
AcDbEntity
  8
00_COMPONENTS_2
100
AcDbLine
 62
7
  6
CONTINUOUS
 10
24.6728448276
 20
77.35
 11
24.6728448276
 21
80.35
  0
LINE
  5
23F
100
AcDbEntity
  8
00_COMPONENTS_2
100
AcDbLine
 62
7
  6
CONTINUOUS
 10
25.1728448276
 20
86.65393462
 11
25.1728448276
 21
91.45
  0
LINE
  5
240
100
AcDbEntity
  8
00_COMPONENTS_2
100
AcDbLine
 62
7
  6
CONTINUOUS
 10
42.7181442892
 20
157.05
 11
41.5634437508
 21
155.05
  0
LINE
  5
241
100
AcDbEntity
  8
00_COMPONENTS_2
100
AcDbLine
 62
7
  6
CONTINUOUS
 10
45.027545366
 20
153.05
 11
46.1822459043
 21
155.05
  0
LINE
  5
242
100
AcDbEntity
  8
00_COMPONENTS_2
100
AcDbLine
 62
7
  6
CONTINUOUS
 10
21.5228448276
 20
48.25
 11
31.2228448276
 21
48.25
  0
LINE
  5
243
100
AcDbEntity
  8
00_COMPONENTS_2
100
AcDbLine
 62
7
  6
CONTINUOUS
 10
39.0194813278
 20
48.25
 11
48.7212764259
 21
48.25
  0
LINE
  5
244
100
AcDbEntity
  8
00_COMPONENTS_2
100
AcDbLine
 62
7
  6
CONTINUOUS
 10
56.5169096565
 20
48.25
 11
66.2190103415
 21
48.25
  0
LINE
  5
245
100
AcDbEntity
  8
00_COMPONENTS_2
100
AcDbLine
 62
7
  6
CONTINUOUS
 10
85.5228448276
 20
48.25
 11
95.2228448276
 21
48.25
  0
LINE
  5
246
100
AcDbEntity
  8
00_COMPONENTS_2
100
AcDbLine
 62
7
  6
CONTINUOUS
 10
103.0194813278
 20
48.25
 11
112.7212764259
 21
48.25
  0
LINE
  5
247
100
AcDbEntity
  8
00_COMPONENTS_2
100
AcDbLine
 62
7
  6
CONTINUOUS
 10
120.5169096565
 20
48.25
 11
130.2190103415
 21
48.25
  0
LINE
  5
248
100
AcDbEntity
  8
00_COMPONENTS_2
100
AcDbLine
 62
7
  6
CONTINUOUS
 10
16.4728448276
 20
49.25
 11
32.0206612017
 21
49.25
  0
LINE
  5
249
100
AcDbEntity
  8
00_COMPONENTS_2
100
AcDbLine
 62
7
  6
CONTINUOUS
 10
38.2250290112
 20
49.25
 11
49.5206616416
 21
49.25
  0
LINE
  5
24A
100
AcDbEntity
  8
00_COMPONENTS_2
100
AcDbLine
 62
7
  6
CONTINUOUS
 10
55.7250295469
 20
49.25
 11
71.2728448276
 21
49.25
  0
LINE
  5
24B
100
AcDbEntity
  8
00_COMPONENTS_2
100
AcDbLine
 62
7
  6
CONTINUOUS
 10
80.4728448276
 20
49.25
 11
96.0206612017
 21
49.25
  0
LINE
  5
24C
100
AcDbEntity
  8
00_COMPONENTS_2
100
AcDbLine
 62
7
  6
CONTINUOUS
 10
102.2250290112
 20
49.25
 11
113.5206616416
 21
49.25
  0
LINE
  5
24D
100
AcDbEntity
  8
00_COMPONENTS_2
100
AcDbLine
 62
7
  6
CONTINUOUS
 10
119.7250295469
 20
49.25
 11
135.2728448276
 21
49.25
  0
LINE
  5
24E
100
AcDbEntity
  8
00_COMPONENTS_2
100
AcDbLine
 62
7
  6
CONTINUOUS
 10
41.5634437508
 20
57.25
 11
42.7181442892
 21
55.25
  0
LINE
  5
24F
100
AcDbEntity
  8
00_COMPONENTS_2
100
AcDbLine
 62
7
  6
CONTINUOUS
 10
28.6728448276
 20
77.35
 11
28.6728448276
 21
80.35
  0
LINE
  5
250
100
AcDbEntity
  8
00_COMPONENTS_2
100
AcDbLine
 62
7
  6
CONTINUOUS
 10
30.1728448276
 20
91.45
 11
30.1728448276
 21
86.65393462
  0
LINE
  5
251
100
AcDbEntity
  8
00_COMPONENTS_2
100
AcDbLine
 62
7
  6
CONTINUOUS
 10
30.4353448276
 20
47.85
 11
30.4353448276
 21
47.75
  0
LINE
  5
252
100
AcDbEntity
  8
00_COMPONENTS_2
100
AcDbLine
 62
7
  6
CONTINUOUS
 10
30.4353448276
 20
164.45
 11
30.4353448276
 21
164.55
  0
LINE
  5
253
100
AcDbEntity
  8
00_COMPONENTS_2
100
AcDbLine
 62
7
  6
CONTINUOUS
 10
31.0728448276
 20
164.45
 11
31.0728448276
 21
164.05
  0
LINE
  5
254
100
AcDbEntity
  8
00_COMPONENTS_2
100
AcDbLine
 62
7
  6
CONTINUOUS
 10
31.0728448276
 20
48.25
 11
31.0728448276
 21
47.85
  0
LINE
  5
255
100
AcDbEntity
  8
00_COMPONENTS_2
100
AcDbLine
 62
7
  6
CONTINUOUS
 10
31.2228448276
 20
47.75
 11
31.2228448276
 21
48.25
  0
LINE
  5
256
100
AcDbEntity
  8
00_COMPONENTS_2
100
AcDbLine
 62
7
  6
CONTINUOUS
 10
31.2228448276
 20
164.05
 11
31.2228448276
 21
164.55
  0
LINE
  5
257
100
AcDbEntity
  8
00_COMPONENTS_2
100
AcDbLine
 62
7
  6
CONTINUOUS
 10
31.3728448276
 20
84.5497715501
 11
31.3728448276
 21
86.1380323658
  0
LINE
  5
258
100
AcDbEntity
  8
00_COMPONENTS_2
100
AcDbLine
 62
7
  6
CONTINUOUS
 10
25.2181442892
 20
55.25
 11
27.527545366
 21
55.25
  0
LINE
  5
259
100
AcDbEntity
  8
00_COMPONENTS_2
100
AcDbLine
 62
7
  6
CONTINUOUS
 10
42.7181442892
 20
55.25
 11
45.027545366
 21
55.25
  0
LINE
  5
25A
100
AcDbEntity
  8
00_COMPONENTS_2
100
AcDbLine
 62
7
  6
CONTINUOUS
 10
60.2181442892
 20
55.25
 11
62.527545366
 21
55.25
  0
LINE
  5
25B
100
AcDbEntity
  8
00_COMPONENTS_2
100
AcDbLine
 62
7
  6
CONTINUOUS
 10
89.2181442892
 20
55.25
 11
91.527545366
 21
55.25
  0
LINE
  5
25C
100
AcDbEntity
  8
00_COMPONENTS_2
100
AcDbLine
 62
7
  6
CONTINUOUS
 10
106.7181442892
 20
55.25
 11
109.027545366
 21
55.25
  0
LINE
  5
25D
100
AcDbEntity
  8
00_COMPONENTS_2
100
AcDbLine
 62
7
  6
CONTINUOUS
 10
124.2181442892
 20
55.25
 11
126.527545366
 21
55.25
  0
LINE
  5
25E
100
AcDbEntity
  8
00_COMPONENTS_2
100
AcDbLine
 62
7
  6
CONTINUOUS
 10
126.527545366
 20
59.25
 11
124.2181442892
 21
59.25
  0
LINE
  5
25F
100
AcDbEntity
  8
00_COMPONENTS_2
100
AcDbLine
 62
7
  6
CONTINUOUS
 10
109.027545366
 20
59.25
 11
106.7181442892
 21
59.25
  0
LINE
  5
260
100
AcDbEntity
  8
00_COMPONENTS_2
100
AcDbLine
 62
7
  6
CONTINUOUS
 10
91.527545366
 20
59.25
 11
89.2181442892
 21
59.25
  0
LINE
  5
261
100
AcDbEntity
  8
00_COMPONENTS_2
100
AcDbLine
 62
7
  6
CONTINUOUS
 10
62.527545366
 20
59.25
 11
60.2181442892
 21
59.25
  0
LINE
  5
262
100
AcDbEntity
  8
00_COMPONENTS_2
100
AcDbLine
 62
7
  6
CONTINUOUS
 10
45.027545366
 20
59.25
 11
42.7181442892
 21
59.25
  0
LINE
  5
263
100
AcDbEntity
  8
00_COMPONENTS_2
100
AcDbLine
 62
7
  6
CONTINUOUS
 10
27.527545366
 20
59.25
 11
25.2181442892
 21
59.25
  0
LINE
  5
264
100
AcDbEntity
  8
00_COMPONENTS_2
100
AcDbLine
 62
7
  6
CONTINUOUS
 10
46.1822459043
 20
57.25
 11
45.027545366
 21
59.25
  0
LINE
  5
265
100
AcDbEntity
  8
00_COMPONENTS_2
100
AcDbLine
 62
7
  6
CONTINUOUS
 10
38.3728452612
 20
47.75
 11
38.1192104077
 21
50.3238190503
  0
LINE
  5
266
100
AcDbEntity
  8
00_COMPONENTS_2
100
AcDbLine
 62
7
  6
CONTINUOUS
 10
32.6389647708
 20
44.5283421991
 11
32.6389647708
 21
47.75
  0
LINE
  5
267
100
AcDbEntity
  8
00_COMPONENTS_2
100
AcDbLine
 62
7
  6
CONTINUOUS
 10
32.7728448276
 20
134.95
 11
32.7728448276
 21
131.95
  0
LINE
  5
268
100
AcDbEntity
  8
00_COMPONENTS_2
100
AcDbLine
 62
7
  6
CONTINUOUS
 10
32.7728448276
 20
77.35
 11
32.7728448276
 21
80.35
  0
LINE
  5
269
100
AcDbEntity
  8
00_COMPONENTS_2
100
AcDbLine
 62
7
  6
CONTINUOUS
 10
33.6228448276
 20
147.05
 11
33.6228448276
 21
144.8
  0
LINE
  5
26A
100
AcDbEntity
  8
00_COMPONENTS_2
100
AcDbLine
 62
7
  6
CONTINUOUS
 10
33.6228448276
 20
67.5
 11
33.6228448276
 21
65.25
  0
LINE
  5
26B
100
AcDbEntity
  8
00_COMPONENTS_2
100
AcDbLine
 62
7
  6
CONTINUOUS
 10
33.7728448276
 20
134.95
 11
33.7728448276
 21
131.95
  0
LINE
  5
26C
100
AcDbEntity
  8
00_COMPONENTS_2
100
AcDbLine
 62
7
  6
CONTINUOUS
 10
33.7728448276
 20
77.35
 11
33.7728448276
 21
80.35
  0
LINE
  5
26D
100
AcDbEntity
  8
00_COMPONENTS_2
100
AcDbLine
 62
7
  6
CONTINUOUS
 10
33.8728448276
 20
64.75
 11
33.8728448276
 21
67.8
  0
LINE
  5
26E
100
AcDbEntity
  8
00_COMPONENTS_2
100
AcDbLine
 62
7
  6
CONTINUOUS
 10
33.8728448276
 20
144.5
 11
33.8728448276
 21
147.55
  0
LINE
  5
26F
100
AcDbEntity
  8
00_COMPONENTS_2
100
AcDbLine
 62
7
  6
CONTINUOUS
 10
34.8728448276
 20
44.0672232037
 11
34.8728448276
 21
43.35
  0
LINE
  5
270
100
AcDbEntity
  8
00_COMPONENTS_2
100
AcDbLine
 62
7
  6
CONTINUOUS
 10
36.3728448276
 20
147.55
 11
36.3728448276
 21
144.5
  0
LINE
  5
271
100
AcDbEntity
  8
00_COMPONENTS_2
100
AcDbLine
 62
7
  6
CONTINUOUS
 10
36.3728448276
 20
67.8
 11
36.3728448276
 21
64.75
  0
LINE
  5
272
100
AcDbEntity
  8
00_COMPONENTS_2
100
AcDbLine
 62
7
  6
CONTINUOUS
 10
36.6228448276
 20
65.25
 11
36.6228448276
 21
67.5
  0
LINE
  5
273
100
AcDbEntity
  8
00_COMPONENTS_2
100
AcDbLine
 62
7
  6
CONTINUOUS
 10
36.6228448276
 20
144.8
 11
36.6228448276
 21
147.05
  0
LINE
  5
274
100
AcDbEntity
  8
00_COMPONENTS_2
100
AcDbLine
 62
7
  6
CONTINUOUS
 10
38.1192101814
 20
161.9756849758
 11
38.3728950777
 21
164.5499998774
  0
LINE
  5
275
100
AcDbEntity
  8
00_COMPONENTS_2
100
AcDbLine
 62
7
  6
CONTINUOUS
 10
60.2181442892
 20
157.05
 11
59.0634437508
 21
155.05
  0
LINE
  5
276
100
AcDbEntity
  8
00_COMPONENTS_6
100
AcDbLine
 62
7
  6
CONTINUOUS
 10
80.4728448276
 20
64.45
 11
71.2728448276
 21
64.45
  0
LINE
  5
277
100
AcDbEntity
  8
00_COMPONENTS_6
100
AcDbLine
 62
7
  6
CONTINUOUS
 10
71.2728448276
 20
64.4530550477
 11
80.4728448276
 21
64.4530550477
  0
LINE
  5
278
100
AcDbEntity
  8
00_COMPONENTS_2
100
AcDbLine
 62
7
  6
CONTINUOUS
 10
135.2728448276
 20
64.75
 11
117.8728448276
 21
64.75
  0
LINE
  5
279
100
AcDbEntity
  8
00_COMPONENTS_2
100
AcDbLine
 62
7
  6
CONTINUOUS
 10
115.3728448276
 20
64.75
 11
100.3728448276
 21
64.75
  0
LINE
  5
27A
100
AcDbEntity
  8
00_COMPONENTS_2
100
AcDbLine
 62
7
  6
CONTINUOUS
 10
97.8728448276
 20
64.75
 11
80.4728448276
 21
64.75
  0
LINE
  5
27B
100
AcDbEntity
  8
00_COMPONENTS_2
100
AcDbLine
 62
7
  6
CONTINUOUS
 10
71.2728448276
 20
64.75
 11
53.8728448276
 21
64.75
  0
LINE
  5
27C
100
AcDbEntity
  8
00_COMPONENTS_2
100
AcDbLine
 62
7
  6
CONTINUOUS
 10
51.3728448276
 20
64.75
 11
36.3728448276
 21
64.75
  0
LINE
  5
27D
100
AcDbEntity
  8
00_COMPONENTS_2
100
AcDbLine
 62
7
  6
CONTINUOUS
 10
33.8728448276
 20
64.75
 11
16.4728448276
 21
64.75
  0
LINE
  5
27E
100
AcDbEntity
  8
00_COMPONENTS_2
100
AcDbLine
 62
7
  6
CONTINUOUS
 10
31.8727960766
 20
164.55
 11
32.1264799483
 21
161.9756835252
  0
LINE
  5
27F
100
AcDbEntity
  8
00_COMPONENTS_2
100
AcDbLine
 62
7
  6
CONTINUOUS
 10
37.9728448276
 20
86.22
 11
37.9728448276
 21
83.6258647493
  0
LINE
  5
280
100
AcDbEntity
  8
00_COMPONENTS_2
100
AcDbLine
 62
7
  6
CONTINUOUS
 10
37.9728448276
 20
87.42
 11
37.9728448276
 21
90.0141352507
  0
LINE
  5
281
100
AcDbEntity
  8
00_COMPONENTS_2
100
AcDbLine
 62
7
  6
CONTINUOUS
 10
37.9728448276
 20
122.6251011822
 11
37.9728448276
 21
124.92
  0
LINE
  5
282
100
AcDbEntity
  8
00_COMPONENTS_2
100
AcDbLine
 62
7
  6
CONTINUOUS
 10
37.9728448276
 20
126.12
 11
37.9728448276
 21
128.5548988178
  0
LINE
  5
283
100
AcDbEntity
  8
00_COMPONENTS_2
100
AcDbLine
 62
7
  6
CONTINUOUS
 10
38.7728448276
 20
43.5202127107
 11
38.7728448276
 21
43.35
  0
LINE
  5
284
100
AcDbEntity
  8
00_COMPONENTS_2
100
AcDbLine
 62
7
  6
CONTINUOUS
 10
39.0194813278
 20
164.55
 11
39.0194813278
 21
164.05
  0
LINE
  5
285
100
AcDbEntity
  8
00_COMPONENTS_2
100
AcDbLine
 62
7
  6
CONTINUOUS
 10
39.0194813278
 20
48.25
 11
39.0194813278
 21
47.75
  0
LINE
  5
286
100
AcDbEntity
  8
00_COMPONENTS_2
100
AcDbLine
 62
7
  6
CONTINUOUS
 10
39.1728448276
 20
124.92
 11
39.1728448276
 21
122.6251011822
  0
LINE
  5
287
100
AcDbEntity
  8
00_COMPONENTS_2
100
AcDbLine
 62
7
  6
CONTINUOUS
 10
39.1728448276
 20
90.0141352507
 11
39.1728448276
 21
87.42
  0
LINE
  5
288
100
AcDbEntity
  8
00_COMPONENTS_2
100
AcDbLine
 62
7
  6
CONTINUOUS
 10
39.1728448276
 20
86.22
 11
39.1728448276
 21
83.6258647493
  0
LINE
  5
289
100
AcDbEntity
  8
00_COMPONENTS_2
100
AcDbLine
 62
7
  6
CONTINUOUS
 10
39.1728448276
 20
47.85
 11
39.1728448276
 21
48.25
  0
LINE
  5
28A
100
AcDbEntity
  8
00_COMPONENTS_2
100
AcDbLine
 62
7
  6
CONTINUOUS
 10
39.1728448276
 20
126.12
 11
39.1728448276
 21
128.5548988178
  0
LINE
  5
28B
100
AcDbEntity
  8
00_COMPONENTS_2
100
AcDbLine
 62
7
  6
CONTINUOUS
 10
39.1728448276
 20
164.05
 11
39.1728448276
 21
164.45
  0
LINE
  5
28C
100
AcDbEntity
  8
00_COMPONENTS_2
100
AcDbLine
 62
7
  6
CONTINUOUS
 10
39.3189624124
 20
43.4578103017
 11
39.3189624124
 21
47.75
  0
LINE
  5
28D
100
AcDbEntity
  8
00_COMPONENTS_2
100
AcDbLine
 62
7
  6
CONTINUOUS
 10
39.8103448276
 20
47.85
 11
39.8103448276
 21
47.75
  0
LINE
  5
28E
100
AcDbEntity
  8
00_COMPONENTS_2
100
AcDbLine
 62
7
  6
CONTINUOUS
 10
39.8103448276
 20
164.45
 11
39.8103448276
 21
164.55
  0
LINE
  5
28F
100
AcDbEntity
  8
00_COMPONENTS_2
100
AcDbLine
 62
7
  6
CONTINUOUS
 10
40.6228448276
 20
45.45
 11
40.6228448276
 21
47.4525096568
  0
LINE
  5
290
100
AcDbEntity
  8
00_COMPONENTS_2
100
AcDbLine
 62
7
  6
CONTINUOUS
 10
41.3728448276
 20
43.55
 11
41.3728448276
 21
43.35
  0
LINE
  5
291
100
AcDbEntity
  8
00_COMPONENTS_2
100
AcDbLine
 62
7
  6
CONTINUOUS
 10
32.1264796006
 20
50.323818997
 11
31.8728452301
 21
47.75
  0
LINE
  5
292
100
AcDbEntity
  8
00_COMPONENTS_2
100
AcDbLine
 62
7
  6
CONTINUOUS
 10
62.527545366
 20
153.05
 11
63.6822459043
 21
155.05
  0
LINE
  5
293
100
AcDbEntity
  8
00_COMPONENTS_2
100
AcDbLine
 62
7
  6
CONTINUOUS
 10
16.4728448276
 20
65.25
 11
33.6228448276
 21
65.25
  0
LINE
  5
294
100
AcDbEntity
  8
00_COMPONENTS_2
100
AcDbLine
 62
7
  6
CONTINUOUS
 10
36.6228448276
 20
65.25
 11
51.1228448276
 21
65.25
  0
LINE
  5
295
100
AcDbEntity
  8
00_COMPONENTS_2
100
AcDbLine
 62
7
  6
CONTINUOUS
 10
54.1228448276
 20
65.25
 11
71.2728448276
 21
65.25
  0
LINE
  5
296
100
AcDbEntity
  8
00_COMPONENTS_2
100
AcDbLine
 62
7
  6
CONTINUOUS
 10
80.4728448276
 20
65.25
 11
97.6228448276
 21
65.25
  0
LINE
  5
297
100
AcDbEntity
  8
00_COMPONENTS_2
100
AcDbLine
 62
7
  6
CONTINUOUS
 10
100.6228448276
 20
65.25
 11
115.1228448276
 21
65.25
  0
LINE
  5
298
100
AcDbEntity
  8
00_COMPONENTS_2
100
AcDbLine
 62
7
  6
CONTINUOUS
 10
118.1228448276
 20
65.25
 11
135.2728448276
 21
65.25
  0
LINE
  5
299
100
AcDbEntity
  8
00_COMPONENTS_6
100
AcDbLine
 62
7
  6
CONTINUOUS
 10
80.4728448276
 20
65.8603105771
 11
71.2728448276
 21
65.8603105771
  0
LINE
  5
29A
100
AcDbEntity
  8
00_COMPONENTS_6
100
AcDbLine
 62
7
  6
CONTINUOUS
 10
71.2728448276
 20
65.95
 11
80.4728448276
 21
65.95
  0
LINE
  5
29B
100
AcDbEntity
  8
00_COMPONENTS_6
100
AcDbLine
 62
7
  6
CONTINUOUS
 10
79.8510885526
 20
66.3964121863
 11
71.8510885526
 21
66.3964121863
  0
LINE
  5
29C
100
AcDbEntity
  8
00_COMPONENTS_6
100
AcDbLine
 62
7
  6
CONTINUOUS
 10
72.3510885526
 20
67.0464121863
 11
74.8510885526
 21
67.0464121863
  0
LINE
  5
29D
100
AcDbEntity
  8
00_COMPONENTS_6
100
AcDbLine
 62
7
  6
CONTINUOUS
 10
76.8510885526
 20
67.0464121863
 11
79.3510885526
 21
67.0464121863
  0
LINE
  5
29E
100
AcDbEntity
  8
00_COMPONENTS_6
100
AcDbLine
 62
7
  6
CONTINUOUS
 10
79.3510885526
 20
67.5464121863
 11
77.0110885526
 21
67.5464121863
  0
LINE
  5
29F
100
AcDbEntity
  8
00_COMPONENTS_6
100
AcDbLine
 62
7
  6
CONTINUOUS
 10
74.6910885526
 20
67.5464121863
 11
72.3510885526
 21
67.5464121863
  0
LINE
  5
2A0
100
AcDbEntity
  8
00_COMPONENTS_6
100
AcDbLine
 62
7
  6
CONTINUOUS
 10
72.3510885526
 20
68.6464121863
 11
74.6910885526
 21
68.6464121863
  0
LINE
  5
2A1
100
AcDbEntity
  8
00_COMPONENTS_6
100
AcDbLine
 62
7
  6
CONTINUOUS
 10
77.0110885526
 20
68.6464121863
 11
79.3510885526
 21
68.6464121863
  0
LINE
  5
2A2
100
AcDbEntity
  8
00_COMPONENTS_6
100
AcDbLine
 62
7
  6
CONTINUOUS
 10
79.3510885526
 20
69.1464121863
 11
76.8510885526
 21
69.1464121863
  0
LINE
  5
2A3
100
AcDbEntity
  8
00_COMPONENTS_6
100
AcDbLine
 62
7
  6
CONTINUOUS
 10
74.8510885526
 20
69.1464121863
 11
72.3510885526
 21
69.1464121863
  0
LINE
  5
2A4
100
AcDbEntity
  8
00_COMPONENTS_6
100
AcDbLine
 62
7
  6
CONTINUOUS
 10
72.3510885526
 20
70.2464121863
 11
79.3510885526
 21
70.2464121863
  0
LINE
  5
2A5
100
AcDbEntity
  8
00_COMPONENTS_6
100
AcDbLine
 62
7
  6
CONTINUOUS
 10
79.3510885526
 20
70.7464121863
 11
72.3510885526
 21
70.7464121863
  0
LINE
  5
2A6
100
AcDbEntity
  8
00_COMPONENTS_2
100
AcDbLine
 62
7
  6
CONTINUOUS
 10
59.0634437508
 20
57.25
 11
60.2181442892
 21
55.25
  0
LINE
  5
2A7
100
AcDbEntity
  8
00_COMPONENTS_2
100
AcDbLine
 62
7
  6
CONTINUOUS
 10
63.6822459043
 20
57.25
 11
62.527545366
 21
59.25
  0
LINE
  5
2A8
100
AcDbEntity
  8
00_COMPONENTS_2
100
AcDbLine
 62
7
  6
CONTINUOUS
 10
43.3728448276
 20
134.95
 11
43.3728448276
 21
131.95
  0
LINE
  5
2A9
100
AcDbEntity
  8
00_COMPONENTS_2
100
AcDbLine
 62
7
  6
CONTINUOUS
 10
43.3728448276
 20
77.35
 11
43.3728448276
 21
80.35
  0
LINE
  5
2AA
100
AcDbEntity
  8
00_COMPONENTS_2
100
AcDbLine
 62
7
  6
CONTINUOUS
 10
44.3728448276
 20
134.95
 11
44.3728448276
 21
131.95
  0
LINE
  5
2AB
100
AcDbEntity
  8
00_COMPONENTS_2
100
AcDbLine
 62
7
  6
CONTINUOUS
 10
44.3728448276
 20
77.35
 11
44.3728448276
 21
80.35
  0
LINE
  5
2AC
100
AcDbEntity
  8
00_COMPONENTS_2
100
AcDbLine
 62
7
  6
CONTINUOUS
 10
46.3728448276
 20
43.55
 11
46.3728448276
 21
43.35
  0
LINE
  5
2AD
100
AcDbEntity
  8
00_COMPONENTS_2
100
AcDbLine
 62
7
  6
CONTINUOUS
 10
47.1228448276
 20
47.4525200005
 11
47.1228448276
 21
45.45
  0
LINE
  5
2AE
100
AcDbEntity
  8
00_COMPONENTS_2
100
AcDbLine
 62
7
  6
CONTINUOUS
 10
47.9353448276
 20
47.85
 11
47.9353448276
 21
47.75
  0
LINE
  5
2AF
100
AcDbEntity
  8
00_COMPONENTS_2
100
AcDbLine
 62
7
  6
CONTINUOUS
 10
47.9353448276
 20
164.45
 11
47.9353448276
 21
164.55
  0
LINE
  5
2B0
100
AcDbEntity
  8
00_COMPONENTS_6
100
AcDbLine
 62
7
  6
CONTINUOUS
 10
71.8510885526
 20
71.3964121863
 11
79.8510885526
 21
71.3964121863
  0
LINE
  5
2B1
100
AcDbEntity
  8
00_COMPONENTS_6
100
AcDbLine
 62
7
  6
CONTINUOUS
 10
71.2728448276
 20
71.95
 11
80.4728448276
 21
71.95
  0
LINE
  5
2B2
100
AcDbEntity
  8
00_COMPONENTS_6
100
AcDbLine
 62
7
  6
CONTINUOUS
 10
80.4728448276
 20
73.4461332809
 11
71.2728448276
 21
73.4461332809
  0
LINE
  5
2B3
100
AcDbEntity
  8
00_COMPONENTS_6
100
AcDbLine
 62
7
  6
CONTINUOUS
 10
71.2728448276
 20
73.45
 11
80.4728448276
 21
73.45
  0
LINE
  5
2B4
100
AcDbEntity
  8
00_COMPONENTS_6
100
AcDbLine
 62
7
  6
CONTINUOUS
 10
76.8510885526
 20
67.0464121863
 11
76.0190915288
 21
67.662706278
  0
LINE
  5
2B5
100
AcDbEntity
  8
00_COMPONENTS_6
100
AcDbLine
 62
7
  6
CONTINUOUS
 10
75.2655855765
 20
68.2208588353
 11
74.6910885526
 21
68.6464121863
  0
LINE
  5
2B6
100
AcDbEntity
  8
00_COMPONENTS_6
100
AcDbLine
 62
7
  6
CONTINUOUS
 10
74.8510885526
 20
69.1464121863
 11
75.6830855765
 21
68.5301180945
  0
LINE
  5
2B7
100
AcDbEntity
  8
00_COMPONENTS_6
100
AcDbLine
 62
7
  6
CONTINUOUS
 10
76.4365915288
 20
67.9719655372
 11
77.0110885526
 21
67.5464121863
  0
LINE
  5
2B8
100
AcDbEntity
  8
00_COMPONENTS_2
100
AcDbLine
 62
7
  6
CONTINUOUS
 10
55.8728457969
 20
47.75
 11
55.6192109449
 21
50.3238190356
  0
LINE
  5
2B9
100
AcDbEntity
  8
00_COMPONENTS_2
100
AcDbLine
 62
7
  6
CONTINUOUS
 10
48.4267272428
 20
47.75
 11
48.4267272428
 21
43.4578103017
  0
LINE
  5
2BA
100
AcDbEntity
  8
00_COMPONENTS_2
100
AcDbLine
 62
7
  6
CONTINUOUS
 10
48.5728448276
 20
164.45
 11
48.5728448276
 21
164.05
  0
LINE
  5
2BB
100
AcDbEntity
  8
00_COMPONENTS_2
100
AcDbLine
 62
7
  6
CONTINUOUS
 10
48.5728448276
 20
86.22
 11
48.5728448276
 21
83.6258647493
  0
LINE
  5
2BC
100
AcDbEntity
  8
00_COMPONENTS_2
100
AcDbLine
 62
7
  6
CONTINUOUS
 10
48.5728448276
 20
48.25
 11
48.5728448276
 21
47.85
  0
LINE
  5
2BD
100
AcDbEntity
  8
00_COMPONENTS_2
100
AcDbLine
 62
7
  6
CONTINUOUS
 10
48.5728448276
 20
87.42
 11
48.5728448276
 21
90.0141352507
  0
LINE
  5
2BE
100
AcDbEntity
  8
00_COMPONENTS_2
100
AcDbLine
 62
7
  6
CONTINUOUS
 10
48.5728448276
 20
122.6700018414
 11
48.5728448276
 21
124.92
  0
LINE
  5
2BF
100
AcDbEntity
  8
00_COMPONENTS_2
100
AcDbLine
 62
7
  6
CONTINUOUS
 10
48.5728448276
 20
126.12
 11
48.5728448276
 21
128.5899981586
  0
LINE
  5
2C0
100
AcDbEntity
  8
00_COMPONENTS_2
100
AcDbLine
 62
7
  6
CONTINUOUS
 10
48.7212764259
 20
47.75
 11
48.7212764259
 21
48.25
  0
LINE
  5
2C1
100
AcDbEntity
  8
00_COMPONENTS_2
100
AcDbLine
 62
7
  6
CONTINUOUS
 10
48.7212764259
 20
164.05
 11
48.7212764259
 21
164.55
  0
LINE
  5
2C2
100
AcDbEntity
  8
00_COMPONENTS_2
100
AcDbLine
 62
7
  6
CONTINUOUS
 10
48.9728448276
 20
43.5197703644
 11
48.9728448276
 21
43.35
  0
LINE
  5
2C3
100
AcDbEntity
  8
00_COMPONENTS_2
100
AcDbLine
 62
7
  6
CONTINUOUS
 10
49.7728448276
 20
124.92
 11
49.7728448276
 21
122.6700018414
  0
LINE
  5
2C4
100
AcDbEntity
  8
00_COMPONENTS_2
100
AcDbLine
 62
7
  6
CONTINUOUS
 10
49.7728448276
 20
90.0141352507
 11
49.7728448276
 21
87.42
  0
LINE
  5
2C5
100
AcDbEntity
  8
00_COMPONENTS_2
100
AcDbLine
 62
7
  6
CONTINUOUS
 10
49.7728448276
 20
86.22
 11
49.7728448276
 21
83.6258647493
  0
LINE
  5
2C6
100
AcDbEntity
  8
00_COMPONENTS_2
100
AcDbLine
 62
7
  6
CONTINUOUS
 10
49.7728448276
 20
126.12
 11
49.7728448276
 21
128.5899981586
  0
LINE
  5
2C7
100
AcDbEntity
  8
00_COMPONENTS_2
100
AcDbLine
 62
7
  6
CONTINUOUS
 10
51.1228448276
 20
147.05
 11
51.1228448276
 21
144.8
  0
LINE
  5
2C8
100
AcDbEntity
  8
00_COMPONENTS_2
100
AcDbLine
 62
7
  6
CONTINUOUS
 10
51.1228448276
 20
67.5
 11
51.1228448276
 21
65.25
  0
LINE
  5
2C9
100
AcDbEntity
  8
00_COMPONENTS_2
100
AcDbLine
 62
7
  6
CONTINUOUS
 10
51.3728448276
 20
64.75
 11
51.3728448276
 21
67.8
  0
LINE
  5
2CA
100
AcDbEntity
  8
00_COMPONENTS_2
100
AcDbLine
 62
7
  6
CONTINUOUS
 10
51.3728448276
 20
144.5
 11
51.3728448276
 21
147.55
  0
LINE
  5
2CB
100
AcDbEntity
  8
00_COMPONENTS_2
100
AcDbLine
 62
7
  6
CONTINUOUS
 10
52.8728448276
 20
44.0694904431
 11
52.8728448276
 21
43.35
  0
LINE
  5
2CC
100
AcDbEntity
  8
00_COMPONENTS_2
100
AcDbLine
 62
7
  6
CONTINUOUS
 10
53.8728448276
 20
147.55
 11
53.8728448276
 21
144.5
  0
LINE
  5
2CD
100
AcDbEntity
  8
00_COMPONENTS_2
100
AcDbLine
 62
7
  6
CONTINUOUS
 10
53.8728448276
 20
67.8
 11
53.8728448276
 21
64.75
  0
LINE
  5
2CE
100
AcDbEntity
  8
00_COMPONENTS_2
100
AcDbLine
 62
7
  6
CONTINUOUS
 10
53.9728448276
 20
134.95
 11
53.9728448276
 21
131.95
  0
LINE
  5
2CF
100
AcDbEntity
  8
00_COMPONENTS_2
100
AcDbLine
 62
7
  6
CONTINUOUS
 10
53.9728448276
 20
77.35
 11
53.9728448276
 21
80.35
  0
LINE
  5
2D0
100
AcDbEntity
  8
00_COMPONENTS_2
100
AcDbLine
 62
7
  6
CONTINUOUS
 10
55.6192096925
 20
161.9756852963
 11
55.8728945694
 21
164.55
  0
LINE
  5
2D1
100
AcDbEntity
  8
00_COMPONENTS_2
100
AcDbLine
 62
7
  6
CONTINUOUS
 10
129.5728448276
 20
77.35
 11
128.5728448276
 21
77.35
  0
LINE
  5
2D2
100
AcDbEntity
  8
00_COMPONENTS_2
100
AcDbLine
 62
7
  6
CONTINUOUS
 10
118.9728448276
 20
77.35
 11
117.9728448276
 21
77.35
  0
LINE
  5
2D3
100
AcDbEntity
  8
00_COMPONENTS_2
100
AcDbLine
 62
7
  6
CONTINUOUS
 10
108.3728448276
 20
77.35
 11
107.3728448276
 21
77.35
  0
LINE
  5
2D4
100
AcDbEntity
  8
00_COMPONENTS_2
100
AcDbLine
 62
7
  6
CONTINUOUS
 10
97.7728448276
 20
77.35
 11
96.7728448276
 21
77.35
  0
LINE
  5
2D5
100
AcDbEntity
  8
00_COMPONENTS_2
100
AcDbLine
 62
7
  6
CONTINUOUS
 10
65.5728448276
 20
77.35
 11
64.5728448276
 21
77.35
  0
LINE
  5
2D6
100
AcDbEntity
  8
00_COMPONENTS_2
100
AcDbLine
 62
7
  6
CONTINUOUS
 10
54.9728448276
 20
77.35
 11
53.9728448276
 21
77.35
  0
LINE
  5
2D7
100
AcDbEntity
  8
00_COMPONENTS_2
100
AcDbLine
 62
7
  6
CONTINUOUS
 10
44.3728448276
 20
77.35
 11
43.3728448276
 21
77.35
  0
LINE
  5
2D8
100
AcDbEntity
  8
00_COMPONENTS_2
100
AcDbLine
 62
7
  6
CONTINUOUS
 10
33.7728448276
 20
77.35
 11
32.7728448276
 21
77.35
  0
LINE
  5
2D9
100
AcDbEntity
  8
00_COMPONENTS_2
100
AcDbLine
 62
7
  6
CONTINUOUS
 10
24.6728448276
 20
77.35
 11
28.6728448276
 21
77.35
  0
LINE
  5
2DA
100
AcDbEntity
  8
00_COMPONENTS_2
100
AcDbLine
 62
7
  6
CONTINUOUS
 10
88.6728448276
 20
77.35
 11
92.6728448276
 21
77.35
  0
LINE
  5
2DB
100
AcDbEntity
  8
00_COMPONENTS
100
AcDbLine
 62
7
  6
CONTINUOUS
 10
80.2728448276
 20
79.82
 11
73.5828448276
 21
79.82
  0
LINE
  5
2DC
100
AcDbEntity
  8
00_COMPONENTS_2
100
AcDbLine
 62
7
  6
CONTINUOUS
 10
16.4728448276
 20
80.35
 11
71.2728448276
 21
80.35
  0
LINE
  5
2DD
100
AcDbEntity
  8
00_COMPONENTS_2
100
AcDbLine
 62
7
  6
CONTINUOUS
 10
80.4728448276
 20
80.35
 11
135.2728448276
 21
80.35
  0
LINE
  5
2DE
100
AcDbEntity
  8
00_COMPONENTS_2
100
AcDbLine
 62
7
  6
CONTINUOUS
 10
49.3727968122
 20
164.55
 11
49.6264805235
 21
161.9756851538
  0
LINE
  5
2DF
100
AcDbEntity
  8
00_COMPONENTS_2
100
AcDbLine
 62
7
  6
CONTINUOUS
 10
54.1228448276
 20
65.25
 11
54.1228448276
 21
67.5
  0
LINE
  5
2E0
100
AcDbEntity
  8
00_COMPONENTS_2
100
AcDbLine
 62
7
  6
CONTINUOUS
 10
54.1228448276
 20
144.8
 11
54.1228448276
 21
147.05
  0
LINE
  5
2E1
100
AcDbEntity
  8
00_COMPONENTS_2
100
AcDbLine
 62
7
  6
CONTINUOUS
 10
54.8728448276
 20
44.475006407
 11
54.8728448276
 21
47.7500000063
  0
LINE
  5
2E2
100
AcDbEntity
  8
00_COMPONENTS_2
100
AcDbLine
 62
7
  6
CONTINUOUS
 10
54.9728448276
 20
134.95
 11
54.9728448276
 21
131.95
  0
LINE
  5
2E3
100
AcDbEntity
  8
00_COMPONENTS_2
100
AcDbLine
 62
7
  6
CONTINUOUS
 10
54.9728448276
 20
77.35
 11
54.9728448276
 21
80.35
  0
LINE
  5
2E4
100
AcDbEntity
  8
00_COMPONENTS_2
100
AcDbLine
 62
7
  6
CONTINUOUS
 10
56.5169096565
 20
164.55
 11
56.5169096565
 21
164.05
  0
LINE
  5
2E5
100
AcDbEntity
  8
00_COMPONENTS_2
100
AcDbLine
 62
7
  6
CONTINUOUS
 10
56.5169096565
 20
48.25
 11
56.5169096565
 21
47.75
  0
LINE
  5
2E6
100
AcDbEntity
  8
00_COMPONENTS_2
100
AcDbLine
 62
7
  6
CONTINUOUS
 10
56.6728448276
 20
47.85
 11
56.6728448276
 21
48.25
  0
LINE
  5
2E7
100
AcDbEntity
  8
00_COMPONENTS_2
100
AcDbLine
 62
7
  6
CONTINUOUS
 10
56.6728448276
 20
164.05
 11
56.6728448276
 21
164.45
  0
LINE
  5
2E8
100
AcDbEntity
  8
00_COMPONENTS_2
100
AcDbLine
 62
7
  6
CONTINUOUS
 10
57.3103448276
 20
47.85
 11
57.3103448276
 21
47.75
  0
LINE
  5
2E9
100
AcDbEntity
  8
00_COMPONENTS_2
100
AcDbLine
 62
7
  6
CONTINUOUS
 10
57.3103448276
 20
164.45
 11
57.3103448276
 21
164.55
  0
LINE
  5
2EA
100
AcDbEntity
  8
00_COMPONENTS_2
100
AcDbLine
 62
7
  6
CONTINUOUS
 10
59.1728448276
 20
86.22
 11
59.1728448276
 21
83.6258647493
  0
LINE
  5
2EB
100
AcDbEntity
  8
00_COMPONENTS_2
100
AcDbLine
 62
7
  6
CONTINUOUS
 10
59.1728448276
 20
87.42
 11
59.1728448276
 21
90.0141352507
  0
LINE
  5
2EC
100
AcDbEntity
  8
00_COMPONENTS_2
100
AcDbLine
 62
7
  6
CONTINUOUS
 10
59.1728448276
 20
122.5505405899
 11
59.1728448276
 21
124.92
  0
LINE
  5
2ED
100
AcDbEntity
  8
00_COMPONENTS_2
100
AcDbLine
 62
7
  6
CONTINUOUS
 10
59.1728448276
 20
126.12
 11
59.1728448276
 21
128.4694594101
  0
LINE
  5
2EE
100
AcDbEntity
  8
00_COMPONENTS_2
100
AcDbLine
 62
7
  6
CONTINUOUS
 10
49.626480535
 20
50.3238189726
 11
49.3728445218
 21
47.7500001226
  0
LINE
  5
2EF
100
AcDbEntity
  8
00_COMPONENTS_2
100
AcDbLine
 62
7
  6
CONTINUOUS
 10
25.2181442892
 20
59.25
 11
24.0634437508
 21
57.25
  0
LINE
  5
2F0
100
AcDbEntity
  8
00_COMPONENTS_2
100
AcDbLine
 62
7
  6
CONTINUOUS
 10
27.527545366
 20
55.25
 11
28.6822459043
 21
57.25
  0
LINE
  5
2F1
100
AcDbEntity
  8
00_COMPONENTS_2
100
AcDbLine
 62
7
  6
CONTINUOUS
 10
93.6728448276
 20
86.154092986
 11
89.6728448276
 21
86.154092986
  0
LINE
  5
2F2
100
AcDbEntity
  8
00_COMPONENTS_2
100
AcDbLine
 62
7
  6
CONTINUOUS
 10
29.6728448276
 20
86.154092986
 11
25.6728448276
 21
86.154092986
  0
LINE
  5
2F3
100
AcDbEntity
  8
00_COMPONENTS_2
100
AcDbLine
 62
7
  6
CONTINUOUS
 10
123.1728448276
 20
86.22
 11
120.5787095768
 21
86.22
  0
LINE
  5
2F4
100
AcDbEntity
  8
00_COMPONENTS_2
100
AcDbLine
 62
7
  6
CONTINUOUS
 10
116.3669800783
 20
86.22
 11
113.7728448276
 21
86.22
  0
LINE
  5
2F5
100
AcDbEntity
  8
00_COMPONENTS_2
100
AcDbLine
 62
7
  6
CONTINUOUS
 10
112.5728448276
 20
86.22
 11
109.9787095768
 21
86.22
  0
LINE
  5
2F6
100
AcDbEntity
  8
00_COMPONENTS_2
100
AcDbLine
 62
7
  6
CONTINUOUS
 10
105.7669800783
 20
86.22
 11
103.1728448276
 21
86.22
  0
LINE
  5
2F7
100
AcDbEntity
  8
00_COMPONENTS_2
100
AcDbLine
 62
7
  6
CONTINUOUS
 10
101.9728448276
 20
86.22
 11
99.3787095768
 21
86.22
  0
LINE
  5
2F8
100
AcDbEntity
  8
00_COMPONENTS_2
100
AcDbLine
 62
7
  6
CONTINUOUS
 10
59.1728448276
 20
86.22
 11
56.5787095768
 21
86.22
  0
LINE
  5
2F9
100
AcDbEntity
  8
00_COMPONENTS_2
100
AcDbLine
 62
7
  6
CONTINUOUS
 10
52.3669800783
 20
86.22
 11
49.7728448276
 21
86.22
  0
LINE
  5
2FA
100
AcDbEntity
  8
00_COMPONENTS_2
100
AcDbLine
 62
7
  6
CONTINUOUS
 10
48.5728448276
 20
86.22
 11
45.9787095768
 21
86.22
  0
LINE
  5
2FB
100
AcDbEntity
  8
00_COMPONENTS_2
100
AcDbLine
 62
7
  6
CONTINUOUS
 10
41.7669800783
 20
86.22
 11
39.1728448276
 21
86.22
  0
LINE
  5
2FC
100
AcDbEntity
  8
00_COMPONENTS_2
100
AcDbLine
 62
7
  6
CONTINUOUS
 10
37.9728448276
 20
86.22
 11
35.3787095768
 21
86.22
  0
LINE
  5
2FD
100
AcDbEntity
  8
00_COMPONENTS_2
100
AcDbLine
 62
7
  6
CONTINUOUS
 10
60.3728448276
 20
86.22
 11
62.9669800783
 21
86.22
  0
LINE
  5
2FE
100
AcDbEntity
  8
00_COMPONENTS_2
100
AcDbLine
 62
7
  6
CONTINUOUS
 10
124.3728448276
 20
86.22
 11
126.9669800783
 21
86.22
  0
LINE
  5
2FF
100
AcDbEntity
  8
00_COMPONENTS_2
100
AcDbLine
 62
7
  6
CONTINUOUS
 10
101.9728448276
 20
87.42
 11
99.3787095768
 21
87.42
  0
LINE
  5
300
100
AcDbEntity
  8
00_COMPONENTS_2
100
AcDbLine
 62
7
  6
CONTINUOUS
 10
37.9728448276
 20
87.42
 11
35.3787095768
 21
87.42
  0
LINE
  5
301
100
AcDbEntity
  8
00_COMPONENTS_2
100
AcDbLine
 62
7
  6
CONTINUOUS
 10
39.1728448276
 20
87.42
 11
41.7669800783
 21
87.42
  0
LINE
  5
302
100
AcDbEntity
  8
00_COMPONENTS_2
100
AcDbLine
 62
7
  6
CONTINUOUS
 10
45.9787095768
 20
87.42
 11
48.5728448276
 21
87.42
  0
LINE
  5
303
100
AcDbEntity
  8
00_COMPONENTS_2
100
AcDbLine
 62
7
  6
CONTINUOUS
 10
49.7728448276
 20
87.42
 11
52.3669800783
 21
87.42
  0
LINE
  5
304
100
AcDbEntity
  8
00_COMPONENTS_2
100
AcDbLine
 62
7
  6
CONTINUOUS
 10
56.5787095768
 20
87.42
 11
59.1728448276
 21
87.42
  0
LINE
  5
305
100
AcDbEntity
  8
00_COMPONENTS_2
100
AcDbLine
 62
7
  6
CONTINUOUS
 10
60.3728448276
 20
87.42
 11
62.9669800783
 21
87.42
  0
LINE
  5
306
100
AcDbEntity
  8
00_COMPONENTS_2
100
AcDbLine
 62
7
  6
CONTINUOUS
 10
103.1728448276
 20
87.42
 11
105.7669800783
 21
87.42
  0
LINE
  5
307
100
AcDbEntity
  8
00_COMPONENTS_2
100
AcDbLine
 62
7
  6
CONTINUOUS
 10
109.9787095768
 20
87.42
 11
112.5728448276
 21
87.42
  0
LINE
  5
308
100
AcDbEntity
  8
00_COMPONENTS_2
100
AcDbLine
 62
7
  6
CONTINUOUS
 10
113.7728448276
 20
87.42
 11
116.3669800783
 21
87.42
  0
LINE
  5
309
100
AcDbEntity
  8
00_COMPONENTS_2
100
AcDbLine
 62
7
  6
CONTINUOUS
 10
120.5787095768
 20
87.42
 11
123.1728448276
 21
87.42
  0
LINE
  5
30A
100
AcDbEntity
  8
00_COMPONENTS_2
100
AcDbLine
 62
7
  6
CONTINUOUS
 10
124.3728448276
 20
87.42
 11
126.9669800783
 21
87.42
  0
LINE
  5
30B
100
AcDbEntity
  8
00_COMPONENTS_2
100
AcDbLine
 62
7
  6
CONTINUOUS
 10
24.0634437508
 20
155.05
 11
25.2181442892
 21
153.05
  0
LINE
  5
30C
100
AcDbEntity
  8
00_COMPONENTS_2
100
AcDbLine
 62
7
  6
CONTINUOUS
 10
60.3728448276
 20
124.92
 11
60.3728448276
 21
122.5303355894
  0
LINE
  5
30D
100
AcDbEntity
  8
00_COMPONENTS_2
100
AcDbLine
 62
7
  6
CONTINUOUS
 10
60.3728448276
 20
90.0141352507
 11
60.3728448276
 21
87.42
  0
LINE
  5
30E
100
AcDbEntity
  8
00_COMPONENTS_2
100
AcDbLine
 62
7
  6
CONTINUOUS
 10
60.3728448276
 20
86.22
 11
60.3728448276
 21
83.6258647493
  0
LINE
  5
30F
100
AcDbEntity
  8
00_COMPONENTS_2
100
AcDbLine
 62
7
  6
CONTINUOUS
 10
60.3728448276
 20
126.12
 11
60.3728448276
 21
128.4896644106
  0
LINE
  5
310
100
AcDbEntity
  8
00_COMPONENTS_2
100
AcDbLine
 62
7
  6
CONTINUOUS
 10
64.5728448276
 20
134.95
 11
64.5728448276
 21
131.95
  0
LINE
  5
311
100
AcDbEntity
  8
00_COMPONENTS_2
100
AcDbLine
 62
7
  6
CONTINUOUS
 10
64.5728448276
 20
77.35
 11
64.5728448276
 21
80.35
  0
LINE
  5
312
100
AcDbEntity
  8
00_COMPONENTS_2
100
AcDbLine
 62
7
  6
CONTINUOUS
 10
89.2181442892
 20
157.05
 11
88.0634437508
 21
155.05
  0
LINE
  5
313
100
AcDbEntity
  8
00_COMPONENTS_2
100
AcDbLine
 62
7
  6
CONTINUOUS
 10
91.527545366
 20
153.05
 11
92.6822459043
 21
155.05
  0
LINE
  5
314
100
AcDbEntity
  8
00_COMPONENTS_2
100
AcDbLine
 62
7
  6
CONTINUOUS
 10
16.4728448276
 20
91.45
 11
25.1728448276
 21
91.45
  0
LINE
  5
315
100
AcDbEntity
  8
00_COMPONENTS_2
100
AcDbLine
 62
7
  6
CONTINUOUS
 10
30.1728448276
 20
91.45
 11
71.2728448276
 21
91.45
  0
LINE
  5
316
100
AcDbEntity
  8
00_COMPONENTS_2
100
AcDbLine
 62
7
  6
CONTINUOUS
 10
80.4728448276
 20
91.45
 11
89.1728448276
 21
91.45
  0
LINE
  5
317
100
AcDbEntity
  8
00_COMPONENTS_2
100
AcDbLine
 62
7
  6
CONTINUOUS
 10
94.1728448276
 20
91.45
 11
135.2728448276
 21
91.45
  0
LINE
  5
318
100
AcDbEntity
  8
00_COMPONENTS_2
100
AcDbLine
 62
7
  6
CONTINUOUS
 10
126.2728448276
 20
91.5493531583
 11
89.4728448276
 21
91.5493531583
  0
LINE
  5
319
100
AcDbEntity
  8
00_COMPONENTS_2
100
AcDbLine
 62
7
  6
CONTINUOUS
 10
62.2728448276
 20
91.5493531583
 11
25.4728448276
 21
91.5493531583
  0
LINE
  5
31A
100
AcDbEntity
  8
00_COMPONENTS_2
100
AcDbLine
 62
7
  6
CONTINUOUS
 10
28.6822459043
 20
155.05
 11
27.527545366
 21
157.05
  0
LINE
  5
31B
100
AcDbEntity
  8
00_COMPONENTS_2
100
AcDbLine
 62
7
  6
CONTINUOUS
 10
88.0634437508
 20
57.25
 11
89.2181442892
 21
55.25
  0
LINE
  5
31C
100
AcDbEntity
  8
00_COMPONENTS_2
100
AcDbLine
 62
7
  6
CONTINUOUS
 10
65.4353448276
 20
47.85
 11
65.4353448276
 21
47.75
  0
LINE
  5
31D
100
AcDbEntity
  8
00_COMPONENTS_2
100
AcDbLine
 62
7
  6
CONTINUOUS
 10
65.4353448276
 20
164.45
 11
65.4353448276
 21
164.55
  0
LINE
  5
31E
100
AcDbEntity
  8
00_COMPONENTS_2
100
AcDbLine
 62
7
  6
CONTINUOUS
 10
65.5728448276
 20
134.95
 11
65.5728448276
 21
131.95
  0
LINE
  5
31F
100
AcDbEntity
  8
00_COMPONENTS_2
100
AcDbLine
 62
7
  6
CONTINUOUS
 10
65.5728448276
 20
77.35
 11
65.5728448276
 21
80.35
  0
LINE
  5
320
100
AcDbEntity
  8
00_COMPONENTS_2
100
AcDbLine
 62
7
  6
CONTINUOUS
 10
66.0728448276
 20
164.45
 11
66.0728448276
 21
164.05
  0
LINE
  5
321
100
AcDbEntity
  8
00_COMPONENTS_2
100
AcDbLine
 62
7
  6
CONTINUOUS
 10
66.0728448276
 20
48.25
 11
66.0728448276
 21
47.85
  0
LINE
  5
322
100
AcDbEntity
  8
00_COMPONENTS_2
100
AcDbLine
 62
7
  6
CONTINUOUS
 10
66.0734916693
 20
116.85
 11
66.0734916693
 21
95.35
  0
LINE
  5
323
100
AcDbEntity
  8
00_COMPONENTS_2
100
AcDbLine
 62
7
  6
CONTINUOUS
 10
66.2190103415
 20
47.75
 11
66.2190103415
 21
48.25
  0
LINE
  5
324
100
AcDbEntity
  8
00_COMPONENTS_2
100
AcDbLine
 62
7
  6
CONTINUOUS
 10
66.2190103415
 20
164.05
 11
66.2190103415
 21
164.55
  0
LINE
  5
325
100
AcDbEntity
  8
00_COMPONENTS_2
100
AcDbLine
 62
7
  6
CONTINUOUS
 10
68.4728448276
 20
164.55
 11
68.4728448276
 21
163.05
  0
LINE
  5
326
100
AcDbEntity
  8
00_COMPONENTS_2
100
AcDbLine
 62
7
  6
CONTINUOUS
 10
68.4728448276
 20
49.25
 11
68.4728448276
 21
47.75
  0
LINE
  5
327
100
AcDbEntity
  8
00_COMPONENTS_2
100
AcDbLine
 62
7
  6
CONTINUOUS
 10
42.7181442892
 20
59.25
 11
41.5634437508
 21
57.25
  0
LINE
  5
328
100
AcDbEntity
  8
00_COMPONENTS_2
100
AcDbLine
 62
7
  6
CONTINUOUS
 10
92.6822459043
 20
57.25
 11
91.527545366
 21
59.25
  0
LINE
  5
329
100
AcDbEntity
  8
00_COMPONENTS
100
AcDbLine
 62
7
  6
CONTINUOUS
 10
73.5828448276
 20
79.82
 11
71.2728448276
 21
89.82
  0
LINE
  5
32A
100
AcDbEntity
  8
00_COMPONENTS_2
100
AcDbLine
 62
7
  6
CONTINUOUS
 10
71.2728448276
 20
49.25
 11
71.2728448276
 21
163.05
  0
LINE
  5
32B
100
AcDbEntity
  8
00_COMPONENTS_6
100
AcDbLine
 62
7
  6
CONTINUOUS
 10
71.8510885526
 20
66.3964121863
 11
71.8510885526
 21
71.3964121863
  0
LINE
  5
32C
100
AcDbEntity
  8
00_COMPONENTS_5
100
AcDbLine
 62
7
  6
CONTINUOUS
 10
71.895450124
 20
140.2288215002
 11
71.895450124
 21
145.2288215002
  0
LINE
  5
32D
100
AcDbEntity
  8
00_COMPONENTS_6
100
AcDbLine
 62
7
  6
CONTINUOUS
 10
72.3510885526
 20
70.7464121863
 11
72.3510885526
 21
70.2464121863
  0
LINE
  5
32E
100
AcDbEntity
  8
00_COMPONENTS_6
100
AcDbLine
 62
7
  6
CONTINUOUS
 10
72.3510885526
 20
69.1464121863
 11
72.3510885526
 21
68.6464121863
  0
LINE
  5
32F
100
AcDbEntity
  8
00_COMPONENTS_6
100
AcDbLine
 62
7
  6
CONTINUOUS
 10
72.3510885526
 20
67.5464121863
 11
72.3510885526
 21
67.0464121863
  0
LINE
  5
330
100
AcDbEntity
  8
00_COMPONENTS_5
100
AcDbLine
 62
7
  6
CONTINUOUS
 10
72.395450124
 20
144.5788215002
 11
72.395450124
 21
144.0788215002
  0
LINE
  5
331
100
AcDbEntity
  8
00_COMPONENTS_5
100
AcDbLine
 62
7
  6
CONTINUOUS
 10
72.395450124
 20
142.9788215002
 11
72.395450124
 21
142.4788215002
  0
LINE
  5
332
100
AcDbEntity
  8
00_COMPONENTS_5
100
AcDbLine
 62
7
  6
CONTINUOUS
 10
72.395450124
 20
141.3788215002
 11
72.395450124
 21
140.8788215002
  0
LINE
  5
333
100
AcDbEntity
  8
00_COMPONENTS_2
100
AcDbLine
 62
7
  6
CONTINUOUS
 10
45.027545366
 20
55.25
 11
46.1822459043
 21
57.25
  0
LINE
  5
334
100
AcDbEntity
  8
00_COMPONENTS_2
100
AcDbLine
 62
7
  6
CONTINUOUS
 10
106.7181442892
 20
157.05
 11
105.5634437508
 21
155.05
  0
LINE
  5
335
100
AcDbEntity
  8
00_COMPONENTS_2
100
AcDbLine
 62
7
  6
CONTINUOUS
 10
41.5634437508
 20
155.05
 11
42.7181442892
 21
153.05
  0
LINE
  5
336
100
AcDbEntity
  8
00_COMPONENTS_2
100
AcDbLine
 62
7
  6
CONTINUOUS
 10
46.1822459043
 20
155.05
 11
45.027545366
 21
157.05
  0
LINE
  5
337
100
AcDbEntity
  8
00_COMPONENTS_6
100
AcDbLine
 62
7
  6
CONTINUOUS
 10
79.3510885526
 20
67.0464121863
 11
79.3510885526
 21
67.5464121863
  0
LINE
  5
338
100
AcDbEntity
  8
00_COMPONENTS_6
100
AcDbLine
 62
7
  6
CONTINUOUS
 10
79.3510885526
 20
68.6464121863
 11
79.3510885526
 21
69.1464121863
  0
LINE
  5
339
100
AcDbEntity
  8
00_COMPONENTS_6
100
AcDbLine
 62
7
  6
CONTINUOUS
 10
79.3510885526
 20
70.2464121863
 11
79.3510885526
 21
70.7464121863
  0
LINE
  5
33A
100
AcDbEntity
  8
00_COMPONENTS_5
100
AcDbLine
 62
7
  6
CONTINUOUS
 10
79.395450124
 20
140.8788215002
 11
79.395450124
 21
141.3788215002
  0
LINE
  5
33B
100
AcDbEntity
  8
00_COMPONENTS_5
100
AcDbLine
 62
7
  6
CONTINUOUS
 10
79.395450124
 20
142.4788215002
 11
79.395450124
 21
142.9788215002
  0
LINE
  5
33C
100
AcDbEntity
  8
00_COMPONENTS_5
100
AcDbLine
 62
7
  6
CONTINUOUS
 10
79.395450124
 20
144.0788215002
 11
79.395450124
 21
144.5788215002
  0
LINE
  5
33D
100
AcDbEntity
  8
00_COMPONENTS_6
100
AcDbLine
 62
7
  6
CONTINUOUS
 10
79.8510885526
 20
71.3964121863
 11
79.8510885526
 21
66.3964121863
  0
LINE
  5
33E
100
AcDbEntity
  8
00_COMPONENTS_5
100
AcDbLine
 62
7
  6
CONTINUOUS
 10
79.895450124
 20
145.2288215002
 11
79.895450124
 21
140.2288215002
  0
LINE
  5
33F
100
AcDbEntity
  8
00_COMPONENTS
100
AcDbLine
 62
7
  6
CONTINUOUS
 10
80.2728448276
 20
122.82
 11
80.2728448276
 21
79.82
  0
LINE
  5
340
100
AcDbEntity
  8
00_COMPONENTS_2
100
AcDbLine
 62
7
  6
CONTINUOUS
 10
80.4728448276
 20
49.25
 11
80.4728448276
 21
163.05
  0
LINE
  5
341
100
AcDbEntity
  8
00_COMPONENTS_2
100
AcDbLine
 62
7
  6
CONTINUOUS
 10
81.1728448276
 20
86.1011087923
 11
81.1728448276
 21
84.5753041104
  0
LINE
  5
342
100
AcDbEntity
  8
00_COMPONENTS_2
100
AcDbLine
 62
7
  6
CONTINUOUS
 10
109.027545366
 20
153.05
 11
110.1822459043
 21
155.05
  0
LINE
  5
343
100
AcDbEntity
  8
00_COMPONENTS_2
100
AcDbLine
 62
7
  6
CONTINUOUS
 10
105.5634437508
 20
57.25
 11
106.7181442892
 21
55.25
  0
LINE
  5
344
100
AcDbEntity
  8
00_COMPONENTS_2
100
AcDbLine
 62
7
  6
CONTINUOUS
 10
110.1822459043
 20
57.25
 11
109.027545366
 21
59.25
  0
LINE
  5
345
100
AcDbEntity
  8
00_COMPONENTS_2
100
AcDbLine
 62
7
  6
CONTINUOUS
 10
83.2728448276
 20
47.75
 11
83.2728448276
 21
49.25
  0
LINE
  5
346
100
AcDbEntity
  8
00_COMPONENTS_2
100
AcDbLine
 62
7
  6
CONTINUOUS
 10
83.2728448276
 20
163.05
 11
83.2728448276
 21
164.55
  0
LINE
  5
347
100
AcDbEntity
  8
00_COMPONENTS_2
100
AcDbLine
 62
7
  6
CONTINUOUS
 10
85.5228448276
 20
164.55
 11
85.5228448276
 21
164.05
  0
LINE
  5
348
100
AcDbEntity
  8
00_COMPONENTS_2
100
AcDbLine
 62
7
  6
CONTINUOUS
 10
85.5228448276
 20
48.25
 11
85.5228448276
 21
47.75
  0
LINE
  5
349
100
AcDbEntity
  8
00_COMPONENTS_2
100
AcDbLine
 62
7
  6
CONTINUOUS
 10
85.6721979858
 20
95.35
 11
85.6721979858
 21
116.85
  0
LINE
  5
34A
100
AcDbEntity
  8
00_COMPONENTS_2
100
AcDbLine
 62
7
  6
CONTINUOUS
 10
85.6728448276
 20
47.85
 11
85.6728448276
 21
48.25
  0
LINE
  5
34B
100
AcDbEntity
  8
00_COMPONENTS_2
100
AcDbLine
 62
7
  6
CONTINUOUS
 10
85.6728448276
 20
164.05
 11
85.6728448276
 21
164.45
  0
LINE
  5
34C
100
AcDbEntity
  8
00_COMPONENTS_2
100
AcDbLine
 62
7
  6
CONTINUOUS
 10
86.3103448276
 20
47.85
 11
86.3103448276
 21
47.75
  0
LINE
  5
34D
100
AcDbEntity
  8
00_COMPONENTS_2
100
AcDbLine
 62
7
  6
CONTINUOUS
 10
86.3103448276
 20
164.45
 11
86.3103448276
 21
164.55
  0
LINE
  5
34E
100
AcDbEntity
  8
00_COMPONENTS_2
100
AcDbLine
 62
7
  6
CONTINUOUS
 10
60.2181442892
 20
59.25
 11
59.0634437508
 21
57.25
  0
LINE
  5
34F
100
AcDbEntity
  8
00_COMPONENTS_2
100
AcDbLine
 62
7
  6
CONTINUOUS
 10
59.0634437508
 20
155.05
 11
60.2181442892
 21
153.05
  0
LINE
  5
350
100
AcDbEntity
  8
00_COMPONENTS
100
AcDbLine
 62
7
  6
CONTINUOUS
 10
77.9628448276
 20
132.82
 11
80.2728448276
 21
122.82
  0
LINE
  5
351
100
AcDbEntity
  8
00_COMPONENTS_2
100
AcDbLine
 62
7
  6
CONTINUOUS
 10
88.6728448276
 20
77.35
 11
88.6728448276
 21
80.35
  0
LINE
  5
352
100
AcDbEntity
  8
00_COMPONENTS_2
100
AcDbLine
 62
7
  6
CONTINUOUS
 10
89.1728448276
 20
86.65393462
 11
89.1728448276
 21
91.45
  0
LINE
  5
353
100
AcDbEntity
  8
00_COMPONENTS_2
100
AcDbLine
 62
7
  6
CONTINUOUS
 10
92.6728448276
 20
77.35
 11
92.6728448276
 21
80.35
  0
LINE
  5
354
100
AcDbEntity
  8
00_COMPONENTS_2
100
AcDbLine
 62
7
  6
CONTINUOUS
 10
62.527545366
 20
55.25
 11
63.6822459043
 21
57.25
  0
LINE
  5
355
100
AcDbEntity
  8
00_COMPONENTS_2
100
AcDbLine
 62
7
  6
CONTINUOUS
 10
124.2181442892
 20
157.05
 11
123.0634437508
 21
155.05
  0
LINE
  5
356
100
AcDbEntity
  8
00_COMPONENTS_2
100
AcDbLine
 62
7
  6
CONTINUOUS
 10
25.4728448276
 20
120.6506468418
 11
62.2728448276
 21
120.6506468418
  0
LINE
  5
357
100
AcDbEntity
  8
00_COMPONENTS_2
100
AcDbLine
 62
7
  6
CONTINUOUS
 10
89.4728448276
 20
120.6506468418
 11
126.2728448276
 21
120.6506468418
  0
LINE
  5
358
100
AcDbEntity
  8
00_COMPONENTS_2
100
AcDbLine
 62
7
  6
CONTINUOUS
 10
16.4728448276
 20
120.95
 11
71.2728448276
 21
120.95
  0
LINE
  5
359
100
AcDbEntity
  8
00_COMPONENTS_2
100
AcDbLine
 62
7
  6
CONTINUOUS
 10
80.4728448276
 20
120.95
 11
135.2728448276
 21
120.95
  0
LINE
  5
35A
100
AcDbEntity
  8
00_COMPONENTS_2
100
AcDbLine
 62
7
  6
CONTINUOUS
 10
63.6822459043
 20
155.05
 11
62.527545366
 21
157.05
  0
LINE
  5
35B
100
AcDbEntity
  8
00_COMPONENTS_2
100
AcDbLine
 62
7
  6
CONTINUOUS
 10
123.0634437508
 20
57.25
 11
124.2181442892
 21
55.25
  0
LINE
  5
35C
100
AcDbEntity
  8
00_COMPONENTS_2
100
AcDbLine
 62
7
  6
CONTINUOUS
 10
102.3728452612
 20
47.75
 11
102.1192104077
 21
50.3238190503
  0
LINE
  5
35D
100
AcDbEntity
  8
00_COMPONENTS_2
100
AcDbLine
 62
7
  6
CONTINUOUS
 10
94.1728448276
 20
91.45
 11
94.1728448276
 21
86.65393462
  0
LINE
  5
35E
100
AcDbEntity
  8
00_COMPONENTS_2
100
AcDbLine
 62
7
  6
CONTINUOUS
 10
94.4353448276
 20
47.85
 11
94.4353448276
 21
47.75
  0
LINE
  5
35F
100
AcDbEntity
  8
00_COMPONENTS_2
100
AcDbLine
 62
7
  6
CONTINUOUS
 10
94.4353448276
 20
164.45
 11
94.4353448276
 21
164.55
  0
LINE
  5
360
100
AcDbEntity
  8
00_COMPONENTS_2
100
AcDbLine
 62
7
  6
CONTINUOUS
 10
95.0728448276
 20
164.45
 11
95.0728448276
 21
164.05
  0
LINE
  5
361
100
AcDbEntity
  8
00_COMPONENTS_2
100
AcDbLine
 62
7
  6
CONTINUOUS
 10
95.0728448276
 20
48.25
 11
95.0728448276
 21
47.85
  0
LINE
  5
362
100
AcDbEntity
  8
00_COMPONENTS_2
100
AcDbLine
 62
7
  6
CONTINUOUS
 10
95.2228448276
 20
47.75
 11
95.2228448276
 21
48.25
  0
LINE
  5
363
100
AcDbEntity
  8
00_COMPONENTS_2
100
AcDbLine
 62
7
  6
CONTINUOUS
 10
95.2228448276
 20
164.05
 11
95.2228448276
 21
164.55
  0
LINE
  5
364
100
AcDbEntity
  8
00_COMPONENTS_2
100
AcDbLine
 62
7
  6
CONTINUOUS
 10
95.3728448276
 20
84.5497715501
 11
95.3728448276
 21
86.1380323658
  0
LINE
  5
365
100
AcDbEntity
  8
00_COMPONENTS_2
100
AcDbLine
 62
7
  6
CONTINUOUS
 10
96.6389647708
 20
44.5283421991
 11
96.6389647708
 21
47.75
  0
LINE
  5
366
100
AcDbEntity
  8
00_COMPONENTS_2
100
AcDbLine
 62
7
  6
CONTINUOUS
 10
96.7728448276
 20
134.95
 11
96.7728448276
 21
131.95
  0
LINE
  5
367
100
AcDbEntity
  8
00_COMPONENTS_2
100
AcDbLine
 62
7
  6
CONTINUOUS
 10
96.7728448276
 20
77.35
 11
96.7728448276
 21
80.35
  0
LINE
  5
368
100
AcDbEntity
  8
00_COMPONENTS_2
100
AcDbLine
 62
7
  6
CONTINUOUS
 10
97.6228448276
 20
147.05
 11
97.6228448276
 21
144.8
  0
LINE
  5
369
100
AcDbEntity
  8
00_COMPONENTS_2
100
AcDbLine
 62
7
  6
CONTINUOUS
 10
97.6228448276
 20
67.5
 11
97.6228448276
 21
65.25
  0
LINE
  5
36A
100
AcDbEntity
  8
00_COMPONENTS_2
100
AcDbLine
 62
7
  6
CONTINUOUS
 10
97.7728448276
 20
134.95
 11
97.7728448276
 21
131.95
  0
LINE
  5
36B
100
AcDbEntity
  8
00_COMPONENTS_2
100
AcDbLine
 62
7
  6
CONTINUOUS
 10
97.7728448276
 20
77.35
 11
97.7728448276
 21
80.35
  0
LINE
  5
36C
100
AcDbEntity
  8
00_COMPONENTS_2
100
AcDbLine
 62
7
  6
CONTINUOUS
 10
97.8728448276
 20
64.75
 11
97.8728448276
 21
67.8
  0
LINE
  5
36D
100
AcDbEntity
  8
00_COMPONENTS_2
100
AcDbLine
 62
7
  6
CONTINUOUS
 10
97.8728448276
 20
144.5
 11
97.8728448276
 21
147.55
  0
LINE
  5
36E
100
AcDbEntity
  8
00_COMPONENTS_2
100
AcDbLine
 62
7
  6
CONTINUOUS
 10
98.8728448276
 20
44.0672232037
 11
98.8728448276
 21
43.35
  0
LINE
  5
36F
100
AcDbEntity
  8
00_COMPONENTS_2
100
AcDbLine
 62
7
  6
CONTINUOUS
 10
102.1192101814
 20
161.9756849758
 11
102.3728950777
 21
164.5499998774
  0
LINE
  5
370
100
AcDbEntity
  8
00_COMPONENTS_2
100
AcDbLine
 62
7
  6
CONTINUOUS
 10
126.527545366
 20
153.05
 11
127.6822459043
 21
155.05
  0
LINE
  5
371
100
AcDbEntity
  8
00_COMPONENTS_2
100
AcDbLine
 62
7
  6
CONTINUOUS
 10
123.1728448276
 20
124.92
 11
120.8772371034
 21
124.92
  0
LINE
  5
372
100
AcDbEntity
  8
00_COMPONENTS_2
100
AcDbLine
 62
7
  6
CONTINUOUS
 10
116.1130581554
 20
124.92
 11
113.7728448276
 21
124.92
  0
LINE
  5
373
100
AcDbEntity
  8
00_COMPONENTS_2
100
AcDbLine
 62
7
  6
CONTINUOUS
 10
112.5728448276
 20
124.92
 11
110.2326314998
 21
124.92
  0
LINE
  5
374
100
AcDbEntity
  8
00_COMPONENTS_2
100
AcDbLine
 62
7
  6
CONTINUOUS
 10
105.5006849495
 20
124.92
 11
103.1728448276
 21
124.92
  0
LINE
  5
375
100
AcDbEntity
  8
00_COMPONENTS_2
100
AcDbLine
 62
7
  6
CONTINUOUS
 10
101.9728448276
 20
124.92
 11
99.6446109094
 21
124.92
  0
LINE
  5
376
100
AcDbEntity
  8
00_COMPONENTS_2
100
AcDbLine
 62
7
  6
CONTINUOUS
 10
59.1728448276
 20
124.92
 11
56.8772371034
 21
124.92
  0
LINE
  5
377
100
AcDbEntity
  8
00_COMPONENTS_2
100
AcDbLine
 62
7
  6
CONTINUOUS
 10
52.1130581554
 20
124.92
 11
49.7728448276
 21
124.92
  0
LINE
  5
378
100
AcDbEntity
  8
00_COMPONENTS_2
100
AcDbLine
 62
7
  6
CONTINUOUS
 10
48.5728448276
 20
124.92
 11
46.2326314998
 21
124.92
  0
LINE
  5
379
100
AcDbEntity
  8
00_COMPONENTS_2
100
AcDbLine
 62
7
  6
CONTINUOUS
 10
41.5006849495
 20
124.92
 11
39.1728448276
 21
124.92
  0
LINE
  5
37A
100
AcDbEntity
  8
00_COMPONENTS_2
100
AcDbLine
 62
7
  6
CONTINUOUS
 10
37.9728448276
 20
124.92
 11
35.6446109094
 21
124.92
  0
LINE
  5
37B
100
AcDbEntity
  8
00_COMPONENTS_2
100
AcDbLine
 62
7
  6
CONTINUOUS
 10
60.3728448276
 20
124.92
 11
62.7683743581
 21
124.92
  0
LINE
  5
37C
100
AcDbEntity
  8
00_COMPONENTS_2
100
AcDbLine
 62
7
  6
CONTINUOUS
 10
124.3728448276
 20
124.92
 11
126.7683743581
 21
124.92
  0
LINE
  5
37D
100
AcDbEntity
  8
00_COMPONENTS_2
100
AcDbLine
 62
7
  6
CONTINUOUS
 10
101.9728448276
 20
126.12
 11
99.5946364736
 21
126.12
  0
LINE
  5
37E
100
AcDbEntity
  8
00_COMPONENTS_2
100
AcDbLine
 62
7
  6
CONTINUOUS
 10
37.9728448276
 20
126.12
 11
35.5946364736
 21
126.12
  0
LINE
  5
37F
100
AcDbEntity
  8
00_COMPONENTS_2
100
AcDbLine
 62
7
  6
CONTINUOUS
 10
39.1728448276
 20
126.12
 11
41.5510531816
 21
126.12
  0
LINE
  5
380
100
AcDbEntity
  8
00_COMPONENTS_2
100
AcDbLine
 62
7
  6
CONTINUOUS
 10
46.1879278591
 20
126.12
 11
48.5728448276
 21
126.12
  0
LINE
  5
381
100
AcDbEntity
  8
00_COMPONENTS_2
100
AcDbLine
 62
7
  6
CONTINUOUS
 10
49.7728448276
 20
126.12
 11
52.1577617961
 21
126.12
  0
LINE
  5
382
100
AcDbEntity
  8
00_COMPONENTS_2
100
AcDbLine
 62
7
  6
CONTINUOUS
 10
56.8804035008
 20
126.12
 11
59.1728448276
 21
126.12
  0
LINE
  5
383
100
AcDbEntity
  8
00_COMPONENTS_2
100
AcDbLine
 62
7
  6
CONTINUOUS
 10
60.3728448276
 20
126.12
 11
62.7659191133
 21
126.12
  0
LINE
  5
384
100
AcDbEntity
  8
00_COMPONENTS_2
100
AcDbLine
 62
7
  6
CONTINUOUS
 10
103.1728448276
 20
126.12
 11
105.5510531816
 21
126.12
  0
LINE
  5
385
100
AcDbEntity
  8
00_COMPONENTS_2
100
AcDbLine
 62
7
  6
CONTINUOUS
 10
110.1879278591
 20
126.12
 11
112.5728448276
 21
126.12
  0
LINE
  5
386
100
AcDbEntity
  8
00_COMPONENTS_2
100
AcDbLine
 62
7
  6
CONTINUOUS
 10
113.7728448276
 20
126.12
 11
116.1577617961
 21
126.12
  0
LINE
  5
387
100
AcDbEntity
  8
00_COMPONENTS_2
100
AcDbLine
 62
7
  6
CONTINUOUS
 10
120.8804035008
 20
126.12
 11
123.1728448276
 21
126.12
  0
LINE
  5
388
100
AcDbEntity
  8
00_COMPONENTS_2
100
AcDbLine
 62
7
  6
CONTINUOUS
 10
124.3728448276
 20
126.12
 11
126.7659191133
 21
126.12
  0
LINE
  5
389
100
AcDbEntity
  8
00_COMPONENTS_2
100
AcDbLine
 62
7
  6
CONTINUOUS
 10
127.6822459043
 20
57.25
 11
126.527545366
 21
59.25
  0
LINE
  5
38A
100
AcDbEntity
  8
00_COMPONENTS_2
100
AcDbLine
 62
7
  6
CONTINUOUS
 10
95.8727960766
 20
164.55
 11
96.1264799483
 21
161.9756835252
  0
LINE
  5
38B
100
AcDbEntity
  8
00_COMPONENTS_2
100
AcDbLine
 62
7
  6
CONTINUOUS
 10
100.3728448276
 20
147.55
 11
100.3728448276
 21
144.5
  0
LINE
  5
38C
100
AcDbEntity
  8
00_COMPONENTS_2
100
AcDbLine
 62
7
  6
CONTINUOUS
 10
100.3728448276
 20
67.8
 11
100.3728448276
 21
64.75
  0
LINE
  5
38D
100
AcDbEntity
  8
00_COMPONENTS_2
100
AcDbLine
 62
7
  6
CONTINUOUS
 10
100.6228448276
 20
65.25
 11
100.6228448276
 21
67.5
  0
LINE
  5
38E
100
AcDbEntity
  8
00_COMPONENTS_2
100
AcDbLine
 62
7
  6
CONTINUOUS
 10
100.6228448276
 20
144.8
 11
100.6228448276
 21
147.05
  0
LINE
  5
38F
100
AcDbEntity
  8
00_COMPONENTS_2
100
AcDbLine
 62
7
  6
CONTINUOUS
 10
101.9728448276
 20
86.22
 11
101.9728448276
 21
83.6258647493
  0
LINE
  5
390
100
AcDbEntity
  8
00_COMPONENTS_2
100
AcDbLine
 62
7
  6
CONTINUOUS
 10
101.9728448276
 20
87.42
 11
101.9728448276
 21
90.0141352507
  0
LINE
  5
391
100
AcDbEntity
  8
00_COMPONENTS_2
100
AcDbLine
 62
7
  6
CONTINUOUS
 10
101.9728448276
 20
122.6251011822
 11
101.9728448276
 21
124.92
  0
LINE
  5
392
100
AcDbEntity
  8
00_COMPONENTS_2
100
AcDbLine
 62
7
  6
CONTINUOUS
 10
101.9728448276
 20
126.12
 11
101.9728448276
 21
128.5548988178
  0
LINE
  5
393
100
AcDbEntity
  8
00_COMPONENTS_2
100
AcDbLine
 62
7
  6
CONTINUOUS
 10
102.7728448276
 20
43.5202127107
 11
102.7728448276
 21
43.35
  0
LINE
  5
394
100
AcDbEntity
  8
00_COMPONENTS_2
100
AcDbLine
 62
7
  6
CONTINUOUS
 10
103.0194813278
 20
164.55
 11
103.0194813278
 21
164.05
  0
LINE
  5
395
100
AcDbEntity
  8
00_COMPONENTS_2
100
AcDbLine
 62
7
  6
CONTINUOUS
 10
103.0194813278
 20
48.25
 11
103.0194813278
 21
47.75
  0
LINE
  5
396
100
AcDbEntity
  8
00_COMPONENTS_2
100
AcDbLine
 62
7
  6
CONTINUOUS
 10
103.1728448276
 20
124.92
 11
103.1728448276
 21
122.6251011822
  0
LINE
  5
397
100
AcDbEntity
  8
00_COMPONENTS_2
100
AcDbLine
 62
7
  6
CONTINUOUS
 10
103.1728448276
 20
90.0141352507
 11
103.1728448276
 21
87.42
  0
LINE
  5
398
100
AcDbEntity
  8
00_COMPONENTS_2
100
AcDbLine
 62
7
  6
CONTINUOUS
 10
103.1728448276
 20
86.22
 11
103.1728448276
 21
83.6258647493
  0
LINE
  5
399
100
AcDbEntity
  8
00_COMPONENTS_2
100
AcDbLine
 62
7
  6
CONTINUOUS
 10
103.1728448276
 20
47.85
 11
103.1728448276
 21
48.25
  0
LINE
  5
39A
100
AcDbEntity
  8
00_COMPONENTS_2
100
AcDbLine
 62
7
  6
CONTINUOUS
 10
103.1728448276
 20
126.12
 11
103.1728448276
 21
128.5548988178
  0
LINE
  5
39B
100
AcDbEntity
  8
00_COMPONENTS_2
100
AcDbLine
 62
7
  6
CONTINUOUS
 10
103.1728448276
 20
164.05
 11
103.1728448276
 21
164.45
  0
LINE
  5
39C
100
AcDbEntity
  8
00_COMPONENTS_2
100
AcDbLine
 62
7
  6
CONTINUOUS
 10
103.3189624124
 20
43.4578103017
 11
103.3189624124
 21
47.75
  0
LINE
  5
39D
100
AcDbEntity
  8
00_COMPONENTS_2
100
AcDbLine
 62
7
  6
CONTINUOUS
 10
103.8103448276
 20
47.85
 11
103.8103448276
 21
47.75
  0
LINE
  5
39E
100
AcDbEntity
  8
00_COMPONENTS_2
100
AcDbLine
 62
7
  6
CONTINUOUS
 10
103.8103448276
 20
164.45
 11
103.8103448276
 21
164.55
  0
LINE
  5
39F
100
AcDbEntity
  8
00_COMPONENTS_2
100
AcDbLine
 62
7
  6
CONTINUOUS
 10
104.6228448276
 20
45.45
 11
104.6228448276
 21
47.4525096568
  0
LINE
  5
3A0
100
AcDbEntity
  8
00_COMPONENTS_2
100
AcDbLine
 62
7
  6
CONTINUOUS
 10
96.1264796006
 20
50.323818997
 11
95.8728452301
 21
47.75
  0
LINE
  5
3A1
100
AcDbEntity
  8
00_COMPONENTS_6
100
AcDbLine
 62
7
  6
CONTINUOUS
 10
75.6830855765
 20
68.5301180945
 11
75.2655855765
 21
68.2208588353
  0
LINE
  5
3A2
100
AcDbEntity
  8
00_COMPONENTS_6
100
AcDbLine
 62
7
  6
CONTINUOUS
 10
74.6910885526
 20
67.5464121863
 11
76.8510885526
 21
69.1464121863
  0
LINE
  5
3A3
100
AcDbEntity
  8
00_COMPONENTS_2
100
AcDbLine
 62
7
  6
CONTINUOUS
 10
135.2728448276
 20
131.95
 11
80.4728448276
 21
131.95
  0
LINE
  5
3A4
100
AcDbEntity
  8
00_COMPONENTS_2
100
AcDbLine
 62
7
  6
CONTINUOUS
 10
71.2728448276
 20
131.95
 11
16.4728448276
 21
131.95
  0
LINE
  5
3A5
100
AcDbEntity
  8
00_COMPONENTS
100
AcDbLine
 62
7
  6
CONTINUOUS
 10
71.2728448276
 20
132.82
 11
77.9628448276
 21
132.82
  0
LINE
  5
3A6
100
AcDbEntity
  8
00_COMPONENTS_2
100
AcDbLine
 62
7
  6
CONTINUOUS
 10
105.3728448276
 20
43.55
 11
105.3728448276
 21
43.35
  0
LINE
  5
3A7
100
AcDbEntity
  8
00_COMPONENTS_2
100
AcDbLine
 62
7
  6
CONTINUOUS
 10
107.3728448276
 20
134.95
 11
107.3728448276
 21
131.95
  0
LINE
  5
3A8
100
AcDbEntity
  8
00_COMPONENTS_2
100
AcDbLine
 62
7
  6
CONTINUOUS
 10
107.3728448276
 20
77.35
 11
107.3728448276
 21
80.35
  0
LINE
  5
3A9
100
AcDbEntity
  8
00_COMPONENTS_2
100
AcDbLine
 62
7
  6
CONTINUOUS
 10
108.3728448276
 20
134.95
 11
108.3728448276
 21
131.95
  0
LINE
  5
3AA
100
AcDbEntity
  8
00_COMPONENTS_2
100
AcDbLine
 62
7
  6
CONTINUOUS
 10
108.3728448276
 20
77.35
 11
108.3728448276
 21
80.35
  0
LINE
  5
3AB
100
AcDbEntity
  8
00_COMPONENTS_2
100
AcDbLine
 62
7
  6
CONTINUOUS
 10
110.3728448276
 20
43.55
 11
110.3728448276
 21
43.35
  0
LINE
  5
3AC
100
AcDbEntity
  8
00_COMPONENTS_2
100
AcDbLine
 62
7
  6
CONTINUOUS
 10
89.2181442892
 20
59.25
 11
88.0634437508
 21
57.25
  0
LINE
  5
3AD
100
AcDbEntity
  8
00_COMPONENTS_6
100
AcDbLine
 62
7
  6
CONTINUOUS
 10
77.0110885526
 20
68.6464121863
 11
74.8510885526
 21
67.0464121863
  0
LINE
  5
3AE
100
AcDbEntity
  8
00_COMPONENTS_6
100
AcDbLine
 62
7
  6
CONTINUOUS
 10
76.0190915288
 20
67.662706278
 11
76.4365915288
 21
67.9719655372
  0
LINE
  5
3AF
100
AcDbEntity
  8
00_COMPONENTS_2
100
AcDbLine
 62
7
  6
CONTINUOUS
 10
129.5728448276
 20
134.95
 11
128.5728448276
 21
134.95
  0
LINE
  5
3B0
100
AcDbEntity
  8
00_COMPONENTS_2
100
AcDbLine
 62
7
  6
CONTINUOUS
 10
118.9728448276
 20
134.95
 11
117.9728448276
 21
134.95
  0
LINE
  5
3B1
100
AcDbEntity
  8
00_COMPONENTS_2
100
AcDbLine
 62
7
  6
CONTINUOUS
 10
108.3728448276
 20
134.95
 11
107.3728448276
 21
134.95
  0
LINE
  5
3B2
100
AcDbEntity
  8
00_COMPONENTS_2
100
AcDbLine
 62
7
  6
CONTINUOUS
 10
97.7728448276
 20
134.95
 11
96.7728448276
 21
134.95
  0
LINE
  5
3B3
100
AcDbEntity
  8
00_COMPONENTS_2
100
AcDbLine
 62
7
  6
CONTINUOUS
 10
65.5728448276
 20
134.95
 11
64.5728448276
 21
134.95
  0
LINE
  5
3B4
100
AcDbEntity
  8
00_COMPONENTS_2
100
AcDbLine
 62
7
  6
CONTINUOUS
 10
54.9728448276
 20
134.95
 11
53.9728448276
 21
134.95
  0
LINE
  5
3B5
100
AcDbEntity
  8
00_COMPONENTS_2
100
AcDbLine
 62
7
  6
CONTINUOUS
 10
44.3728448276
 20
134.95
 11
43.3728448276
 21
134.95
  0
LINE
  5
3B6
100
AcDbEntity
  8
00_COMPONENTS_2
100
AcDbLine
 62
7
  6
CONTINUOUS
 10
33.7728448276
 20
134.95
 11
32.7728448276
 21
134.95
  0
LINE
  5
3B7
100
AcDbEntity
  8
00_COMPONENTS_5
100
AcDbLine
 62
7
  6
CONTINUOUS
 10
80.4728448276
 20
138.15
 11
71.2728448276
 21
138.15
  0
LINE
  5
3B8
100
AcDbEntity
  8
00_COMPONENTS_5
100
AcDbLine
 62
7
  6
CONTINUOUS
 10
71.2728448276
 20
138.1538667191
 11
80.4728448276
 21
138.1538667191
  0
LINE
  5
3B9
100
AcDbEntity
  8
00_COMPONENTS_2
100
AcDbLine
 62
7
  6
CONTINUOUS
 10
119.8728457969
 20
47.75
 11
119.6192109449
 21
50.3238190356
  0
LINE
  5
3BA
100
AcDbEntity
  8
00_COMPONENTS_2
100
AcDbLine
 62
7
  6
CONTINUOUS
 10
111.1228448276
 20
47.4525200005
 11
111.1228448276
 21
45.45
  0
LINE
  5
3BB
100
AcDbEntity
  8
00_COMPONENTS_2
100
AcDbLine
 62
7
  6
CONTINUOUS
 10
111.9353448276
 20
47.85
 11
111.9353448276
 21
47.75
  0
LINE
  5
3BC
100
AcDbEntity
  8
00_COMPONENTS_2
100
AcDbLine
 62
7
  6
CONTINUOUS
 10
111.9353448276
 20
164.45
 11
111.9353448276
 21
164.55
  0
LINE
  5
3BD
100
AcDbEntity
  8
00_COMPONENTS_2
100
AcDbLine
 62
7
  6
CONTINUOUS
 10
112.4267272428
 20
47.75
 11
112.4267272428
 21
43.4578103017
  0
LINE
  5
3BE
100
AcDbEntity
  8
00_COMPONENTS_2
100
AcDbLine
 62
7
  6
CONTINUOUS
 10
112.5728448276
 20
164.45
 11
112.5728448276
 21
164.05
  0
LINE
  5
3BF
100
AcDbEntity
  8
00_COMPONENTS_2
100
AcDbLine
 62
7
  6
CONTINUOUS
 10
112.5728448276
 20
86.22
 11
112.5728448276
 21
83.6258647493
  0
LINE
  5
3C0
100
AcDbEntity
  8
00_COMPONENTS_2
100
AcDbLine
 62
7
  6
CONTINUOUS
 10
112.5728448276
 20
48.25
 11
112.5728448276
 21
47.85
  0
LINE
  5
3C1
100
AcDbEntity
  8
00_COMPONENTS_2
100
AcDbLine
 62
7
  6
CONTINUOUS
 10
112.5728448276
 20
87.42
 11
112.5728448276
 21
90.0141352507
  0
LINE
  5
3C2
100
AcDbEntity
  8
00_COMPONENTS_2
100
AcDbLine
 62
7
  6
CONTINUOUS
 10
112.5728448276
 20
122.6700018414
 11
112.5728448276
 21
124.92
  0
LINE
  5
3C3
100
AcDbEntity
  8
00_COMPONENTS_2
100
AcDbLine
 62
7
  6
CONTINUOUS
 10
112.5728448276
 20
126.12
 11
112.5728448276
 21
128.5899981586
  0
LINE
  5
3C4
100
AcDbEntity
  8
00_COMPONENTS_2
100
AcDbLine
 62
7
  6
CONTINUOUS
 10
112.7212764259
 20
47.75
 11
112.7212764259
 21
48.25
  0
LINE
  5
3C5
100
AcDbEntity
  8
00_COMPONENTS_2
100
AcDbLine
 62
7
  6
CONTINUOUS
 10
112.7212764259
 20
164.05
 11
112.7212764259
 21
164.55
  0
LINE
  5
3C6
100
AcDbEntity
  8
00_COMPONENTS_2
100
AcDbLine
 62
7
  6
CONTINUOUS
 10
112.9728448276
 20
43.5197703644
 11
112.9728448276
 21
43.35
  0
LINE
  5
3C7
100
AcDbEntity
  8
00_COMPONENTS_2
100
AcDbLine
 62
7
  6
CONTINUOUS
 10
113.7728448276
 20
124.92
 11
113.7728448276
 21
122.6700018414
  0
LINE
  5
3C8
100
AcDbEntity
  8
00_COMPONENTS_2
100
AcDbLine
 62
7
  6
CONTINUOUS
 10
113.7728448276
 20
90.0141352507
 11
113.7728448276
 21
87.42
  0
LINE
  5
3C9
100
AcDbEntity
  8
00_COMPONENTS_2
100
AcDbLine
 62
7
  6
CONTINUOUS
 10
113.7728448276
 20
86.22
 11
113.7728448276
 21
83.6258647493
  0
LINE
  5
3CA
100
AcDbEntity
  8
00_COMPONENTS_2
100
AcDbLine
 62
7
  6
CONTINUOUS
 10
113.7728448276
 20
126.12
 11
113.7728448276
 21
128.5899981586
  0
LINE
  5
3CB
100
AcDbEntity
  8
00_COMPONENTS_2
100
AcDbLine
 62
7
  6
CONTINUOUS
 10
115.1228448276
 20
147.05
 11
115.1228448276
 21
144.8
  0
LINE
  5
3CC
100
AcDbEntity
  8
00_COMPONENTS_2
100
AcDbLine
 62
7
  6
CONTINUOUS
 10
115.1228448276
 20
67.5
 11
115.1228448276
 21
65.25
  0
LINE
  5
3CD
100
AcDbEntity
  8
00_COMPONENTS_2
100
AcDbLine
 62
7
  6
CONTINUOUS
 10
115.3728448276
 20
64.75
 11
115.3728448276
 21
67.8
  0
LINE
  5
3CE
100
AcDbEntity
  8
00_COMPONENTS_2
100
AcDbLine
 62
7
  6
CONTINUOUS
 10
115.3728448276
 20
144.5
 11
115.3728448276
 21
147.55
  0
LINE
  5
3CF
100
AcDbEntity
  8
00_COMPONENTS_2
100
AcDbLine
 62
7
  6
CONTINUOUS
 10
119.6192096925
 20
161.9756852963
 11
119.8728945694
 21
164.55
  0
LINE
  5
3D0
100
AcDbEntity
  8
00_COMPONENTS_2
100
AcDbLine
 62
7
  6
CONTINUOUS
 10
91.527545366
 20
55.25
 11
92.6822459043
 21
57.25
  0
LINE
  5
3D1
100
AcDbEntity
  8
00_COMPONENTS_5
100
AcDbLine
 62
7
  6
CONTINUOUS
 10
80.4728448276
 20
139.65
 11
71.2728448276
 21
139.65
  0
LINE
  5
3D2
100
AcDbEntity
  8
00_COMPONENTS_5
100
AcDbLine
 62
7
  6
CONTINUOUS
 10
79.895450124
 20
140.2288215002
 11
71.895450124
 21
140.2288215002
  0
LINE
  5
3D3
100
AcDbEntity
  8
00_COMPONENTS_5
100
AcDbLine
 62
7
  6
CONTINUOUS
 10
72.395450124
 20
140.8788215002
 11
79.395450124
 21
140.8788215002
  0
LINE
  5
3D4
100
AcDbEntity
  8
00_COMPONENTS_5
100
AcDbLine
 62
7
  6
CONTINUOUS
 10
79.395450124
 20
141.3788215002
 11
72.395450124
 21
141.3788215002
  0
LINE
  5
3D5
100
AcDbEntity
  8
00_COMPONENTS_5
100
AcDbLine
 62
7
  6
CONTINUOUS
 10
72.395450124
 20
142.4788215002
 11
79.395450124
 21
142.4788215002
  0
LINE
  5
3D6
100
AcDbEntity
  8
00_COMPONENTS_5
100
AcDbLine
 62
7
  6
CONTINUOUS
 10
79.395450124
 20
142.9788215002
 11
72.395450124
 21
142.9788215002
  0
LINE
  5
3D7
100
AcDbEntity
  8
00_COMPONENTS_5
100
AcDbLine
 62
7
  6
CONTINUOUS
 10
72.395450124
 20
144.0788215002
 11
79.395450124
 21
144.0788215002
  0
LINE
  5
3D8
100
AcDbEntity
  8
00_COMPONENTS_2
100
AcDbLine
 62
7
  6
CONTINUOUS
 10
88.0634437508
 20
155.05
 11
89.2181442892
 21
153.05
  0
LINE
  5
3D9
100
AcDbEntity
  8
00_COMPONENTS_2
100
AcDbLine
 62
7
  6
CONTINUOUS
 10
92.6822459043
 20
155.05
 11
91.527545366
 21
157.05
  0
LINE
  5
3DA
100
AcDbEntity
  8
00_COMPONENTS_2
100
AcDbLine
 62
7
  6
CONTINUOUS
 10
113.3727968122
 20
164.55
 11
113.6264805235
 21
161.9756851538
  0
LINE
  5
3DB
100
AcDbEntity
  8
00_COMPONENTS_2
100
AcDbLine
 62
7
  6
CONTINUOUS
 10
116.8728448276
 20
44.0694904431
 11
116.8728448276
 21
43.35
  0
LINE
  5
3DC
100
AcDbEntity
  8
00_COMPONENTS_2
100
AcDbLine
 62
7
  6
CONTINUOUS
 10
117.8728448276
 20
147.55
 11
117.8728448276
 21
144.5
  0
LINE
  5
3DD
100
AcDbEntity
  8
00_COMPONENTS_2
100
AcDbLine
 62
7
  6
CONTINUOUS
 10
117.8728448276
 20
67.8
 11
117.8728448276
 21
64.75
  0
LINE
  5
3DE
100
AcDbEntity
  8
00_COMPONENTS_2
100
AcDbLine
 62
7
  6
CONTINUOUS
 10
117.9728448276
 20
134.95
 11
117.9728448276
 21
131.95
  0
LINE
  5
3DF
100
AcDbEntity
  8
00_COMPONENTS_2
100
AcDbLine
 62
7
  6
CONTINUOUS
 10
117.9728448276
 20
77.35
 11
117.9728448276
 21
80.35
  0
LINE
  5
3E0
100
AcDbEntity
  8
00_COMPONENTS_2
100
AcDbLine
 62
7
  6
CONTINUOUS
 10
118.1228448276
 20
65.25
 11
118.1228448276
 21
67.5
  0
LINE
  5
3E1
100
AcDbEntity
  8
00_COMPONENTS_2
100
AcDbLine
 62
7
  6
CONTINUOUS
 10
118.1228448276
 20
144.8
 11
118.1228448276
 21
147.05
  0
LINE
  5
3E2
100
AcDbEntity
  8
00_COMPONENTS_2
100
AcDbLine
 62
7
  6
CONTINUOUS
 10
118.8728448276
 20
44.475006407
 11
118.8728448276
 21
47.7500000063
  0
LINE
  5
3E3
100
AcDbEntity
  8
00_COMPONENTS_2
100
AcDbLine
 62
7
  6
CONTINUOUS
 10
118.9728448276
 20
134.95
 11
118.9728448276
 21
131.95
  0
LINE
  5
3E4
100
AcDbEntity
  8
00_COMPONENTS_2
100
AcDbLine
 62
7
  6
CONTINUOUS
 10
118.9728448276
 20
77.35
 11
118.9728448276
 21
80.35
  0
LINE
  5
3E5
100
AcDbEntity
  8
00_COMPONENTS_2
100
AcDbLine
 62
7
  6
CONTINUOUS
 10
120.5169096565
 20
164.55
 11
120.5169096565
 21
164.05
  0
LINE
  5
3E6
100
AcDbEntity
  8
00_COMPONENTS_2
100
AcDbLine
 62
7
  6
CONTINUOUS
 10
120.5169096565
 20
48.25
 11
120.5169096565
 21
47.75
  0
LINE
  5
3E7
100
AcDbEntity
  8
00_COMPONENTS_2
100
AcDbLine
 62
7
  6
CONTINUOUS
 10
120.6728448276
 20
47.85
 11
120.6728448276
 21
48.25
  0
LINE
  5
3E8
100
AcDbEntity
  8
00_COMPONENTS_2
100
AcDbLine
 62
7
  6
CONTINUOUS
 10
120.6728448276
 20
164.05
 11
120.6728448276
 21
164.45
  0
LINE
  5
3E9
100
AcDbEntity
  8
00_COMPONENTS_2
100
AcDbLine
 62
7
  6
CONTINUOUS
 10
121.3103448276
 20
47.85
 11
121.3103448276
 21
47.75
  0
LINE
  5
3EA
100
AcDbEntity
  8
00_COMPONENTS_2
100
AcDbLine
 62
7
  6
CONTINUOUS
 10
121.3103448276
 20
164.45
 11
121.3103448276
 21
164.55
  0
LINE
  5
3EB
100
AcDbEntity
  8
00_COMPONENTS_2
100
AcDbLine
 62
7
  6
CONTINUOUS
 10
113.626480535
 20
50.3238189726
 11
113.3728445218
 21
47.7500001226
  0
LINE
  5
3EC
100
AcDbEntity
  8
00_COMPONENTS_5
100
AcDbLine
 62
7
  6
CONTINUOUS
 10
79.395450124
 20
144.5788215002
 11
72.395450124
 21
144.5788215002
  0
LINE
  5
3ED
100
AcDbEntity
  8
00_COMPONENTS_5
100
AcDbLine
 62
7
  6
CONTINUOUS
 10
71.895450124
 20
145.2288215002
 11
79.895450124
 21
145.2288215002
  0
LINE
  5
3EE
100
AcDbEntity
  8
00_COMPONENTS_5
100
AcDbLine
 62
7
  6
CONTINUOUS
 10
80.4728448276
 20
145.65
 11
71.2728448276
 21
145.65
  0
LINE
  5
3EF
100
AcDbEntity
  8
00_COMPONENTS_5
100
AcDbLine
 62
7
  6
CONTINUOUS
 10
71.2728448276
 20
145.7396894229
 11
80.4728448276
 21
145.7396894229
  0
LINE
  5
3F0
100
AcDbEntity
  8
00_COMPONENTS_2
100
AcDbLine
 62
7
  6
CONTINUOUS
 10
135.2728448276
 20
147.05
 11
118.1228448276
 21
147.05
  0
LINE
  5
3F1
100
AcDbEntity
  8
00_COMPONENTS_2
100
AcDbLine
 62
7
  6
CONTINUOUS
 10
115.1228448276
 20
147.05
 11
100.6228448276
 21
147.05
  0
LINE
  5
3F2
100
AcDbEntity
  8
00_COMPONENTS_2
100
AcDbLine
 62
7
  6
CONTINUOUS
 10
97.6228448276
 20
147.05
 11
80.4728448276
 21
147.05
  0
LINE
  5
3F3
100
AcDbEntity
  8
00_COMPONENTS_2
100
AcDbLine
 62
7
  6
CONTINUOUS
 10
71.2728448276
 20
147.05
 11
54.1228448276
 21
147.05
  0
LINE
  5
3F4
100
AcDbEntity
  8
00_COMPONENTS_2
100
AcDbLine
 62
7
  6
CONTINUOUS
 10
51.1228448276
 20
147.05
 11
36.6228448276
 21
147.05
  0
LINE
  5
3F5
100
AcDbEntity
  8
00_COMPONENTS_2
100
AcDbLine
 62
7
  6
CONTINUOUS
 10
33.6228448276
 20
147.05
 11
16.4728448276
 21
147.05
  0
LINE
  5
3F6
100
AcDbEntity
  8
00_COMPONENTS_5
100
AcDbLine
 62
7
  6
CONTINUOUS
 10
80.4728448276
 20
147.1469449523
 11
71.2728448276
 21
147.1469449523
  0
LINE
  5
3F7
100
AcDbEntity
  8
00_COMPONENTS_5
100
AcDbLine
 62
7
  6
CONTINUOUS
 10
71.2728448276
 20
147.15
 11
80.4728448276
 21
147.15
  0
LINE
  5
3F8
100
AcDbEntity
  8
00_COMPONENTS_2
100
AcDbLine
 62
7
  6
CONTINUOUS
 10
16.4728448276
 20
147.55
 11
33.8728448276
 21
147.55
  0
LINE
  5
3F9
100
AcDbEntity
  8
00_COMPONENTS_2
100
AcDbLine
 62
7
  6
CONTINUOUS
 10
36.3728448276
 20
147.55
 11
51.3728448276
 21
147.55
  0
LINE
  5
3FA
100
AcDbEntity
  8
00_COMPONENTS_2
100
AcDbLine
 62
7
  6
CONTINUOUS
 10
53.8728448276
 20
147.55
 11
71.2728448276
 21
147.55
  0
LINE
  5
3FB
100
AcDbEntity
  8
00_COMPONENTS_2
100
AcDbLine
 62
7
  6
CONTINUOUS
 10
80.4728448276
 20
147.55
 11
97.8728448276
 21
147.55
  0
LINE
  5
3FC
100
AcDbEntity
  8
00_COMPONENTS_2
100
AcDbLine
 62
7
  6
CONTINUOUS
 10
100.3728448276
 20
147.55
 11
115.3728448276
 21
147.55
  0
LINE
  5
3FD
100
AcDbEntity
  8
00_COMPONENTS_2
100
AcDbLine
 62
7
  6
CONTINUOUS
 10
117.8728448276
 20
147.55
 11
135.2728448276
 21
147.55
  0
LINE
  5
3FE
100
AcDbEntity
  8
00_COMPONENTS_2
100
AcDbLine
 62
7
  6
CONTINUOUS
 10
123.1728448276
 20
86.22
 11
123.1728448276
 21
83.6258647493
  0
LINE
  5
3FF
100
AcDbEntity
  8
00_COMPONENTS_2
100
AcDbLine
 62
7
  6
CONTINUOUS
 10
123.1728448276
 20
87.42
 11
123.1728448276
 21
90.0141352507
  0
LINE
  5
400
100
AcDbEntity
  8
00_COMPONENTS_2
100
AcDbLine
 62
7
  6
CONTINUOUS
 10
123.1728448276
 20
122.5505405899
 11
123.1728448276
 21
124.92
  0
LINE
  5
401
100
AcDbEntity
  8
00_COMPONENTS_2
100
AcDbLine
 62
7
  6
CONTINUOUS
 10
123.1728448276
 20
126.12
 11
123.1728448276
 21
128.4694594101
  0
LINE
  5
402
100
AcDbEntity
  8
00_COMPONENTS_2
100
AcDbLine
 62
7
  6
CONTINUOUS
 10
124.3728448276
 20
124.92
 11
124.3728448276
 21
122.5303355894
  0
LINE
  5
403
100
AcDbEntity
  8
00_COMPONENTS_2
100
AcDbLine
 62
7
  6
CONTINUOUS
 10
124.3728448276
 20
90.0141352507
 11
124.3728448276
 21
87.42
  0
LINE
  5
404
100
AcDbEntity
  8
00_COMPONENTS_2
100
AcDbLine
 62
7
  6
CONTINUOUS
 10
124.3728448276
 20
86.22
 11
124.3728448276
 21
83.6258647493
  0
LINE
  5
405
100
AcDbEntity
  8
00_COMPONENTS_2
100
AcDbLine
 62
7
  6
CONTINUOUS
 10
124.3728448276
 20
126.12
 11
124.3728448276
 21
128.4896644106
  0
LINE
  5
406
100
AcDbEntity
  8
00_COMPONENTS_2
100
AcDbLine
 62
7
  6
CONTINUOUS
 10
106.7181442892
 20
59.25
 11
105.5634437508
 21
57.25
  0
LINE
  5
407
100
AcDbEntity
  8
00_COMPONENTS_2
100
AcDbLine
 62
7
  6
CONTINUOUS
 10
126.527545366
 20
153.05
 11
124.2181442892
 21
153.05
  0
LINE
  5
408
100
AcDbEntity
  8
00_COMPONENTS_2
100
AcDbLine
 62
7
  6
CONTINUOUS
 10
109.027545366
 20
153.05
 11
106.7181442892
 21
153.05
  0
LINE
  5
409
100
AcDbEntity
  8
00_COMPONENTS_2
100
AcDbLine
 62
7
  6
CONTINUOUS
 10
91.527545366
 20
153.05
 11
89.2181442892
 21
153.05
  0
LINE
  5
40A
100
AcDbEntity
  8
00_COMPONENTS_2
100
AcDbLine
 62
7
  6
CONTINUOUS
 10
62.527545366
 20
153.05
 11
60.2181442892
 21
153.05
  0
LINE
  5
40B
100
AcDbEntity
  8
00_COMPONENTS_2
100
AcDbLine
 62
7
  6
CONTINUOUS
 10
45.027545366
 20
153.05
 11
42.7181442892
 21
153.05
  0
LINE
  5
40C
100
AcDbEntity
  8
00_COMPONENTS_2
100
AcDbLine
 62
7
  6
CONTINUOUS
 10
27.527545366
 20
153.05
 11
25.2181442892
 21
153.05
  0
LINE
  5
40D
100
AcDbEntity
  8
00_COMPONENTS_2
100
AcDbLine
 62
7
  6
CONTINUOUS
 10
105.5634437508
 20
155.05
 11
106.7181442892
 21
153.05
  0
LINE
  5
40E
100
AcDbEntity
  8
00_COMPONENTS_2
100
AcDbLine
 62
7
  6
CONTINUOUS
 10
128.5728448276
 20
134.95
 11
128.5728448276
 21
131.95
  0
LINE
  5
40F
100
AcDbEntity
  8
00_COMPONENTS_2
100
AcDbLine
 62
7
  6
CONTINUOUS
 10
128.5728448276
 20
77.35
 11
128.5728448276
 21
80.35
  0
LINE
  5
410
100
AcDbEntity
  8
00_COMPONENTS_2
100
AcDbLine
 62
7
  6
CONTINUOUS
 10
129.4353448276
 20
47.85
 11
129.4353448276
 21
47.75
  0
LINE
  5
411
100
AcDbEntity
  8
00_COMPONENTS_2
100
AcDbLine
 62
7
  6
CONTINUOUS
 10
129.4353448276
 20
164.45
 11
129.4353448276
 21
164.55
  0
LINE
  5
412
100
AcDbEntity
  8
00_COMPONENTS_2
100
AcDbLine
 62
7
  6
CONTINUOUS
 10
129.5728448276
 20
134.95
 11
129.5728448276
 21
131.95
  0
LINE
  5
413
100
AcDbEntity
  8
00_COMPONENTS_2
100
AcDbLine
 62
7
  6
CONTINUOUS
 10
129.5728448276
 20
77.35
 11
129.5728448276
 21
80.35
  0
LINE
  5
414
100
AcDbEntity
  8
00_COMPONENTS_2
100
AcDbLine
 62
7
  6
CONTINUOUS
 10
130.0728448276
 20
164.45
 11
130.0728448276
 21
164.05
  0
LINE
  5
415
100
AcDbEntity
  8
00_COMPONENTS_2
100
AcDbLine
 62
7
  6
CONTINUOUS
 10
130.0728448276
 20
48.25
 11
130.0728448276
 21
47.85
  0
LINE
  5
416
100
AcDbEntity
  8
00_COMPONENTS_2
100
AcDbLine
 62
7
  6
CONTINUOUS
 10
130.0734916693
 20
116.85
 11
130.0734916693
 21
95.35
  0
LINE
  5
417
100
AcDbEntity
  8
00_COMPONENTS_2
100
AcDbLine
 62
7
  6
CONTINUOUS
 10
130.2190103415
 20
47.75
 11
130.2190103415
 21
48.25
  0
LINE
  5
418
100
AcDbEntity
  8
00_COMPONENTS_2
100
AcDbLine
 62
7
  6
CONTINUOUS
 10
130.2190103415
 20
164.05
 11
130.2190103415
 21
164.55
  0
LINE
  5
419
100
AcDbEntity
  8
00_COMPONENTS_2
100
AcDbLine
 62
7
  6
CONTINUOUS
 10
132.4728448276
 20
164.55
 11
132.4728448276
 21
163.05
  0
LINE
  5
41A
100
AcDbEntity
  8
00_COMPONENTS_2
100
AcDbLine
 62
7
  6
CONTINUOUS
 10
132.4728448276
 20
49.25
 11
132.4728448276
 21
47.75
  0
LINE
  5
41B
100
AcDbEntity
  8
00_COMPONENTS_2
100
AcDbLine
 62
7
  6
CONTINUOUS
 10
109.027545366
 20
55.25
 11
110.1822459043
 21
57.25
  0
LINE
  5
41C
100
AcDbEntity
  8
00_COMPONENTS_2
100
AcDbLine
 62
7
  6
CONTINUOUS
 10
25.2181442892
 20
157.05
 11
27.527545366
 21
157.05
  0
LINE
  5
41D
100
AcDbEntity
  8
00_COMPONENTS_2
100
AcDbLine
 62
7
  6
CONTINUOUS
 10
42.7181442892
 20
157.05
 11
45.027545366
 21
157.05
  0
LINE
  5
41E
100
AcDbEntity
  8
00_COMPONENTS_2
100
AcDbLine
 62
7
  6
CONTINUOUS
 10
60.2181442892
 20
157.05
 11
62.527545366
 21
157.05
  0
LINE
  5
41F
100
AcDbEntity
  8
00_COMPONENTS_2
100
AcDbLine
 62
7
  6
CONTINUOUS
 10
89.2181442892
 20
157.05
 11
91.527545366
 21
157.05
  0
LINE
  5
420
100
AcDbEntity
  8
00_COMPONENTS_2
100
AcDbLine
 62
7
  6
CONTINUOUS
 10
106.7181442892
 20
157.05
 11
109.027545366
 21
157.05
  0
LINE
  5
421
100
AcDbEntity
  8
00_COMPONENTS_2
100
AcDbLine
 62
7
  6
CONTINUOUS
 10
124.2181442892
 20
157.05
 11
126.527545366
 21
157.05
  0
LINE
  5
422
100
AcDbEntity
  8
00_COMPONENTS_2
100
AcDbLine
 62
7
  6
CONTINUOUS
 10
110.1822459043
 20
155.05
 11
109.027545366
 21
157.05
  0
LINE
  5
423
100
AcDbEntity
  8
00_COMPONENTS_2
100
AcDbLine
 62
7
  6
CONTINUOUS
 10
135.2728448276
 20
49.25
 11
135.2728448276
 21
163.05
  0
LINE
  5
424
100
AcDbEntity
  8
00_COMPONENTS_2
100
AcDbLine
 62
7
  6
CONTINUOUS
 10
135.2728448276
 20
163.05
 11
119.725077632
 21
163.05
  0
LINE
  5
425
100
AcDbEntity
  8
00_COMPONENTS_2
100
AcDbLine
 62
7
  6
CONTINUOUS
 10
113.5206130623
 20
163.05
 11
102.2250779577
 21
163.05
  0
LINE
  5
426
100
AcDbEntity
  8
00_COMPONENTS_2
100
AcDbLine
 62
7
  6
CONTINUOUS
 10
96.0206123266
 20
163.05
 11
80.4728448276
 21
163.05
  0
LINE
  5
427
100
AcDbEntity
  8
00_COMPONENTS_2
100
AcDbLine
 62
7
  6
CONTINUOUS
 10
71.2728448276
 20
163.05
 11
55.725077632
 21
163.05
  0
LINE
  5
428
100
AcDbEntity
  8
00_COMPONENTS_2
100
AcDbLine
 62
7
  6
CONTINUOUS
 10
49.5206130623
 20
163.05
 11
38.2250779577
 21
163.05
  0
LINE
  5
429
100
AcDbEntity
  8
00_COMPONENTS_2
100
AcDbLine
 62
7
  6
CONTINUOUS
 10
32.0206123266
 20
163.05
 11
16.4728448276
 21
163.05
  0
LINE
  5
42A
100
AcDbEntity
  8
00_COMPONENTS_2
100
AcDbLine
 62
7
  6
CONTINUOUS
 10
130.2190103415
 20
164.05
 11
120.5169096565
 21
164.05
  0
LINE
  5
42B
100
AcDbEntity
  8
00_COMPONENTS_2
100
AcDbLine
 62
7
  6
CONTINUOUS
 10
112.7212764259
 20
164.05
 11
103.0194813278
 21
164.05
  0
LINE
  5
42C
100
AcDbEntity
  8
00_COMPONENTS_2
100
AcDbLine
 62
7
  6
CONTINUOUS
 10
95.2228448276
 20
164.05
 11
85.5228448276
 21
164.05
  0
LINE
  5
42D
100
AcDbEntity
  8
00_COMPONENTS_2
100
AcDbLine
 62
7
  6
CONTINUOUS
 10
66.2190103415
 20
164.05
 11
56.5169096565
 21
164.05
  0
LINE
  5
42E
100
AcDbEntity
  8
00_COMPONENTS_2
100
AcDbLine
 62
7
  6
CONTINUOUS
 10
48.7212764259
 20
164.05
 11
39.0194813278
 21
164.05
  0
LINE
  5
42F
100
AcDbEntity
  8
00_COMPONENTS_2
100
AcDbLine
 62
7
  6
CONTINUOUS
 10
31.2228448276
 20
164.05
 11
21.5228448276
 21
164.05
  0
LINE
  5
430
100
AcDbEntity
  8
00_COMPONENTS_2
100
AcDbLine
 62
7
  6
CONTINUOUS
 10
130.2190103415
 20
164.45
 11
120.5169096565
 21
164.45
  0
LINE
  5
431
100
AcDbEntity
  8
00_COMPONENTS_2
100
AcDbLine
 62
7
  6
CONTINUOUS
 10
112.7212764259
 20
164.45
 11
103.0194813278
 21
164.45
  0
LINE
  5
432
100
AcDbEntity
  8
00_COMPONENTS_2
100
AcDbLine
 62
7
  6
CONTINUOUS
 10
95.2228448276
 20
164.45
 11
85.5228448276
 21
164.45
  0
LINE
  5
433
100
AcDbEntity
  8
00_COMPONENTS_2
100
AcDbLine
 62
7
  6
CONTINUOUS
 10
66.2190103415
 20
164.45
 11
56.5169096565
 21
164.45
  0
LINE
  5
434
100
AcDbEntity
  8
00_COMPONENTS_2
100
AcDbLine
 62
7
  6
CONTINUOUS
 10
48.7212764259
 20
164.45
 11
39.0194813278
 21
164.45
  0
LINE
  5
435
100
AcDbEntity
  8
00_COMPONENTS_2
100
AcDbLine
 62
7
  6
CONTINUOUS
 10
31.2228448276
 20
164.45
 11
21.5228448276
 21
164.45
  0
LINE
  5
436
100
AcDbEntity
  8
00_COMPONENTS_2
100
AcDbLine
 62
7
  6
CONTINUOUS
 10
132.4728448276
 20
164.55
 11
120.5208664372
 21
164.55
  0
LINE
  5
437
100
AcDbEntity
  8
00_COMPONENTS_2
100
AcDbLine
 62
7
  6
CONTINUOUS
 10
120.5169096565
 20
164.55
 11
103.021723661
 21
164.55
  0
LINE
  5
438
100
AcDbEntity
  8
00_COMPONENTS_2
100
AcDbLine
 62
7
  6
CONTINUOUS
 10
103.0194813278
 20
164.55
 11
83.2728448276
 21
164.55
  0
LINE
  5
439
100
AcDbEntity
  8
00_COMPONENTS_2
100
AcDbLine
 62
7
  6
CONTINUOUS
 10
68.4728448276
 20
164.55
 11
56.5208664372
 21
164.55
  0
LINE
  5
43A
100
AcDbEntity
  8
00_COMPONENTS_2
100
AcDbLine
 62
7
  6
CONTINUOUS
 10
56.5169096565
 20
164.55
 11
39.021723661
 21
164.55
  0
LINE
  5
43B
100
AcDbEntity
  8
00_COMPONENTS_2
100
AcDbLine
 62
7
  6
CONTINUOUS
 10
39.0194813278
 20
164.55
 11
19.2728448276
 21
164.55
  0
LINE
  5
43C
100
AcDbEntity
  8
00_COMPONENTS_2
100
AcDbLine
 62
7
  6
CONTINUOUS
 10
124.2181442892
 20
59.25
 11
123.0634437508
 21
57.25
  0
LINE
  5
43D
100
AcDbEntity
  8
00_COMPONENTS_2
100
AcDbLine
 62
7
  6
CONTINUOUS
 10
126.527545366
 20
55.25
 11
127.6822459043
 21
57.25
  0
LINE
  5
43E
100
AcDbEntity
  8
00_COMPONENTS_2
100
AcDbLine
 62
7
  6
CONTINUOUS
 10
123.0634437508
 20
155.05
 11
124.2181442892
 21
153.05
  0
LINE
  5
43F
100
AcDbEntity
  8
00_COMPONENTS_2
100
AcDbLine
 62
7
  6
CONTINUOUS
 10
127.6822459043
 20
155.05
 11
126.527545366
 21
157.05
  0
ARC
  5
440
100
AcDbEntity
  8
00_COMPONENTS_2
100
AcDbCircle
 62
7
  6
CONTINUOUS
 10
43.8728448275
 20
93.25
 40
50.0
100
AcDbArc
 50
275.2256064295
 51
282.7090329944
  0
ARC
  5
441
100
AcDbEntity
  8
00_COMPONENTS_2
100
AcDbCircle
 62
7
  6
CONTINUOUS
 10
43.8728448275
 20
93.25
 40
50.0
100
AcDbArc
 50
257.0160793193
 51
264.7743935706
  0
ARC
  5
442
100
AcDbEntity
  8
00_COMPONENTS_2
100
AcDbCircle
 62
7
  6
CONTINUOUS
 10
43.8728448276
 20
50.3999999998
 40
4.5000000005
100
AcDbArc
 50
216.6342546974
 51
323.3656654823
  0
CIRCLE
  5
443
100
AcDbEntity
  8
00_COMPONENTS_2
100
AcDbCircle
 62
7
  6
CONTINUOUS
 10
61.3728448276
 20
57.25
 40
3.9
  0
CIRCLE
  5
444
100
AcDbEntity
  8
00_COMPONENTS_2
100
AcDbCircle
 62
7
  6
CONTINUOUS
 10
43.8728448276
 20
57.25
 40
3.9
  0
CIRCLE
  5
445
100
AcDbEntity
  8
00_COMPONENTS_2
100
AcDbCircle
 62
7
  6
CONTINUOUS
 10
26.3728448276
 20
57.25
 40
3.9
  0
ARC
  5
446
100
AcDbEntity
  8
00_COMPONENTS_2
100
AcDbCircle
 62
7
  6
CONTINUOUS
 10
25.4728448276
 20
95.35
 40
3.8006468417
100
AcDbArc
 50
180.0
 51
270.0000000003
  0
ARC
  5
447
100
AcDbEntity
  8
00_COMPONENTS_2
100
AcDbCircle
 62
7
  6
CONTINUOUS
 10
62.2728448276
 20
95.35
 40
3.8006468417
100
AcDbArc
 50
269.9999999997
 51
360.0
  0
ARC
  5
448
100
AcDbEntity
  8
00_COMPONENTS_2
100
AcDbCircle
 62
7
  6
CONTINUOUS
 10
52.1897149791
 20
66.2581505633
 40
3.7424625261
100
AcDbArc
 50
106.6332409791
 51
107.8218583963
  0
ARC
  5
449
100
AcDbEntity
  8
00_COMPONENTS_2
100
AcDbCircle
 62
7
  6
CONTINUOUS
 10
34.6812368968
 20
66.2841149951
 40
3.7151433711
100
AcDbArc
 50
106.7994506224
 51
107.8902116781
  0
ARC
  5
44A
100
AcDbEntity
  8
00_COMPONENTS_2
100
AcDbCircle
 62
7
  6
CONTINUOUS
 10
52.9829033469
 20
71.3176356553
 40
3.6284647501
100
AcDbArc
 50
284.1975938707
 51
288.5846419523
  0
ARC
  5
44B
100
AcDbEntity
  8
00_COMPONENTS_2
100
AcDbCircle
 62
7
  6
CONTINUOUS
 10
35.4829484649
 20
71.3174747529
 40
3.6282976964
100
AcDbArc
 50
284.1975263483
 51
288.5871425648
  0
ARC
  5
44C
100
AcDbEntity
  8
00_COMPONENTS_2
100
AcDbCircle
 62
7
  6
CONTINUOUS
 10
34.7622669684
 20
71.315784074
 40
3.6265423477
100
AcDbArc
 50
251.3865837128
 51
255.8031857435
  0
ARC
  5
44D
100
AcDbEntity
  8
00_COMPONENTS_2
100
AcDbCircle
 62
7
  6
CONTINUOUS
 10
52.2622282791
 20
71.3156461819
 40
3.6263991783
100
AcDbArc
 50
251.3844409368
 51
255.8032440316
  0
CIRCLE
  5
44E
100
AcDbEntity
  8
00_COMPONENTS_2
100
AcDbCircle
 62
7
  6
CONTINUOUS
 10
38.5728448276
 20
86.82
 40
3.25
  0
CIRCLE
  5
44F
100
AcDbEntity
  8
00_COMPONENTS_2
100
AcDbCircle
 62
7
  6
CONTINUOUS
 10
49.1728448276
 20
86.82
 40
3.25
  0
CIRCLE
  5
450
100
AcDbEntity
  8
00_COMPONENTS_2
100
AcDbCircle
 62
7
  6
CONTINUOUS
 10
59.7728448276
 20
86.8187531787
 40
3.25
  0
CIRCLE
  5
451
100
AcDbEntity
  8
00_COMPONENTS_2
100
AcDbCircle
 62
7
  6
CONTINUOUS
 10
53.5728448276
 20
95.7
 40
1.83
  0
CIRCLE
  5
452
100
AcDbEntity
  8
00_COMPONENTS_2
100
AcDbCircle
 62
7
  6
CONTINUOUS
 10
53.5728448276
 20
95.7
 40
0.7
  0
ARC
  5
453
100
AcDbEntity
  8
00_COMPONENTS_2
100
AcDbCircle
 62
7
  6
CONTINUOUS
 10
54.6228448276
 20
67.5
 40
0.5
100
AcDbArc
 50
112.333682658
 51
180.0
  0
ARC
  5
454
100
AcDbEntity
  8
00_COMPONENTS_2
100
AcDbCircle
 62
7
  6
CONTINUOUS
 10
50.6228448276
 20
67.5
 40
0.5
100
AcDbArc
 50
0.0
 51
67.6663173421
  0
ARC
  5
455
100
AcDbEntity
  8
00_COMPONENTS_2
100
AcDbCircle
 62
7
  6
CONTINUOUS
 10
37.1228448276
 20
67.5
 40
0.5
100
AcDbArc
 50
112.333682658
 51
180.0
  0
ARC
  5
456
100
AcDbEntity
  8
00_COMPONENTS_2
100
AcDbCircle
 62
7
  6
CONTINUOUS
 10
33.1228448276
 20
67.5
 40
0.5
100
AcDbArc
 50
0.0
 51
67.666317342
  0
CIRCLE
  5
457
100
AcDbEntity
  8
00_COMPONENTS_2
100
AcDbCircle
 62
7
  6
CONTINUOUS
 10
26.3728448276
 20
155.05
 40
3.9
  0
CIRCLE
  5
458
100
AcDbEntity
  8
00_COMPONENTS_2
100
AcDbCircle
 62
7
  6
CONTINUOUS
 10
43.8728448276
 20
155.05
 40
3.9
  0
CIRCLE
  5
459
100
AcDbEntity
  8
00_COMPONENTS_2
100
AcDbCircle
 62
7
  6
CONTINUOUS
 10
61.3728448276
 20
155.05
 40
3.9
  0
ARC
  5
45A
100
AcDbEntity
  8
00_COMPONENTS_2
100
AcDbCircle
 62
7
  6
CONTINUOUS
 10
62.2728448276
 20
116.85
 40
3.8006468417
100
AcDbArc
 50
0.0
 51
90.0000000003
  0
ARC
  5
45B
100
AcDbEntity
  8
00_COMPONENTS_2
100
AcDbCircle
 62
7
  6
CONTINUOUS
 10
25.4728448276
 20
116.85
 40
3.8006468417
100
AcDbArc
 50
89.9999999997
 51
180.0
  0
ARC
  5
45C
100
AcDbEntity
  8
00_COMPONENTS_2
100
AcDbCircle
 62
7
  6
CONTINUOUS
 10
35.5504048515
 20
146.0613048332
 40
3.7626852544
100
AcDbArc
 50
286.5117181367
 51
287.5916597319
  0
ARC
  5
45D
100
AcDbEntity
  8
00_COMPONENTS_2
100
AcDbCircle
 62
7
  6
CONTINUOUS
 10
53.054324024
 20
146.0486957648
 40
3.7494926253
100
AcDbArc
 50
286.6600706719
 51
287.6844039498
  0
ARC
  5
45E
100
AcDbEntity
  8
00_COMPONENTS_2
100
AcDbCircle
 62
7
  6
CONTINUOUS
 10
34.7625430622
 20
140.9832317214
 40
3.6275642067
100
AcDbArc
 50
104.1972293688
 51
108.5981217308
  0
ARC
  5
45F
100
AcDbEntity
  8
00_COMPONENTS_2
100
AcDbCircle
 62
7
  6
CONTINUOUS
 10
52.2624438043
 20
140.9835855878
 40
3.6271968044
100
AcDbArc
 50
104.1970803025
 51
108.6036209209
  0
ARC
  5
460
100
AcDbEntity
  8
00_COMPONENTS_2
100
AcDbCircle
 62
7
  6
CONTINUOUS
 10
52.9843765529
 20
140.9876137548
 40
3.6230143542
100
AcDbArc
 50
71.3337879924
 51
75.8046312549
  0
ARC
  5
461
100
AcDbEntity
  8
00_COMPONENTS_2
100
AcDbCircle
 62
7
  6
CONTINUOUS
 10
35.4844797823
 20
140.9879812461
 40
3.6226327693
100
AcDbArc
 50
71.328078485
 51
75.8047887469
  0
CIRCLE
  5
462
100
AcDbEntity
  8
00_COMPONENTS_2
100
AcDbCircle
 62
7
  6
CONTINUOUS
 10
59.8228448276
 20
125.51
 40
3.03
  0
CIRCLE
  5
463
100
AcDbEntity
  8
00_COMPONENTS_2
100
AcDbCircle
 62
7
  6
CONTINUOUS
 10
38.5728448276
 20
125.59
 40
3.025
  0
ARC
  5
464
100
AcDbEntity
  8
00_COMPONENTS_2
100
AcDbCircle
 62
7
  6
CONTINUOUS
 10
51.700879616
 20
144.7263170268
 40
2.1308934278
100
AcDbArc
 50
241.2286665523
 51
242.0027620137
  0
ARC
  5
465
100
AcDbEntity
  8
00_COMPONENTS_2
100
AcDbCircle
 62
7
  6
CONTINUOUS
 10
34.1927492456
 20
144.7113572486
 40
2.1138671463
100
AcDbArc
 50
241.1230067469
 51
241.7491783158
  0
ARC
  5
466
100
AcDbEntity
  8
00_COMPONENTS_2
100
AcDbCircle
 62
7
  6
CONTINUOUS
 10
33.1228448276
 20
144.8
 40
0.5
100
AcDbArc
 50
292.333682658
 51
360.0
  0
ARC
  5
467
100
AcDbEntity
  8
00_COMPONENTS_2
100
AcDbCircle
 62
7
  6
CONTINUOUS
 10
37.1228448276
 20
144.8
 40
0.5
100
AcDbArc
 50
180.0
 51
247.666317342
  0
ARC
  5
468
100
AcDbEntity
  8
00_COMPONENTS_2
100
AcDbCircle
 62
7
  6
CONTINUOUS
 10
50.6228448276
 20
144.8
 40
0.5
100
AcDbArc
 50
292.3336826585
 51
360.0
  0
ARC
  5
469
100
AcDbEntity
  8
00_COMPONENTS_2
100
AcDbCircle
 62
7
  6
CONTINUOUS
 10
54.6228448276
 20
144.8
 40
0.5
100
AcDbArc
 50
180.0
 51
247.666317342
  0
ARC
  5
46A
100
AcDbEntity
  8
00_COMPONENTS_2
100
AcDbCircle
 62
7
  6
CONTINUOUS
 10
107.8728448275
 20
93.25
 40
50.0
100
AcDbArc
 50
275.2256064295
 51
282.7090329944
  0
ARC
  5
46B
100
AcDbEntity
  8
00_COMPONENTS_2
100
AcDbCircle
 62
7
  6
CONTINUOUS
 10
107.8728448275
 20
93.25
 40
50.0
100
AcDbArc
 50
257.0160793193
 51
264.7743935706
  0
ARC
  5
46C
100
AcDbEntity
  8
00_COMPONENTS_2
100
AcDbCircle
 62
7
  6
CONTINUOUS
 10
107.8728448276
 20
50.3999999998
 40
4.5000000005
100
AcDbArc
 50
216.6342546974
 51
323.3656654823
  0
CIRCLE
  5
46D
100
AcDbEntity
  8
00_COMPONENTS_2
100
AcDbCircle
 62
7
  6
CONTINUOUS
 10
125.3728448276
 20
57.25
 40
3.9
  0
CIRCLE
  5
46E
100
AcDbEntity
  8
00_COMPONENTS_2
100
AcDbCircle
 62
7
  6
CONTINUOUS
 10
107.8728448276
 20
57.25
 40
3.9
  0
CIRCLE
  5
46F
100
AcDbEntity
  8
00_COMPONENTS_2
100
AcDbCircle
 62
7
  6
CONTINUOUS
 10
90.3728448276
 20
57.25
 40
3.9
  0
ARC
  5
470
100
AcDbEntity
  8
00_COMPONENTS_2
100
AcDbCircle
 62
7
  6
CONTINUOUS
 10
89.4728448276
 20
95.35
 40
3.8006468417
100
AcDbArc
 50
180.0
 51
270.0000000003
  0
ARC
  5
471
100
AcDbEntity
  8
00_COMPONENTS_2
100
AcDbCircle
 62
7
  6
CONTINUOUS
 10
126.2728448276
 20
95.35
 40
3.8006468417
100
AcDbArc
 50
269.9999999997
 51
360.0
  0
ARC
  5
472
100
AcDbEntity
  8
00_COMPONENTS_2
100
AcDbCircle
 62
7
  6
CONTINUOUS
 10
116.189714979
 20
66.2581505635
 40
3.7424625259
100
AcDbArc
 50
106.6332409791
 51
107.8218583963
  0
ARC
  5
473
100
AcDbEntity
  8
00_COMPONENTS_2
100
AcDbCircle
 62
7
  6
CONTINUOUS
 10
98.6812368968
 20
66.2841149952
 40
3.7151433711
100
AcDbArc
 50
106.7994506224
 51
107.8902116781
  0
ARC
  5
474
100
AcDbEntity
  8
00_COMPONENTS_2
100
AcDbCircle
 62
7
  6
CONTINUOUS
 10
116.9829033469
 20
71.3176356553
 40
3.6284647501
100
AcDbArc
 50
284.1975938707
 51
288.5846419523
  0
ARC
  5
475
100
AcDbEntity
  8
00_COMPONENTS_2
100
AcDbCircle
 62
7
  6
CONTINUOUS
 10
99.4829484649
 20
71.3174747529
 40
3.6282976964
100
AcDbArc
 50
284.1975263483
 51
288.5871425648
  0
ARC
  5
476
100
AcDbEntity
  8
00_COMPONENTS_2
100
AcDbCircle
 62
7
  6
CONTINUOUS
 10
98.7622669684
 20
71.315784074
 40
3.6265423477
100
AcDbArc
 50
251.3865837128
 51
255.8031857435
  0
ARC
  5
477
100
AcDbEntity
  8
00_COMPONENTS_2
100
AcDbCircle
 62
7
  6
CONTINUOUS
 10
116.2622282791
 20
71.3156461819
 40
3.6263991783
100
AcDbArc
 50
251.3844409368
 51
255.8032440316
  0
CIRCLE
  5
478
100
AcDbEntity
  8
00_COMPONENTS_2
100
AcDbCircle
 62
7
  6
CONTINUOUS
 10
102.5728448276
 20
86.82
 40
3.25
  0
CIRCLE
  5
479
100
AcDbEntity
  8
00_COMPONENTS_2
100
AcDbCircle
 62
7
  6
CONTINUOUS
 10
113.1728448276
 20
86.82
 40
3.25
  0
CIRCLE
  5
47A
100
AcDbEntity
  8
00_COMPONENTS_2
100
AcDbCircle
 62
7
  6
CONTINUOUS
 10
123.7728448276
 20
86.8187531787
 40
3.25
  0
CIRCLE
  5
47B
100
AcDbEntity
  8
00_COMPONENTS_2
100
AcDbCircle
 62
7
  6
CONTINUOUS
 10
117.5728448276
 20
95.7
 40
1.83
  0
CIRCLE
  5
47C
100
AcDbEntity
  8
00_COMPONENTS_2
100
AcDbCircle
 62
7
  6
CONTINUOUS
 10
117.5728448276
 20
95.7
 40
0.7
  0
ARC
  5
47D
100
AcDbEntity
  8
00_COMPONENTS_2
100
AcDbCircle
 62
7
  6
CONTINUOUS
 10
118.6228448276
 20
67.5
 40
0.5
100
AcDbArc
 50
112.333682658
 51
180.0
  0
ARC
  5
47E
100
AcDbEntity
  8
00_COMPONENTS_2
100
AcDbCircle
 62
7
  6
CONTINUOUS
 10
114.6228448276
 20
67.5
 40
0.5
100
AcDbArc
 50
0.0
 51
67.6663173421
  0
ARC
  5
47F
100
AcDbEntity
  8
00_COMPONENTS_2
100
AcDbCircle
 62
7
  6
CONTINUOUS
 10
101.1228448276
 20
67.5
 40
0.5
100
AcDbArc
 50
112.333682658
 51
180.0
  0
ARC
  5
480
100
AcDbEntity
  8
00_COMPONENTS_2
100
AcDbCircle
 62
7
  6
CONTINUOUS
 10
97.1228448276
 20
67.5
 40
0.5
100
AcDbArc
 50
0.0
 51
67.666317342
  0
CIRCLE
  5
481
100
AcDbEntity
  8
00_COMPONENTS_2
100
AcDbCircle
 62
7
  6
CONTINUOUS
 10
90.3728448276
 20
155.05
 40
3.9
  0
CIRCLE
  5
482
100
AcDbEntity
  8
00_COMPONENTS_2
100
AcDbCircle
 62
7
  6
CONTINUOUS
 10
107.8728448276
 20
155.05
 40
3.9
  0
CIRCLE
  5
483
100
AcDbEntity
  8
00_COMPONENTS_2
100
AcDbCircle
 62
7
  6
CONTINUOUS
 10
125.3728448276
 20
155.05
 40
3.9
  0
ARC
  5
484
100
AcDbEntity
  8
00_COMPONENTS_2
100
AcDbCircle
 62
7
  6
CONTINUOUS
 10
126.2728448276
 20
116.85
 40
3.8006468417
100
AcDbArc
 50
0.0
 51
90.0000000003
  0
ARC
  5
485
100
AcDbEntity
  8
00_COMPONENTS_2
100
AcDbCircle
 62
7
  6
CONTINUOUS
 10
89.4728448276
 20
116.85
 40
3.8006468417
100
AcDbArc
 50
89.9999999997
 51
180.0
  0
ARC
  5
486
100
AcDbEntity
  8
00_COMPONENTS_2
100
AcDbCircle
 62
7
  6
CONTINUOUS
 10
99.5504048514
 20
146.0613048335
 40
3.7626852547
100
AcDbArc
 50
286.5117181368
 51
287.5916597318
  0
ARC
  5
487
100
AcDbEntity
  8
00_COMPONENTS_2
100
AcDbCircle
 62
7
  6
CONTINUOUS
 10
117.0543240239
 20
146.0486957652
 40
3.7494926257
100
AcDbArc
 50
286.660070672
 51
287.6844039497
  0
ARC
  5
488
100
AcDbEntity
  8
00_COMPONENTS_2
100
AcDbCircle
 62
7
  6
CONTINUOUS
 10
98.7625430622
 20
140.9832317214
 40
3.6275642067
100
AcDbArc
 50
104.1972293688
 51
108.5981217308
  0
ARC
  5
489
100
AcDbEntity
  8
00_COMPONENTS_2
100
AcDbCircle
 62
7
  6
CONTINUOUS
 10
116.2624438043
 20
140.9835855878
 40
3.6271968044
100
AcDbArc
 50
104.1970803025
 51
108.6036209209
  0
ARC
  5
48A
100
AcDbEntity
  8
00_COMPONENTS_2
100
AcDbCircle
 62
7
  6
CONTINUOUS
 10
116.9843765529
 20
140.9876137548
 40
3.6230143542
100
AcDbArc
 50
71.3337879924
 51
75.8046312549
  0
ARC
  5
48B
100
AcDbEntity
  8
00_COMPONENTS_2
100
AcDbCircle
 62
7
  6
CONTINUOUS
 10
99.4844797823
 20
140.9879812461
 40
3.6226327693
100
AcDbArc
 50
71.328078485
 51
75.8047887469
  0
CIRCLE
  5
48C
100
AcDbEntity
  8
00_COMPONENTS_2
100
AcDbCircle
 62
7
  6
CONTINUOUS
 10
123.8228448276
 20
125.51
 40
3.03
  0
CIRCLE
  5
48D
100
AcDbEntity
  8
00_COMPONENTS_2
100
AcDbCircle
 62
7
  6
CONTINUOUS
 10
102.5728448276
 20
125.59
 40
3.025
  0
ARC
  5
48E
100
AcDbEntity
  8
00_COMPONENTS_2
100
AcDbCircle
 62
7
  6
CONTINUOUS
 10
115.700879616
 20
144.7263170269
 40
2.1308934279
100
AcDbArc
 50
241.2286665524
 51
242.0027620137
  0
ARC
  5
48F
100
AcDbEntity
  8
00_COMPONENTS_2
100
AcDbCircle
 62
7
  6
CONTINUOUS
 10
98.1927492457
 20
144.7113572488
 40
2.1138671465
100
AcDbArc
 50
241.1230067468
 51
241.7491783157
  0
ARC
  5
490
100
AcDbEntity
  8
00_COMPONENTS_2
100
AcDbCircle
 62
7
  6
CONTINUOUS
 10
97.1228448276
 20
144.8
 40
0.5
100
AcDbArc
 50
292.333682658
 51
360.0
  0
ARC
  5
491
100
AcDbEntity
  8
00_COMPONENTS_2
100
AcDbCircle
 62
7
  6
CONTINUOUS
 10
101.1228448276
 20
144.8
 40
0.5
100
AcDbArc
 50
180.0
 51
247.666317342
  0
ARC
  5
492
100
AcDbEntity
  8
00_COMPONENTS_2
100
AcDbCircle
 62
7
  6
CONTINUOUS
 10
114.6228448276
 20
144.8
 40
0.5
100
AcDbArc
 50
292.3336826585
 51
360.0
  0
ARC
  5
493
100
AcDbEntity
  8
00_COMPONENTS_2
100
AcDbCircle
 62
7
  6
CONTINUOUS
 10
118.6228448276
 20
144.8
 40
0.5
100
AcDbArc
 50
180.0
 51
247.666317342
  0
SPLINE
  5
494
100
AcDbEntity
  8
00_COMPONENTS_2
100
AcDbSpline
 62
7
  6
CONTINUOUS
 70
0
 71
3
 72
10
 73
6
 74
0
 42
0.0000001
 43
0.0000001
 44
0.0000000001
 40
0.0
 40
0.0
 40
0.0
 40
0.0
 40
0.3343164733
 40
0.667720704
 40
1.0
 40
1.0
 40
1.0
 40
1.0
 10
95.3728448276
 20
84.5497715501
 30
0.0
 10
93.7904105926
 20
84.5515643532
 30
0.0
 10
90.6298766725
 20
84.5660657114
 30
0.0
 10
85.896513771
 20
84.5541423893
 30
0.0
 10
82.7456326232
 20
84.571421892
 30
0.0
 10
81.1728448276
 20
84.5753041652
 30
0.0
  0
LINE
  5
495
100
AcDbEntity
  8
00_COMPONENTS_2
100
AcDbLine
 62
7
  6
CONTINUOUS
 10
95.3728448276
 20
86.1380324308
 11
93.6728821475
 21
86.1350526268
  0
SPLINE
  5
496
100
AcDbEntity
  8
00_COMPONENTS_2
100
AcDbSpline
 62
7
  6
CONTINUOUS
 70
0
 71
3
 72
9
 73
5
 74
0
 42
0.0000001
 43
0.0000001
 44
0.0000000001
 40
0.0
 40
0.0
 40
0.0
 40
0.0
 40
0.7613982583
 40
1.0
 40
1.0
 40
1.0
 40
1.0
 10
93.6728821475
 20
86.1350526268
 30
0.0
 10
92.6576926607
 20
86.1331568181
 30
0.0
 10
91.3243705829
 20
86.1303930443
 30
0.0
 10
89.9910493389
 20
86.127268345
 30
0.0
 10
89.6729166178
 20
86.1265022035
 30
0.0
  0
SPLINE
  5
497
100
AcDbEntity
  8
00_COMPONENTS_2
100
AcDbSpline
 62
7
  6
CONTINUOUS
 70
0
 71
3
 72
9
 73
5
 74
0
 42
0.0000001
 43
0.0000001
 44
0.0000000001
 40
0.0
 40
0.0
 40
0.0
 40
0.0
 40
0.4446968119
 40
1.0
 40
1.0
 40
1.0
 40
1.0
 10
89.6729166178
 20
86.1265022035
 30
0.0
 10
88.4129296359
 20
86.1234678464
 30
0.0
 10
85.5795695477
 20
86.1159183859
 30
0.0
 10
82.7462142067
 20
86.1067252813
 30
0.0
 10
81.1728448276
 20
86.1011087923
 30
0.0
  0
SPLINE
  5
498
100
AcDbEntity
  8
00_COMPONENTS_2
100
AcDbSpline
 62
7
  6
CONTINUOUS
 70
0
 71
3
 72
12
 73
8
 74
0
 42
0.0000001
 43
0.0000001
 44
0.0000000001
 40
0.0
 40
0.0
 40
0.0
 40
0.0
 40
0.2006064924
 40
0.4012190936
 40
0.6018316948
 40
0.8024442961
 40
1.0
 40
1.0
 40
1.0
 40
1.0
 10
118.4328812938
 20
67.9625082244
 30
0.0
 10
118.8320429574
 20
68.1264963781
 30
0.0
 10
119.4083945741
 20
68.554777016
 30
0.0
 10
119.293576103
 20
69.3083233945
 30
0.0
 10
118.2423691329
 20
69.899100367
 30
0.0
 10
116.6310609063
 20
70.1212637791
 30
0.0
 10
115.5596367332
 20
69.9758397595
 30
0.0
 10
115.1184563978
 20
69.8440159834
 30
0.0
  0
SPLINE
  5
499
100
AcDbEntity
  8
00_COMPONENTS_2
100
AcDbSpline
 62
7
  6
CONTINUOUS
 70
0
 71
3
 72
8
 73
4
 74
0
 42
0.0000001
 43
0.0000001
 44
0.0000000001
 40
0.0
 40
0.0
 40
0.0
 40
0.0
 40
1.0
 40
1.0
 40
1.0
 40
1.0
 10
115.0443024334
 20
69.8210224189
 30
0.0
 10
114.8873764319
 20
69.7705532534
 30
0.0
 10
114.7429614683
 20
69.7123686467
 30
0.0
 10
114.6138995107
 20
69.6480642081
 30
0.0
  0
SPLINE
  5
49A
100
AcDbEntity
  8
00_COMPONENTS_2
100
AcDbSpline
 62
7
  6
CONTINUOUS
 70
0
 71
3
 72
12
 73
8
 74
0
 42
0.0000001
 43
0.0000001
 44
0.0000000001
 40
0.0
 40
0.0
 40
0.0
 40
0.0
 40
0.2002761245
 40
0.4005600385
 40
0.6008439524
 40
0.8011278664
 40
1.0
 40
1.0
 40
1.0
 40
1.0
 10
100.9328914014
 20
67.9625123769
 30
0.0
 10
101.3320448394
 20
68.1264987678
 30
0.0
 10
101.9083843992
 20
68.5547772929
 30
0.0
 10
101.793564346
 20
69.3083190536
 30
0.0
 10
100.7423578848
 20
69.8990840274
 30
0.0
 10
99.1266500879
 20
70.1218864072
 30
0.0
 10
98.0507799762
 20
69.9745721736
 30
0.0
 10
97.6074764345
 20
69.8407044763
 30
0.0
  0
SPLINE
  5
49B
100
AcDbEntity
  8
00_COMPONENTS_2
100
AcDbSpline
 62
7
  6
CONTINUOUS
 70
0
 71
3
 72
8
 73
4
 74
0
 42
0.0000001
 43
0.0000001
 44
0.0000000001
 40
0.0
 40
0.0
 40
0.0
 40
0.0
 40
1.0
 40
1.0
 40
1.0
 40
1.0
 10
97.5399669791
 20
69.8196196611
 30
0.0
 10
97.381286275
 20
69.7683855851
 30
0.0
 10
97.235468053
 20
69.7092630183
 30
0.0
 10
97.1054557918
 20
69.6438885332
 30
0.0
  0
SPLINE
  5
49C
100
AcDbEntity
  8
00_COMPONENTS_2
100
AcDbSpline
 62
7
  6
CONTINUOUS
 70
0
 71
3
 72
15
 73
11
 74
0
 42
0.0000001
 43
0.0000001
 44
0.0000000001
 40
0.0
 40
0.0
 40
0.0
 40
0.0
 40
0.1249998885
 40
0.249999893
 40
0.3749998975
 40
0.4999999021
 40
0.6249999066
 40
0.7499999112
 40
0.8749999157
 40
1.0
 40
1.0
 40
1.0
 40
1.0
 10
96.1264800643
 20
161.9756856498
 30
0.0
 10
96.1451995709
 20
161.7857206993
 30
0.0
 10
96.3289037614
 20
161.4094720332
 30
0.0
 10
97.0038905954
 20
160.9365372432
 30
0.0
 10
97.9818039817
 20
160.6227295326
 30
0.0
 10
99.1228422072
 20
160.5128901622
 30
0.0
 10
100.263880864
 20
160.6227289359
 30
0.0
 10
101.2417954824
 20
160.9365361351
 30
0.0
 10
101.9167845257
 20
161.4094708191
 30
0.0
 10
102.1004901287
 20
161.7857197317
 30
0.0
 10
102.1192101813
 20
161.9756849758
 30
0.0
  0
SPLINE
  5
49D
100
AcDbEntity
  8
00_COMPONENTS_2
100
AcDbSpline
 62
7
  6
CONTINUOUS
 70
0
 71
3
 72
15
 73
11
 74
0
 42
0.0000001
 43
0.0000001
 44
0.0000000001
 40
0.0
 40
0.0
 40
0.0
 40
0.0
 40
0.125000348
 40
0.2500003075
 40
0.3750002671
 40
0.5000002267
 40
0.6250001862
 40
0.7500001458
 40
0.8750001054
 40
1.0
 40
1.0
 40
1.0
 40
1.0
 10
113.6264806395
 20
161.9756872788
 30
0.0
 10
113.6452002035
 20
161.7857216627
 30
0.0
 10
113.8289052286
 20
161.4094724228
 30
0.0
 10
114.5038938571
 20
160.9365375664
 30
0.0
 10
115.481807456
 20
160.6227304035
 30
0.0
 10
116.6228452884
 20
160.5128914488
 30
0.0
 10
117.7638831177
 20
160.6227304356
 30
0.0
 10
118.7417967078
 20
160.936537626
 30
0.0
 10
119.416784507
 20
161.4094719297
 30
0.0
 10
119.6004896713
 20
161.785720382
 30
0.0
 10
119.6192096925
 20
161.9756852963
 30
0.0
  0
SPLINE
  5
49E
100
AcDbEntity
  8
00_COMPONENTS_2
100
AcDbSpline
 62
7
  6
CONTINUOUS
 70
0
 71
3
 72
15
 73
11
 74
0
 42
0.0000001
 43
0.0000001
 44
0.0000000001
 40
0.0
 40
0.0
 40
0.0
 40
0.0
 40
0.125
 40
0.25
 40
0.375
 40
0.5
 40
0.625
 40
0.75
 40
0.875
 40
1.0
 40
1.0
 40
1.0
 40
1.0
 10
116.1978448276
 20
125.63
 30
0.0
 10
116.1978448276
 20
126.0253170756
 30
0.0
 10
116.0403387391
 20
126.8157669386
 30
0.0
 10
115.3675296523
 20
127.8210638961
 30
0.0
 10
114.3605996958
 20
128.4927523523
 30
0.0
 10
113.1728448276
 20
128.7286238239
 30
0.0
 10
111.9850899594
 20
128.4927523523
 30
0.0
 10
110.9781600029
 20
127.8210638961
 30
0.0
 10
110.3053509161
 20
126.8157669386
 30
0.0
 10
110.1478448276
 20
126.0253170756
 30
0.0
 10
110.1478448276
 20
125.63
 30
0.0
  0
SPLINE
  5
49F
100
AcDbEntity
  8
00_COMPONENTS_2
100
AcDbSpline
 62
7
  6
CONTINUOUS
 70
0
 71
3
 72
15
 73
11
 74
0
 42
0.0000001
 43
0.0000001
 44
0.0000000001
 40
0.0
 40
0.0
 40
0.0
 40
0.0
 40
0.125
 40
0.25
 40
0.375
 40
0.5
 40
0.625
 40
0.75
 40
0.875
 40
1.0
 40
1.0
 40
1.0
 40
1.0
 10
110.1478448276
 20
125.63
 30
0.0
 10
110.1478448276
 20
125.2346829244
 30
0.0
 10
110.3053509161
 20
124.4442330614
 30
0.0
 10
110.9781600029
 20
123.4389361039
 30
0.0
 10
111.9850899594
 20
122.7672476477
 30
0.0
 10
113.1728448276
 20
122.5313761762
 30
0.0
 10
114.3605996958
 20
122.7672476477
 30
0.0
 10
115.3675296523
 20
123.4389361039
 30
0.0
 10
116.0403387391
 20
124.4442330614
 30
0.0
 10
116.1978448276
 20
125.2346829244
 30
0.0
 10
116.1978448276
 20
125.63
 30
0.0
  0
SPLINE
  5
4A0
100
AcDbEntity
  8
00_COMPONENTS_2
100
AcDbSpline
 62
7
  6
CONTINUOUS
 70
0
 71
3
 72
8
 73
4
 74
0
 42
0.0000001
 43
0.0000001
 44
0.0000000001
 40
0.0
 40
0.0
 40
0.0
 40
0.0
 40
1.0
 40
1.0
 40
1.0
 40
1.0
 10
97.6056103964
 20
144.4213604102
 30
0.0
 10
97.4441986355
 20
144.3668490197
 30
0.0
 10
97.297895744
 20
144.3036281665
 30
0.0
 10
97.1707149849
 20
144.2337257078
 30
0.0
  0
SPLINE
  5
4A1
100
AcDbEntity
  8
00_COMPONENTS_2
100
AcDbSpline
 62
7
  6
CONTINUOUS
 70
0
 71
3
 72
10
 73
6
 74
0
 42
0.0000001
 43
0.0000001
 44
0.0000000001
 40
0.0
 40
0.0
 40
0.0
 40
0.0
 40
0.2087253843
 40
0.6938272701
 40
1.0
 40
1.0
 40
1.0
 40
1.0
 10
97.1707149849
 20
144.2337257078
 30
0.0
 10
97.0240397369
 20
144.1531084781
 30
0.0
 10
96.6210183722
 20
143.855586327
 30
0.0
 10
96.5432410805
 20
143.3347807206
 30
0.0
 10
96.9571723565
 20
142.9787609312
 30
0.0
 10
97.1718976782
 20
142.8603314818
 30
0.0
  0
SPLINE
  5
4A2
100
AcDbEntity
  8
00_COMPONENTS_2
100
AcDbSpline
 62
7
  6
CONTINUOUS
 70
0
 71
3
 72
10
 73
6
 74
0
 42
0.0000001
 43
0.0000001
 44
0.0000000001
 40
0.0
 40
0.0
 40
0.0
 40
0.0
 40
0.1500988671
 40
0.5800275946
 40
1.0
 40
1.0
 40
1.0
 40
1.0
 10
97.1921876472
 20
142.8492856066
 30
0.0
 10
97.31284149
 20
142.7844497826
 30
0.0
 10
97.8429825913
 20
142.5571612651
 30
0.0
 10
99.1102277269
 20
142.3678785304
 30
0.0
 10
100.1872608034
 20
142.5250246641
 30
0.0
 10
100.6145382122
 20
142.6646488535
 30
0.0
  0
SPLINE
  5
4A3
100
AcDbEntity
  8
00_COMPONENTS_2
100
AcDbSpline
 62
7
  6
CONTINUOUS
 70
0
 71
3
 72
8
 73
4
 74
0
 42
0.0000001
 43
0.0000001
 44
0.0000000001
 40
0.0
 40
0.0
 40
0.0
 40
0.0
 40
1.0
 40
1.0
 40
1.0
 40
1.0
 10
115.1052983642
 20
144.4212550146
 30
0.0
 10
114.943686233
 20
144.3666581304
 30
0.0
 10
114.7972267544
 20
144.3033293499
 30
0.0
 10
114.6699496141
 20
144.2333048288
 30
0.0
  0
SPLINE
  5
4A4
100
AcDbEntity
  8
00_COMPONENTS_2
100
AcDbSpline
 62
7
  6
CONTINUOUS
 70
0
 71
3
 72
10
 73
6
 74
0
 42
0.0000001
 43
0.0000001
 44
0.0000000001
 40
0.0
 40
0.0
 40
0.0
 40
0.0
 40
0.2081068221
 40
0.6926140932
 40
1.0
 40
1.0
 40
1.0
 40
1.0
 10
114.6699496141
 20
144.2333048288
 30
0.0
 10
114.5236179352
 20
144.1527970037
 30
0.0
 10
114.1209901264
 20
143.8553971903
 30
0.0
 10
114.0431173821
 20
143.333952422
 30
0.0
 10
114.4588382352
 20
142.9773299976
 30
0.0
 10
114.6752482728
 20
142.858487498
 30
0.0
  0
SPLINE
  5
4A5
100
AcDbEntity
  8
00_COMPONENTS_2
100
AcDbSpline
 62
7
  6
CONTINUOUS
 70
0
 71
3
 72
10
 73
6
 74
0
 42
0.0000001
 43
0.0000001
 44
0.0000000001
 40
0.0
 40
0.0
 40
0.0
 40
0.0
 40
0.1468912969
 40
0.5775827888
 40
1.0
 40
1.0
 40
1.0
 40
1.0
 10
114.7005764479
 20
142.844801581
 30
0.0
 10
114.8191877529
 20
142.7817362755
 30
0.0
 10
115.3473770401
 20
142.556504886
 30
0.0
 10
116.6123778557
 20
142.3675573753
 30
0.0
 10
117.691561061
 20
142.5256533671
 30
0.0
 10
118.11971169
 20
142.6663441388
 30
0.0
  0
SPLINE
  5
4A6
100
AcDbEntity
  8
00_COMPONENTS_2
100
AcDbSpline
 62
7
  6
CONTINUOUS
 70
0
 71
3
 72
10
 73
6
 74
0
 42
0.0000001
 43
0.0000001
 44
0.0000000001
 40
0.0
 40
0.0
 40
0.0
 40
0.0
 40
0.3371996022
 40
0.6744094867
 40
1.0
 40
1.0
 40
1.0
 40
1.0
 10
118.432881343
 20
144.3374917554
 30
0.0
 10
118.8320429811
 20
144.1735036043
 30
0.0
 10
119.4083945726
 20
143.7452229736
 30
0.0
 10
119.2948948978
 20
143.0003317728
 30
0.0
 10
118.6167340553
 20
142.6114285884
 30
0.0
 10
118.1933213953
 20
142.4763883962
 30
0.0
  0
SPLINE
  5
4A7
100
AcDbEntity
  8
00_COMPONENTS_2
100
AcDbSpline
 62
7
  6
CONTINUOUS
 70
0
 71
3
 72
10
 73
6
 74
0
 42
0.0000001
 43
0.0000001
 44
0.0000000001
 40
0.0
 40
0.0
 40
0.0
 40
0.0
 40
0.4139595059
 40
0.8336763633
 40
1.0
 40
1.0
 40
1.0
 40
1.0
 10
118.1292771082
 20
142.4565973789
 30
0.0
 10
117.6877140285
 20
142.3244390861
 30
0.0
 10
116.6154299533
 20
142.1786226515
 30
0.0
 10
115.329265719
 20
142.3558950698
 30
0.0
 10
114.7601107825
 20
142.5793549196
 30
0.0
 10
114.6172761623
 20
142.6502565284
 30
0.0
  0
SPLINE
  5
4A8
100
AcDbEntity
  8
00_COMPONENTS_2
100
AcDbSpline
 62
7
  6
CONTINUOUS
 70
0
 71
3
 72
10
 73
6
 74
0
 42
0.0000001
 43
0.0000001
 44
0.0000000001
 40
0.0
 40
0.0
 40
0.0
 40
0.0
 40
0.3367162551
 40
0.6734295147
 40
1.0
 40
1.0
 40
1.0
 40
1.0
 10
100.932834174
 20
144.3375111334
 30
0.0
 10
101.3320172964
 20
144.1735216992
 30
0.0
 10
101.9083862283
 20
143.7452347107
 30
0.0
 10
101.7947172646
 20
142.999247328
 30
0.0
 10
101.1137286742
 20
142.6097259452
 30
0.0
 10
100.6876054911
 20
142.4745827881
 30
0.0
  0
SPLINE
  5
4A9
100
AcDbEntity
  8
00_COMPONENTS_2
100
AcDbSpline
 62
7
  6
CONTINUOUS
 70
0
 71
3
 72
10
 73
6
 74
0
 42
0.0000001
 43
0.0000001
 44
0.0000000001
 40
0.0
 40
0.0
 40
0.0
 40
0.0
 40
0.4107944229
 40
0.8302956358
 40
1.0
 40
1.0
 40
1.0
 40
1.0
 10
100.6198030332
 20
142.4537865931
 30
0.0
 10
100.180111428
 20
142.3234155504
 30
0.0
 10
99.111640443
 20
142.1791339153
 30
0.0
 10
97.8247843654
 20
142.3565884012
 30
0.0
 10
97.2534139965
 20
142.5819547455
 30
0.0
 10
97.1084085912
 20
142.6546291382
 30
0.0
  0
SPLINE
  5
4AA
100
AcDbEntity
  8
00_COMPONENTS_2
100
AcDbSpline
 62
7
  6
CONTINUOUS
 70
0
 71
3
 72
8
 73
4
 74
0
 42
0.0000001
 43
0.0000001
 44
0.0000000001
 40
0.0
 40
0.0
 40
0.0
 40
0.0
 40
1.0
 40
1.0
 40
1.0
 40
1.0
 10
100.6394560836
 20
67.878429202
 30
0.0
 10
100.8004250754
 20
67.9327556213
 30
0.0
 10
100.9463803435
 20
67.99574221
 30
0.0
 10
101.0733444353
 20
68.0653792052
 30
0.0
  0
SPLINE
  5
4AB
100
AcDbEntity
  8
00_COMPONENTS_2
100
AcDbSpline
 62
7
  6
CONTINUOUS
 70
0
 71
3
 72
12
 73
8
 74
0
 42
0.0000001
 43
0.0000001
 44
0.0000000001
 40
0.0
 40
0.0
 40
0.0
 40
0.0
 40
0.0976680782
 40
0.3238226314
 40
0.5499771846
 40
0.7761317379
 40
1.0
 40
1.0
 40
1.0
 40
1.0
 10
101.0733444353
 20
68.0653792052
 30
0.0
 10
101.2207516938
 20
68.1462288252
 30
0.0
 10
101.6246111765
 20
68.4440111929
 30
0.0
 10
101.7163651998
 20
69.0584065869
 30
0.0
 10
100.7573200933
 20
69.6898717737
 30
0.0
 10
99.1283526926
 20
69.9331833443
 30
0.0
 10
98.0442103804
 20
69.7728869123
 30
0.0
 10
97.6140851451
 20
69.6297227091
 30
0.0
  0
SPLINE
  5
4AC
100
AcDbEntity
  8
00_COMPONENTS_2
100
AcDbSpline
 62
7
  6
CONTINUOUS
 70
0
 71
3
 72
8
 73
4
 74
0
 42
0.0000001
 43
0.0000001
 44
0.0000000001
 40
0.0
 40
0.0
 40
0.0
 40
0.0
 40
1.0
 40
1.0
 40
1.0
 40
1.0
 10
118.139314112
 20
67.8783812906
 30
0.0
 10
118.3001797143
 20
67.9326647508
 30
0.0
 10
118.4460536853
 20
67.9955969005
 30
0.0
 10
118.5729668845
 20
68.0651721773
 30
0.0
  0
SPLINE
  5
4AD
100
AcDbEntity
  8
00_COMPONENTS_2
100
AcDbSpline
 62
7
  6
CONTINUOUS
 70
0
 71
3
 72
12
 73
8
 74
0
 42
0.0000001
 43
0.0000001
 44
0.0000000001
 40
0.0
 40
0.0
 40
0.0
 40
0.0
 40
0.0978058752
 40
0.3240863428
 40
0.5503668104
 40
0.776647278
 40
1.0
 40
1.0
 40
1.0
 40
1.0
 10
118.5729668845
 20
68.0651721773
 30
0.0
 10
118.7205437121
 20
68.146075493
 30
0.0
 10
119.1245972672
 20
68.4439180549
 30
0.0
 10
119.2163651998
 20
69.0584065869
 30
0.0
 10
118.2573200933
 20
69.6898717737
 30
0.0
 10
116.6298940851
 20
69.9329531134
 30
0.0
 10
115.5472931654
 20
69.7733420678
 30
0.0
 10
115.1177757693
 20
69.6309486635
 30
0.0
  0
SPLINE
  5
4AE
100
AcDbEntity
  8
00_COMPONENTS_2
100
AcDbSpline
 62
7
  6
CONTINUOUS
 70
0
 71
3
 72
15
 73
11
 74
0
 42
0.0000001
 43
0.0000001
 44
0.0000000001
 40
0.0
 40
0.0
 40
0.0
 40
0.0
 40
0.1250002752
 40
0.2500001639
 40
0.3750000526
 40
0.4999999413
 40
0.6249998299
 40
0.7499997186
 40
0.8749996073
 40
1.0
 40
1.0
 40
1.0
 40
1.0
 10
102.1192102917
 20
50.3238169253
 30
0.0
 10
102.1004907241
 20
50.5137825782
 30
0.0
 10
101.9167856646
 20
50.8900318949
 30
0.0
 10
101.2417969047
 20
51.3629668545
 30
0.0
 10
100.2638831068
 20
51.6767740932
 30
0.0
 10
99.1228450394
 20
51.7866130833
 30
0.0
 10
97.9818069726
 20
51.6767740865
 30
0.0
 10
97.0038931766
 20
51.3629668419
 30
0.0
 10
96.3289042081
 20
50.8900317302
 30
0.0
 10
96.1451991896
 20
50.5137822069
 30
0.0
 10
96.126479743
 20
50.3238163719
 30
0.0
  0
SPLINE
  5
4AF
100
AcDbEntity
  8
00_COMPONENTS_2
100
AcDbSpline
 62
7
  6
CONTINUOUS
 70
0
 71
3
 72
15
 73
11
 74
0
 42
0.0000001
 43
0.0000001
 44
0.0000000001
 40
0.0
 40
0.0
 40
0.0
 40
0.0
 40
0.1250003461
 40
0.2500003055
 40
0.3750002649
 40
0.5000002244
 40
0.6250001838
 40
0.7500001432
 40
0.8750001026
 40
1.0
 40
1.0
 40
1.0
 40
1.0
 10
119.6192108294
 20
50.3238169054
 30
0.0
 10
119.6004912631
 20
50.5137825585
 30
0.0
 10
119.4167862061
 20
50.8900318766
 30
0.0
 10
118.7417974492
 20
51.3629668406
 30
0.0
 10
117.7638836534
 20
51.6767740857
 30
0.0
 10
116.6228455866
 20
51.7866130833
 30
0.0
 10
115.4818075191
 20
51.6767740939
 30
0.0
 10
114.503893721
 20
51.3629668558
 30
0.0
 10
113.8289057685
 20
50.8900324625
 30
0.0
 10
113.6452005605
 20
50.5137839304
 30
0.0
 10
113.626480535
 20
50.3238189726
 30
0.0
  0
SPLINE
  5
4B0
100
AcDbEntity
  8
00_COMPONENTS_2
100
AcDbSpline
 62
7
  6
CONTINUOUS
 70
0
 71
3
 72
10
 73
6
 74
0
 42
0.0000001
 43
0.0000001
 44
0.0000000001
 40
0.0
 40
0.0
 40
0.0
 40
0.0
 40
0.230945461
 40
0.6154711448
 40
1.0
 40
1.0
 40
1.0
 40
1.0
 10
114.6138995107
 20
69.6480642081
 30
0.0
 10
114.3978658208
 20
69.5404265633
 30
0.0
 10
113.9367751648
 20
69.2078749089
 30
0.0
 10
113.8378122912
 20
68.5560413124
 30
0.0
 10
114.4125518115
 20
68.1237335664
 30
0.0
 10
114.8128547318
 20
67.9624892537
 30
0.0
  0
SPLINE
  5
4B1
100
AcDbEntity
  8
00_COMPONENTS_2
100
AcDbSpline
 62
7
  6
CONTINUOUS
 70
0
 71
3
 72
10
 73
6
 74
0
 42
0.0000001
 43
0.0000001
 44
0.0000000001
 40
0.0
 40
0.0
 40
0.0
 40
0.0
 40
0.2286099984
 40
0.6143109216
 40
1.0
 40
1.0
 40
1.0
 40
1.0
 10
97.1054557918
 20
69.6438885332
 30
0.0
 10
96.8933895475
 20
69.5372545788
 30
0.0
 10
96.4365368747
 20
69.2060151703
 30
0.0
 10
96.3373049434
 20
68.5547752378
 30
0.0
 10
96.9136495315
 20
68.1264952635
 30
0.0
 10
97.3128080517
 20
67.9625083516
 30
0.0
  0
SPLINE
  5
4B2
100
AcDbEntity
  8
00_COMPONENTS_2
100
AcDbSpline
 62
7
  6
CONTINUOUS
 70
0
 71
3
 72
11
 73
7
 74
0
 42
0.0000001
 43
0.0000001
 44
0.0000000001
 40
0.0
 40
0.0
 40
0.0
 40
0.0
 40
0.0094771953
 40
0.4187165209
 40
0.8279558465
 40
1.0
 40
1.0
 40
1.0
 40
1.0
 10
100.6145382122
 20
142.6646488535
 30
0.0
 10
100.6246677146
 20
142.6679589362
 30
0.0
 10
101.0695985824
 20
142.8157421157
 30
0.0
 10
101.7163651998
 20
143.2415934131
 30
0.0
 10
101.625043729
 20
143.8530923861
 30
0.0
 10
101.2271963956
 20
144.1489985916
 30
0.0
 10
101.0850295981
 20
144.2281631005
 30
0.0
  0
SPLINE
  5
4B3
100
AcDbEntity
  8
00_COMPONENTS_2
100
AcDbSpline
 62
7
  6
CONTINUOUS
 70
0
 71
3
 72
8
 73
4
 74
0
 42
0.0000001
 43
0.0000001
 44
0.0000000001
 40
0.0
 40
0.0
 40
0.0
 40
0.0
 40
1.0
 40
1.0
 40
1.0
 40
1.0
 10
101.0850295981
 20
144.2281631005
 30
0.0
 10
100.9566158089
 20
144.2996693506
 30
0.0
 10
100.8082824655
 20
144.3643093829
 30
0.0
 10
100.6442611725
 20
144.4199450146
 30
0.0
  0
SPLINE
  5
4B4
100
AcDbEntity
  8
00_COMPONENTS_2
100
AcDbSpline
 62
7
  6
CONTINUOUS
 70
0
 71
3
 72
11
 73
7
 74
0
 42
0.0000001
 43
0.0000001
 44
0.0000000001
 40
0.0
 40
0.0
 40
0.0
 40
0.0
 40
0.0078722834
 40
0.4176390778
 40
0.8274058722
 40
1.0
 40
1.0
 40
1.0
 40
1.0
 10
118.11971169
 20
142.6663441388
 30
0.0
 10
118.1280982766
 20
142.6690999804
 30
0.0
 10
118.5708601925
 20
142.8165727991
 30
0.0
 10
119.2163651998
 20
143.2415934131
 30
0.0
 10
119.125013507
 20
143.8532947558
 30
0.0
 10
118.7267475688
 20
144.1493323132
 30
0.0
 10
118.5842167005
 20
144.2286155167
 30
0.0
  0
SPLINE
  5
4B5
100
AcDbEntity
  8
00_COMPONENTS_2
100
AcDbSpline
 62
7
  6
CONTINUOUS
 70
0
 71
3
 72
8
 73
4
 74
0
 42
0.0000001
 43
0.0000001
 44
0.0000000001
 40
0.0
 40
0.0
 40
0.0
 40
0.0
 40
1.0
 40
1.0
 40
1.0
 40
1.0
 10
118.5842167005
 20
144.2286155167
 30
0.0
 10
118.455905578
 20
144.2999889459
 30
0.0
 10
118.3077416389
 20
144.3645115966
 30
0.0
 10
118.1439380711
 20
144.4200545913
 30
0.0
  0
SPLINE
  5
4B6
100
AcDbEntity
  8
00_COMPONENTS_2
100
AcDbSpline
 62
7
  6
CONTINUOUS
 70
0
 71
3
 72
10
 73
6
 74
0
 42
0.0000001
 43
0.0000001
 44
0.0000000001
 40
0.0
 40
0.0
 40
0.0
 40
0.0
 40
0.2318708054
 40
0.6159382461
 40
1.0
 40
1.0
 40
1.0
 40
1.0
 10
114.6172761623
 20
142.6502565284
 30
0.0
 10
114.3996683399
 20
142.7582747714
 30
0.0
 10
113.9368941179
 20
143.0913415892
 30
0.0
 10
113.8378131685
 20
143.7439529092
 30
0.0
 10
114.4125385616
 20
144.1762564672
 30
0.0
 10
114.8128270464
 20
144.3374995943
 30
0.0
  0
SPLINE
  5
4B7
100
AcDbEntity
  8
00_COMPONENTS_2
100
AcDbSpline
 62
7
  6
CONTINUOUS
 70
0
 71
3
 72
10
 73
6
 74
0
 42
0.0000001
 43
0.0000001
 44
0.0000000001
 40
0.0
 40
0.0
 40
0.0
 40
0.0
 40
0.2294268716
 40
0.6147193657
 40
1.0
 40
1.0
 40
1.0
 40
1.0
 10
97.1084085912
 20
142.6546291382
 30
0.0
 10
96.8949674491
 20
142.761602429
 30
0.0
 10
96.4366420682
 20
143.0932944653
 30
0.0
 10
96.3373049461
 20
143.7452247443
 30
0.0
 10
96.9136494904
 20
144.1735047059
 30
0.0
 10
97.3128079662
 20
144.3374916132
 30
0.0
  0
SPLINE
  5
4B8
100
AcDbEntity
  8
00_COMPONENTS_2
100
AcDbSpline
 62
7
  6
CONTINUOUS
 70
0
 71
3
 72
9
 73
5
 74
0
 42
0.0000001
 43
0.0000001
 44
0.0000000001
 40
0.0
 40
0.0
 40
0.0
 40
0.0
 40
0.0278760008
 40
1.0
 40
1.0
 40
1.0
 40
1.0
 10
97.6140851451
 20
69.6297227091
 30
0.0
 10
97.6096924211
 20
69.6282606214
 30
0.0
 10
97.4525201108
 20
69.5755736277
 30
0.0
 10
97.3101532172
 20
69.5143963471
 30
0.0
 10
97.1886442951
 20
69.4488060042
 30
0.0
  0
SPLINE
  5
4B9
100
AcDbEntity
  8
00_COMPONENTS_2
100
AcDbSpline
 62
7
  6
CONTINUOUS
 70
0
 71
3
 72
8
 73
4
 74
0
 42
0.0000001
 43
0.0000001
 44
0.0000000001
 40
0.0
 40
0.0
 40
0.0
 40
0.0
 40
1.0
 40
1.0
 40
1.0
 40
1.0
 10
97.1886442951
 20
69.4488060042
 30
0.0
 10
97.0654710655
 20
69.3823172705
 30
0.0
 10
96.9596530231
 20
69.3095413401
 30
0.0
 10
96.8742087443
 20
69.232462666
 30
0.0
  0
SPLINE
  5
4BA
100
AcDbEntity
  8
00_COMPONENTS_2
100
AcDbSpline
 62
7
  6
CONTINUOUS
 70
0
 71
3
 72
10
 73
6
 74
0
 42
0.0000001
 43
0.0000001
 44
0.0000000001
 40
0.0
 40
0.0
 40
0.0
 40
0.0
 40
0.1688589438
 40
0.7509774503
 40
1.0
 40
1.0
 40
1.0
 40
1.0
 10
96.8742087443
 20
69.232462666
 30
0.0
 10
96.8048549689
 20
69.1698991202
 30
0.0
 10
96.5561098028
 20
68.8790488485
 30
0.0
 10
96.6209246308
 20
68.4450413759
 30
0.0
 10
97.022640606
 20
68.1479253714
 30
0.0
 10
97.1681766669
 20
68.0676717172
 30
0.0
  0
SPLINE
  5
4BB
100
AcDbEntity
  8
00_COMPONENTS_2
100
AcDbSpline
 62
7
  6
CONTINUOUS
 70
0
 71
3
 72
8
 73
4
 74
0
 42
0.0000001
 43
0.0000001
 44
0.0000000001
 40
0.0
 40
0.0
 40
0.0
 40
0.0
 40
1.0
 40
1.0
 40
1.0
 40
1.0
 10
97.1681766669
 20
68.0676717172
 30
0.0
 10
97.2957203509
 20
67.9973396865
 30
0.0
 10
97.4425997542
 20
67.9337408263
 30
0.0
 10
97.6047427268
 20
67.8789327491
 30
0.0
  0
SPLINE
  5
4BC
100
AcDbEntity
  8
00_COMPONENTS_2
100
AcDbSpline
 62
7
  6
CONTINUOUS
 70
0
 71
3
 72
9
 73
5
 74
0
 42
0.0000001
 43
0.0000001
 44
0.0000000001
 40
0.0
 40
0.0
 40
0.0
 40
0.0
 40
0.0361690112
 40
1.0
 40
1.0
 40
1.0
 40
1.0
 10
115.1177757693
 20
69.6309486635
 30
0.0
 10
115.1121455818
 20
69.6290821464
 30
0.0
 10
114.9569965792
 20
69.5771769266
 30
0.0
 10
114.8162530812
 20
69.5170107528
 30
0.0
 10
114.6966930936
 20
69.453128583
 30
0.0
  0
SPLINE
  5
4BD
100
AcDbEntity
  8
00_COMPONENTS_2
100
AcDbSpline
 62
7
  6
CONTINUOUS
 70
0
 71
3
 72
8
 73
4
 74
0
 42
0.0000001
 43
0.0000001
 44
0.0000000001
 40
0.0
 40
0.0
 40
0.0
 40
0.0
 40
1.0
 40
1.0
 40
1.0
 40
1.0
 10
114.6966930936
 20
69.453128583
 30
0.0
 10
114.5706691115
 20
69.3857926325
 30
0.0
 10
114.4625252536
 20
69.311910196
 30
0.0
 10
114.3754360474
 20
69.2335682511
 30
0.0
  0
SPLINE
  5
4BE
100
AcDbEntity
  8
00_COMPONENTS_2
100
AcDbSpline
 62
7
  6
CONTINUOUS
 70
0
 71
3
 72
10
 73
6
 74
0
 42
0.0000001
 43
0.0000001
 44
0.0000000001
 40
0.0
 40
0.0
 40
0.0
 40
0.0
 40
0.1697150766
 40
0.7513579233
 40
1.0
 40
1.0
 40
1.0
 40
1.0
 10
114.3754360474
 20
69.2335682511
 30
0.0
 10
114.3055145851
 20
69.1706697177
 30
0.0
 10
114.056045317
 20
68.8794806527
 30
0.0
 10
114.1209131497
 20
68.4451182546
 30
0.0
 10
114.5224693905
 20
68.1480520199
 30
0.0
 10
114.6678661333
 20
68.0678429906
 30
0.0
  0
SPLINE
  5
4BF
100
AcDbEntity
  8
00_COMPONENTS_2
100
AcDbSpline
 62
7
  6
CONTINUOUS
 70
0
 71
3
 72
8
 73
4
 74
0
 42
0.0000001
 43
0.0000001
 44
0.0000000001
 40
0.0
 40
0.0
 40
0.0
 40
0.0
 40
1.0
 40
1.0
 40
1.0
 40
1.0
 10
114.6678661333
 20
68.0678429906
 30
0.0
 10
114.7954500686
 20
67.9974605089
 30
0.0
 10
114.9423947659
 20
67.9338170939
 30
0.0
 10
115.1046212073
 20
67.8789738281
 30
0.0
  0
SPLINE
  5
4C0
100
AcDbEntity
  8
00_COMPONENTS_2
100
AcDbSpline
 62
7
  6
CONTINUOUS
 70
0
 71
3
 72
10
 73
6
 74
0
 42
0.0000001
 43
0.0000001
 44
0.0000000001
 40
0.0
 40
0.0
 40
0.0
 40
0.0
 40
0.3343164733
 40
0.667720704
 40
1.0
 40
1.0
 40
1.0
 40
1.0
 10
31.3728448276
 20
84.5497715501
 30
0.0
 10
29.7904105926
 20
84.5515643532
 30
0.0
 10
26.6298766725
 20
84.5660657114
 30
0.0
 10
21.896513771
 20
84.5541423893
 30
0.0
 10
18.7456326232
 20
84.571421892
 30
0.0
 10
17.1728448276
 20
84.5753041652
 30
0.0
  0
LINE
  5
4C1
100
AcDbEntity
  8
00_COMPONENTS_2
100
AcDbLine
 62
7
  6
CONTINUOUS
 10
31.3728448276
 20
86.1380324308
 11
29.6728821475
 21
86.1350526268
  0
SPLINE
  5
4C2
100
AcDbEntity
  8
00_COMPONENTS_2
100
AcDbSpline
 62
7
  6
CONTINUOUS
 70
0
 71
3
 72
9
 73
5
 74
0
 42
0.0000001
 43
0.0000001
 44
0.0000000001
 40
0.0
 40
0.0
 40
0.0
 40
0.0
 40
0.7613982583
 40
1.0
 40
1.0
 40
1.0
 40
1.0
 10
29.6728821475
 20
86.1350526268
 30
0.0
 10
28.6576926607
 20
86.1331568181
 30
0.0
 10
27.3243705829
 20
86.1303930443
 30
0.0
 10
25.9910493389
 20
86.127268345
 30
0.0
 10
25.6729166178
 20
86.1265022035
 30
0.0
  0
SPLINE
  5
4C3
100
AcDbEntity
  8
00_COMPONENTS_2
100
AcDbSpline
 62
7
  6
CONTINUOUS
 70
0
 71
3
 72
9
 73
5
 74
0
 42
0.0000001
 43
0.0000001
 44
0.0000000001
 40
0.0
 40
0.0
 40
0.0
 40
0.0
 40
0.4446968119
 40
1.0
 40
1.0
 40
1.0
 40
1.0
 10
25.6729166178
 20
86.1265022035
 30
0.0
 10
24.4129296359
 20
86.1234678464
 30
0.0
 10
21.5795695477
 20
86.1159183859
 30
0.0
 10
18.7462142067
 20
86.1067252813
 30
0.0
 10
17.1728448276
 20
86.1011087923
 30
0.0
  0
SPLINE
  5
4C4
100
AcDbEntity
  8
00_COMPONENTS_2
100
AcDbSpline
 62
7
  6
CONTINUOUS
 70
0
 71
3
 72
12
 73
8
 74
0
 42
0.0000001
 43
0.0000001
 44
0.0000000001
 40
0.0
 40
0.0
 40
0.0
 40
0.0
 40
0.2006064924
 40
0.4012190936
 40
0.6018316948
 40
0.8024442961
 40
1.0
 40
1.0
 40
1.0
 40
1.0
 10
54.4328812938
 20
67.9625082244
 30
0.0
 10
54.8320429574
 20
68.1264963781
 30
0.0
 10
55.4083945741
 20
68.554777016
 30
0.0
 10
55.293576103
 20
69.3083233945
 30
0.0
 10
54.2423691329
 20
69.899100367
 30
0.0
 10
52.6310609063
 20
70.1212637791
 30
0.0
 10
51.5596367332
 20
69.9758397595
 30
0.0
 10
51.1184563978
 20
69.8440159834
 30
0.0
  0
SPLINE
  5
4C5
100
AcDbEntity
  8
00_COMPONENTS_2
100
AcDbSpline
 62
7
  6
CONTINUOUS
 70
0
 71
3
 72
8
 73
4
 74
0
 42
0.0000001
 43
0.0000001
 44
0.0000000001
 40
0.0
 40
0.0
 40
0.0
 40
0.0
 40
1.0
 40
1.0
 40
1.0
 40
1.0
 10
51.0443024334
 20
69.8210224189
 30
0.0
 10
50.8873764319
 20
69.7705532534
 30
0.0
 10
50.7429614683
 20
69.7123686467
 30
0.0
 10
50.6138995107
 20
69.6480642081
 30
0.0
  0
SPLINE
  5
4C6
100
AcDbEntity
  8
00_COMPONENTS_2
100
AcDbSpline
 62
7
  6
CONTINUOUS
 70
0
 71
3
 72
12
 73
8
 74
0
 42
0.0000001
 43
0.0000001
 44
0.0000000001
 40
0.0
 40
0.0
 40
0.0
 40
0.0
 40
0.2002761245
 40
0.4005600385
 40
0.6008439524
 40
0.8011278664
 40
1.0
 40
1.0
 40
1.0
 40
1.0
 10
36.9328914014
 20
67.9625123769
 30
0.0
 10
37.3320448394
 20
68.1264987678
 30
0.0
 10
37.9083843992
 20
68.5547772929
 30
0.0
 10
37.793564346
 20
69.3083190536
 30
0.0
 10
36.7423578848
 20
69.8990840274
 30
0.0
 10
35.1266500879
 20
70.1218864072
 30
0.0
 10
34.0507799762
 20
69.9745721736
 30
0.0
 10
33.6074764345
 20
69.8407044763
 30
0.0
  0
SPLINE
  5
4C7
100
AcDbEntity
  8
00_COMPONENTS_2
100
AcDbSpline
 62
7
  6
CONTINUOUS
 70
0
 71
3
 72
8
 73
4
 74
0
 42
0.0000001
 43
0.0000001
 44
0.0000000001
 40
0.0
 40
0.0
 40
0.0
 40
0.0
 40
1.0
 40
1.0
 40
1.0
 40
1.0
 10
33.5399669791
 20
69.8196196611
 30
0.0
 10
33.381286275
 20
69.7683855851
 30
0.0
 10
33.235468053
 20
69.7092630183
 30
0.0
 10
33.1054557918
 20
69.6438885332
 30
0.0
  0
SPLINE
  5
4C8
100
AcDbEntity
  8
00_COMPONENTS_2
100
AcDbSpline
 62
7
  6
CONTINUOUS
 70
0
 71
3
 72
15
 73
11
 74
0
 42
0.0000001
 43
0.0000001
 44
0.0000000001
 40
0.0
 40
0.0
 40
0.0
 40
0.0
 40
0.1249998885
 40
0.249999893
 40
0.3749998975
 40
0.4999999021
 40
0.6249999066
 40
0.7499999112
 40
0.8749999157
 40
1.0
 40
1.0
 40
1.0
 40
1.0
 10
32.1264800643
 20
161.9756856498
 30
0.0
 10
32.1451995709
 20
161.7857206993
 30
0.0
 10
32.3289037614
 20
161.4094720332
 30
0.0
 10
33.0038905954
 20
160.9365372432
 30
0.0
 10
33.9818039817
 20
160.6227295326
 30
0.0
 10
35.1228422072
 20
160.5128901622
 30
0.0
 10
36.263880864
 20
160.6227289359
 30
0.0
 10
37.2417954824
 20
160.9365361351
 30
0.0
 10
37.9167845257
 20
161.4094708191
 30
0.0
 10
38.1004901287
 20
161.7857197317
 30
0.0
 10
38.1192101813
 20
161.9756849758
 30
0.0
  0
SPLINE
  5
4C9
100
AcDbEntity
  8
00_COMPONENTS_2
100
AcDbSpline
 62
7
  6
CONTINUOUS
 70
0
 71
3
 72
15
 73
11
 74
0
 42
0.0000001
 43
0.0000001
 44
0.0000000001
 40
0.0
 40
0.0
 40
0.0
 40
0.0
 40
0.125000348
 40
0.2500003075
 40
0.3750002671
 40
0.5000002267
 40
0.6250001862
 40
0.7500001458
 40
0.8750001054
 40
1.0
 40
1.0
 40
1.0
 40
1.0
 10
49.6264806395
 20
161.9756872788
 30
0.0
 10
49.6452002035
 20
161.7857216627
 30
0.0
 10
49.8289052286
 20
161.4094724228
 30
0.0
 10
50.5038938571
 20
160.9365375664
 30
0.0
 10
51.481807456
 20
160.6227304035
 30
0.0
 10
52.6228452884
 20
160.5128914488
 30
0.0
 10
53.7638831177
 20
160.6227304356
 30
0.0
 10
54.7417967078
 20
160.936537626
 30
0.0
 10
55.416784507
 20
161.4094719297
 30
0.0
 10
55.6004896713
 20
161.785720382
 30
0.0
 10
55.6192096925
 20
161.9756852963
 30
0.0
  0
SPLINE
  5
4CA
100
AcDbEntity
  8
00_COMPONENTS_2
100
AcDbSpline
 62
7
  6
CONTINUOUS
 70
0
 71
3
 72
15
 73
11
 74
0
 42
0.0000001
 43
0.0000001
 44
0.0000000001
 40
0.0
 40
0.0
 40
0.0
 40
0.0
 40
0.125
 40
0.25
 40
0.375
 40
0.5
 40
0.625
 40
0.75
 40
0.875
 40
1.0
 40
1.0
 40
1.0
 40
1.0
 10
52.1978448276
 20
125.63
 30
0.0
 10
52.1978448276
 20
126.0253170756
 30
0.0
 10
52.0403387391
 20
126.8157669386
 30
0.0
 10
51.3675296523
 20
127.8210638961
 30
0.0
 10
50.3605996958
 20
128.4927523523
 30
0.0
 10
49.1728448276
 20
128.7286238239
 30
0.0
 10
47.9850899594
 20
128.4927523523
 30
0.0
 10
46.9781600029
 20
127.8210638961
 30
0.0
 10
46.3053509161
 20
126.8157669386
 30
0.0
 10
46.1478448276
 20
126.0253170756
 30
0.0
 10
46.1478448276
 20
125.63
 30
0.0
  0
SPLINE
  5
4CB
100
AcDbEntity
  8
00_COMPONENTS_2
100
AcDbSpline
 62
7
  6
CONTINUOUS
 70
0
 71
3
 72
15
 73
11
 74
0
 42
0.0000001
 43
0.0000001
 44
0.0000000001
 40
0.0
 40
0.0
 40
0.0
 40
0.0
 40
0.125
 40
0.25
 40
0.375
 40
0.5
 40
0.625
 40
0.75
 40
0.875
 40
1.0
 40
1.0
 40
1.0
 40
1.0
 10
46.1478448276
 20
125.63
 30
0.0
 10
46.1478448276
 20
125.2346829244
 30
0.0
 10
46.3053509161
 20
124.4442330614
 30
0.0
 10
46.9781600029
 20
123.4389361039
 30
0.0
 10
47.9850899594
 20
122.7672476477
 30
0.0
 10
49.1728448276
 20
122.5313761762
 30
0.0
 10
50.3605996958
 20
122.7672476477
 30
0.0
 10
51.3675296523
 20
123.4389361039
 30
0.0
 10
52.0403387391
 20
124.4442330614
 30
0.0
 10
52.1978448276
 20
125.2346829244
 30
0.0
 10
52.1978448276
 20
125.63
 30
0.0
  0
SPLINE
  5
4CC
100
AcDbEntity
  8
00_COMPONENTS_2
100
AcDbSpline
 62
7
  6
CONTINUOUS
 70
0
 71
3
 72
8
 73
4
 74
0
 42
0.0000001
 43
0.0000001
 44
0.0000000001
 40
0.0
 40
0.0
 40
0.0
 40
0.0
 40
1.0
 40
1.0
 40
1.0
 40
1.0
 10
33.6056103964
 20
144.4213604102
 30
0.0
 10
33.4441986355
 20
144.3668490197
 30
0.0
 10
33.297895744
 20
144.3036281665
 30
0.0
 10
33.1707149849
 20
144.2337257078
 30
0.0
  0
SPLINE
  5
4CD
100
AcDbEntity
  8
00_COMPONENTS_2
100
AcDbSpline
 62
7
  6
CONTINUOUS
 70
0
 71
3
 72
10
 73
6
 74
0
 42
0.0000001
 43
0.0000001
 44
0.0000000001
 40
0.0
 40
0.0
 40
0.0
 40
0.0
 40
0.2087253843
 40
0.6938272701
 40
1.0
 40
1.0
 40
1.0
 40
1.0
 10
33.1707149849
 20
144.2337257078
 30
0.0
 10
33.0240397369
 20
144.1531084781
 30
0.0
 10
32.6210183722
 20
143.855586327
 30
0.0
 10
32.5432410805
 20
143.3347807206
 30
0.0
 10
32.9571723565
 20
142.9787609312
 30
0.0
 10
33.1718976782
 20
142.8603314818
 30
0.0
  0
SPLINE
  5
4CE
100
AcDbEntity
  8
00_COMPONENTS_2
100
AcDbSpline
 62
7
  6
CONTINUOUS
 70
0
 71
3
 72
10
 73
6
 74
0
 42
0.0000001
 43
0.0000001
 44
0.0000000001
 40
0.0
 40
0.0
 40
0.0
 40
0.0
 40
0.1500988671
 40
0.5800275946
 40
1.0
 40
1.0
 40
1.0
 40
1.0
 10
33.1921876472
 20
142.8492856066
 30
0.0
 10
33.31284149
 20
142.7844497826
 30
0.0
 10
33.8429825913
 20
142.5571612651
 30
0.0
 10
35.1102277269
 20
142.3678785304
 30
0.0
 10
36.1872608034
 20
142.5250246641
 30
0.0
 10
36.6145382122
 20
142.6646488535
 30
0.0
  0
SPLINE
  5
4CF
100
AcDbEntity
  8
00_COMPONENTS_2
100
AcDbSpline
 62
7
  6
CONTINUOUS
 70
0
 71
3
 72
8
 73
4
 74
0
 42
0.0000001
 43
0.0000001
 44
0.0000000001
 40
0.0
 40
0.0
 40
0.0
 40
0.0
 40
1.0
 40
1.0
 40
1.0
 40
1.0
 10
51.1052983642
 20
144.4212550146
 30
0.0
 10
50.943686233
 20
144.3666581304
 30
0.0
 10
50.7972267544
 20
144.3033293499
 30
0.0
 10
50.6699496141
 20
144.2333048288
 30
0.0
  0
SPLINE
  5
4D0
100
AcDbEntity
  8
00_COMPONENTS_2
100
AcDbSpline
 62
7
  6
CONTINUOUS
 70
0
 71
3
 72
10
 73
6
 74
0
 42
0.0000001
 43
0.0000001
 44
0.0000000001
 40
0.0
 40
0.0
 40
0.0
 40
0.0
 40
0.2081068221
 40
0.6926140932
 40
1.0
 40
1.0
 40
1.0
 40
1.0
 10
50.6699496141
 20
144.2333048288
 30
0.0
 10
50.5236179352
 20
144.1527970037
 30
0.0
 10
50.1209901264
 20
143.8553971903
 30
0.0
 10
50.0431173821
 20
143.333952422
 30
0.0
 10
50.4588382352
 20
142.9773299976
 30
0.0
 10
50.6752482728
 20
142.858487498
 30
0.0
  0
SPLINE
  5
4D1
100
AcDbEntity
  8
00_COMPONENTS_2
100
AcDbSpline
 62
7
  6
CONTINUOUS
 70
0
 71
3
 72
10
 73
6
 74
0
 42
0.0000001
 43
0.0000001
 44
0.0000000001
 40
0.0
 40
0.0
 40
0.0
 40
0.0
 40
0.1468912969
 40
0.5775827888
 40
1.0
 40
1.0
 40
1.0
 40
1.0
 10
50.7005764479
 20
142.844801581
 30
0.0
 10
50.8191877529
 20
142.7817362755
 30
0.0
 10
51.3473770401
 20
142.556504886
 30
0.0
 10
52.6123778557
 20
142.3675573753
 30
0.0
 10
53.691561061
 20
142.5256533671
 30
0.0
 10
54.11971169
 20
142.6663441388
 30
0.0
  0
SPLINE
  5
4D2
100
AcDbEntity
  8
00_COMPONENTS_2
100
AcDbSpline
 62
7
  6
CONTINUOUS
 70
0
 71
3
 72
10
 73
6
 74
0
 42
0.0000001
 43
0.0000001
 44
0.0000000001
 40
0.0
 40
0.0
 40
0.0
 40
0.0
 40
0.3371996022
 40
0.6744094867
 40
1.0
 40
1.0
 40
1.0
 40
1.0
 10
54.432881343
 20
144.3374917554
 30
0.0
 10
54.8320429811
 20
144.1735036043
 30
0.0
 10
55.4083945726
 20
143.7452229736
 30
0.0
 10
55.2948948978
 20
143.0003317728
 30
0.0
 10
54.6167340553
 20
142.6114285884
 30
0.0
 10
54.1933213953
 20
142.4763883962
 30
0.0
  0
SPLINE
  5
4D3
100
AcDbEntity
  8
00_COMPONENTS_2
100
AcDbSpline
 62
7
  6
CONTINUOUS
 70
0
 71
3
 72
10
 73
6
 74
0
 42
0.0000001
 43
0.0000001
 44
0.0000000001
 40
0.0
 40
0.0
 40
0.0
 40
0.0
 40
0.4139595059
 40
0.8336763633
 40
1.0
 40
1.0
 40
1.0
 40
1.0
 10
54.1292771082
 20
142.4565973789
 30
0.0
 10
53.6877140285
 20
142.3244390861
 30
0.0
 10
52.6154299533
 20
142.1786226515
 30
0.0
 10
51.329265719
 20
142.3558950698
 30
0.0
 10
50.7601107825
 20
142.5793549196
 30
0.0
 10
50.6172761623
 20
142.6502565284
 30
0.0
  0
SPLINE
  5
4D4
100
AcDbEntity
  8
00_COMPONENTS_2
100
AcDbSpline
 62
7
  6
CONTINUOUS
 70
0
 71
3
 72
10
 73
6
 74
0
 42
0.0000001
 43
0.0000001
 44
0.0000000001
 40
0.0
 40
0.0
 40
0.0
 40
0.0
 40
0.3367162551
 40
0.6734295147
 40
1.0
 40
1.0
 40
1.0
 40
1.0
 10
36.932834174
 20
144.3375111334
 30
0.0
 10
37.3320172964
 20
144.1735216992
 30
0.0
 10
37.9083862283
 20
143.7452347107
 30
0.0
 10
37.7947172646
 20
142.999247328
 30
0.0
 10
37.1137286742
 20
142.6097259452
 30
0.0
 10
36.6876054911
 20
142.4745827881
 30
0.0
  0
SPLINE
  5
4D5
100
AcDbEntity
  8
00_COMPONENTS_2
100
AcDbSpline
 62
7
  6
CONTINUOUS
 70
0
 71
3
 72
10
 73
6
 74
0
 42
0.0000001
 43
0.0000001
 44
0.0000000001
 40
0.0
 40
0.0
 40
0.0
 40
0.0
 40
0.4107944229
 40
0.8302956358
 40
1.0
 40
1.0
 40
1.0
 40
1.0
 10
36.6198030332
 20
142.4537865931
 30
0.0
 10
36.180111428
 20
142.3234155504
 30
0.0
 10
35.111640443
 20
142.1791339153
 30
0.0
 10
33.8247843654
 20
142.3565884012
 30
0.0
 10
33.2534139965
 20
142.5819547455
 30
0.0
 10
33.1084085912
 20
142.6546291382
 30
0.0
  0
SPLINE
  5
4D6
100
AcDbEntity
  8
00_COMPONENTS_2
100
AcDbSpline
 62
7
  6
CONTINUOUS
 70
0
 71
3
 72
8
 73
4
 74
0
 42
0.0000001
 43
0.0000001
 44
0.0000000001
 40
0.0
 40
0.0
 40
0.0
 40
0.0
 40
1.0
 40
1.0
 40
1.0
 40
1.0
 10
36.6394560836
 20
67.878429202
 30
0.0
 10
36.8004250754
 20
67.9327556213
 30
0.0
 10
36.9463803435
 20
67.99574221
 30
0.0
 10
37.0733444353
 20
68.0653792052
 30
0.0
  0
SPLINE
  5
4D7
100
AcDbEntity
  8
00_COMPONENTS_2
100
AcDbSpline
 62
7
  6
CONTINUOUS
 70
0
 71
3
 72
12
 73
8
 74
0
 42
0.0000001
 43
0.0000001
 44
0.0000000001
 40
0.0
 40
0.0
 40
0.0
 40
0.0
 40
0.0976680782
 40
0.3238226314
 40
0.5499771846
 40
0.7761317379
 40
1.0
 40
1.0
 40
1.0
 40
1.0
 10
37.0733444353
 20
68.0653792052
 30
0.0
 10
37.2207516938
 20
68.1462288252
 30
0.0
 10
37.6246111765
 20
68.4440111929
 30
0.0
 10
37.7163651998
 20
69.0584065869
 30
0.0
 10
36.7573200933
 20
69.6898717737
 30
0.0
 10
35.1283526926
 20
69.9331833443
 30
0.0
 10
34.0442103804
 20
69.7728869123
 30
0.0
 10
33.6140851451
 20
69.6297227091
 30
0.0
  0
SPLINE
  5
4D8
100
AcDbEntity
  8
00_COMPONENTS_2
100
AcDbSpline
 62
7
  6
CONTINUOUS
 70
0
 71
3
 72
8
 73
4
 74
0
 42
0.0000001
 43
0.0000001
 44
0.0000000001
 40
0.0
 40
0.0
 40
0.0
 40
0.0
 40
1.0
 40
1.0
 40
1.0
 40
1.0
 10
54.139314112
 20
67.8783812906
 30
0.0
 10
54.3001797143
 20
67.9326647508
 30
0.0
 10
54.4460536853
 20
67.9955969005
 30
0.0
 10
54.5729668845
 20
68.0651721773
 30
0.0
  0
SPLINE
  5
4D9
100
AcDbEntity
  8
00_COMPONENTS_2
100
AcDbSpline
 62
7
  6
CONTINUOUS
 70
0
 71
3
 72
12
 73
8
 74
0
 42
0.0000001
 43
0.0000001
 44
0.0000000001
 40
0.0
 40
0.0
 40
0.0
 40
0.0
 40
0.0978058752
 40
0.3240863428
 40
0.5503668104
 40
0.776647278
 40
1.0
 40
1.0
 40
1.0
 40
1.0
 10
54.5729668845
 20
68.0651721773
 30
0.0
 10
54.7205437121
 20
68.146075493
 30
0.0
 10
55.1245972672
 20
68.4439180549
 30
0.0
 10
55.2163651998
 20
69.0584065869
 30
0.0
 10
54.2573200933
 20
69.6898717737
 30
0.0
 10
52.6298940851
 20
69.9329531134
 30
0.0
 10
51.5472931654
 20
69.7733420678
 30
0.0
 10
51.1177757693
 20
69.6309486635
 30
0.0
  0
SPLINE
  5
4DA
100
AcDbEntity
  8
00_COMPONENTS_2
100
AcDbSpline
 62
7
  6
CONTINUOUS
 70
0
 71
3
 72
15
 73
11
 74
0
 42
0.0000001
 43
0.0000001
 44
0.0000000001
 40
0.0
 40
0.0
 40
0.0
 40
0.0
 40
0.1250002752
 40
0.2500001639
 40
0.3750000526
 40
0.4999999413
 40
0.6249998299
 40
0.7499997186
 40
0.8749996073
 40
1.0
 40
1.0
 40
1.0
 40
1.0
 10
38.1192102917
 20
50.3238169253
 30
0.0
 10
38.1004907241
 20
50.5137825782
 30
0.0
 10
37.9167856646
 20
50.8900318949
 30
0.0
 10
37.2417969047
 20
51.3629668545
 30
0.0
 10
36.2638831068
 20
51.6767740932
 30
0.0
 10
35.1228450394
 20
51.7866130833
 30
0.0
 10
33.9818069726
 20
51.6767740865
 30
0.0
 10
33.0038931766
 20
51.3629668419
 30
0.0
 10
32.3289042081
 20
50.8900317302
 30
0.0
 10
32.1451991896
 20
50.5137822069
 30
0.0
 10
32.126479743
 20
50.3238163719
 30
0.0
  0
SPLINE
  5
4DB
100
AcDbEntity
  8
00_COMPONENTS_2
100
AcDbSpline
 62
7
  6
CONTINUOUS
 70
0
 71
3
 72
15
 73
11
 74
0
 42
0.0000001
 43
0.0000001
 44
0.0000000001
 40
0.0
 40
0.0
 40
0.0
 40
0.0
 40
0.1250003461
 40
0.2500003055
 40
0.3750002649
 40
0.5000002244
 40
0.6250001838
 40
0.7500001432
 40
0.8750001026
 40
1.0
 40
1.0
 40
1.0
 40
1.0
 10
55.6192108294
 20
50.3238169054
 30
0.0
 10
55.6004912631
 20
50.5137825585
 30
0.0
 10
55.4167862061
 20
50.8900318766
 30
0.0
 10
54.7417974492
 20
51.3629668406
 30
0.0
 10
53.7638836534
 20
51.6767740857
 30
0.0
 10
52.6228455866
 20
51.7866130833
 30
0.0
 10
51.4818075191
 20
51.6767740939
 30
0.0
 10
50.503893721
 20
51.3629668558
 30
0.0
 10
49.8289057685
 20
50.8900324625
 30
0.0
 10
49.6452005605
 20
50.5137839304
 30
0.0
 10
49.626480535
 20
50.3238189726
 30
0.0
  0
SPLINE
  5
4DC
100
AcDbEntity
  8
00_COMPONENTS_2
100
AcDbSpline
 62
7
  6
CONTINUOUS
 70
0
 71
3
 72
10
 73
6
 74
0
 42
0.0000001
 43
0.0000001
 44
0.0000000001
 40
0.0
 40
0.0
 40
0.0
 40
0.0
 40
0.230945461
 40
0.6154711448
 40
1.0
 40
1.0
 40
1.0
 40
1.0
 10
50.6138995107
 20
69.6480642081
 30
0.0
 10
50.3978658208
 20
69.5404265633
 30
0.0
 10
49.9367751648
 20
69.2078749089
 30
0.0
 10
49.8378122912
 20
68.5560413124
 30
0.0
 10
50.4125518115
 20
68.1237335664
 30
0.0
 10
50.8128547318
 20
67.9624892537
 30
0.0
  0
SPLINE
  5
4DD
100
AcDbEntity
  8
00_COMPONENTS_2
100
AcDbSpline
 62
7
  6
CONTINUOUS
 70
0
 71
3
 72
10
 73
6
 74
0
 42
0.0000001
 43
0.0000001
 44
0.0000000001
 40
0.0
 40
0.0
 40
0.0
 40
0.0
 40
0.2286099984
 40
0.6143109216
 40
1.0
 40
1.0
 40
1.0
 40
1.0
 10
33.1054557918
 20
69.6438885332
 30
0.0
 10
32.8933895475
 20
69.5372545788
 30
0.0
 10
32.4365368747
 20
69.2060151703
 30
0.0
 10
32.3373049434
 20
68.5547752378
 30
0.0
 10
32.9136495315
 20
68.1264952635
 30
0.0
 10
33.3128080517
 20
67.9625083516
 30
0.0
  0
SPLINE
  5
4DE
100
AcDbEntity
  8
00_COMPONENTS_2
100
AcDbSpline
 62
7
  6
CONTINUOUS
 70
0
 71
3
 72
11
 73
7
 74
0
 42
0.0000001
 43
0.0000001
 44
0.0000000001
 40
0.0
 40
0.0
 40
0.0
 40
0.0
 40
0.0094771953
 40
0.4187165209
 40
0.8279558465
 40
1.0
 40
1.0
 40
1.0
 40
1.0
 10
36.6145382122
 20
142.6646488535
 30
0.0
 10
36.6246677146
 20
142.6679589362
 30
0.0
 10
37.0695985824
 20
142.8157421157
 30
0.0
 10
37.7163651998
 20
143.2415934131
 30
0.0
 10
37.625043729
 20
143.8530923861
 30
0.0
 10
37.2271963956
 20
144.1489985916
 30
0.0
 10
37.0850295981
 20
144.2281631005
 30
0.0
  0
SPLINE
  5
4DF
100
AcDbEntity
  8
00_COMPONENTS_2
100
AcDbSpline
 62
7
  6
CONTINUOUS
 70
0
 71
3
 72
8
 73
4
 74
0
 42
0.0000001
 43
0.0000001
 44
0.0000000001
 40
0.0
 40
0.0
 40
0.0
 40
0.0
 40
1.0
 40
1.0
 40
1.0
 40
1.0
 10
37.0850295981
 20
144.2281631005
 30
0.0
 10
36.9566158089
 20
144.2996693506
 30
0.0
 10
36.8082824655
 20
144.3643093829
 30
0.0
 10
36.6442611725
 20
144.4199450146
 30
0.0
  0
SPLINE
  5
4E0
100
AcDbEntity
  8
00_COMPONENTS_2
100
AcDbSpline
 62
7
  6
CONTINUOUS
 70
0
 71
3
 72
11
 73
7
 74
0
 42
0.0000001
 43
0.0000001
 44
0.0000000001
 40
0.0
 40
0.0
 40
0.0
 40
0.0
 40
0.0078722834
 40
0.4176390778
 40
0.8274058722
 40
1.0
 40
1.0
 40
1.0
 40
1.0
 10
54.11971169
 20
142.6663441388
 30
0.0
 10
54.1280982766
 20
142.6690999804
 30
0.0
 10
54.5708601925
 20
142.8165727991
 30
0.0
 10
55.2163651998
 20
143.2415934131
 30
0.0
 10
55.125013507
 20
143.8532947558
 30
0.0
 10
54.7267475688
 20
144.1493323132
 30
0.0
 10
54.5842167005
 20
144.2286155167
 30
0.0
  0
SPLINE
  5
4E1
100
AcDbEntity
  8
00_COMPONENTS_2
100
AcDbSpline
 62
7
  6
CONTINUOUS
 70
0
 71
3
 72
8
 73
4
 74
0
 42
0.0000001
 43
0.0000001
 44
0.0000000001
 40
0.0
 40
0.0
 40
0.0
 40
0.0
 40
1.0
 40
1.0
 40
1.0
 40
1.0
 10
54.5842167005
 20
144.2286155167
 30
0.0
 10
54.455905578
 20
144.2999889459
 30
0.0
 10
54.3077416389
 20
144.3645115966
 30
0.0
 10
54.1439380711
 20
144.4200545913
 30
0.0
  0
SPLINE
  5
4E2
100
AcDbEntity
  8
00_COMPONENTS_2
100
AcDbSpline
 62
7
  6
CONTINUOUS
 70
0
 71
3
 72
10
 73
6
 74
0
 42
0.0000001
 43
0.0000001
 44
0.0000000001
 40
0.0
 40
0.0
 40
0.0
 40
0.0
 40
0.2318708054
 40
0.6159382461
 40
1.0
 40
1.0
 40
1.0
 40
1.0
 10
50.6172761623
 20
142.6502565284
 30
0.0
 10
50.3996683399
 20
142.7582747714
 30
0.0
 10
49.9368941179
 20
143.0913415892
 30
0.0
 10
49.8378131685
 20
143.7439529092
 30
0.0
 10
50.4125385616
 20
144.1762564672
 30
0.0
 10
50.8128270464
 20
144.3374995943
 30
0.0
  0
SPLINE
  5
4E3
100
AcDbEntity
  8
00_COMPONENTS_2
100
AcDbSpline
 62
7
  6
CONTINUOUS
 70
0
 71
3
 72
10
 73
6
 74
0
 42
0.0000001
 43
0.0000001
 44
0.0000000001
 40
0.0
 40
0.0
 40
0.0
 40
0.0
 40
0.2294268716
 40
0.6147193657
 40
1.0
 40
1.0
 40
1.0
 40
1.0
 10
33.1084085912
 20
142.6546291382
 30
0.0
 10
32.8949674491
 20
142.761602429
 30
0.0
 10
32.4366420682
 20
143.0932944653
 30
0.0
 10
32.3373049461
 20
143.7452247443
 30
0.0
 10
32.9136494904
 20
144.1735047059
 30
0.0
 10
33.3128079662
 20
144.3374916132
 30
0.0
  0
SPLINE
  5
4E4
100
AcDbEntity
  8
00_COMPONENTS_2
100
AcDbSpline
 62
7
  6
CONTINUOUS
 70
0
 71
3
 72
9
 73
5
 74
0
 42
0.0000001
 43
0.0000001
 44
0.0000000001
 40
0.0
 40
0.0
 40
0.0
 40
0.0
 40
0.0278760008
 40
1.0
 40
1.0
 40
1.0
 40
1.0
 10
33.6140851451
 20
69.6297227091
 30
0.0
 10
33.6096924211
 20
69.6282606214
 30
0.0
 10
33.4525201108
 20
69.5755736277
 30
0.0
 10
33.3101532172
 20
69.5143963471
 30
0.0
 10
33.1886442951
 20
69.4488060042
 30
0.0
  0
SPLINE
  5
4E5
100
AcDbEntity
  8
00_COMPONENTS_2
100
AcDbSpline
 62
7
  6
CONTINUOUS
 70
0
 71
3
 72
8
 73
4
 74
0
 42
0.0000001
 43
0.0000001
 44
0.0000000001
 40
0.0
 40
0.0
 40
0.0
 40
0.0
 40
1.0
 40
1.0
 40
1.0
 40
1.0
 10
33.1886442951
 20
69.4488060042
 30
0.0
 10
33.0654710655
 20
69.3823172705
 30
0.0
 10
32.9596530231
 20
69.3095413401
 30
0.0
 10
32.8742087443
 20
69.232462666
 30
0.0
  0
SPLINE
  5
4E6
100
AcDbEntity
  8
00_COMPONENTS_2
100
AcDbSpline
 62
7
  6
CONTINUOUS
 70
0
 71
3
 72
10
 73
6
 74
0
 42
0.0000001
 43
0.0000001
 44
0.0000000001
 40
0.0
 40
0.0
 40
0.0
 40
0.0
 40
0.1688589438
 40
0.7509774503
 40
1.0
 40
1.0
 40
1.0
 40
1.0
 10
32.8742087443
 20
69.232462666
 30
0.0
 10
32.8048549689
 20
69.1698991202
 30
0.0
 10
32.5561098028
 20
68.8790488485
 30
0.0
 10
32.6209246308
 20
68.4450413759
 30
0.0
 10
33.022640606
 20
68.1479253714
 30
0.0
 10
33.1681766669
 20
68.0676717172
 30
0.0
  0
SPLINE
  5
4E7
100
AcDbEntity
  8
00_COMPONENTS_2
100
AcDbSpline
 62
7
  6
CONTINUOUS
 70
0
 71
3
 72
8
 73
4
 74
0
 42
0.0000001
 43
0.0000001
 44
0.0000000001
 40
0.0
 40
0.0
 40
0.0
 40
0.0
 40
1.0
 40
1.0
 40
1.0
 40
1.0
 10
33.1681766669
 20
68.0676717172
 30
0.0
 10
33.2957203509
 20
67.9973396865
 30
0.0
 10
33.4425997542
 20
67.9337408263
 30
0.0
 10
33.6047427268
 20
67.8789327491
 30
0.0
  0
SPLINE
  5
4E8
100
AcDbEntity
  8
00_COMPONENTS_2
100
AcDbSpline
 62
7
  6
CONTINUOUS
 70
0
 71
3
 72
9
 73
5
 74
0
 42
0.0000001
 43
0.0000001
 44
0.0000000001
 40
0.0
 40
0.0
 40
0.0
 40
0.0
 40
0.0361690112
 40
1.0
 40
1.0
 40
1.0
 40
1.0
 10
51.1177757693
 20
69.6309486635
 30
0.0
 10
51.1121455818
 20
69.6290821464
 30
0.0
 10
50.9569965792
 20
69.5771769266
 30
0.0
 10
50.8162530812
 20
69.5170107528
 30
0.0
 10
50.6966930936
 20
69.453128583
 30
0.0
  0
SPLINE
  5
4E9
100
AcDbEntity
  8
00_COMPONENTS_2
100
AcDbSpline
 62
7
  6
CONTINUOUS
 70
0
 71
3
 72
8
 73
4
 74
0
 42
0.0000001
 43
0.0000001
 44
0.0000000001
 40
0.0
 40
0.0
 40
0.0
 40
0.0
 40
1.0
 40
1.0
 40
1.0
 40
1.0
 10
50.6966930936
 20
69.453128583
 30
0.0
 10
50.5706691115
 20
69.3857926325
 30
0.0
 10
50.4625252536
 20
69.311910196
 30
0.0
 10
50.3754360474
 20
69.2335682511
 30
0.0
  0
SPLINE
  5
4EA
100
AcDbEntity
  8
00_COMPONENTS_2
100
AcDbSpline
 62
7
  6
CONTINUOUS
 70
0
 71
3
 72
10
 73
6
 74
0
 42
0.0000001
 43
0.0000001
 44
0.0000000001
 40
0.0
 40
0.0
 40
0.0
 40
0.0
 40
0.1697150766
 40
0.7513579233
 40
1.0
 40
1.0
 40
1.0
 40
1.0
 10
50.3754360474
 20
69.2335682511
 30
0.0
 10
50.3055145851
 20
69.1706697177
 30
0.0
 10
50.056045317
 20
68.8794806527
 30
0.0
 10
50.1209131497
 20
68.4451182546
 30
0.0
 10
50.5224693905
 20
68.1480520199
 30
0.0
 10
50.6678661333
 20
68.0678429906
 30
0.0
  0
SPLINE
  5
4EB
100
AcDbEntity
  8
00_COMPONENTS_2
100
AcDbSpline
 62
7
  6
CONTINUOUS
 70
0
 71
3
 72
8
 73
4
 74
0
 42
0.0000001
 43
0.0000001
 44
0.0000000001
 40
0.0
 40
0.0
 40
0.0
 40
0.0
 40
1.0
 40
1.0
 40
1.0
 40
1.0
 10
50.6678661333
 20
68.0678429906
 30
0.0
 10
50.7954500686
 20
67.9974605089
 30
0.0
 10
50.9423947659
 20
67.9338170939
 30
0.0
 10
51.1046212073
 20
67.8789738281
 30
0.0
  0
ELLIPSE
  5
4EC
100
AcDbEntity
  8
00_COMPONENTS_2
100
AcDbEllipse
 62
7
  6
CONTINUOUS
 10
89.6728448276
 20
86.65393462
 30
0.0
 11
0.5
 21
0.0
 31
0.0
 40
0.999683268
 41
-3.1415926536
 42
-1.5707963268
  0
ELLIPSE
  5
4ED
100
AcDbEntity
  8
00_COMPONENTS_2
100
AcDbEllipse
 62
7
  6
CONTINUOUS
 10
93.6728448276
 20
86.65393462
 30
0.0
 11
0.5
 21
0.0
 31
0.0
 40
0.999683268
 41
-1.5707963268
 42
0.0
  0
ELLIPSE
  5
4EE
100
AcDbEntity
  8
00_COMPONENTS_2
100
AcDbEllipse
 62
7
  6
CONTINUOUS
 10
25.6728448276
 20
86.65393462
 30
0.0
 11
0.5
 21
0.0
 31
0.0
 40
0.999683268
 41
-3.1415926536
 42
-1.5707963268
  0
ELLIPSE
  5
4EF
100
AcDbEntity
  8
00_COMPONENTS_2
100
AcDbEllipse
 62
7
  6
CONTINUOUS
 10
29.6728448276
 20
86.65393462
 30
0.0
 11
0.5
 21
0.0
 31
0.0
 40
0.999683268
 41
-1.5707963268
 42
0.0
  0
ENDSEC
  0
SECTION
  2
OBJECTS
  0
DICTIONARY
  5
C
100
AcDbDictionary
280
0
281
1
  3
ACAD_GROUP
350
D
  3
ACAD_MLINESTYLE
350
17
  3
ACAD_LAYOUT
350
1A
  3
ACAD_PLOTSETTINGS
350
19
  3
ACAD_PLOTSTYLENAME
350
E
  0
DICTIONARY
  5
D
102
{ACAD_REACTORS
330
C
102
}
100
AcDbDictionary
280
0
281
1
  0
ACDBDICTIONARYWDFLT
  5
E
102
{ACAD_REACTORS
330
C
102
}
100
AcDbDictionary
281
1
  3
Normal
350
F
100
AcDbDictionaryWithDefault
340
F
  0
DICTIONARY
  5
17
102
{ACAD_REACTORS
330
C
102
}
100
AcDbDictionary
280
0
281
1
  3
Standard
350
18
  0
DICTIONARY
  5
19
102
{ACAD_REACTORS
330
C
102
}
100
AcDbDictionary
281
1
  0
DICTIONARY
  5
1A
102
{ACAD_REACTORS
330
C
102
}
100
AcDbDictionary
281
1
  3
Model
350
4F0
  3
Layout1
350
4F1
  0
ACDBPLACEHOLDER
  5
F
102
{ACAD_REACTORS
330
E
102
}
  0
MLINESTYLE
  5
18
102
{ACAD_REACTORS
330
17
102
}
100
AcDbMlineStyle
  2
STANDARD
 70
0
  3

 62
256
 51
90.0
 52
90.0
 71
2
 49
0.5
 62
256
  6
BYLAYER
 49
-0.5
 62
256
  6
BYLAYER
  0
LAYOUT
  5
4F0
102
{ACAD_REACTORS
330
1A
102
}
100
AcDbPlotSettings
  1

  2
none_device
  4

  6

 40
0.0
 41
0.0
 42
0.0
 43
0.0
 44
210.0
 45
297.0
 46
0.0
 47
0.0
 48
0.0
 49
0.0
140
0.0
141
0.0
142
1.0
143
1.0
 70
1024
 72
1
 73
0
 74
0
  7

 75
0
147
1.0
148
0.0
149
0.0
100
AcDbLayout
  1
Model
 70
0
 71
0
 10
0.0
 20
0.0
 11
210.0
 21
297.0
 12
0.0
 22
0.0
 32
0.0
 14
0.0
 24
0.0
 34
0.0
 15
0.0
 25
0.0
 35
0.0
146
0.0
 13
0.0
 23
0.0
 33
0.0
 16
1.0
 26
0.0
 36
0.0
 17
0.0
 27
1.0
 37
0.0
 76
0
330
218
345
0
346
0
  0
LAYOUT
  5
4F1
102
{ACAD_REACTORS
330
1A
102
}
100
AcDbPlotSettings
  1

  2
none_device
  4

  6

 40
0.0
 41
0.0
 42
0.0
 43
0.0
 44
210.0
 45
297.0
 46
0.0
 47
0.0
 48
0.0
 49
0.0
140
0.0
141
0.0
142
1.0
143
1.0
 70
0
 72
1
 73
0
 74
0
  7

 75
0
147
1.0
148
0.0
149
0.0
100
AcDbLayout
  1
Layout1
 70
0
 71
1
 10
0.0
 20
0.0
 11
210.0
 21
297.0
 12
0.0
 22
0.0
 32
0.0
 14
0.0
 24
0.0
 34
0.0
 15
0.0
 25
0.0
 35
0.0
146
0.0
 13
0.0
 23
0.0
 33
0.0
 16
1.0
 26
0.0
 36
0.0
 17
0.0
 27
1.0
 37
0.0
 76
0
330
219
345
0
346
0
  0
ENDSEC
  0
EOF
