999
DXF file: C:\Users\sesa63760\Dev\_Creo\CAD\MCADID0005770_3D-CAD\mcadid0005770_3d-simplified_5.dxf
999
Pro/ENGINEER 2019471 by Parametric Technology Corporation
  0
SECTION
  2
HEADER
  9
$ACADVER
  1
AC1024
  9
$DWGCODEPAGE
  3
ANSI_1252
  9
$EXTMAX
 10
129.8994706233
 20
183.7149655959
 30
0.0
  9
$EXTMIN
 10
0.0
 20
0.0
 30
0.0
  9
$LIMMIN
 10
0.0
 20
0.0
  9
$LIMMAX
 10
129.8994706233
 20
183.7149655959
  9
$VIEWCTR
 10
64.9497353117
 20
91.8574827979
  9
$VIEWSIZE
 40
183.7149655959
  9
$CLAYER
  8
0
  9
$LTSCALE
 40
11.9754940537
  9
$CELTYPE
  6
BYLAYER
  9
$DIMSCALE
 40
1.0
  9
$DIMASZ
 40
1.5464222693
  9
$DIMEXO
 40
1.0
  9
$DIMDLI
 40
8.2739777098
  9
$DIMEXE
 40
1.0
  9
$DIMCEN
 40
1.9596262997
  9
$DIMLFAC
 40
1.0
  9
$DIMBLK
  1
_FILLED
  9
$DIMALT
 70
0
  9
$DIMALTF
 40
0.0393700787
  9
$DIMTXT
 40
2.1649911771
  9
$DIMTOL
 70
1
  9
$DIMLIM
 70
0
  9
$DIMTFAC
 40
1.0
  9
$DIMTP
 40
0.01
  9
$DIMTM
 40
0.01
  9
$DIMGAP
 40
0.625
  9
$DIMDSEP
 70
46
  9
$AUNITS
 70
0
  9
$PDMODE
 70
3
  9
$PDSIZE
 40
0.3125
  9
$HANDSEED
  5
371
  9
$TILEMODE
 70
1
  9
$MEASUREMENT
 70
1
  9
$INSUNITS
 70
4
  0
ENDSEC
  0
SECTION
  2
CLASSES
  0
CLASS
  1
ACDBDICTIONARYWDFLT
  2
AcDbDictionaryWithDefault
  3
AutoCAD 2000
 90
0
 91
1
280
0
281
0
  0
CLASS
  1
ACDBPLACEHOLDER
  2
AcDbPlaceHolder
  3
AutoCAD 2000
 90
0
 91
1
280
0
281
0
  0
CLASS
  1
LAYOUT
  2
AcDbLayout
  3
AutoCAD 2000
 90
0
 91
0
280
0
281
0
  0
ENDSEC
  0
SECTION
  2
TABLES
  0
TABLE
  2
VPORT
  5
8
100
AcDbSymbolTable
 70
2
  0
VPORT
  5
1F4
100
AcDbSymbolTableRecord
100
AcDbViewportTableRecord
  2
*ACTIVE
 70
0
 10
0.0
 20
0.0
 11
1.0
 21
1.0
 12
64.9497353117
 22
91.8574827979
 13
0.0
 23
0.0
 14
1.0
 24
1.0
 15
0.0
 25
0.0
 16
0.0
 26
0.0
 36
1.0
 17
0.0
 27
0.0
 37
0.0
 40
183.7149655959
 41
0.7070707071
 42
50.0
 43
0.0
 44
0.0
 50
0.0
 51
0.0
 71
0
 72
100
 73
1
 74
1
 75
0
 76
0
 77
0
 78
0
  0
ENDTAB
  0
TABLE
  2
LTYPE
  5
5
100
AcDbSymbolTable
 70
6
  0
LTYPE
  5
14
100
AcDbSymbolTableRecord
100
AcDbLinetypeTableRecord
  2
BYBLOCK
 70
0
  3

 72
65
 73
0
 40
0.0
  0
LTYPE
  5
15
100
AcDbSymbolTableRecord
100
AcDbLinetypeTableRecord
  2
BYLAYER
 70
0
  3

 72
65
 73
0
 40
0.0
  0
LTYPE
  5
16
100
AcDbSymbolTableRecord
100
AcDbLinetypeTableRecord
  2
CONTINUOUS
 70
64
  3
Solid line
 72
65
 73
0
 40
0.0
  0
LTYPE
  5
1F5
100
AcDbSymbolTableRecord
100
AcDbLinetypeTableRecord
  2
CENTER
 70
64
  3
____ _ ____ _ ____ _ ____ _ ____ _ ____ _ ____
 72
65
 73
4
 40
0.6
 49
0.375
 74
0
 49
-0.075
 74
0
 49
0.075
 74
0
 49
-0.075
 74
0
  0
LTYPE
  5
1F6
100
AcDbSymbolTableRecord
100
AcDbLinetypeTableRecord
  2
HIDDEN
 70
64
  3
- - - - - - - - - - - - - - - - - - - -
 72
65
 73
2
 40
0.2
 49
0.1
 74
0
 49
-0.1
 74
0
  0
LTYPE
  5
1F7
100
AcDbSymbolTableRecord
100
AcDbLinetypeTableRecord
  2
PHANTOM
 70
64
  3
_____ _ _ _____ _ _ _____ _ _ _____
 72
65
 73
6
 40
0.8
 49
0.45
 74
0
 49
-0.05
 74
0
 49
0.1
 74
0
 49
-0.05
 74
0
 49
0.1
 74
0
 49
-0.05
 74
0
  0
LTYPE
  5
1F8
100
AcDbSymbolTableRecord
100
AcDbLinetypeTableRecord
  2
DOT
 70
64
  3
. . . . . . . . . . . . . . . . . . . .
 72
65
 73
2
 40
0.2
 49
0.1
 74
0
 49
-0.1
 74
0
  0
LTYPE
  5
1F9
100
AcDbSymbolTableRecord
100
AcDbLinetypeTableRecord
  2
DASHED
 70
64
  3
- - - - - - - - - - - - - - - - - - - -
 72
65
 73
2
 40
0.2
 49
0.1
 74
0
 49
-0.1
 74
0
  0
ENDTAB
  0
TABLE
  2
LAYER
  5
2
100
AcDbSymbolTable
 70
36
  0
LAYER
  5
10
100
AcDbSymbolTableRecord
100
AcDbLayerTableRecord
  2
0
 70
0
 62
7
  6
CONTINUOUS
370
-3
390
F
  0
LAYER
  5
1FA
100
AcDbSymbolTableRecord
100
AcDbLayerTableRecord
  2
DEFAULT_1
 70
0
 62
7
  6
CENTER
370
-3
390
F
  0
LAYER
  5
1FB
100
AcDbSymbolTableRecord
100
AcDbLayerTableRecord
  2
DEFAULT_2
 70
0
 62
7
  6
HIDDEN
370
-3
390
F
  0
LAYER
  5
1FC
100
AcDbSymbolTableRecord
100
AcDbLayerTableRecord
  2
DEFAULT_3
 70
0
 62
7
  6
PHANTOM
370
-3
390
F
  0
LAYER
  5
1FD
100
AcDbSymbolTableRecord
100
AcDbLayerTableRecord
  2
00_COMPONENTS
 70
0
 62
7
  6
CONTINUOUS
370
-3
390
F
  0
LAYER
  5
1FE
100
AcDbSymbolTableRecord
100
AcDbLayerTableRecord
  2
01_1_DEFAULT_DATUMS
 70
0
 62
7
  6
CONTINUOUS
370
-3
390
F
  0
LAYER
  5
1FF
100
AcDbSymbolTableRecord
100
AcDbLayerTableRecord
  2
01_PLANES
 70
0
 62
7
  6
CONTINUOUS
370
-3
390
F
  0
LAYER
  5
200
100
AcDbSymbolTableRecord
100
AcDbLayerTableRecord
  2
02_COORD_SYS
 70
0
 62
7
  6
CONTINUOUS
370
-3
390
F
  0
LAYER
  5
201
100
AcDbSymbolTableRecord
100
AcDbLayerTableRecord
  2
03_AXES
 70
0
 62
7
  6
CONTINUOUS
370
-3
390
F
  0
LAYER
  5
202
100
AcDbSymbolTableRecord
100
AcDbLayerTableRecord
  2
04_POINTS
 70
0
 62
7
  6
CONTINUOUS
370
-3
390
F
  0
LAYER
  5
203
100
AcDbSymbolTableRecord
100
AcDbLayerTableRecord
  2
05_CURVES
 70
0
 62
7
  6
CONTINUOUS
370
-3
390
F
  0
LAYER
  5
204
100
AcDbSymbolTableRecord
100
AcDbLayerTableRecord
  2
06_SURFS
 70
0
 62
7
  6
CONTINUOUS
370
-3
390
F
  0
LAYER
  5
205
100
AcDbSymbolTableRecord
100
AcDbLayerTableRecord
  2
07_COSMETICS
 70
0
 62
7
  6
CONTINUOUS
370
-3
390
F
  0
LAYER
  5
206
100
AcDbSymbolTableRecord
100
AcDbLayerTableRecord
  2
10_NOTES
 70
0
 62
7
  6
CONTINUOUS
370
-3
390
F
  0
LAYER
  5
207
100
AcDbSymbolTableRecord
100
AcDbLayerTableRecord
  2
11_NOTES_PUB
 70
0
 62
7
  6
CONTINUOUS
370
-3
390
F
  0
LAYER
  5
208
100
AcDbSymbolTableRecord
100
AcDbLayerTableRecord
  2
13_REF_GTOL
 70
0
 62
7
  6
CONTINUOUS
370
-3
390
F
  0
LAYER
  5
209
100
AcDbSymbolTableRecord
100
AcDbLayerTableRecord
  2
16_MISC
 70
0
 62
7
  6
CONTINUOUS
370
-3
390
F
  0
LAYER
  5
20A
100
AcDbSymbolTableRecord
100
AcDbLayerTableRecord
  2
17_NO_PRINT
 70
0
 62
7
  6
CONTINUOUS
370
-3
390
F
  0
LAYER
  5
20B
100
AcDbSymbolTableRecord
100
AcDbLayerTableRecord
  2
18_DATUM_CAMS_JOINTS
 70
0
 62
7
  6
CONTINUOUS
370
-3
390
F
  0
LAYER
  5
20C
100
AcDbSymbolTableRecord
100
AcDbLayerTableRecord
  2
19_DATUM_FUNCTIONAL
 70
0
 62
7
  6
CONTINUOUS
370
-3
390
F
  0
LAYER
  5
20D
100
AcDbSymbolTableRecord
100
AcDbLayerTableRecord
  2
20_DATUM_KINEMATIC_SCHEME
 70
0
 62
7
  6
CONTINUOUS
370
-3
390
F
  0
ENDTAB
  0
TABLE
  2
STYLE
  5
3
100
AcDbSymbolTable
 70
1
  0
STYLE
  5
11
100
AcDbSymbolTableRecord
100
AcDbTextStyleTableRecord
  2
STANDARD
 70
0
 40
0.0
 41
1.0
 50
0.0
 71
0
 42
0.2
  3
ARIAL.TTF
  4

  0
STYLE
  5
20E
100
AcDbSymbolTableRecord
100
AcDbTextStyleTableRecord
  2
TEXTSTYLE_1
 70
0
 40
0.0
 41
0.8
 50
0.0
 71
0
 42
0.2
  3
gdt
  4

  0
ENDTAB
  0
TABLE
  2
VIEW
  5
6
100
AcDbSymbolTable
 70
0
  0
ENDTAB
  0
TABLE
  2
UCS
  5
7
100
AcDbSymbolTable
 70
0
  0
ENDTAB
  0
TABLE
  2
APPID
  5
9
100
AcDbSymbolTable
 70
1
  0
APPID
  5
20F
100
AcDbSymbolTableRecord
100
AcDbRegAppTableRecord
  2
ACAD
 70
0
  0
ENDTAB
  0
TABLE
  2
BLOCK_RECORD
  5
1
100
AcDbSymbolTable
 70
0
  0
BLOCK_RECORD
  5
210
100
AcDbSymbolTableRecord
100
AcDbBlockTableRecord
  2
*Model_Space
  0
BLOCK_RECORD
  5
211
100
AcDbSymbolTableRecord
100
AcDbBlockTableRecord
  2
*Paper_Space
  0
BLOCK_RECORD
  5
212
100
AcDbSymbolTableRecord
100
AcDbBlockTableRecord
  2
_FILLED
  0
ENDTAB
  0
TABLE
  2
DIMSTYLE
  5
A
100
AcDbSymbolTable
 70
1
100
AcDbDimStyleTable
 71
0
  0
DIMSTYLE
105
213
100
AcDbSymbolTableRecord
100
AcDbDimStyleTableRecord
  2
STANDARD
 70
0
  3

  4

 40
1.0
 41
1.5464222693
 42
1.0
 43
0.38
 44
1.0
 45
0.0
 46
0.0
 47
0.01
 48
0.01
140
2.1649911771
141
0.09
142
0.0
143
25.4
144
1.0
145
0.0
146
1.0
147
0.625
 71
1
 72
0
 73
0
 74
0
 75
0
 76
0
 77
1
 78
8
 79
2
170
0
171
1
172
0
173
0
174
0
175
0
176
0
177
0
178
0
270
2
179
2
271
2
272
2
273
2
274
2
275
0
280
0
281
0
282
0
283
1
284
8
285
0
286
0
287
3
288
0
340
11
278
46
341
212
342
212
343
212
344
212
  0
ENDTAB
  0
ENDSEC
  0
SECTION
  2
BLOCKS
  0
BLOCK
  5
20
100
AcDbEntity
  8
0
100
AcDbBlockBegin
  2
*Model_Space
 70
0
 10
0.0
 20
0.0
 30
0.0
  3
*Model_Space
  1

  0
ENDBLK
  5
21
100
AcDbEntity
  8
0
100
AcDbBlockEnd
  0
BLOCK
  5
1C
100
AcDbEntity
  8
0
100
AcDbBlockBegin
  2
*Paper_Space
 70
0
 10
0.0
 20
0.0
 30
0.0
  3
*Paper_Space
  1

  0
ENDBLK
  5
1D
100
AcDbEntity
  8
0
100
AcDbBlockEnd
  0
BLOCK
  5
214
100
AcDbEntity
  8
0
100
AcDbBlockBegin
  2
_FILLED
 70
64
 10
0.0
 20
0.0
  3
_FILLED
  1

  0
SOLID
  5
215
100
AcDbEntity
  8
0
  6
BYBLOCK
 62
0
100
AcDbTrace
 10
0.0
 20
0.0
 11
-1.0
 21
0.25
 12
-1.0
 22
-0.25
 13
-1.0
 23
-0.25
  0
ENDBLK
  5
216
100
AcDbEntity
  8
0
  6
BYBLOCK
 62
0
100
AcDbBlockEnd
  0
ENDSEC
  0
SECTION
  2
ENTITIES
  0
LINE
  5
217
100
AcDbEntity
  8
0
100
AcDbLine
 62
7
  6
BYLAYER
 10
15.142173953
 20
108.0823484603
 11
15.142173953
 21
77.5823481176
  0
LINE
  5
218
100
AcDbEntity
  8
0
100
AcDbLine
 62
7
  6
BYLAYER
 10
20.4658278268
 20
103.559157872
 11
19.6705191731
 21
99.0487383632
  0
LINE
  5
219
100
AcDbEntity
  8
0
100
AcDbLine
 62
7
  6
BYLAYER
 10
19.7880191731
 20
85.782657872
 11
20.5833278268
 21
81.2722383632
  0
LINE
  5
21A
100
AcDbEntity
  8
0
100
AcDbLine
 62
7
  6
BYLAYER
 10
21.9930665513
 20
79.6448101733
 11
21.85414824
 21
78.8569638852
  0
LINE
  5
21B
100
AcDbEntity
  8
0
100
AcDbLine
 62
7
  6
BYLAYER
 10
22.4956804823
 20
81.0793258596
 11
22.2352081846
 21
79.6021141458
  0
LINE
  5
21C
100
AcDbEntity
  8
0
100
AcDbLine
 62
7
  6
BYLAYER
 10
23.9642048191
 20
80.7696126747
 11
24.0858802508
 21
80.5958446461
  0
LINE
  5
21D
100
AcDbEntity
  8
0
100
AcDbLine
 62
7
  6
BYLAYER
 10
24.7302814866
 20
77.6278292496
 11
25.1429121036
 21
76.0878898354
  0
LINE
  5
21E
100
AcDbEntity
  8
0
100
AcDbLine
 62
7
  6
BYLAYER
 10
25.4669950117
 20
107.9708830296
 11
25.4669950117
 21
108.0823484603
  0
LINE
  5
21F
100
AcDbEntity
  8
0
100
AcDbLine
 62
7
  6
BYLAYER
 10
23.0782433048
 20
80.9766043545
 11
22.740191823
 21
79.0053583977
  0
LINE
  5
220
100
AcDbEntity
  8
0
100
AcDbLine
 62
7
  6
BYLAYER
 10
23.9642048191
 20
80.7696126747
 11
23.9207963136
 21
80.5234111633
  0
LINE
  5
221
100
AcDbEntity
  8
0
100
AcDbLine
 62
7
  6
BYLAYER
 10
24.1379747104
 20
80.8912871751
 11
24.0858802508
 21
80.5958446461
  0
LINE
  5
222
100
AcDbEntity
  8
0
100
AcDbLine
 62
7
  6
BYLAYER
 10
24.1235876393
 20
80.2337967205
 11
23.871795268
 21
78.8058258939
  0
LINE
  5
223
100
AcDbEntity
  8
0
100
AcDbLine
 62
7
  6
BYLAYER
 10
25.0214496564
 20
80.4308785472
 11
24.6567884397
 21
78.3627827066
  0
LINE
  5
224
100
AcDbEntity
  8
0
100
AcDbLine
 62
7
  6
BYLAYER
 10
24.8537519883
 20
78.3280527565
 11
24.7302814866
 21
77.6278292496
  0
LINE
  5
225
100
AcDbEntity
  8
0
100
AcDbLine
 62
7
  6
BYLAYER
 10
24.630383582
 20
80.8044627655
 11
24.8737269949
 21
80.4569257769
  0
LINE
  5
226
100
AcDbEntity
  8
0
100
AcDbLine
 62
7
  6
BYLAYER
 10
34.9421705555
 20
80.0470468125
 11
34.9421705555
 21
84.4257261304
  0
LINE
  5
227
100
AcDbEntity
  8
0
100
AcDbLine
 62
7
  6
BYLAYER
 10
36.3421750588
 20
108.0823484603
 11
36.3421748039
 21
104.3823471583
  0
LINE
  5
228
100
AcDbEntity
  8
0
100
AcDbLine
 62
7
  6
BYLAYER
 10
36.4421731602
 20
104.3823472795
 11
36.4421731602
 21
107.6823472771
  0
LINE
  5
229
100
AcDbEntity
  8
0
100
AcDbLine
 62
7
  6
BYLAYER
 10
19.2633881044
 20
76.0823469404
 11
15.142173953
 21
77.5823481176
  0
LINE
  5
22A
100
AcDbEntity
  8
0
100
AcDbLine
 62
7
  6
BYLAYER
 10
38.7421748411
 20
87.8823491198
 11
38.7421748411
 21
77.582348321
  0
LINE
  5
22B
100
AcDbEntity
  8
0
100
AcDbLine
 62
7
  6
BYLAYER
 10
41.0564332079
 20
107.4246698785
 11
42.8633889925
 21
108.0823484603
  0
LINE
  5
22C
100
AcDbEntity
  8
0
100
AcDbLine
 62
7
  6
BYLAYER
 10
102.7198542785
 20
75.0279364127
 11
101.7359147724
 21
74.8493627596
  0
LINE
  5
22D
100
AcDbEntity
  8
0
100
AcDbLine
 62
7
  6
BYLAYER
 10
101.7359147724
 20
74.8493627596
 11
98.7421735181
 21
74.3565704976
  0
LINE
  5
22E
100
AcDbEntity
  8
0
100
AcDbLine
 62
7
  6
BYLAYER
 10
92.7421739135
 20
73.3689255657
 11
88.3621735
 21
72.6479446499
  0
LINE
  5
22F
100
AcDbEntity
  8
0
100
AcDbLine
 62
7
  6
BYLAYER
 10
83.9737771954
 20
71.9255817074
 11
85.5291319294
 21
72.181604761
  0
LINE
  5
230
100
AcDbEntity
  8
0
100
AcDbLine
 62
7
  6
BYLAYER
 10
92.7421739135
 20
73.3689255657
 11
98.7421735181
 21
74.3565704976
  0
LINE
  5
231
100
AcDbEntity
  8
0
100
AcDbLine
 62
7
  6
BYLAYER
 10
83.9213116504
 20
70.9709919148
 11
81.912596425
 21
70.7952522624
  0
LINE
  5
232
100
AcDbEntity
  8
0
100
AcDbLine
 62
7
  6
BYLAYER
 10
108.8321735
 20
67.3323481176
 11
116.6221734623
 21
67.3323481176
  0
LINE
  5
233
100
AcDbEntity
  8
0
100
AcDbLine
 62
7
  6
BYLAYER
 10
108.8321735
 20
67.4423481176
 11
105.382173456
 21
67.4423481176
  0
LINE
  5
234
100
AcDbEntity
  8
0
100
AcDbLine
 62
7
  6
BYLAYER
 10
108.8321735
 20
68.0112282943
 11
116.6221734623
 21
68.0112282943
  0
LINE
  5
235
100
AcDbEntity
  8
0
100
AcDbLine
 62
7
  6
BYLAYER
 10
105.382173456
 20
68.2702923709
 11
108.8321735
 21
68.2702923709
  0
LINE
  5
236
100
AcDbEntity
  8
0
100
AcDbLine
 62
7
  6
BYLAYER
 10
98.7421735231
 20
68.7823481652
 11
92.7421739135
 21
68.7823481652
  0
LINE
  5
237
100
AcDbEntity
  8
0
100
AcDbLine
 62
7
  6
BYLAYER
 10
109.3221735
 20
68.8781116225
 11
116.6221734786
 21
68.8781116225
  0
LINE
  5
238
100
AcDbEntity
  8
0
100
AcDbLine
 62
7
  6
BYLAYER
 10
109.3221735
 20
69.3876437029
 11
116.6221734836
 21
69.3876437029
  0
LINE
  5
239
100
AcDbEntity
  8
0
100
AcDbLine
 62
7
  6
BYLAYER
 10
109.3221735
 20
69.5486110661
 11
116.6221734786
 21
69.5486110661
  0
LINE
  5
23A
100
AcDbEntity
  8
0
100
AcDbLine
 62
7
  6
BYLAYER
 10
109.3221735
 20
69.5526741616
 11
116.6221734965
 21
69.5526741616
  0
LINE
  5
23B
100
AcDbEntity
  8
0
100
AcDbLine
 62
7
  6
BYLAYER
 10
42.8633889925
 20
76.0823469404
 11
38.742174493
 21
77.582348321
  0
LINE
  5
23C
100
AcDbEntity
  8
0
100
AcDbLine
 62
7
  6
BYLAYER
 10
45.5930665513
 20
79.6448101733
 11
45.45414824
 21
78.8569638852
  0
LINE
  5
23D
100
AcDbEntity
  8
0
100
AcDbLine
 62
7
  6
BYLAYER
 10
82.9728530979
 20
76.3499676606
 11
81.0251717222
 21
75.8280878459
  0
LINE
  5
23E
100
AcDbEntity
  8
0
100
AcDbLine
 62
7
  6
BYLAYER
 10
101.039585146
 20
78.7984443101
 11
98.7421735145
 21
78.3663158256
  0
LINE
  5
23F
100
AcDbEntity
  8
0
100
AcDbLine
 62
7
  6
BYLAYER
 10
92.7421739135
 20
77.2377541438
 11
89.2421739219
 21
76.5794264538
  0
LINE
  5
240
100
AcDbEntity
  8
0
100
AcDbLine
 62
7
  6
BYLAYER
 10
83.6024947801
 20
75.5186387537
 11
83.348643521
 21
75.4708909499
  0
LINE
  5
241
100
AcDbEntity
  8
0
100
AcDbLine
 62
7
  6
BYLAYER
 10
88.3621735
 20
76.4139039834
 11
89.2421739219
 21
76.5794264538
  0
LINE
  5
242
100
AcDbEntity
  8
0
100
AcDbLine
 62
7
  6
BYLAYER
 10
92.7421739135
 20
77.2377541438
 11
98.7421735145
 21
78.3663158256
  0
LINE
  5
243
100
AcDbEntity
  8
0
100
AcDbLine
 62
7
  6
BYLAYER
 10
102.0252616256
 20
78.967167097
 11
101.039585146
 21
78.7984443101
  0
LINE
  5
244
100
AcDbEntity
  8
0
100
AcDbLine
 62
7
  6
BYLAYER
 10
109.3221735
 20
70.048049489
 11
116.6221734836
 21
70.048049489
  0
LINE
  5
245
100
AcDbEntity
  8
0
100
AcDbLine
 62
7
  6
BYLAYER
 10
109.3221735
 20
70.0524434689
 11
116.6221734997
 21
70.0524434689
  0
LINE
  5
246
100
AcDbEntity
  8
0
100
AcDbLine
 62
7
  6
BYLAYER
 10
108.8321735
 20
70.0968172636
 11
105.382173456
 21
70.0968172636
  0
LINE
  5
247
100
AcDbEntity
  8
0
100
AcDbLine
 62
7
  6
BYLAYER
 10
98.7421735
 20
71.2923480609
 11
92.7421739135
 21
71.2923480609
  0
LINE
  5
248
100
AcDbEntity
  8
0
100
AcDbLine
 62
7
  6
BYLAYER
 10
88.3621735
 20
71.5339934206
 11
85.9030304481
 21
71.5339934206
  0
LINE
  5
249
100
AcDbEntity
  8
0
100
AcDbLine
 62
7
  6
BYLAYER
 10
85.6251631465
 20
72.0152737859
 11
88.3621735
 21
72.0152737859
  0
LINE
  5
24A
100
AcDbEntity
  8
0
100
AcDbLine
 62
7
  6
BYLAYER
 10
109.3221735
 20
72.9219824318
 11
116.6221734964
 21
72.9219824318
  0
LINE
  5
24B
100
AcDbEntity
  8
0
100
AcDbLine
 62
7
  6
BYLAYER
 10
88.3621735
 20
72.9700129676
 11
89.2421739219
 21
72.9700129676
  0
LINE
  5
24C
100
AcDbEntity
  8
0
100
AcDbLine
 62
7
  6
BYLAYER
 10
116.6221734997
 20
72.9726258907
 11
109.3221735
 21
72.9726258907
  0
LINE
  5
24D
100
AcDbEntity
  8
0
100
AcDbLine
 62
7
  6
BYLAYER
 10
22.0962846588
 20
78.814268333
 11
21.85414824
 21
78.8569638852
  0
LINE
  5
24E
100
AcDbEntity
  8
0
100
AcDbLine
 62
7
  6
BYLAYER
 10
24.8537519883
 20
78.3280527565
 11
24.6567884397
 21
78.3627827066
  0
LINE
  5
24F
100
AcDbEntity
  8
0
100
AcDbLine
 62
7
  6
BYLAYER
 10
23.871795268
 20
78.8058258939
 11
22.740191823
 21
79.0053583977
  0
LINE
  5
250
100
AcDbEntity
  8
0
100
AcDbLine
 62
7
  6
BYLAYER
 10
22.2352081846
 20
79.6021141458
 11
21.9930665513
 21
79.6448101733
  0
LINE
  5
251
100
AcDbEntity
  8
0
100
AcDbLine
 62
7
  6
BYLAYER
 10
25.0214496564
 20
80.4308785472
 11
24.8737269949
 21
80.4569257769
  0
LINE
  5
252
100
AcDbEntity
  8
0
100
AcDbLine
 62
7
  6
BYLAYER
 10
47.5642048191
 20
80.7696126748
 11
47.6858802508
 21
80.5958446461
  0
LINE
  5
253
100
AcDbEntity
  8
0
100
AcDbLine
 62
7
  6
BYLAYER
 10
48.230383582
 20
80.8044627655
 11
48.4737269949
 21
80.4569257769
  0
LINE
  5
254
100
AcDbEntity
  8
0
100
AcDbLine
 62
7
  6
BYLAYER
 10
48.3302814866
 20
77.6278292497
 11
48.7429125537
 21
76.0878881554
  0
LINE
  5
255
100
AcDbEntity
  8
0
100
AcDbLine
 62
7
  6
BYLAYER
 10
49.0669950117
 20
107.9708830296
 11
49.0669950117
 21
108.0823484603
  0
LINE
  5
256
100
AcDbEntity
  8
0
100
AcDbLine
 62
7
  6
BYLAYER
 10
46.6782433048
 20
80.9766043545
 11
46.340191823
 21
79.0053583977
  0
LINE
  5
257
100
AcDbEntity
  8
0
100
AcDbLine
 62
7
  6
BYLAYER
 10
46.0956804823
 20
81.0793258596
 11
45.8352081846
 21
79.6021141458
  0
LINE
  5
258
100
AcDbEntity
  8
0
100
AcDbLine
 62
7
  6
BYLAYER
 10
47.5642048191
 20
80.7696126747
 11
47.5207963136
 21
80.5234111633
  0
LINE
  5
259
100
AcDbEntity
  8
0
100
AcDbLine
 62
7
  6
BYLAYER
 10
47.7379747104
 20
80.8912871751
 11
47.6858802508
 21
80.5958446461
  0
LINE
  5
25A
100
AcDbEntity
  8
0
100
AcDbLine
 62
7
  6
BYLAYER
 10
47.7235876393
 20
80.2337967211
 11
47.471795268
 21
78.8058258939
  0
LINE
  5
25B
100
AcDbEntity
  8
0
100
AcDbLine
 62
7
  6
BYLAYER
 10
48.6214496564
 20
80.4308785472
 11
48.2567884397
 21
78.3627827066
  0
LINE
  5
25C
100
AcDbEntity
  8
0
100
AcDbLine
 62
7
  6
BYLAYER
 10
48.4537519883
 20
78.3280527565
 11
48.3302814866
 21
77.6278292497
  0
LINE
  5
25D
100
AcDbEntity
  8
0
100
AcDbLine
 62
7
  6
BYLAYER
 10
22.2295226315
 20
78.2703122451
 11
21.3489690732
 21
77.582348359
  0
LINE
  5
25E
100
AcDbEntity
  8
0
100
AcDbLine
 62
7
  6
BYLAYER
 10
17.8421745013
 20
77.582348359
 11
16.9187187697
 21
76.9357378667
  0
LINE
  5
25F
100
AcDbEntity
  8
0
100
AcDbLine
 62
7
  6
BYLAYER
 10
64.656434096
 20
107.4246698785
 11
66.4633898806
 21
108.0823484603
  0
LINE
  5
260
100
AcDbEntity
  8
0
100
AcDbLine
 62
7
  6
BYLAYER
 10
116.5721735
 20
73.8823481176
 11
117.0907234038
 21
73.8823481176
  0
LINE
  5
261
100
AcDbEntity
  8
0
100
AcDbLine
 62
7
  6
BYLAYER
 10
89.2421739219
 20
74.0823479656
 11
84.4317375135
 21
74.0823479656
  0
LINE
  5
262
100
AcDbEntity
  8
0
100
AcDbLine
 62
7
  6
BYLAYER
 10
89.2421739219
 20
75.0823481295
 11
83.854387247
 21
75.0823481295
  0
LINE
  5
263
100
AcDbEntity
  8
0
100
AcDbLine
 62
7
  6
BYLAYER
 10
89.2421739219
 20
75.5823472801
 11
83.5657126514
 21
75.5823472801
  0
LINE
  5
264
100
AcDbEntity
  8
0
100
AcDbLine
 62
7
  6
BYLAYER
 10
72.3291965943
 20
76.0823469404
 11
66.4633898806
 21
76.0823469404
  0
LINE
  5
265
100
AcDbEntity
  8
0
100
AcDbLine
 62
7
  6
BYLAYER
 10
48.7291975688
 20
76.0823469404
 11
42.8633889925
 21
76.0823469404
  0
LINE
  5
266
100
AcDbEntity
  8
0
100
AcDbLine
 62
7
  6
BYLAYER
 10
25.1291929554
 20
76.0823469404
 11
19.2633881044
 21
76.0823469404
  0
LINE
  5
267
100
AcDbEntity
  8
0
100
AcDbLine
 62
7
  6
BYLAYER
 10
23.0782433048
 20
80.9766043545
 11
22.4956804823
 21
81.0793258596
  0
LINE
  5
268
100
AcDbEntity
  8
0
100
AcDbLine
 62
7
  6
BYLAYER
 10
24.630383582
 20
80.8044627655
 11
24.1379747104
 21
80.8912871751
  0
LINE
  5
269
100
AcDbEntity
  8
0
100
AcDbLine
 62
7
  6
BYLAYER
 10
45.6962846588
 20
78.814268333
 11
45.45414824
 21
78.8569638852
  0
LINE
  5
26A
100
AcDbEntity
  8
0
100
AcDbLine
 62
7
  6
BYLAYER
 10
48.4537519883
 20
78.3280527565
 11
48.2567884397
 21
78.3627827066
  0
LINE
  5
26B
100
AcDbEntity
  8
0
100
AcDbLine
 62
7
  6
BYLAYER
 10
47.471795268
 20
78.8058258939
 11
46.340191823
 21
79.0053583977
  0
LINE
  5
26C
100
AcDbEntity
  8
0
100
AcDbLine
 62
7
  6
BYLAYER
 10
45.8352081846
 20
79.6021141458
 11
45.5930665513
 21
79.6448101733
  0
LINE
  5
26D
100
AcDbEntity
  8
0
100
AcDbLine
 62
7
  6
BYLAYER
 10
66.4633898806
 20
76.0823469404
 11
62.3421737845
 21
77.5823481785
  0
LINE
  5
26E
100
AcDbEntity
  8
0
100
AcDbLine
 62
7
  6
BYLAYER
 10
38.7421741301
 20
87.8823491198
 11
35.3265137884
 21
85.2137445092
  0
LINE
  5
26F
100
AcDbEntity
  8
0
100
AcDbLine
 62
7
  6
BYLAYER
 10
118.3552470421
 20
88.6064050086
 11
117.2882145241
 21
88.4123337785
  0
LINE
  5
270
100
AcDbEntity
  8
0
100
AcDbLine
 62
7
  6
BYLAYER
 10
17.8421745013
 20
77.582348359
 11
21.3489690732
 21
77.582348359
  0
LINE
  5
271
100
AcDbEntity
  8
0
100
AcDbLine
 62
7
  6
BYLAYER
 10
41.4421745013
 20
77.582348359
 11
44.9489690732
 21
77.582348359
  0
LINE
  5
272
100
AcDbEntity
  8
0
100
AcDbLine
 62
7
  6
BYLAYER
 10
65.0421745013
 20
77.582348359
 11
68.5489690732
 21
77.582348359
  0
LINE
  5
273
100
AcDbEntity
  8
0
100
AcDbLine
 62
7
  6
BYLAYER
 10
98.7421735
 20
77.7923484869
 11
92.7421739135
 21
77.7923484869
  0
LINE
  5
274
100
AcDbEntity
  8
0
100
AcDbLine
 62
7
  6
BYLAYER
 10
89.2421739219
 20
77.7923480562
 11
88.3621735
 21
77.7923480562
  0
LINE
  5
275
100
AcDbEntity
  8
0
100
AcDbLine
 62
7
  6
BYLAYER
 10
104.1321735
 20
78.5023481176
 11
105.382173456
 21
78.5023481176
  0
LINE
  5
276
100
AcDbEntity
  8
0
100
AcDbLine
 62
7
  6
BYLAYER
 10
92.7421739135
 20
79.0823478493
 11
98.7421735046
 21
79.0823478493
  0
LINE
  5
277
100
AcDbEntity
  8
0
100
AcDbLine
 62
7
  6
BYLAYER
 10
35.5245596539
 20
80.2823472563
 11
38.7421743252
 21
80.2823472563
  0
LINE
  5
278
100
AcDbEntity
  8
0
100
AcDbLine
 62
7
  6
BYLAYER
 10
59.124560542
 20
80.2823472563
 11
62.3421735265
 21
80.2823472563
  0
LINE
  5
279
100
AcDbEntity
  8
0
100
AcDbLine
 62
7
  6
BYLAYER
 10
98.9421735
 20
80.6923479253
 11
98.7421735
 21
80.6923479253
  0
LINE
  5
27A
100
AcDbEntity
  8
0
100
AcDbLine
 62
7
  6
BYLAYER
 10
92.7421739135
 20
80.6923479253
 11
89.2421739219
 21
80.6923479253
  0
LINE
  5
27B
100
AcDbEntity
  8
0
100
AcDbLine
 62
7
  6
BYLAYER
 10
98.7421735
 20
80.6923479253
 11
92.7421739135
 21
80.6923479253
  0
LINE
  5
27C
100
AcDbEntity
  8
0
100
AcDbLine
 62
7
  6
BYLAYER
 10
89.2421739219
 20
80.6923479253
 11
88.3621735
 21
80.6923479253
  0
LINE
  5
27D
100
AcDbEntity
  8
0
100
AcDbLine
 62
7
  6
BYLAYER
 10
48.6214496564
 20
80.4308785472
 11
48.4737269949
 21
80.4569257769
  0
LINE
  5
27E
100
AcDbEntity
  8
0
100
AcDbLine
 62
7
  6
BYLAYER
 10
46.6782433048
 20
80.9766043545
 11
46.0956804823
 21
81.0793258596
  0
LINE
  5
27F
100
AcDbEntity
  8
0
100
AcDbLine
 62
7
  6
BYLAYER
 10
48.230383582
 20
80.8044627655
 11
47.7379747104
 21
80.8912871751
  0
LINE
  5
280
100
AcDbEntity
  8
0
100
AcDbLine
 62
7
  6
BYLAYER
 10
72.0537519883
 20
78.3280527565
 11
71.8567884397
 21
78.3627827066
  0
LINE
  5
281
100
AcDbEntity
  8
0
100
AcDbLine
 62
7
  6
BYLAYER
 10
69.2962846588
 20
78.814268333
 11
69.05414824
 21
78.8569638852
  0
LINE
  5
282
100
AcDbEntity
  8
0
100
AcDbLine
 62
7
  6
BYLAYER
 10
71.071795268
 20
78.8058258939
 11
69.940191823
 21
79.0053583977
  0
LINE
  5
283
100
AcDbEntity
  8
0
100
AcDbLine
 62
7
  6
BYLAYER
 10
69.4352081846
 20
79.6021141458
 11
69.1930665513
 21
79.6448101733
  0
LINE
  5
284
100
AcDbEntity
  8
0
100
AcDbLine
 62
7
  6
BYLAYER
 10
58.5421705555
 20
80.0470463694
 11
58.5421705555
 21
84.4257261304
  0
LINE
  5
285
100
AcDbEntity
  8
0
100
AcDbLine
 62
7
  6
BYLAYER
 10
67.7833278268
 20
81.2722383632
 11
62.3421738665
 21
80.3128161138
  0
LINE
  5
286
100
AcDbEntity
  8
0
100
AcDbLine
 62
7
  6
BYLAYER
 10
102.4221729378
 20
81.2073484305
 11
104.1321735
 21
81.2073484305
  0
LINE
  5
287
100
AcDbEntity
  8
0
100
AcDbLine
 62
7
  6
BYLAYER
 10
98.7421735
 20
81.5923481176
 11
92.7421739135
 21
81.5923481176
  0
LINE
  5
288
100
AcDbEntity
  8
0
100
AcDbLine
 62
7
  6
BYLAYER
 10
89.2421739219
 20
81.5923482591
 11
88.3621735
 21
81.5923482591
  0
LINE
  5
289
100
AcDbEntity
  8
0
100
AcDbLine
 62
7
  6
BYLAYER
 10
98.9421735
 20
81.7469378726
 11
98.7421735
 21
81.7469378726
  0
LINE
  5
28A
100
AcDbEntity
  8
0
100
AcDbLine
 62
7
  6
BYLAYER
 10
92.7421739135
 20
81.7469378726
 11
89.2839941871
 21
81.7469378726
  0
LINE
  5
28B
100
AcDbEntity
  8
0
100
AcDbLine
 62
7
  6
BYLAYER
 10
98.7421735
 20
81.7469378726
 11
92.7421739135
 21
81.7469378726
  0
LINE
  5
28C
100
AcDbEntity
  8
0
100
AcDbLine
 62
7
  6
BYLAYER
 10
89.2839941871
 20
81.7469378726
 11
88.3621735
 21
81.7469378726
  0
LINE
  5
28D
100
AcDbEntity
  8
0
100
AcDbLine
 62
7
  6
BYLAYER
 10
98.9421735
 20
81.7923482587
 11
88.3621735
 21
81.7923482587
  0
LINE
  5
28E
100
AcDbEntity
  8
0
100
AcDbLine
 62
7
  6
BYLAYER
 10
98.9421735
 20
81.982348511
 11
102.122173472
 21
81.982348511
  0
LINE
  5
28F
100
AcDbEntity
  8
0
100
AcDbLine
 62
7
  6
BYLAYER
 10
98.7421735
 20
82.5923467419
 11
92.7421739135
 21
82.5923467419
  0
LINE
  5
290
100
AcDbEntity
  8
0
100
AcDbLine
 62
7
  6
BYLAYER
 10
88.3621735
 20
82.5923471396
 11
89.5668641708
 21
82.5923471396
  0
LINE
  5
291
100
AcDbEntity
  8
0
100
AcDbLine
 62
7
  6
BYLAYER
 10
116.5721735
 20
83.8823481239
 11
117.0907219276
 21
83.882348153
  0
LINE
  5
292
100
AcDbEntity
  8
0
100
AcDbLine
 62
7
  6
BYLAYER
 10
98.7421735
 20
84.0923477376
 11
92.7421739135
 21
84.0923477376
  0
LINE
  5
293
100
AcDbEntity
  8
0
100
AcDbLine
 62
7
  6
BYLAYER
 10
90.068757344
 20
84.0923477376
 11
88.3621735
 21
84.0923477376
  0
LINE
  5
294
100
AcDbEntity
  8
0
100
AcDbLine
 62
7
  6
BYLAYER
 10
90.068757344
 20
84.0923477376
 11
92.7421739135
 21
84.0923477376
  0
LINE
  5
295
100
AcDbEntity
  8
0
100
AcDbLine
 62
7
  6
BYLAYER
 10
98.7421735
 20
84.0923477376
 11
98.9421735
 21
84.0923477376
  0
LINE
  5
296
100
AcDbEntity
  8
0
100
AcDbLine
 62
7
  6
BYLAYER
 10
98.9421735
 20
84.8923489525
 11
98.7421735
 21
84.8923484824
  0
LINE
  5
297
100
AcDbEntity
  8
0
100
AcDbLine
 62
7
  6
BYLAYER
 10
92.7421739135
 20
84.8923481807
 11
90.3364337402
 21
84.8923481481
  0
LINE
  5
298
100
AcDbEntity
  8
0
100
AcDbLine
 62
7
  6
BYLAYER
 10
90.3364754372
 20
84.8923482412
 11
88.3621735
 21
84.8923482412
  0
LINE
  5
299
100
AcDbEntity
  8
0
100
AcDbLine
 62
7
  6
BYLAYER
 10
92.7421739135
 20
84.8923481807
 11
98.7421735
 21
84.8923485245
  0
LINE
  5
29A
100
AcDbEntity
  8
0
100
AcDbLine
 62
7
  6
BYLAYER
 10
72.2214496564
 20
80.4308785472
 11
72.0737269949
 21
80.4569257769
  0
LINE
  5
29B
100
AcDbEntity
  8
0
100
AcDbLine
 62
7
  6
BYLAYER
 10
70.2782433048
 20
80.9766043545
 11
69.6956804823
 21
81.0793258596
  0
LINE
  5
29C
100
AcDbEntity
  8
0
100
AcDbLine
 62
7
  6
BYLAYER
 10
71.830383582
 20
80.8044627655
 11
71.3379747104
 21
80.8912871751
  0
LINE
  5
29D
100
AcDbEntity
  8
0
100
AcDbLine
 62
7
  6
BYLAYER
 10
59.9421741761
 20
108.0823484603
 11
59.9421740959
 21
104.382347252
  0
LINE
  5
29E
100
AcDbEntity
  8
0
100
AcDbLine
 62
7
  6
BYLAYER
 10
60.0421740483
 20
104.3823472901
 11
60.0421740483
 21
107.6823472771
  0
LINE
  5
29F
100
AcDbEntity
  8
0
100
AcDbLine
 62
7
  6
BYLAYER
 10
62.3421738665
 20
107.6823472771
 11
62.3421738665
 21
77.5823481785
  0
LINE
  5
2A0
100
AcDbEntity
  8
0
100
AcDbLine
 62
7
  6
BYLAYER
 10
66.9880191731
 20
85.782657872
 11
62.3421738665
 21
84.9634699962
  0
LINE
  5
2A1
100
AcDbEntity
  8
0
100
AcDbLine
 62
7
  6
BYLAYER
 10
117.2881626597
 20
88.4123312335
 11
116.6230342518
 21
88.3940653217
  0
LINE
  5
2A2
100
AcDbEntity
  8
0
100
AcDbLine
 62
7
  6
BYLAYER
 10
108.8321735
 20
87.3006888145
 11
105.382173456
 21
87.3006888145
  0
LINE
  5
2A3
100
AcDbEntity
  8
0
100
AcDbLine
 62
7
  6
BYLAYER
 10
116.6221736698
 20
88.1440851146
 11
109.3221735
 21
88.1440851146
  0
LINE
  5
2A4
100
AcDbEntity
  8
0
100
AcDbLine
 62
7
  6
BYLAYER
 10
116.6221737436
 20
88.3573480686
 11
109.3221735
 21
88.3573480686
  0
LINE
  5
2A5
100
AcDbEntity
  8
0
100
AcDbLine
 62
7
  6
BYLAYER
 10
109.3221735
 20
88.3770506667
 11
116.6221736698
 21
88.3770506667
  0
LINE
  5
2A6
100
AcDbEntity
  8
0
100
AcDbLine
 62
7
  6
BYLAYER
 10
109.3221735
 20
88.6073481172
 11
118.3552485663
 21
88.6073481172
  0
LINE
  5
2A7
100
AcDbEntity
  8
0
100
AcDbLine
 62
7
  6
BYLAYER
 10
103.1546100106
 20
78.7601311901
 11
102.0252616256
 21
78.967167097
  0
LINE
  5
2A8
100
AcDbEntity
  8
0
100
AcDbLine
 62
7
  6
BYLAYER
 10
67.6658278268
 20
103.559157872
 11
66.8705191731
 21
99.0487383632
  0
LINE
  5
2A9
100
AcDbEntity
  8
0
100
AcDbLine
 62
7
  6
BYLAYER
 10
45.8295226315
 20
78.2703122451
 11
44.9489690732
 21
77.582348359
  0
LINE
  5
2AA
100
AcDbEntity
  8
0
100
AcDbLine
 62
7
  6
BYLAYER
 10
41.4421745013
 20
77.582348359
 11
40.5187190734
 21
76.9357380794
  0
LINE
  5
2AB
100
AcDbEntity
  8
0
100
AcDbLine
 62
7
  6
BYLAYER
 10
35.5245596539
 20
80.2823472563
 11
25.1291929554
 21
76.0823469404
  0
LINE
  5
2AC
100
AcDbEntity
  8
0
100
AcDbLine
 62
7
  6
BYLAYER
 10
20.5833278268
 20
81.2722383632
 11
15.142173953
 21
80.312816129
  0
LINE
  5
2AD
100
AcDbEntity
  8
0
100
AcDbLine
 62
7
  6
BYLAYER
 10
19.6705191731
 20
99.0487383632
 11
15.142173953
 21
99.8472078034
  0
LINE
  5
2AE
100
AcDbEntity
  8
0
100
AcDbLine
 62
7
  6
BYLAYER
 10
40.6101239166
 20
107.6823472771
 11
41.0564332079
 21
107.4246698785
  0
LINE
  5
2AF
100
AcDbEntity
  8
0
100
AcDbLine
 62
7
  6
BYLAYER
 10
71.2858802508
 20
80.5958446461
 11
71.1642048191
 21
80.7696126747
  0
LINE
  5
2B0
100
AcDbEntity
  8
0
100
AcDbLine
 62
7
  6
BYLAYER
 10
72.0737269949
 20
80.4569257769
 11
71.830383582
 21
80.8044627655
  0
LINE
  5
2B1
100
AcDbEntity
  8
0
100
AcDbLine
 62
7
  6
BYLAYER
 10
66.9880191731
 20
85.782657872
 11
67.7833278268
 21
81.2722383632
  0
LINE
  5
2B2
100
AcDbEntity
  8
0
100
AcDbLine
 62
7
  6
BYLAYER
 10
62.3421734472
 20
87.8823489801
 11
58.9265137885
 21
85.2137445093
  0
LINE
  5
2B3
100
AcDbEntity
  8
0
100
AcDbLine
 62
7
  6
BYLAYER
 10
19.7880191731
 20
85.782657872
 11
15.142173953
 21
84.9634700114
  0
LINE
  5
2B4
100
AcDbEntity
  8
0
100
AcDbLine
 62
7
  6
BYLAYER
 10
109.3221735
 20
95.5573481183
 11
118.3552485663
 21
95.5573481183
  0
LINE
  5
2B5
100
AcDbEntity
  8
0
100
AcDbLine
 62
7
  6
BYLAYER
 10
109.3221735
 20
95.7040575178
 11
116.625218847
 21
95.7040575178
  0
LINE
  5
2B6
100
AcDbEntity
  8
0
100
AcDbLine
 62
7
  6
BYLAYER
 10
116.6221736698
 20
95.7876455684
 11
109.3221735
 21
95.7876455684
  0
LINE
  5
2B7
100
AcDbEntity
  8
0
100
AcDbLine
 62
7
  6
BYLAYER
 10
109.3221735
 20
95.8032733071
 11
116.62217367
 21
95.8032733071
  0
LINE
  5
2B8
100
AcDbEntity
  8
0
100
AcDbLine
 62
7
  6
BYLAYER
 10
109.3221735
 20
95.8073481114
 11
116.62217367
 21
95.8073481114
  0
LINE
  5
2B9
100
AcDbEntity
  8
0
100
AcDbLine
 62
7
  6
BYLAYER
 10
116.6221736698
 20
96.0136484098
 11
109.3221735
 21
96.0136484098
  0
LINE
  5
2BA
100
AcDbEntity
  8
0
100
AcDbLine
 62
7
  6
BYLAYER
 10
109.3221735
 20
96.0206111206
 11
116.6221736698
 21
96.0206111206
  0
LINE
  5
2BB
100
AcDbEntity
  8
0
100
AcDbLine
 62
7
  6
BYLAYER
 10
109.3221735
 20
96.2125467257
 11
116.6221736641
 21
96.2134273033
  0
LINE
  5
2BC
100
AcDbEntity
  8
0
100
AcDbLine
 62
7
  6
BYLAYER
 10
20.4658278268
 20
103.559157872
 11
15.142173953
 21
104.4978616859
  0
LINE
  5
2BD
100
AcDbEntity
  8
0
100
AcDbLine
 62
7
  6
BYLAYER
 10
25.1291952588
 20
108.0823484603
 11
36.3421743594
 21
104.3823472075
  0
LINE
  5
2BE
100
AcDbEntity
  8
0
100
AcDbLine
 62
7
  6
BYLAYER
 10
71.9302814866
 20
77.6278292497
 11
72.3429124587
 21
76.08788851
  0
LINE
  5
2BF
100
AcDbEntity
  8
0
100
AcDbLine
 62
7
  6
BYLAYER
 10
72.6669950117
 20
107.9708830296
 11
72.6669950117
 21
108.0823484603
  0
LINE
  5
2C0
100
AcDbEntity
  8
0
100
AcDbLine
 62
7
  6
BYLAYER
 10
70.2782433048
 20
80.9766043545
 11
69.940191823
 21
79.0053583977
  0
LINE
  5
2C1
100
AcDbEntity
  8
0
100
AcDbLine
 62
7
  6
BYLAYER
 10
69.1930665513
 20
79.6448101733
 11
69.05414824
 21
78.8569638852
  0
LINE
  5
2C2
100
AcDbEntity
  8
0
100
AcDbLine
 62
7
  6
BYLAYER
 10
69.6956804823
 20
81.0793258596
 11
69.4352081846
 21
79.6021141458
  0
LINE
  5
2C3
100
AcDbEntity
  8
0
100
AcDbLine
 62
7
  6
BYLAYER
 10
71.1642048191
 20
80.7696126747
 11
71.1207963136
 21
80.5234111633
  0
LINE
  5
2C4
100
AcDbEntity
  8
0
100
AcDbLine
 62
7
  6
BYLAYER
 10
71.3379747104
 20
80.8912871751
 11
71.2858802508
 21
80.5958446461
  0
LINE
  5
2C5
100
AcDbEntity
  8
0
100
AcDbLine
 62
7
  6
BYLAYER
 10
71.3235876393
 20
80.2337967211
 11
71.071795268
 21
78.8058258939
  0
LINE
  5
2C6
100
AcDbEntity
  8
0
100
AcDbLine
 62
7
  6
BYLAYER
 10
72.2214496564
 20
80.4308785472
 11
71.8567884397
 21
78.3627827066
  0
LINE
  5
2C7
100
AcDbEntity
  8
0
100
AcDbLine
 62
7
  6
BYLAYER
 10
72.0537519883
 20
78.3280527565
 11
71.9302814866
 21
77.6278292497
  0
LINE
  5
2C8
100
AcDbEntity
  8
0
100
AcDbLine
 62
7
  6
BYLAYER
 10
59.124560542
 20
80.2823472563
 11
48.7291975688
 21
76.0823469404
  0
LINE
  5
2C9
100
AcDbEntity
  8
0
100
AcDbLine
 62
7
  6
BYLAYER
 10
117.2874796542
 20
95.7524877999
 11
116.6227982176
 21
95.7705848084
  0
LINE
  5
2CA
100
AcDbEntity
  8
0
100
AcDbLine
 62
7
  6
BYLAYER
 10
66.8705191731
 20
99.0487383632
 11
62.3421738665
 21
99.8472078187
  0
LINE
  5
2CB
100
AcDbEntity
  8
0
100
AcDbLine
 62
7
  6
BYLAYER
 10
85.9032870081
 20
71.5335490456
 11
82.9421742629
 21
76.6623476315
  0
LINE
  5
2CC
100
AcDbEntity
  8
0
100
AcDbLine
 62
7
  6
BYLAYER
 10
93.1621738519
 20
110.5823479387
 11
96.2421743038
 21
114.9823477003
  0
LINE
  5
2CD
100
AcDbEntity
  8
0
100
AcDbLine
 62
7
  6
BYLAYER
 10
65.0421745013
 20
77.582348359
 11
64.1187190147
 21
76.9357380383
  0
LINE
  5
2CE
100
AcDbEntity
  8
0
100
AcDbLine
 62
7
  6
BYLAYER
 10
116.5721735
 20
100.2823481176
 11
117.0821622043
 21
100.2823481176
  0
LINE
  5
2CF
100
AcDbEntity
  8
0
100
AcDbLine
 62
7
  6
BYLAYER
 10
92.6421735
 20
101.3702515324
 11
98.7421735
 21
101.3702515324
  0
LINE
  5
2D0
100
AcDbEntity
  8
0
100
AcDbLine
 62
7
  6
BYLAYER
 10
92.6421735
 20
101.382348122
 11
98.7421735
 21
101.3823479853
  0
LINE
  5
2D1
100
AcDbEntity
  8
0
100
AcDbLine
 62
7
  6
BYLAYER
 10
98.7421735
 20
101.3823479853
 11
98.9421735
 21
101.382346878
  0
LINE
  5
2D2
100
AcDbEntity
  8
0
100
AcDbLine
 62
7
  6
BYLAYER
 10
116.5721735
 20
101.7823481176
 11
116.9038882525
 21
101.7823481176
  0
LINE
  5
2D3
100
AcDbEntity
  8
0
100
AcDbLine
 62
7
  6
BYLAYER
 10
98.9421735
 20
102.0894548507
 11
98.7421735
 21
102.0894548502
  0
LINE
  5
2D4
100
AcDbEntity
  8
0
100
AcDbLine
 62
7
  6
BYLAYER
 10
98.7421735
 20
102.0894548502
 11
92.6421735
 21
102.0894548441
  0
LINE
  5
2D5
100
AcDbEntity
  8
0
100
AcDbLine
 62
7
  6
BYLAYER
 10
98.9421735
 20
102.1823477242
 11
102.122173472
 21
102.1823477242
  0
LINE
  5
2D6
100
AcDbEntity
  8
0
100
AcDbLine
 62
7
  6
BYLAYER
 10
102.4221729378
 20
102.9573478046
 11
104.1321735
 21
102.9573478046
  0
LINE
  5
2D7
100
AcDbEntity
  8
0
100
AcDbLine
 62
7
  6
BYLAYER
 10
98.9421735
 20
103.0438919333
 11
92.6421735
 21
103.0438921618
  0
LINE
  5
2D8
100
AcDbEntity
  8
0
100
AcDbLine
 62
7
  6
BYLAYER
 10
92.6421735
 20
103.0816131145
 11
98.7421735
 21
103.0816131145
  0
LINE
  5
2D9
100
AcDbEntity
  8
0
100
AcDbLine
 62
7
  6
BYLAYER
 10
92.6421735
 20
103.7474065772
 11
98.9421735
 21
103.7474065772
  0
LINE
  5
2DA
100
AcDbEntity
  8
0
100
AcDbLine
 62
7
  6
BYLAYER
 10
67.6658278268
 20
103.559157872
 11
62.3421738665
 21
104.4978617011
  0
LINE
  5
2DB
100
AcDbEntity
  8
0
100
AcDbLine
 62
7
  6
BYLAYER
 10
48.7291952588
 20
108.0823484603
 11
59.942173956
 21
104.3823472675
  0
LINE
  5
2DC
100
AcDbEntity
  8
0
100
AcDbLine
 62
7
  6
BYLAYER
 10
80.8073747428
 20
75.4862157094
 11
81.5910070536
 21
71.0420160322
  0
LINE
  5
2DD
100
AcDbEntity
  8
0
100
AcDbLine
 62
7
  6
BYLAYER
 10
81.0251717222
 20
75.8280878459
 11
81.912596425
 21
70.7952522624
  0
LINE
  5
2DE
100
AcDbEntity
  8
0
100
AcDbLine
 62
7
  6
BYLAYER
 10
69.4295226315
 20
78.2703122451
 11
68.5489690732
 21
77.582348359
  0
LINE
  5
2DF
100
AcDbEntity
  8
0
100
AcDbLine
 62
7
  6
BYLAYER
 10
83.5421737454
 20
104.3823472988
 11
83.6421740051
 21
104.3823472957
  0
LINE
  5
2E0
100
AcDbEntity
  8
0
100
AcDbLine
 62
7
  6
BYLAYER
 10
59.942173956
 20
104.3823472675
 11
60.0421740483
 21
104.3823472901
  0
LINE
  5
2E1
100
AcDbEntity
  8
0
100
AcDbLine
 62
7
  6
BYLAYER
 10
36.3421743594
 20
104.3823472075
 11
36.4421731602
 21
104.3823472795
  0
LINE
  5
2E2
100
AcDbEntity
  8
0
100
AcDbLine
 62
7
  6
BYLAYER
 10
92.6421735
 20
105.4215394687
 11
98.7421735
 21
105.4214136184
  0
LINE
  5
2E3
100
AcDbEntity
  8
0
100
AcDbLine
 62
7
  6
BYLAYER
 10
98.7421735
 20
105.4214136184
 11
98.9421735
 21
105.4214094921
  0
LINE
  5
2E4
100
AcDbEntity
  8
0
100
AcDbLine
 62
7
  6
BYLAYER
 10
104.1321735
 20
105.6623481176
 11
105.382173456
 21
105.6623481176
  0
LINE
  5
2E5
100
AcDbEntity
  8
0
100
AcDbLine
 62
7
  6
BYLAYER
 10
84.4421740431
 20
107.5323475319
 11
84.7421739992
 21
107.5323475319
  0
LINE
  5
2E6
100
AcDbEntity
  8
0
100
AcDbLine
 62
7
  6
BYLAYER
 10
64.2101238135
 20
107.6823472771
 11
60.0421740483
 21
107.6823472771
  0
LINE
  5
2E7
100
AcDbEntity
  8
0
100
AcDbLine
 62
7
  6
BYLAYER
 10
40.6101239166
 20
107.6823472771
 11
36.4421731602
 21
107.6823472771
  0
LINE
  5
2E8
100
AcDbEntity
  8
0
100
AcDbLine
 62
7
  6
BYLAYER
 10
83.6421740051
 20
107.6823472771
 11
84.4421740431
 21
107.6823472771
  0
LINE
  5
2E9
100
AcDbEntity
  8
0
100
AcDbLine
 62
7
  6
BYLAYER
 10
84.7421739992
 20
107.6823472771
 11
85.9421738233
 21
107.6823472771
  0
LINE
  5
2EA
100
AcDbEntity
  8
0
100
AcDbLine
 62
7
  6
BYLAYER
 10
118.3552485663
 20
95.5583627237
 11
117.2875039932
 21
95.7524871429
  0
LINE
  5
2EB
100
AcDbEntity
  8
0
100
AcDbLine
 62
7
  6
BYLAYER
 10
64.2101238135
 20
107.6823472771
 11
64.656434096
 21
107.4246698785
  0
LINE
  5
2EC
100
AcDbEntity
  8
0
100
AcDbLine
 62
7
  6
BYLAYER
 10
83.9213116504
 20
70.9709919148
 11
82.9728530979
 21
76.3499676606
  0
LINE
  5
2ED
100
AcDbEntity
  8
0
100
AcDbLine
 62
7
  6
BYLAYER
 10
84.1008421561
 20
71.2049605059
 11
83.2249058513
 21
76.1726421465
  0
LINE
  5
2EE
100
AcDbEntity
  8
0
100
AcDbLine
 62
7
  6
BYLAYER
 10
82.9421742629
 20
76.6623476315
 11
82.9421742629
 21
80.3702687639
  0
LINE
  5
2EF
100
AcDbEntity
  8
0
100
AcDbLine
 62
7
  6
BYLAYER
 10
83.5421737151
 20
108.0823484603
 11
83.5421737262
 21
104.3823473009
  0
LINE
  5
2F0
100
AcDbEntity
  8
0
100
AcDbLine
 62
7
  6
BYLAYER
 10
83.6421740051
 20
104.3823472957
 11
83.6421740051
 21
107.6823472771
  0
LINE
  5
2F1
100
AcDbEntity
  8
0
100
AcDbLine
 62
7
  6
BYLAYER
 10
84.4421740431
 20
107.6823472771
 11
84.4421740431
 21
107.5323475319
  0
LINE
  5
2F2
100
AcDbEntity
  8
0
100
AcDbLine
 62
7
  6
BYLAYER
 10
84.7421739992
 20
107.5323475319
 11
84.7421739992
 21
107.6823472771
  0
LINE
  5
2F3
100
AcDbEntity
  8
0
100
AcDbLine
 62
7
  6
BYLAYER
 10
85.9421738233
 20
107.6823472771
 11
85.9421738233
 21
110.5823479708
  0
LINE
  5
2F4
100
AcDbEntity
  8
0
100
AcDbLine
 62
7
  6
BYLAYER
 10
82.9421742629
 20
80.3702687639
 11
72.3291965943
 21
76.0823469404
  0
LINE
  5
2F5
100
AcDbEntity
  8
0
100
AcDbLine
 62
7
  6
BYLAYER
 10
36.3421750588
 20
108.0823484603
 11
15.142173953
 21
108.0823484603
  0
LINE
  5
2F6
100
AcDbEntity
  8
0
100
AcDbLine
 62
7
  6
BYLAYER
 10
42.8633889925
 20
108.0823484603
 11
59.9421741761
 21
108.0823484603
  0
LINE
  5
2F7
100
AcDbEntity
  8
0
100
AcDbLine
 62
7
  6
BYLAYER
 10
66.4633898806
 20
108.0823484603
 11
83.5421737151
 21
108.0823484603
  0
LINE
  5
2F8
100
AcDbEntity
  8
0
100
AcDbLine
 62
7
  6
BYLAYER
 10
98.7421735
 20
108.6323356362
 11
98.9421735
 21
108.6323374455
  0
LINE
  5
2F9
100
AcDbEntity
  8
0
100
AcDbLine
 62
7
  6
BYLAYER
 10
85.9421738233
 20
108.6323481176
 11
93.1221735
 21
108.6323482648
  0
LINE
  5
2FA
100
AcDbEntity
  8
0
100
AcDbLine
 62
7
  6
BYLAYER
 10
93.1221735
 20
108.6323482648
 11
98.7421735
 21
108.6323356362
  0
LINE
  5
2FB
100
AcDbEntity
  8
0
100
AcDbLine
 62
7
  6
BYLAYER
 10
116.5721735
 20
108.7823481176
 11
116.903888252
 21
108.7823481176
  0
LINE
  5
2FC
100
AcDbEntity
  8
0
100
AcDbLine
 62
7
  6
BYLAYER
 10
85.9421738233
 20
108.8502969835
 11
90.8221735
 21
108.8502969835
  0
LINE
  5
2FD
100
AcDbEntity
  8
0
100
AcDbLine
 62
7
  6
BYLAYER
 10
90.8221735
 20
108.8502969835
 11
92.6421735
 21
108.8502969835
  0
LINE
  5
2FE
100
AcDbEntity
  8
0
100
AcDbLine
 62
7
  6
BYLAYER
 10
116.5721735
 20
110.2823481176
 11
117.0821622043
 21
110.2823481176
  0
LINE
  5
2FF
100
AcDbEntity
  8
0
100
AcDbLine
 62
7
  6
BYLAYER
 10
93.1621738519
 20
110.5823479387
 11
92.6421735
 21
110.5823479387
  0
LINE
  5
300
100
AcDbEntity
  8
0
100
AcDbLine
 62
7
  6
BYLAYER
 10
90.8221735
 20
110.5823479387
 11
85.9421738233
 21
110.5823479387
  0
LINE
  5
301
100
AcDbEntity
  8
0
100
AcDbLine
 62
7
  6
BYLAYER
 10
92.6421735
 20
110.5823479387
 11
90.8221735
 21
110.5823479387
  0
LINE
  5
302
100
AcDbEntity
  8
0
100
AcDbLine
 62
7
  6
BYLAYER
 10
90.8221735
 20
110.9135593294
 11
92.6421735
 21
110.9135593294
  0
LINE
  5
303
100
AcDbEntity
  8
0
100
AcDbLine
 62
7
  6
BYLAYER
 10
90.8221735
 20
111.1327308258
 11
92.6421735
 21
111.1327308258
  0
LINE
  5
304
100
AcDbEntity
  8
0
100
AcDbLine
 62
7
  6
BYLAYER
 10
116.6221734997
 20
111.1920703444
 11
109.3221735
 21
111.1920703444
  0
LINE
  5
305
100
AcDbEntity
  8
0
100
AcDbLine
 62
7
  6
BYLAYER
 10
116.6221734963
 20
111.2427139572
 11
109.3221735
 21
111.2427139572
  0
LINE
  5
306
100
AcDbEntity
  8
0
100
AcDbLine
 62
7
  6
BYLAYER
 10
72.3291952588
 20
108.0823484603
 11
83.5421737454
 21
104.3823472988
  0
LINE
  5
307
100
AcDbEntity
  8
0
100
AcDbLine
 62
7
  6
BYLAYER
 10
104.3421735
 20
77.3448481176
 11
103.1546100106
 21
78.7601311901
  0
LINE
  5
308
100
AcDbEntity
  8
0
100
AcDbLine
 62
7
  6
BYLAYER
 10
88.3621735
 20
71.5340038725
 11
88.3621735
 21
72.9700129676
  0
LINE
  5
309
100
AcDbEntity
  8
0
100
AcDbLine
 62
7
  6
BYLAYER
 10
88.3621735
 20
72.9700129676
 11
88.3621735
 21
84.8923711855
  0
LINE
  5
30A
100
AcDbEntity
  8
0
100
AcDbLine
 62
7
  6
BYLAYER
 10
89.2421739219
 20
72.9700129676
 11
89.2421739219
 21
81.6219502739
  0
LINE
  5
30B
100
AcDbEntity
  8
0
100
AcDbLine
 62
7
  6
BYLAYER
 10
92.6421735
 20
112.1031886029
 11
92.3421738945
 21
112.1031886029
  0
LINE
  5
30C
100
AcDbEntity
  8
0
100
AcDbLine
 62
7
  6
BYLAYER
 10
90.8421738814
 20
112.1031886029
 11
90.8221735
 21
112.1031886029
  0
LINE
  5
30D
100
AcDbEntity
  8
0
100
AcDbLine
 62
7
  6
BYLAYER
 10
92.3421738945
 20
112.3888595513
 11
90.8421738814
 21
112.3888595513
  0
LINE
  5
30E
100
AcDbEntity
  8
0
100
AcDbLine
 62
7
  6
BYLAYER
 10
92.3421738945
 20
113.119559972
 11
90.8421738814
 21
113.119559972
  0
LINE
  5
30F
100
AcDbEntity
  8
0
100
AcDbLine
 62
7
  6
BYLAYER
 10
92.3421738945
 20
113.3823473248
 11
90.8421738814
 21
113.3823473248
  0
LINE
  5
310
100
AcDbEntity
  8
0
100
AcDbLine
 62
7
  6
BYLAYER
 10
105.382173456
 20
113.8681422862
 11
108.8321735
 21
113.8681422862
  0
LINE
  5
311
100
AcDbEntity
  8
0
100
AcDbLine
 62
7
  6
BYLAYER
 10
105.382173456
 20
114.0015137151
 11
108.8321735
 21
114.0015137151
  0
LINE
  5
312
100
AcDbEntity
  8
0
100
AcDbLine
 62
7
  6
BYLAYER
 10
116.6221734997
 20
114.1122527662
 11
109.3221735
 21
114.1122527662
  0
LINE
  5
313
100
AcDbEntity
  8
0
100
AcDbLine
 62
7
  6
BYLAYER
 10
116.6221734836
 20
114.1166467461
 11
109.3221735
 21
114.1166467461
  0
LINE
  5
314
100
AcDbEntity
  8
0
100
AcDbLine
 62
7
  6
BYLAYER
 10
109.3221735
 20
114.6117086985
 11
116.6221734963
 21
114.6117086985
  0
LINE
  5
315
100
AcDbEntity
  8
0
100
AcDbLine
 62
7
  6
BYLAYER
 10
109.3221735
 20
114.6213925733
 11
116.6221734786
 21
114.6213925733
  0
LINE
  5
316
100
AcDbEntity
  8
0
100
AcDbLine
 62
7
  6
BYLAYER
 10
116.622173482
 20
114.7770525322
 11
109.3221735
 21
114.7770525322
  0
LINE
  5
317
100
AcDbEntity
  8
0
100
AcDbLine
 62
7
  6
BYLAYER
 10
98.7421735006
 20
114.9823477003
 11
96.2421743038
 21
114.9823477003
  0
LINE
  5
318
100
AcDbEntity
  8
0
100
AcDbLine
 62
7
  6
BYLAYER
 10
92.3421738945
 20
115.082347745
 11
90.8421738814
 21
115.082347745
  0
LINE
  5
319
100
AcDbEntity
  8
0
100
AcDbLine
 62
7
  6
BYLAYER
 10
109.3221735
 20
115.2853560756
 11
116.6221734769
 21
115.2853560756
  0
LINE
  5
31A
100
AcDbEntity
  8
0
100
AcDbLine
 62
7
  6
BYLAYER
 10
90.8221735
 20
112.1031886029
 11
90.8221735
 21
108.6322234184
  0
LINE
  5
31B
100
AcDbEntity
  8
0
100
AcDbLine
 62
7
  6
BYLAYER
 10
90.8221735
 20
108.6322234184
 11
90.8221735
 21
108.6323267855
  0
LINE
  5
31C
100
AcDbEntity
  8
0
100
AcDbLine
 62
7
  6
BYLAYER
 10
90.8421738814
 20
112.1031886029
 11
90.8421738814
 21
115.082347745
  0
LINE
  5
31D
100
AcDbEntity
  8
0
100
AcDbLine
 62
7
  6
BYLAYER
 10
92.3421738945
 20
112.1031886029
 11
92.3421738945
 21
115.082347745
  0
LINE
  5
31E
100
AcDbEntity
  8
0
100
AcDbLine
 62
7
  6
BYLAYER
 10
92.6421735
 20
91.7834779659
 11
92.6421735
 21
112.1031886029
  0
LINE
  5
31F
100
AcDbEntity
  8
0
100
AcDbLine
 62
7
  6
BYLAYER
 10
92.7421739135
 20
68.7823481652
 11
92.7421739135
 21
92.0823477003
  0
LINE
  5
320
100
AcDbEntity
  8
0
100
AcDbLine
 62
7
  6
BYLAYER
 10
93.1221735
 20
110.5823479387
 11
93.1221735
 21
108.6323482648
  0
LINE
  5
321
100
AcDbEntity
  8
0
100
AcDbLine
 62
7
  6
BYLAYER
 10
92.7421739135
 20
92.0823477003
 11
89.2421739219
 21
81.6219502739
  0
LINE
  5
322
100
AcDbEntity
  8
0
100
AcDbLine
 62
7
  6
BYLAYER
 10
108.8321735
 20
115.9144038642
 11
105.382173456
 21
115.9144038642
  0
LINE
  5
323
100
AcDbEntity
  8
0
100
AcDbLine
 62
7
  6
BYLAYER
 10
116.6221734623
 20
116.1534679339
 11
108.8321735
 21
116.1534679339
  0
LINE
  5
324
100
AcDbEntity
  8
0
100
AcDbLine
 62
7
  6
BYLAYER
 10
105.382173456
 20
116.7323481533
 11
108.8321735
 21
116.7323481533
  0
LINE
  5
325
100
AcDbEntity
  8
0
100
AcDbLine
 62
7
  6
BYLAYER
 10
108.8321735
 20
116.832348117
 11
116.6221734616
 21
116.832348117
  0
LINE
  5
326
100
AcDbEntity
  8
0
100
AcDbLine
 62
7
  6
BYLAYER
 10
98.7421735231
 20
68.7823481652
 11
98.7421735
 21
114.9823477003
  0
LINE
  5
327
100
AcDbEntity
  8
0
100
AcDbLine
 62
7
  6
BYLAYER
 10
98.9421735
 20
80.6923479253
 11
98.9421735
 21
108.6323374455
  0
LINE
  5
328
100
AcDbEntity
  8
0
100
AcDbLine
 62
7
  6
BYLAYER
 10
103.7102841716
 20
75.6087464232
 11
102.7198542785
 21
75.0279364127
  0
LINE
  5
329
100
AcDbEntity
  8
0
100
AcDbLine
 62
7
  6
BYLAYER
 10
101.7359147724
 20
74.8493627596
 11
101.039585146
 21
78.7984443101
  0
LINE
  5
32A
100
AcDbEntity
  8
0
100
AcDbLine
 62
7
  6
BYLAYER
 10
102.7198542785
 20
75.0279364127
 11
102.0252616256
 21
78.967167097
  0
LINE
  5
32B
100
AcDbEntity
  8
0
100
AcDbLine
 62
7
  6
BYLAYER
 10
103.7102841716
 20
75.6087464231
 11
103.1546100106
 21
78.7601311901
  0
LINE
  5
32C
100
AcDbEntity
  8
0
100
AcDbLine
 62
7
  6
BYLAYER
 10
102.122173472
 20
102.6573481176
 11
102.122173472
 21
81.5073481176
  0
LINE
  5
32D
100
AcDbEntity
  8
0
100
AcDbLine
 62
7
  6
BYLAYER
 10
102.4221729378
 20
102.9573478046
 11
102.4221729378
 21
81.2073484305
  0
LINE
  5
32E
100
AcDbEntity
  8
0
100
AcDbLine
 62
7
  6
BYLAYER
 10
104.1321735
 20
105.6622871855
 11
104.1321735
 21
78.502438066
  0
LINE
  5
32F
100
AcDbEntity
  8
0
100
AcDbLine
 62
7
  6
BYLAYER
 10
105.382173456
 20
116.7323481533
 11
105.382173456
 21
67.4423481176
  0
LINE
  5
330
100
AcDbEntity
  8
0
100
AcDbLine
 62
7
  6
BYLAYER
 10
108.8321735
 20
67.3324607374
 11
108.8321735
 21
116.8322354972
  0
LINE
  5
331
100
AcDbEntity
  8
0
100
AcDbLine
 62
7
  6
BYLAYER
 10
104.3421735
 20
77.3448481176
 11
103.7102841716
 21
75.6087464231
  0
LINE
  5
332
100
AcDbEntity
  8
0
100
AcDbLine
 62
7
  6
BYLAYER
 10
109.3221735
 20
68.8781116225
 11
109.3221735
 21
115.2853560756
  0
LINE
  5
333
100
AcDbEntity
  8
0
100
AcDbLine
 62
7
  6
BYLAYER
 10
116.3247915778
 20
112.0018748301
 11
116.3247917973
 21
72.1628209768
  0
LINE
  5
334
100
AcDbEntity
  8
0
100
AcDbLine
 62
7
  6
BYLAYER
 10
116.5721735
 20
83.8823481158
 11
116.5721735
 21
73.8823481112
  0
LINE
  5
335
100
AcDbEntity
  8
0
100
AcDbLine
 62
7
  6
BYLAYER
 10
116.5721735
 20
100.2823481176
 11
116.5721735
 21
110.2823481176
  0
LINE
  5
336
100
AcDbEntity
  8
0
100
AcDbLine
 62
7
  6
BYLAYER
 10
116.622173952
 20
67.3324607374
 11
116.6221734616
 21
116.8322354972
  0
LINE
  5
337
100
AcDbEntity
  8
0
100
AcDbLine
 62
7
  6
BYLAYER
 10
116.9280670782
 20
98.2428136349
 11
116.6221735759
 21
96.7821346176
  0
LINE
  5
338
100
AcDbEntity
  8
0
100
AcDbLine
 62
7
  6
BYLAYER
 10
116.9280670784
 20
85.9218825994
 11
116.6221735759
 21
87.3825616175
  0
LINE
  5
339
100
AcDbEntity
  8
0
100
AcDbLine
 62
7
  6
BYLAYER
 10
116.9038816364
 20
101.7825213337
 11
116.9038816359
 21
108.7821748956
  0
LINE
  5
33A
100
AcDbEntity
  8
0
100
AcDbLine
 62
7
  6
BYLAYER
 10
116.9280670782
 20
71.8428136349
 11
116.9280670782
 21
85.9218826002
  0
LINE
  5
33B
100
AcDbEntity
  8
0
100
AcDbLine
 62
7
  6
BYLAYER
 10
116.9280670782
 20
98.2428136349
 11
116.9280670782
 21
112.3218826002
  0
LINE
  5
33C
100
AcDbEntity
  8
0
100
AcDbLine
 62
7
  6
BYLAYER
 10
116.9912135997
 20
95.7605540201
 11
116.9912137601
 21
88.4041660314
  0
LINE
  5
33D
100
AcDbEntity
  8
0
100
AcDbLine
 62
7
  6
BYLAYER
 10
117.0116679818
 20
83.3554605804
 11
117.0116679817
 21
74.4092357694
  0
LINE
  5
33E
100
AcDbEntity
  8
0
100
AcDbLine
 62
7
  6
BYLAYER
 10
117.0821622043
 20
110.2823481176
 11
117.0821622043
 21
100.2823481175
  0
LINE
  5
33F
100
AcDbEntity
  8
0
100
AcDbLine
 62
7
  6
BYLAYER
 10
117.0978733418
 20
73.482530624
 11
117.0978733418
 21
84.2821656111
  0
LINE
  5
340
100
AcDbEntity
  8
0
100
AcDbLine
 62
7
  6
BYLAYER
 10
117.0978733418
 20
99.882530624
 11
117.0978733418
 21
110.6821656111
  0
LINE
  5
341
100
AcDbEntity
  8
0
100
AcDbLine
 62
7
  6
BYLAYER
 10
118.3552485663
 20
88.6063334465
 11
118.3552485663
 21
95.5583629134
  0
LINE
  5
342
100
AcDbEntity
  8
0
100
AcDbLine
 62
7
  6
BYLAYER
 10
116.9280670782
 20
71.8428136349
 11
116.6221735759
 21
70.3821346176
  0
LINE
  5
343
100
AcDbEntity
  8
0
100
AcDbLine
 62
7
  6
BYLAYER
 10
116.9280670784
 20
112.3218825994
 11
116.6221735759
 21
113.7825616175
  0
ARC
  5
344
100
AcDbEntity
  8
0
100
AcDbCircle
 62
7
  6
BYLAYER
 10
35.9642795114
 20
-354.5893059764
 40
457.6256092389
100
AcDbArc
 50
79.6279018828
 51
79.763775236
  0
ARC
  5
345
100
AcDbEntity
  8
0
100
AcDbCircle
 62
7
  6
BYLAYER
 10
22.0372728932
 20
78.5115254246
 40
0.3084406865
100
AcDbArc
 50
307.9253715931
 51
78.9700029959
  0
ARC
  5
346
100
AcDbEntity
  8
0
100
AcDbCircle
 62
7
  6
BYLAYER
 10
23.8773827899
 20
80.2772069031
 40
0.2500025435
100
AcDbArc
 50
350.0005360691
 51
79.9997585427
  0
ARC
  5
347
100
AcDbEntity
  8
0
100
AcDbCircle
 62
7
  6
BYLAYER
 10
45.6372728932
 20
78.5115254246
 40
0.3084406865
100
AcDbArc
 50
307.9253715952
 51
78.9700029965
  0
ARC
  5
348
100
AcDbEntity
  8
0
100
AcDbCircle
 62
7
  6
BYLAYER
 10
47.4773827899
 20
80.2772069031
 40
0.2500025435
100
AcDbArc
 50
350.0005361882
 51
79.9997585434
  0
ARC
  5
349
100
AcDbEntity
  8
0
100
AcDbCircle
 62
7
  6
BYLAYER
 10
46.5709587318
 20
79.1677534336
 40
0.2000001922
100
AcDbArc
 50
170.0001179176
 51
260.0001177663
  0
ARC
  5
34A
100
AcDbEntity
  8
0
100
AcDbCircle
 62
7
  6
BYLAYER
 10
35.9421825339
 20
84.4257242349
 40
1.0000119784
100
AcDbArc
 50
127.999992402
 51
179.999999952
  0
ARC
  5
34B
100
AcDbEntity
  8
0
100
AcDbCircle
 62
7
  6
BYLAYER
 10
55.5870846141
 20
-246.6492941072
 40
347.9165440089
100
AcDbArc
 50
79.606267549
 51
79.7849889814
  0
ARC
  5
34C
100
AcDbEntity
  8
0
100
AcDbCircle
 62
7
  6
BYLAYER
 10
59.5421825339
 20
84.4257242349
 40
1.0000119784
100
AcDbArc
 50
127.9999923954
 51
179.999999952
  0
ARC
  5
34D
100
AcDbEntity
  8
0
100
AcDbCircle
 62
7
  6
BYLAYER
 10
69.2372728932
 20
78.5115254246
 40
0.3084406865
100
AcDbArc
 50
307.9253715952
 51
78.9700029979
  0
ARC
  5
34E
100
AcDbEntity
  8
0
100
AcDbCircle
 62
7
  6
BYLAYER
 10
71.0773827899
 20
80.2772069031
 40
0.2500025435
100
AcDbArc
 50
350.0005361955
 51
79.9997585445
  0
ARC
  5
34F
100
AcDbEntity
  8
0
100
AcDbCircle
 62
7
  6
BYLAYER
 10
81.8864491046
 20
71.0941103187
 40
0.2999997003
100
AcDbArc
 50
189.9999777364
 51
275.000119582
  0
ARC
  5
350
100
AcDbEntity
  8
0
100
AcDbCircle
 62
7
  6
BYLAYER
 10
81.1028167534
 20
75.5383102254
 40
0.2999997003
100
AcDbArc
 50
104.999880418
 51
190.0000222636
  0
ARC
  5
351
100
AcDbEntity
  8
0
100
AcDbCircle
 62
7
  6
BYLAYER
 10
83.903880528
 20
71.1702308567
 40
0.2
100
AcDbArc
 50
280.0
 51
10.0
  0
ARC
  5
352
100
AcDbEntity
  8
0
100
AcDbCircle
 62
7
  6
BYLAYER
 10
83.0246169322
 20
76.1567825022
 40
0.2
100
AcDbArc
 50
54.916129776
 51
100.0
  0
ARC
  5
353
100
AcDbEntity
  8
0
100
AcDbCircle
 62
7
  6
BYLAYER
 10
83.903880528
 20
71.1702308567
 40
0.2
100
AcDbArc
 50
274.9999924853
 51
280.0
  0
ARC
  5
354
100
AcDbEntity
  8
0
100
AcDbCircle
 62
7
  6
BYLAYER
 10
83.0246169322
 20
76.1567825022
 40
0.2
100
AcDbArc
 50
100.0
 51
105.0000075147
  0
ARC
  5
355
100
AcDbEntity
  8
0
100
AcDbCircle
 62
7
  6
BYLAYER
 10
35.9648227849
 20
538.7503391426
 40
457.6219082016
100
AcDbArc
 50
280.2363260209
 51
280.372113778
  0
ARC
  5
356
100
AcDbEntity
  8
0
100
AcDbCircle
 62
7
  6
BYLAYER
 10
55.5855917865
 20
430.8221462054
 40
347.9248353642
100
AcDbArc
 50
280.2151287895
 51
280.3937319439
  0
ARC
  5
357
100
AcDbEntity
  8
0
100
AcDbCircle
 62
7
  6
BYLAYER
 10
109.0976099517
 20
73.4823731753
 40
8.000263385
100
AcDbArc
 50
348.1738489031
 51
0.0012650509
  0
ARC
  5
358
100
AcDbEntity
  8
0
100
AcDbCircle
 62
7
  6
BYLAYER
 10
109.0978319782
 20
84.2823460527
 40
8.0000413592
100
AcDbArc
 50
359.9994655198
 51
11.8263158187
  0
ARC
  5
359
100
AcDbEntity
  8
0
100
AcDbCircle
 62
7
  6
BYLAYER
 10
113.7384551323
 20
73.6487153822
 40
3.3604045963
100
AcDbArc
 50
3.9867151764
 51
13.0805035719
  0
ARC
  5
35A
100
AcDbEntity
  8
0
100
AcDbCircle
 62
7
  6
BYLAYER
 10
113.7384555809
 20
84.1159808437
 40
3.3604041516
100
AcDbArc
 50
346.9194956032
 51
356.0132844549
  0
ARC
  5
35B
100
AcDbEntity
  8
0
100
AcDbCircle
 62
7
  6
BYLAYER
 10
113.7431113789
 20
84.1152914326
 40
3.3557052675
100
AcDbArc
 50
346.9140233181
 51
356.0194929611
  0
ARC
  5
35C
100
AcDbEntity
  8
0
100
AcDbCircle
 62
7
  6
BYLAYER
 10
113.7431114294
 20
73.6494048936
 40
3.3557052043
100
AcDbArc
 50
3.9805055538
 51
13.0859759449
  0
ARC
  5
35D
100
AcDbEntity
  8
0
100
AcDbCircle
 62
7
  6
BYLAYER
 10
113.8933125344
 20
84.2079077835
 40
3.2054252937
100
AcDbArc
 50
354.1706911299
 51
358.6692893827
  0
ARC
  5
35E
100
AcDbEntity
  8
0
100
AcDbCircle
 62
7
  6
BYLAYER
 10
113.8933125344
 20
73.5567884516
 40
3.2054252937
100
AcDbArc
 50
1.3307106173
 51
5.8293088701
  0
ARC
  5
35F
100
AcDbEntity
  8
0
100
AcDbCircle
 62
7
  6
BYLAYER
 10
102.4221729378
 20
81.5073478963
 40
0.2999994658
100
AcDbArc
 50
179.9999577405
 51
270.0
  0
ARC
  5
360
100
AcDbEntity
  8
0
100
AcDbCircle
 62
7
  6
BYLAYER
 10
162.4868134461
 20
104.7956487443
 40
45.7569236638
100
AcDbArc
 50
175.0017472711
 51
179.3905546178
  0
ARC
  5
361
100
AcDbEntity
  8
0
100
AcDbCircle
 62
7
  6
BYLAYER
 10
162.4868134461
 20
105.7690474905
 40
45.7569236638
100
AcDbArc
 50
180.6094453818
 51
184.9982161899
  0
ARC
  5
362
100
AcDbEntity
  8
0
100
AcDbCircle
 62
7
  6
BYLAYER
 10
109.0976099531
 20
99.8823731752
 40
8.0002633835
100
AcDbArc
 50
348.1738489021
 51
0.0012650519
  0
ARC
  5
363
100
AcDbEntity
  8
0
100
AcDbCircle
 62
7
  6
BYLAYER
 10
109.0978319774
 20
110.6823460525
 40
8.0000413599
100
AcDbArc
 50
359.9994655211
 51
11.826315819
  0
ARC
  5
364
100
AcDbEntity
  8
0
100
AcDbCircle
 62
7
  6
BYLAYER
 10
113.8933125344
 20
110.6079077835
 40
3.2054252937
100
AcDbArc
 50
354.1706911301
 51
358.6692893827
  0
ARC
  5
365
100
AcDbEntity
  8
0
100
AcDbCircle
 62
7
  6
BYLAYER
 10
113.8933125344
 20
99.9567884516
 40
3.2054252937
100
AcDbArc
 50
1.3307106173
 51
5.8293088699
  0
ARC
  5
366
100
AcDbEntity
  8
0
100
AcDbCircle
 62
7
  6
BYLAYER
 10
102.4221729378
 20
102.6573483388
 40
0.2999994658
100
AcDbArc
 50
90.0
 51
180.0000422595
  0
SPLINE
  5
367
100
AcDbEntity
  8
0
100
AcDbSpline
 62
7
  6
BYLAYER
 70
0
 71
3
 72
29
 73
25
 74
0
 42
0.0000001
 43
0.0000001
 44
0.0000000001
 40
0.0
 40
0.0
 40
0.0
 40
0.0
 40
0.1250268331
 40
0.2500536319
 40
0.3750803652
 40
0.4375937953
 40
0.500107216
 40
0.5626206181
 40
0.6251339878
 40
0.6876472912
 40
0.7501604476
 40
0.7814171395
 40
0.8126737987
 40
0.8439303922
 40
0.8751868372
 40
0.9064428761
 40
0.9220711321
 40
0.9376992382
 40
0.953326931
 40
0.9689530562
 40
0.9845678126
 40
0.9884752913
 40
0.9923823359
 40
1.0
 40
1.0
 40
1.0
 40
1.0
 10
116.3247915778
 20
112.0018748301
 30
0.0
 10
116.0093349585
 20
111.9850197191
 30
0.0
 10
115.3784784633
 20
111.950233151
 30
0.0
 10
114.4324194519
 20
111.8941072495
 30
0.0
 10
113.6442896828
 20
111.8432083237
 30
0.0
 10
113.0140082669
 20
111.7992233775
 30
0.0
 10
112.5414347031
 20
111.7643103896
 30
0.0
 10
112.0690357875
 20
111.7271031
 30
0.0
 10
111.5968648696
 20
111.6870930461
 30
0.0
 10
111.1250062024
 20
111.6435464201
 30
0.0
 10
110.7321597912
 20
111.6033987575
 30
0.0
 10
110.4182383123
 20
111.5680205977
 30
0.0
 10
110.1830315522
 20
111.5394722895
 30
0.0
 10
109.9481443732
 20
111.5083871843
 30
0.0
 10
109.7137238225
 20
111.4739512114
 30
0.0
 10
109.5189677371
 20
111.4413717297
 30
0.0
 10
109.3638245831
 20
111.4116716123
 30
0.0
 10
109.2479660092
 20
111.3869366979
 30
0.0
 10
109.1328463749
 20
111.3588464341
 30
0.0
 10
109.0192710884
 20
111.3252520937
 30
0.0
 10
108.9360101838
 20
111.2935673302
 30
0.0
 10
108.884357606
 20
111.2639362764
 30
0.0
 10
108.8531439979
 20
111.2418274157
 30
0.0
 10
108.8321735002
 20
111.2151418339
 30
0.0
 10
108.8321735004
 20
111.1958942033
 30
0.0
  0
SPLINE
  5
368
100
AcDbEntity
  8
0
100
AcDbSpline
 62
7
  6
BYLAYER
 70
0
 71
3
 72
17
 73
13
 74
0
 42
0.0000001
 43
0.0000001
 44
0.0000000001
 40
0.0
 40
0.0
 40
0.0
 40
0.0
 40
0.2433562594
 40
0.3670377514
 40
0.4918787694
 40
0.6177617795
 40
0.7445518945
 40
0.8082714011
 40
0.8721920015
 40
0.9042704579
 40
0.9363008061
 40
1.0
 40
1.0
 40
1.0
 40
1.0
 10
116.6221734794
 20
113.0721330192
 30
0.0
 10
116.6221734803
 20
112.9796323382
 30
0.0
 10
116.6118784208
 20
112.8400428537
 30
0.0
 10
116.5844143839
 20
112.6550941937
 30
0.0
 10
116.5569838165
 20
112.5153854561
 30
0.0
 10
116.5228943232
 20
112.3759547904
 30
0.0
 10
116.4882908879
 20
112.2606831897
 30
0.0
 10
116.4545574126
 20
112.1699748986
 30
0.0
 10
116.4301597692
 20
112.1144174884
 30
0.0
 10
116.406358958
 20
112.0716205679
 30
0.0
 10
116.3803494984
 20
112.0318259412
 30
0.0
 10
116.348969407
 20
112.0031666719
 30
0.0
 10
116.3247915779
 20
112.0018748303
 30
0.0
  0
SPLINE
  5
369
100
AcDbEntity
  8
0
100
AcDbSpline
 62
7
  6
BYLAYER
 70
0
 71
3
 72
17
 73
13
 74
0
 42
0.0000001
 43
0.0000001
 44
0.0000000001
 40
0.0
 40
0.0
 40
0.0
 40
0.0
 40
0.2433607851
 40
0.3670396616
 40
0.4918771781
 40
0.6177696821
 40
0.744559574
 40
0.8082767016
 40
0.8721981688
 40
0.9042756291
 40
0.9363115609
 40
1.0
 40
1.0
 40
1.0
 40
1.0
 10
116.6221739147
 20
71.092562688
 30
0.0
 10
116.6221739138
 20
71.1850652362
 30
0.0
 10
116.6119176827
 20
71.3246596099
 30
0.0
 10
116.5843939719
 20
71.5096003044
 30
0.0
 10
116.556942109
 20
71.6493047733
 30
0.0
 10
116.5229113866
 20
71.7887528834
 30
0.0
 10
116.4882770599
 20
71.9040185307
 30
0.0
 10
116.4545589564
 20
71.9947313095
 30
0.0
 10
116.4301684655
 20
72.0502915804
 30
0.0
 10
116.4063596668
 20
72.0930867324
 30
0.0
 10
116.380343487
 20
72.1328740708
 30
0.0
 10
116.3489656703
 20
72.1615293534
 30
0.0
 10
116.3247918848
 20
72.1628209781
 30
0.0
  0
SPLINE
  5
36A
100
AcDbEntity
  8
0
100
AcDbSpline
 62
7
  6
BYLAYER
 70
0
 71
3
 72
21
 73
17
 74
0
 42
0.0000001
 43
0.0000001
 44
0.0000000001
 40
0.0
 40
0.0
 40
0.0
 40
0.0
 40
0.1755862748
 40
0.2909372917
 40
0.370973017
 40
0.4277562417
 40
0.4941572613
 40
0.599154819
 40
0.6718591076
 40
0.7252789031
 40
0.764874845
 40
0.8217666698
 40
0.8778989835
 40
0.9177903508
 40
0.9604977819
 40
1.0
 40
1.0
 40
1.0
 40
1.0
 10
116.6221734988
 20
113.0721334516
 30
0.0
 10
116.6221734995
 20
113.0053190487
 30
0.0
 10
116.6162068539
 20
112.8945692416
 30
0.0
 10
116.5994578594
 20
112.7543707623
 30
0.0
 10
116.5843806459
 20
112.6595896633
 30
0.0
 10
116.5703732588
 20
112.5835336526
 30
0.0
 10
116.5525683328
 20
112.4985435782
 30
0.0
 10
116.5308888776
 20
112.4081932221
 30
0.0
 10
116.5070290741
 20
112.3235283014
 30
0.0
 10
116.488122561
 20
112.2633600247
 30
0.0
 10
116.4694888503
 20
112.2094398446
 30
0.0
 10
116.4483895071
 20
112.155303967
 30
0.0
 10
116.4241181318
 20
112.1023760127
 30
0.0
 10
116.3974397681
 20
112.0566173475
 30
0.0
 10
116.3691774283
 20
112.0199187467
 30
0.0
 10
116.3398015342
 20
112.0026768121
 30
0.0
 10
116.3247914901
 20
112.0018748129
 30
0.0
  0
SPLINE
  5
36B
100
AcDbEntity
  8
0
100
AcDbSpline
 62
7
  6
BYLAYER
 70
0
 71
3
 72
21
 73
17
 74
0
 42
0.0000001
 43
0.0000001
 44
0.0000000001
 40
0.0
 40
0.0
 40
0.0
 40
0.0
 40
0.1754599255
 40
0.2904237847
 40
0.3702342433
 40
0.4266685753
 40
0.49188
 40
0.5969404676
 40
0.6702490058
 40
0.7239407003
 40
0.7637761398
 40
0.8206379026
 40
0.8775374629
 40
0.9179454978
 40
0.9601369925
 40
1.0
 40
1.0
 40
1.0
 40
1.0
 10
116.6221739343
 20
71.0925622868
 30
0.0
 10
116.6221739336
 20
71.1593281491
 30
0.0
 10
116.6162853586
 20
71.2698882158
 30
0.0
 10
116.5994684292
 20
71.4097927513
 30
0.0
 10
116.5845698653
 20
71.5042310976
 30
0.0
 10
116.5706432533
 20
71.5796190213
 30
0.0
 10
116.5530879059
 20
71.6640859536
 30
0.0
 10
116.5314892169
 20
71.7542526482
 30
0.0
 10
116.5075679546
 20
71.8392695116
 30
0.0
 10
116.4886285353
 20
71.8998724018
 30
0.0
 10
116.4699463052
 20
71.9539691319
 30
0.0
 10
116.4487835889
 20
72.0084789908
 30
0.0
 10
116.4243593392
 20
72.0618587384
 30
0.0
 10
116.3975627747
 20
72.1078995322
 30
0.0
 10
116.3692354692
 20
72.1446886405
 30
0.0
 10
116.3399388324
 20
72.1620116713
 30
0.0
 10
116.3247918003
 20
72.1628209894
 30
0.0
  0
SPLINE
  5
36C
100
AcDbEntity
  8
0
100
AcDbSpline
 62
7
  6
BYLAYER
 70
0
 71
3
 72
48
 73
44
 74
0
 42
0.0000001
 43
0.0000001
 44
0.0000000001
 40
0.0
 40
0.0
 40
0.0
 40
0.0
 40
0.0785154674
 40
0.1511317281
 40
0.2182919341
 40
0.2804111382
 40
0.3378695721
 40
0.3910193026
 40
0.4401853507
 40
0.485667672
 40
0.5277417983
 40
0.5666303006
 40
0.6025494125
 40
0.6357745728
 40
0.6665619226
 40
0.6950780214
 40
0.7214756611
 40
0.7459116261
 40
0.7685297099
 40
0.7894600116
 40
0.8088242475
 40
0.8267357946
 40
0.8432994799
 40
0.8586125478
 40
0.8727651107
 40
0.8858406845
 40
0.8979166121
 40
0.9090644529
 40
0.919350369
 40
0.9288354529
 40
0.9375760214
 40
0.9456239457
 40
0.9530272541
 40
0.9598302902
 40
0.9660734968
 40
0.9718009074
 40
0.9770548891
 40
0.981868314
 40
0.9862469419
 40
0.9902529741
 40
0.9938809122
 40
0.9970668043
 40
1.0
 40
1.0
 40
1.0
 40
1.0
 10
116.3247915779
 20
112.0018748537
 30
0.0
 10
116.1266450645
 20
111.9912877199
 30
0.0
 10
115.7452613868
 20
111.9704987165
 30
0.0
 10
115.1944695639
 20
111.9391820569
 30
0.0
 10
114.6851210091
 20
111.9089700416
 30
0.0
 10
114.2140862505
 20
111.8798182175
 30
0.0
 10
113.7784660369
 20
111.8516829054
 30
0.0
 10
113.3755887037
 20
111.8245221264
 30
0.0
 10
113.0029855239
 20
111.798295086
 30
0.0
 10
112.6583812481
 20
111.7729625708
 30
0.0
 10
112.3397593616
 20
111.7484931078
 30
0.0
 10
112.0453147479
 20
111.7248617822
 30
0.0
 10
111.7732429252
 20
111.702034767
 30
0.0
 10
111.5216555119
 20
111.6799596416
 30
0.0
 10
111.2887901369
 20
111.6585806499
 30
0.0
 10
111.0731939897
 20
111.6378576896
 30
0.0
 10
110.8736648398
 20
111.6177655654
 30
0.0
 10
110.6890582621
 20
111.5982769339
 30
0.0
 10
110.5182875265
 20
111.5793620672
 30
0.0
 10
110.3603547092
 20
111.560992602
 30
0.0
 10
110.2143389939
 20
111.5431409625
 30
0.0
 10
110.0793837754
 20
111.5257793181
 30
0.0
 10
109.9546946874
 20
111.5088797263
 30
0.0
 10
109.8395366193
 20
111.492414151
 30
0.0
 10
109.7332288895
 20
111.4763541589
 30
0.0
 10
109.6351418117
 20
111.4606707095
 30
0.0
 10
109.5446934608
 20
111.4453338745
 30
0.0
 10
109.4613468658
 20
111.430312504
 30
0.0
 10
109.3846075259
 20
111.4155737984
 30
0.0
 10
109.3140212779
 20
111.4010827513
 30
0.0
 10
109.249172473
 20
111.3868013881
 30
0.0
 10
109.1896817335
 20
111.3726875216
 30
0.0
 10
109.1352044717
 20
111.3586930174
 30
0.0
 10
109.0854314079
 20
111.3447616254
 30
0.0
 10
109.0400736131
 20
111.3308205739
 30
0.0
 10
108.99886328
 20
111.3167718038
 30
0.0
 10
108.9615782285
 20
111.302483558
 30
0.0
 10
108.9281302772
 20
111.2878054049
 30
0.0
 10
108.8984678022
 20
111.2724889839
 30
0.0
 10
108.8727708169
 20
111.256215928
 30
0.0
 10
108.851743322
 20
111.2385505111
 30
0.0
 10
108.8364790262
 20
111.2188322591
 30
0.0
 10
108.8321695849
 20
111.2032873954
 30
0.0
 10
108.8321735004
 20
111.1958744426
 30
0.0
  0
SPLINE
  5
36D
100
AcDbEntity
  8
0
100
AcDbSpline
 62
7
  6
BYLAYER
 70
0
 71
3
 72
34
 73
30
 74
0
 42
0.0000001
 43
0.0000001
 44
0.0000000001
 40
0.0
 40
0.0
 40
0.0
 40
0.0
 40
0.0644731458
 40
0.1234397199
 40
0.1771450641
 40
0.2258452489
 40
0.269786544
 40
0.3091953866
 40
0.3442881182
 40
0.3752853121
 40
0.4025546811
 40
0.4267417122
 40
0.4487578538
 40
0.469568043
 40
0.4896935104
 40
0.5095959112
 40
0.5297063345
 40
0.550423909
 40
0.5723275662
 40
0.596286245
 40
0.6231660353
 40
0.6538292119
 40
0.6886032807
 40
0.7277364689
 40
0.7716280228
 40
0.8205579874
 40
0.8747552637
 40
0.934475255
 40
1.0
 40
1.0
 40
1.0
 40
1.0
 10
117.0116674329
 20
83.3554545563
 30
0.0
 10
116.9908260674
 20
83.1639132722
 30
0.0
 10
116.9532513588
 20
82.7969321731
 30
0.0
 10
116.9057502478
 20
82.2696752824
 30
0.0
 10
116.8678424233
 20
81.7889131133
 30
0.0
 10
116.8379139892
 20
81.3525880207
 30
0.0
 10
116.8145757868
 20
80.9586538213
 30
0.0
 10
116.7966434202
 20
80.6051493399
 30
0.0
 10
116.7831111431
 20
80.2901640655
 30
0.0
 10
116.7731121224
 20
80.0113458689
 30
0.0
 10
116.7658874126
 20
79.7650455418
 30
0.0
 10
116.7607845436
 20
79.5455379366
 30
0.0
 10
116.7572935994
 20
79.345304277
 30
0.0
 10
116.7550924008
 20
79.1571907178
 30
0.0
 10
116.7540149611
 20
78.9753841993
 30
0.0
 10
116.7539964584
 20
78.7956656732
 30
0.0
 10
116.7550348211
 20
78.6141806612
 30
0.0
 10
116.7571887266
 20
78.4267244838
 30
0.0
 10
116.7606121724
 20
78.2277851894
 30
0.0
 10
116.7656091548
 20
78.0104585252
 30
0.0
 10
116.7726748385
 20
77.7669996325
 30
0.0
 10
116.7824589677
 20
77.4912904993
 30
0.0
 10
116.7957380061
 20
77.1790712385
 30
0.0
 10
116.8134041566
 20
76.8274805418
 30
0.0
 10
116.8365268709
 20
76.433819873
 30
0.0
 10
116.8663819475
 20
75.9954768587
 30
0.0
 10
116.9044393962
 20
75.5103042975
 30
0.0
 10
116.9524065
 20
74.9761969647
 30
0.0
 10
116.9904924435
 20
74.6038453112
 30
0.0
 10
117.0116737559
 20
74.4091798647
 30
0.0
  0
ELLIPSE
  5
36E
100
AcDbEntity
  8
0
100
AcDbEllipse
 62
7
  6
BYLAYER
 10
681.7711105056
 20
72.9687989242
 30
0.0
 11
572.9389370892
 21
-0.0
 31
0.0
 40
0.0087269346
 41
-3.1415922361
 42
-2.9796907089
  0
ENDSEC
  0
SECTION
  2
OBJECTS
  0
DICTIONARY
  5
C
100
AcDbDictionary
280
0
281
1
  3
ACAD_GROUP
350
D
  3
ACAD_MLINESTYLE
350
17
  3
ACAD_LAYOUT
350
1A
  3
ACAD_PLOTSETTINGS
350
19
  3
ACAD_PLOTSTYLENAME
350
E
  0
DICTIONARY
  5
D
102
{ACAD_REACTORS
330
C
102
}
100
AcDbDictionary
280
0
281
1
  0
ACDBDICTIONARYWDFLT
  5
E
102
{ACAD_REACTORS
330
C
102
}
100
AcDbDictionary
281
1
  3
Normal
350
F
100
AcDbDictionaryWithDefault
340
F
  0
DICTIONARY
  5
17
102
{ACAD_REACTORS
330
C
102
}
100
AcDbDictionary
280
0
281
1
  3
Standard
350
18
  0
DICTIONARY
  5
19
102
{ACAD_REACTORS
330
C
102
}
100
AcDbDictionary
281
1
  0
DICTIONARY
  5
1A
102
{ACAD_REACTORS
330
C
102
}
100
AcDbDictionary
281
1
  3
Model
350
36F
  3
Layout1
350
370
  0
ACDBPLACEHOLDER
  5
F
102
{ACAD_REACTORS
330
E
102
}
  0
MLINESTYLE
  5
18
102
{ACAD_REACTORS
330
17
102
}
100
AcDbMlineStyle
  2
STANDARD
 70
0
  3

 62
256
 51
90.0
 52
90.0
 71
2
 49
0.5
 62
256
  6
BYLAYER
 49
-0.5
 62
256
  6
BYLAYER
  0
LAYOUT
  5
36F
102
{ACAD_REACTORS
330
1A
102
}
100
AcDbPlotSettings
  1

  2
none_device
  4

  6

 40
0.0
 41
0.0
 42
0.0
 43
0.0
 44
210.0
 45
297.0
 46
0.0
 47
0.0
 48
0.0
 49
0.0
140
0.0
141
0.0
142
1.0
143
1.0
 70
1024
 72
1
 73
0
 74
0
  7

 75
0
147
1.0
148
0.0
149
0.0
100
AcDbLayout
  1
Model
 70
0
 71
0
 10
0.0
 20
0.0
 11
210.0
 21
297.0
 12
0.0
 22
0.0
 32
0.0
 14
0.0
 24
0.0
 34
0.0
 15
0.0
 25
0.0
 35
0.0
146
0.0
 13
0.0
 23
0.0
 33
0.0
 16
1.0
 26
0.0
 36
0.0
 17
0.0
 27
1.0
 37
0.0
 76
0
330
210
345
0
346
0
  0
LAYOUT
  5
370
102
{ACAD_REACTORS
330
1A
102
}
100
AcDbPlotSettings
  1

  2
none_device
  4

  6

 40
0.0
 41
0.0
 42
0.0
 43
0.0
 44
210.0
 45
297.0
 46
0.0
 47
0.0
 48
0.0
 49
0.0
140
0.0
141
0.0
142
1.0
143
1.0
 70
0
 72
1
 73
0
 74
0
  7

 75
0
147
1.0
148
0.0
149
0.0
100
AcDbLayout
  1
Layout1
 70
0
 71
1
 10
0.0
 20
0.0
 11
210.0
 21
297.0
 12
0.0
 22
0.0
 32
0.0
 14
0.0
 24
0.0
 34
0.0
 15
0.0
 25
0.0
 35
0.0
146
0.0
 13
0.0
 23
0.0
 33
0.0
 16
1.0
 26
0.0
 36
0.0
 17
0.0
 27
1.0
 37
0.0
 76
0
330
211
345
0
346
0
  0
ENDSEC
  0
EOF
