999
DXF file: C:\Users\sesa63760\Dev\_Creo\CAD\MCADUE0003427_3D-CAD\drw0001_7.dxf
999
Pro/ENGINEER 2019471 by Parametric Technology Corporation
  0
SECTION
  2
HEADER
  9
$ACADVER
  1
AC1024
  9
$DWGCODEPAGE
  3
ANSI_1252
  9
$EXTMAX
 10
549.8673827995
 20
777.6695842451
 30
0.0
  9
$EXTMIN
 10
0.0
 20
0.0
 30
0.0
  9
$LIMMIN
 10
0.0
 20
0.0
  9
$LIMMAX
 10
549.8673827995
 20
777.6695842451
  9
$VIEWCTR
 10
274.9336913998
 20
388.8347921225
  9
$VIEWSIZE
 40
777.6695842451
  9
$CLAYER
  8
0
  9
$LTSCALE
 40
50.6925358619
  9
$CELTYPE
  6
BYLAYER
  9
$DIMSCALE
 40
1.0
  9
$DIMASZ
 40
6.5460402714
  9
$DIMEXO
 40
1.0
  9
$DIMDLI
 40
35.0239338682
  9
$DIMEXE
 40
1.0
  9
$DIMCEN
 40
8.2951422319
  9
$DIMLFAC
 40
1.0
  9
$DIMBLK
  1
_FILLED
  9
$DIMALT
 70
0
  9
$DIMALTF
 40
0.0393700787
  9
$DIMTXT
 40
9.16445638
  9
$DIMTOL
 70
1
  9
$DIMLIM
 70
0
  9
$DIMTFAC
 40
1.0
  9
$DIMTP
 40
0.01
  9
$DIMTM
 40
0.01
  9
$DIMGAP
 40
0.625
  9
$DIMDSEP
 70
46
  9
$AUNITS
 70
0
  9
$PDMODE
 70
3
  9
$PDSIZE
 40
0.3125
  9
$HANDSEED
  5
51F
  9
$TILEMODE
 70
1
  9
$MEASUREMENT
 70
1
  9
$INSUNITS
 70
4
  0
ENDSEC
  0
SECTION
  2
CLASSES
  0
CLASS
  1
ACDBDICTIONARYWDFLT
  2
AcDbDictionaryWithDefault
  3
AutoCAD 2000
 90
0
 91
1
280
0
281
0
  0
CLASS
  1
ACDBPLACEHOLDER
  2
AcDbPlaceHolder
  3
AutoCAD 2000
 90
0
 91
1
280
0
281
0
  0
CLASS
  1
LAYOUT
  2
AcDbLayout
  3
AutoCAD 2000
 90
0
 91
0
280
0
281
0
  0
ENDSEC
  0
SECTION
  2
TABLES
  0
TABLE
  2
VPORT
  5
8
100
AcDbSymbolTable
 70
2
  0
VPORT
  5
1F4
100
AcDbSymbolTableRecord
100
AcDbViewportTableRecord
  2
*ACTIVE
 70
0
 10
0.0
 20
0.0
 11
1.0
 21
1.0
 12
274.9336913998
 22
388.8347921225
 13
0.0
 23
0.0
 14
1.0
 24
1.0
 15
0.0
 25
0.0
 16
0.0
 26
0.0
 36
1.0
 17
0.0
 27
0.0
 37
0.0
 40
777.6695842451
 41
0.7070707071
 42
50.0
 43
0.0
 44
0.0
 50
0.0
 51
0.0
 71
0
 72
100
 73
1
 74
1
 75
0
 76
0
 77
0
 78
0
  0
ENDTAB
  0
TABLE
  2
LTYPE
  5
5
100
AcDbSymbolTable
 70
6
  0
LTYPE
  5
14
100
AcDbSymbolTableRecord
100
AcDbLinetypeTableRecord
  2
BYBLOCK
 70
0
  3

 72
65
 73
0
 40
0.0
  0
LTYPE
  5
15
100
AcDbSymbolTableRecord
100
AcDbLinetypeTableRecord
  2
BYLAYER
 70
0
  3

 72
65
 73
0
 40
0.0
  0
LTYPE
  5
16
100
AcDbSymbolTableRecord
100
AcDbLinetypeTableRecord
  2
CONTINUOUS
 70
64
  3
Solid line
 72
65
 73
0
 40
0.0
  0
LTYPE
  5
1F5
100
AcDbSymbolTableRecord
100
AcDbLinetypeTableRecord
  2
CENTER
 70
64
  3
____ _ ____ _ ____ _ ____ _ ____ _ ____ _ ____
 72
65
 73
4
 40
0.6
 49
0.375
 74
0
 49
-0.075
 74
0
 49
0.075
 74
0
 49
-0.075
 74
0
  0
LTYPE
  5
1F6
100
AcDbSymbolTableRecord
100
AcDbLinetypeTableRecord
  2
HIDDEN
 70
64
  3
- - - - - - - - - - - - - - - - - - - -
 72
65
 73
2
 40
0.2
 49
0.1
 74
0
 49
-0.1
 74
0
  0
LTYPE
  5
1F7
100
AcDbSymbolTableRecord
100
AcDbLinetypeTableRecord
  2
PHANTOM
 70
64
  3
_____ _ _ _____ _ _ _____ _ _ _____
 72
65
 73
6
 40
0.8
 49
0.45
 74
0
 49
-0.05
 74
0
 49
0.1
 74
0
 49
-0.05
 74
0
 49
0.1
 74
0
 49
-0.05
 74
0
  0
LTYPE
  5
1F8
100
AcDbSymbolTableRecord
100
AcDbLinetypeTableRecord
  2
DOT
 70
64
  3
. . . . . . . . . . . . . . . . . . . .
 72
65
 73
2
 40
0.2
 49
0.1
 74
0
 49
-0.1
 74
0
  0
LTYPE
  5
1F9
100
AcDbSymbolTableRecord
100
AcDbLinetypeTableRecord
  2
DASHED
 70
64
  3
- - - - - - - - - - - - - - - - - - - -
 72
65
 73
2
 40
0.2
 49
0.1
 74
0
 49
-0.1
 74
0
  0
ENDTAB
  0
TABLE
  2
LAYER
  5
2
100
AcDbSymbolTable
 70
36
  0
LAYER
  5
10
100
AcDbSymbolTableRecord
100
AcDbLayerTableRecord
  2
0
 70
0
 62
7
  6
CONTINUOUS
370
-3
390
F
  0
LAYER
  5
1FA
100
AcDbSymbolTableRecord
100
AcDbLayerTableRecord
  2
DEFAULT_1
 70
0
 62
7
  6
CENTER
370
-3
390
F
  0
LAYER
  5
1FB
100
AcDbSymbolTableRecord
100
AcDbLayerTableRecord
  2
DEFAULT_2
 70
0
 62
8
  6
HIDDEN
370
-3
390
F
  0
LAYER
  5
1FC
100
AcDbSymbolTableRecord
100
AcDbLayerTableRecord
  2
DEFAULT_3
 70
0
 62
7
  6
PHANTOM
370
-3
390
F
  0
LAYER
  5
1FD
100
AcDbSymbolTableRecord
100
AcDbLayerTableRecord
  2
00_COMPONENTS
 70
0
 62
7
  6
CONTINUOUS
370
-3
390
F
  0
LAYER
  5
1FE
100
AcDbSymbolTableRecord
100
AcDbLayerTableRecord
  2
01_1_DEFAULT_DATUMS
 70
0
 62
7
  6
CONTINUOUS
370
-3
390
F
  0
LAYER
  5
1FF
100
AcDbSymbolTableRecord
100
AcDbLayerTableRecord
  2
01_PLANES
 70
0
 62
7
  6
CONTINUOUS
370
-3
390
F
  0
LAYER
  5
200
100
AcDbSymbolTableRecord
100
AcDbLayerTableRecord
  2
02_COORD_SYS
 70
0
 62
7
  6
CONTINUOUS
370
-3
390
F
  0
LAYER
  5
201
100
AcDbSymbolTableRecord
100
AcDbLayerTableRecord
  2
03_AXES
 70
0
 62
7
  6
CONTINUOUS
370
-3
390
F
  0
LAYER
  5
202
100
AcDbSymbolTableRecord
100
AcDbLayerTableRecord
  2
04_POINTS
 70
0
 62
7
  6
CONTINUOUS
370
-3
390
F
  0
LAYER
  5
203
100
AcDbSymbolTableRecord
100
AcDbLayerTableRecord
  2
05_CURVES
 70
0
 62
7
  6
CONTINUOUS
370
-3
390
F
  0
LAYER
  5
204
100
AcDbSymbolTableRecord
100
AcDbLayerTableRecord
  2
06_SURFS
 70
0
 62
7
  6
CONTINUOUS
370
-3
390
F
  0
LAYER
  5
205
100
AcDbSymbolTableRecord
100
AcDbLayerTableRecord
  2
07_COSMETICS
 70
0
 62
7
  6
CONTINUOUS
370
-3
390
F
  0
LAYER
  5
206
100
AcDbSymbolTableRecord
100
AcDbLayerTableRecord
  2
10_NOTES
 70
0
 62
7
  6
CONTINUOUS
370
-3
390
F
  0
LAYER
  5
207
100
AcDbSymbolTableRecord
100
AcDbLayerTableRecord
  2
11_NOTES_PUB
 70
0
 62
7
  6
CONTINUOUS
370
-3
390
F
  0
LAYER
  5
208
100
AcDbSymbolTableRecord
100
AcDbLayerTableRecord
  2
13_REF_GTOL
 70
0
 62
7
  6
CONTINUOUS
370
-3
390
F
  0
LAYER
  5
209
100
AcDbSymbolTableRecord
100
AcDbLayerTableRecord
  2
16_MISC
 70
0
 62
7
  6
CONTINUOUS
370
-3
390
F
  0
LAYER
  5
20A
100
AcDbSymbolTableRecord
100
AcDbLayerTableRecord
  2
17_NO_PRINT
 70
0
 62
7
  6
CONTINUOUS
370
-3
390
F
  0
LAYER
  5
20B
100
AcDbSymbolTableRecord
100
AcDbLayerTableRecord
  2
18_DATUM_CAMS_JOINTS
 70
0
 62
7
  6
CONTINUOUS
370
-3
390
F
  0
LAYER
  5
20C
100
AcDbSymbolTableRecord
100
AcDbLayerTableRecord
  2
19_DATUM_FUNCTIONAL
 70
0
 62
7
  6
CONTINUOUS
370
-3
390
F
  0
LAYER
  5
20D
100
AcDbSymbolTableRecord
100
AcDbLayerTableRecord
  2
20_DATUM_KINEMATIC_SCHEME
 70
0
 62
7
  6
CONTINUOUS
370
-3
390
F
  0
ENDTAB
  0
TABLE
  2
STYLE
  5
3
100
AcDbSymbolTable
 70
1
  0
STYLE
  5
11
100
AcDbSymbolTableRecord
100
AcDbTextStyleTableRecord
  2
STANDARD
 70
0
 40
0.0
 41
0.8
 50
0.0
 71
0
 42
0.2
  3
txt
  4

  0
STYLE
  5
20E
100
AcDbSymbolTableRecord
100
AcDbTextStyleTableRecord
  2
TEXTSTYLE_1
 70
0
 40
0.0
 41
0.8
 50
0.0
 71
0
 42
0.2
  3
gdt
  4

  0
ENDTAB
  0
TABLE
  2
VIEW
  5
6
100
AcDbSymbolTable
 70
0
  0
ENDTAB
  0
TABLE
  2
UCS
  5
7
100
AcDbSymbolTable
 70
0
  0
ENDTAB
  0
TABLE
  2
APPID
  5
9
100
AcDbSymbolTable
 70
1
  0
APPID
  5
20F
100
AcDbSymbolTableRecord
100
AcDbRegAppTableRecord
  2
ACAD
 70
0
  0
ENDTAB
  0
TABLE
  2
BLOCK_RECORD
  5
1
100
AcDbSymbolTable
 70
0
  0
BLOCK_RECORD
  5
210
100
AcDbSymbolTableRecord
100
AcDbBlockTableRecord
  2
*Model_Space
  0
BLOCK_RECORD
  5
211
100
AcDbSymbolTableRecord
100
AcDbBlockTableRecord
  2
*Paper_Space
  0
BLOCK_RECORD
  5
212
100
AcDbSymbolTableRecord
100
AcDbBlockTableRecord
  2
_FILLED
  0
ENDTAB
  0
TABLE
  2
DIMSTYLE
  5
A
100
AcDbSymbolTable
 70
1
100
AcDbDimStyleTable
 71
0
  0
DIMSTYLE
105
213
100
AcDbSymbolTableRecord
100
AcDbDimStyleTableRecord
  2
STANDARD
 70
0
  3

  4

 40
1.0
 41
6.5460402714
 42
1.0
 43
0.38
 44
1.0
 45
0.0
 46
0.0
 47
0.01
 48
0.01
140
9.16445638
141
0.09
142
0.0
143
25.4
144
1.0
145
0.0
146
1.0
147
0.625
 71
1
 72
0
 73
0
 74
0
 75
0
 76
0
 77
1
 78
8
 79
2
170
0
171
1
172
0
173
0
174
0
175
0
176
0
177
0
178
0
270
2
179
2
271
2
272
2
273
2
274
2
275
0
280
0
281
0
282
0
283
1
284
8
285
0
286
0
287
3
288
0
340
11
278
46
341
212
342
212
343
212
344
212
  0
ENDTAB
  0
ENDSEC
  0
SECTION
  2
BLOCKS
  0
BLOCK
  5
20
100
AcDbEntity
  8
0
100
AcDbBlockBegin
  2
*Model_Space
 70
0
 10
0.0
 20
0.0
 30
0.0
  3
*Model_Space
  1

  0
ENDBLK
  5
21
100
AcDbEntity
  8
0
100
AcDbBlockEnd
  0
BLOCK
  5
1C
100
AcDbEntity
  8
0
100
AcDbBlockBegin
  2
*Paper_Space
 70
0
 10
0.0
 20
0.0
 30
0.0
  3
*Paper_Space
  1

  0
ENDBLK
  5
1D
100
AcDbEntity
  8
0
100
AcDbBlockEnd
  0
BLOCK
  5
214
100
AcDbEntity
  8
0
100
AcDbBlockBegin
  2
_FILLED
 70
64
 10
0.0
 20
0.0
  3
_FILLED
  1

  0
SOLID
  5
215
100
AcDbEntity
  8
0
  6
BYBLOCK
 62
0
100
AcDbTrace
 10
0.0
 20
0.0
 11
-1.0
 21
0.25
 12
-1.0
 22
-0.25
 13
-1.0
 23
-0.25
  0
ENDBLK
  5
216
100
AcDbEntity
  8
0
  6
BYBLOCK
 62
0
100
AcDbBlockEnd
  0
ENDSEC
  0
SECTION
  2
ENTITIES
  0
LINE
  5
217
100
AcDbEntity
  8
0
100
AcDbLine
 62
7
  6
CONTINUOUS
 10
58.385551356
 20
359.738512035
 11
58.385551356
 21
348.738512035
  0
LINE
  5
218
100
AcDbEntity
  8
0
100
AcDbLine
 62
7
  6
CONTINUOUS
 10
60.385551356
 20
348.738512035
 11
60.385551356
 21
359.738512035
  0
LINE
  5
219
100
AcDbEntity
  8
0
100
AcDbLine
 62
7
  6
CONTINUOUS
 10
70.385551356
 20
335.279762035
 11
70.385551356
 21
341.238512035
  0
LINE
  5
21A
100
AcDbEntity
  8
0
100
AcDbLine
 62
7
  6
CONTINUOUS
 10
70.885551356
 20
344.738512035
 11
70.885551356
 21
341.238512035
  0
LINE
  5
21B
100
AcDbEntity
  8
0
100
AcDbLine
 62
7
  6
CONTINUOUS
 10
76.385551356
 20
341.238512035
 11
76.385551356
 21
335.279762035
  0
LINE
  5
21C
100
AcDbEntity
  8
0
100
AcDbLine
 62
7
  6
CONTINUOUS
 10
89.885551356
 20
339.238512035
 11
89.885551356
 21
312.738512035
  0
LINE
  5
21D
100
AcDbEntity
  8
0
100
AcDbLine
 62
7
  6
CONTINUOUS
 10
91.885551356
 20
312.738512035
 11
91.885551356
 21
339.238512035
  0
LINE
  5
21E
100
AcDbEntity
  8
0
100
AcDbLine
 62
7
  6
CONTINUOUS
 10
70.926801356
 20
334.738512035
 11
70.385551356
 21
335.279762035
  0
LINE
  5
21F
100
AcDbEntity
  8
0
100
AcDbLine
 62
7
  6
CONTINUOUS
 10
102.885551356
 20
339.038512035
 11
102.885551356
 21
340.038512035
  0
LINE
  5
220
100
AcDbEntity
  8
0
100
AcDbLine
 62
7
  6
CONTINUOUS
 10
103.1120486641
 20
338.738512035
 11
103.1120486641
 21
333.9850940224
  0
LINE
  5
221
100
AcDbEntity
  8
0
100
AcDbLine
 62
7
  6
CONTINUOUS
 10
103.3422741609
 20
340.038512035
 11
103.3422741609
 21
340.738512035
  0
LINE
  5
222
100
AcDbEntity
  8
0
100
AcDbLine
 62
7
  6
CONTINUOUS
 10
104.1254313143
 20
340.738512035
 11
104.1254313143
 21
340.038512035
  0
LINE
  5
223
100
AcDbEntity
  8
0
100
AcDbLine
 62
7
  6
CONTINUOUS
 10
105.885551356
 20
338.738512035
 11
105.885551356
 21
333.538512035
  0
LINE
  5
224
100
AcDbEntity
  8
0
100
AcDbLine
 62
7
  6
CONTINUOUS
 10
105.885551356
 20
340.038512035
 11
105.885551356
 21
340.738512035
  0
LINE
  5
225
100
AcDbEntity
  8
0
100
AcDbLine
 62
7
  6
CONTINUOUS
 10
105.9988000101
 20
338.738512035
 11
105.9988000101
 21
333.9850940224
  0
LINE
  5
226
100
AcDbEntity
  8
0
100
AcDbLine
 62
7
  6
CONTINUOUS
 10
108.1023942027
 20
340.038512035
 11
108.1023942027
 21
340.738512035
  0
LINE
  5
227
100
AcDbEntity
  8
0
100
AcDbLine
 62
7
  6
CONTINUOUS
 10
109.6687085093
 20
340.738512035
 11
109.6687085093
 21
340.038512035
  0
LINE
  5
228
100
AcDbEntity
  8
0
100
AcDbLine
 62
7
  6
CONTINUOUS
 10
111.772302702
 20
338.738512035
 11
111.772302702
 21
333.9850940224
  0
LINE
  5
229
100
AcDbEntity
  8
0
100
AcDbLine
 62
7
  6
CONTINUOUS
 10
111.885551356
 20
340.738512035
 11
111.885551356
 21
340.038512035
  0
LINE
  5
22A
100
AcDbEntity
  8
0
100
AcDbLine
 62
7
  6
CONTINUOUS
 10
111.885551356
 20
338.738512035
 11
111.885551356
 21
333.538512035
  0
LINE
  5
22B
100
AcDbEntity
  8
0
100
AcDbLine
 62
7
  6
CONTINUOUS
 10
113.6456713978
 20
340.038512035
 11
113.6456713978
 21
340.738512035
  0
LINE
  5
22C
100
AcDbEntity
  8
0
100
AcDbLine
 62
7
  6
CONTINUOUS
 10
114.4288285511
 20
340.738512035
 11
114.4288285511
 21
340.038512035
  0
LINE
  5
22D
100
AcDbEntity
  8
0
100
AcDbLine
 62
7
  6
CONTINUOUS
 10
114.6590540479
 20
338.738512035
 11
114.6590540479
 21
333.9850940224
  0
LINE
  5
22E
100
AcDbEntity
  8
0
100
AcDbLine
 62
7
  6
CONTINUOUS
 10
114.885551356
 20
339.038512035
 11
114.885551356
 21
340.038512035
  0
LINE
  5
22F
100
AcDbEntity
  8
0
100
AcDbLine
 62
7
  6
CONTINUOUS
 10
137.8855513561
 20
298.0385120344
 11
138.0587564369
 21
297.7385120344
  0
LINE
  5
230
100
AcDbEntity
  8
0
100
AcDbLine
 62
7
  6
CONTINUOUS
 10
118.385551356
 20
337.7385120344
 11
118.385551356
 21
335.7385120344
  0
LINE
  5
231
100
AcDbEntity
  8
0
100
AcDbLine
 62
7
  6
CONTINUOUS
 10
122.885551356
 20
334.038512035
 11
122.885551356
 21
335.038512035
  0
LINE
  5
232
100
AcDbEntity
  8
0
100
AcDbLine
 62
7
  6
CONTINUOUS
 10
123.1120486641
 20
333.738512035
 11
123.1120486641
 21
328.9850940224
  0
LINE
  5
233
100
AcDbEntity
  8
0
100
AcDbLine
 62
7
  6
CONTINUOUS
 10
123.3422741609
 20
335.038512035
 11
123.3422741609
 21
335.738512035
  0
LINE
  5
234
100
AcDbEntity
  8
0
100
AcDbLine
 62
7
  6
CONTINUOUS
 10
124.1254313143
 20
335.738512035
 11
124.1254313143
 21
335.038512035
  0
LINE
  5
235
100
AcDbEntity
  8
0
100
AcDbLine
 62
7
  6
CONTINUOUS
 10
125.885551356
 20
333.738512035
 11
125.885551356
 21
328.538512035
  0
LINE
  5
236
100
AcDbEntity
  8
0
100
AcDbLine
 62
7
  6
CONTINUOUS
 10
125.885551356
 20
335.038512035
 11
125.885551356
 21
335.7385120344
  0
LINE
  5
237
100
AcDbEntity
  8
0
100
AcDbLine
 62
7
  6
CONTINUOUS
 10
125.885551356
 20
337.7385120344
 11
125.885551356
 21
339.197262035
  0
LINE
  5
238
100
AcDbEntity
  8
0
100
AcDbLine
 62
7
  6
CONTINUOUS
 10
125.885551356
 20
339.738512035
 11
125.885551356
 21
340.488512035
  0
LINE
  5
239
100
AcDbEntity
  8
0
100
AcDbLine
 62
7
  6
CONTINUOUS
 10
125.9988000101
 20
333.738512035
 11
125.9988000101
 21
328.9850940224
  0
LINE
  5
23A
100
AcDbEntity
  8
0
100
AcDbLine
 62
7
  6
CONTINUOUS
 10
126.385551356
 20
337.7385120344
 11
126.385551356
 21
335.7385120344
  0
LINE
  5
23B
100
AcDbEntity
  8
0
100
AcDbLine
 62
7
  6
CONTINUOUS
 10
128.1023942027
 20
335.038512035
 11
128.1023942027
 21
335.738512035
  0
LINE
  5
23C
100
AcDbEntity
  8
0
100
AcDbLine
 62
7
  6
CONTINUOUS
 10
129.6687085093
 20
335.738512035
 11
129.6687085093
 21
335.038512035
  0
LINE
  5
23D
100
AcDbEntity
  8
0
100
AcDbLine
 62
7
  6
CONTINUOUS
 10
131.772302702
 20
333.738512035
 11
131.772302702
 21
328.9850940224
  0
LINE
  5
23E
100
AcDbEntity
  8
0
100
AcDbLine
 62
7
  6
CONTINUOUS
 10
131.885551356
 20
340.488512035
 11
131.885551356
 21
339.738512035
  0
LINE
  5
23F
100
AcDbEntity
  8
0
100
AcDbLine
 62
7
  6
CONTINUOUS
 10
131.885551356
 20
339.197262035
 11
131.885551356
 21
337.7385120344
  0
LINE
  5
240
100
AcDbEntity
  8
0
100
AcDbLine
 62
7
  6
CONTINUOUS
 10
131.885551356
 20
335.7385120344
 11
131.885551356
 21
335.038512035
  0
LINE
  5
241
100
AcDbEntity
  8
0
100
AcDbLine
 62
7
  6
CONTINUOUS
 10
131.885551356
 20
333.738512035
 11
131.885551356
 21
328.538512035
  0
LINE
  5
242
100
AcDbEntity
  8
0
100
AcDbLine
 62
7
  6
CONTINUOUS
 10
151.885551356
 20
472.738512035
 11
171.885551356
 21
492.738512035
  0
LINE
  5
243
100
AcDbEntity
  8
0
100
AcDbLine
 62
7
  6
CONTINUOUS
 10
137.885551356
 20
318.0385120344
 11
138.0587564368
 21
317.7385120344
  0
LINE
  5
244
100
AcDbEntity
  8
0
100
AcDbLine
 62
7
  6
CONTINUOUS
 10
157.3855513561
 20
305.2385120345
 11
157.0968762215
 21
305.7385120345
  0
LINE
  5
245
100
AcDbEntity
  8
0
100
AcDbLine
 62
7
  6
CONTINUOUS
 10
131.6941905834
 20
339.5471512624
 11
131.885551356
 21
339.197262035
  0
LINE
  5
246
100
AcDbEntity
  8
0
100
AcDbLine
 62
7
  6
CONTINUOUS
 10
133.6456713978
 20
335.038512035
 11
133.6456713978
 21
335.738512035
  0
LINE
  5
247
100
AcDbEntity
  8
0
100
AcDbLine
 62
7
  6
CONTINUOUS
 10
134.4288285511
 20
335.738512035
 11
134.4288285511
 21
335.038512035
  0
LINE
  5
248
100
AcDbEntity
  8
0
100
AcDbLine
 62
7
  6
CONTINUOUS
 10
134.6590540479
 20
333.738512035
 11
134.6590540479
 21
328.9850940224
  0
LINE
  5
249
100
AcDbEntity
  8
0
100
AcDbLine
 62
7
  6
CONTINUOUS
 10
134.885551356
 20
334.038512035
 11
134.885551356
 21
335.038512035
  0
LINE
  5
24A
100
AcDbEntity
  8
0
100
AcDbLine
 62
7
  6
CONTINUOUS
 10
137.885551356
 20
327.4384519299
 11
137.885551356
 21
318.038572139
  0
LINE
  5
24B
100
AcDbEntity
  8
0
100
AcDbLine
 62
7
  6
CONTINUOUS
 10
137.8855513561
 20
307.4384519299
 11
137.8855513561
 21
298.038572139
  0
LINE
  5
24C
100
AcDbEntity
  8
0
100
AcDbLine
 62
7
  6
CONTINUOUS
 10
139.8855513561
 20
304.459089171
 11
139.8855513561
 21
306.0179348978
  0
LINE
  5
24D
100
AcDbEntity
  8
0
100
AcDbLine
 62
7
  6
CONTINUOUS
 10
139.885551356
 20
324.459089171
 11
139.885551356
 21
326.0179348978
  0
LINE
  5
24E
100
AcDbEntity
  8
0
100
AcDbLine
 62
7
  6
CONTINUOUS
 10
140.885551356
 20
340.738512035
 11
140.885551356
 21
337.738512035
  0
LINE
  5
24F
100
AcDbEntity
  8
0
100
AcDbLine
 62
7
  6
CONTINUOUS
 10
141.3855513561
 20
287.7385120344
 11
141.385551356
 21
333.7385120344
  0
LINE
  5
250
100
AcDbEntity
  8
0
100
AcDbLine
 62
7
  6
CONTINUOUS
 10
143.3855513561
 20
287.7385120344
 11
143.385551356
 21
333.7385120344
  0
LINE
  5
251
100
AcDbEntity
  8
0
100
AcDbLine
 62
7
  6
CONTINUOUS
 10
103.885551356
 20
333.538512035
 11
103.1120486641
 21
333.9850940224
  0
LINE
  5
252
100
AcDbEntity
  8
0
100
AcDbLine
 62
7
  6
CONTINUOUS
 10
123.885551356
 20
328.538512035
 11
123.1120486641
 21
328.9850940224
  0
LINE
  5
253
100
AcDbEntity
  8
0
100
AcDbLine
 62
7
  6
CONTINUOUS
 10
104.1254313143
 20
340.738512035
 11
105.3154613247
 21
340.038512035
  0
LINE
  5
254
100
AcDbEntity
  8
0
100
AcDbLine
 62
7
  6
CONTINUOUS
 10
126.0769121287
 20
339.5471512624
 11
125.885551356
 21
339.738512035
  0
LINE
  5
255
100
AcDbEntity
  8
0
100
AcDbLine
 62
7
  6
CONTINUOUS
 10
131.698051356
 20
340.676012035
 11
131.885551356
 21
340.488512035
  0
LINE
  5
256
100
AcDbEntity
  8
0
100
AcDbLine
 62
7
  6
CONTINUOUS
 10
157.385551356
 20
325.2385120345
 11
157.0968762214
 21
325.7385120345
  0
LINE
  5
257
100
AcDbEntity
  8
0
100
AcDbLine
 62
7
  6
CONTINUOUS
 10
151.885551356
 20
346.738512035
 11
151.885551356
 21
472.738512035
  0
LINE
  5
258
100
AcDbEntity
  8
0
100
AcDbLine
 62
7
  6
CONTINUOUS
 10
157.0968762215
 20
299.7385120345
 11
157.0968762215
 21
305.7385120345
  0
LINE
  5
259
100
AcDbEntity
  8
0
100
AcDbLine
 62
7
  6
CONTINUOUS
 10
157.0968762214
 20
319.7385120345
 11
157.0968762214
 21
325.7385120345
  0
LINE
  5
25A
100
AcDbEntity
  8
0
100
AcDbLine
 62
7
  6
CONTINUOUS
 10
157.3855513561
 20
300.2385772592
 11
157.3855513561
 21
305.2384468097
  0
LINE
  5
25B
100
AcDbEntity
  8
0
100
AcDbLine
 62
7
  6
CONTINUOUS
 10
157.385551356
 20
320.2385772592
 11
157.385551356
 21
325.2384468097
  0
LINE
  5
25C
100
AcDbEntity
  8
0
100
AcDbLine
 62
7
  6
CONTINUOUS
 10
163.385551356
 20
327.738512035
 11
163.385551356
 21
337.738512035
  0
LINE
  5
25D
100
AcDbEntity
  8
0
100
AcDbLine
 62
7
  6
CONTINUOUS
 10
124.1254313143
 20
335.738512035
 11
125.3154613247
 21
335.038512035
  0
LINE
  5
25E
100
AcDbEntity
  8
0
100
AcDbLine
 62
7
  6
CONTINUOUS
 10
168.385551356
 20
322.738512035
 11
163.385551356
 21
327.738512035
  0
LINE
  5
25F
100
AcDbEntity
  8
0
100
AcDbLine
 62
7
  6
CONTINUOUS
 10
167.885551356
 20
334.238512035
 11
167.885551356
 21
329.038512035
  0
LINE
  5
260
100
AcDbEntity
  8
0
100
AcDbLine
 62
7
  6
CONTINUOUS
 10
173.885551356
 20
334.238512035
 11
173.885551356
 21
329.038512035
  0
LINE
  5
261
100
AcDbEntity
  8
0
100
AcDbLine
 62
7
  6
CONTINUOUS
 10
177.385551356
 20
346.738512035
 11
177.385551356
 21
492.738512035
  0
LINE
  5
262
100
AcDbEntity
  8
0
100
AcDbLine
 62
7
  6
CONTINUOUS
 10
179.885551356
 20
493.738512035
 11
179.885551356
 21
346.738512035
  0
LINE
  5
263
100
AcDbEntity
  8
0
100
AcDbLine
 62
7
  6
CONTINUOUS
 10
180.885551356
 20
491.738512035
 11
180.885551356
 21
478.738512035
  0
LINE
  5
264
100
AcDbEntity
  8
0
100
AcDbLine
 62
7
  6
CONTINUOUS
 10
181.385551356
 20
492.5313899143
 11
181.385551356
 21
346.738512035
  0
LINE
  5
265
100
AcDbEntity
  8
0
100
AcDbLine
 62
7
  6
CONTINUOUS
 10
125.885551356
 20
339.197262035
 11
126.0769121287
 21
339.5471512624
  0
LINE
  5
266
100
AcDbEntity
  8
0
100
AcDbLine
 62
7
  6
CONTINUOUS
 10
76.385551356
 20
335.279762035
 11
75.844301356
 21
334.738512035
  0
LINE
  5
267
100
AcDbEntity
  8
0
100
AcDbLine
 62
7
  6
CONTINUOUS
 10
143.3855513561
 20
287.7385120344
 11
141.3855513561
 21
287.7385120344
  0
LINE
  5
268
100
AcDbEntity
  8
0
100
AcDbLine
 62
7
  6
CONTINUOUS
 10
408.385551356
 20
287.738512035
 11
410.385551356
 21
287.738512035
  0
LINE
  5
269
100
AcDbEntity
  8
0
100
AcDbLine
 62
7
  6
CONTINUOUS
 10
143.3855513561
 20
295.7385120344
 11
141.3855513561
 21
295.7385120344
  0
LINE
  5
26A
100
AcDbEntity
  8
0
100
AcDbLine
 62
7
  6
CONTINUOUS
 10
408.385551356
 20
295.738512035
 11
410.385551356
 21
295.738512035
  0
LINE
  5
26B
100
AcDbEntity
  8
0
100
AcDbLine
 62
7
  6
CONTINUOUS
 10
185.885551356
 20
346.738512035
 11
185.885551356
 21
432.738512035
  0
LINE
  5
26C
100
AcDbEntity
  8
0
100
AcDbLine
 62
7
  6
CONTINUOUS
 10
188.885551356
 20
432.738512035
 11
188.885551356
 21
346.738512035
  0
LINE
  5
26D
100
AcDbEntity
  8
0
100
AcDbLine
 62
7
  6
CONTINUOUS
 10
197.4532962479
 20
440.3648043417
 11
196.2454102092
 21
432.738512035
  0
LINE
  5
26E
100
AcDbEntity
  8
0
100
AcDbLine
 62
7
  6
CONTINUOUS
 10
208.3084246321
 20
463.6488030057
 11
199.2286146373
 21
445.8286725219
  0
LINE
  5
26F
100
AcDbEntity
  8
0
100
AcDbLine
 62
7
  6
CONTINUOUS
 10
207.247673355
 20
441.7427580242
 11
216.3274833498
 21
459.562888508
  0
LINE
  5
270
100
AcDbEntity
  8
0
100
AcDbLine
 62
7
  6
CONTINUOUS
 10
137.885551356
 20
327.4385120344
 11
138.0587564368
 21
327.7385120344
  0
LINE
  5
271
100
AcDbEntity
  8
0
100
AcDbLine
 62
7
  6
CONTINUOUS
 10
190.8440994717
 20
416.238512035
 11
192.8648254138
 21
419.738512035
  0
LINE
  5
272
100
AcDbEntity
  8
0
100
AcDbLine
 62
7
  6
CONTINUOUS
 10
198.9270032403
 20
416.238512035
 11
196.9062772982
 21
412.738512035
  0
LINE
  5
273
100
AcDbEntity
  8
0
100
AcDbLine
 62
7
  6
CONTINUOUS
 10
235.3733580472
 20
472.8928409676
 11
221.2312224235
 21
458.7507053438
  0
LINE
  5
274
100
AcDbEntity
  8
0
100
AcDbLine
 62
7
  6
CONTINUOUS
 10
230.9221223874
 20
463.2019410036
 11
232.1949145935
 21
464.4747332098
  0
LINE
  5
275
100
AcDbEntity
  8
0
100
AcDbLine
 62
7
  6
CONTINUOUS
 10
259.6018732803
 20
484.3891545694
 11
241.1242826301
 21
476.7354859221
  0
LINE
  5
276
100
AcDbEntity
  8
0
100
AcDbLine
 62
7
  6
CONTINUOUS
 10
244.5684335214
 20
468.4205701295
 11
263.0460241716
 21
476.0742387768
  0
LINE
  5
277
100
AcDbEntity
  8
0
100
AcDbLine
 62
7
  6
CONTINUOUS
 10
221.7580800972
 20
469.2185978937
 11
222.1220871713
 21
469.3689292114
  0
LINE
  5
278
100
AcDbEntity
  8
0
100
AcDbLine
 62
7
  6
CONTINUOUS
 10
426.885551356
 20
333.738512035
 11
428.885551356
 21
334.038512035
  0
LINE
  5
279
100
AcDbEntity
  8
0
100
AcDbLine
 62
7
  6
CONTINUOUS
 10
413.7123416753
 20
297.738512035
 11
410.385551356
 21
297.738512035
  0
LINE
  5
27A
100
AcDbEntity
  8
0
100
AcDbLine
 62
7
  6
CONTINUOUS
 10
138.0587610368
 20
297.7385120344
 11
141.3855513561
 21
297.7385120344
  0
LINE
  5
27B
100
AcDbEntity
  8
0
100
AcDbLine
 62
7
  6
CONTINUOUS
 10
411.885551356
 20
299.4590891716
 11
413.6659536879
 21
299.4590891716
  0
LINE
  5
27C
100
AcDbEntity
  8
0
100
AcDbLine
 62
7
  6
CONTINUOUS
 10
408.385551356
 20
299.738512035
 11
394.6742264906
 21
299.738512035
  0
LINE
  5
27D
100
AcDbEntity
  8
0
100
AcDbLine
 62
7
  6
CONTINUOUS
 10
143.3855513561
 20
299.7385120344
 11
157.0968762215
 21
299.7385120345
  0
LINE
  5
27E
100
AcDbEntity
  8
0
100
AcDbLine
 62
7
  6
CONTINUOUS
 10
411.885551356
 20
301.0179348984
 11
413.6659536879
 21
301.0179348984
  0
LINE
  5
27F
100
AcDbEntity
  8
0
100
AcDbLine
 62
7
  6
CONTINUOUS
 10
413.2657642879
 20
302.738512035
 11
410.385551356
 21
302.738512035
  0
LINE
  5
280
100
AcDbEntity
  8
0
100
AcDbLine
 62
7
  6
CONTINUOUS
 10
138.5053384243
 20
302.7385120344
 11
141.3855513561
 21
302.7385120344
  0
LINE
  5
281
100
AcDbEntity
  8
0
100
AcDbLine
 62
7
  6
CONTINUOUS
 10
139.8855513561
 20
304.459089171
 11
138.1051490242
 21
304.459089171
  0
LINE
  5
282
100
AcDbEntity
  8
0
100
AcDbLine
 62
7
  6
CONTINUOUS
 10
408.385551356
 20
305.738512035
 11
394.6742264906
 21
305.738512035
  0
LINE
  5
283
100
AcDbEntity
  8
0
100
AcDbLine
 62
7
  6
CONTINUOUS
 10
143.3855513561
 20
305.7385120344
 11
157.0968762215
 21
305.7385120345
  0
LINE
  5
284
100
AcDbEntity
  8
0
100
AcDbLine
 62
7
  6
CONTINUOUS
 10
139.8855513561
 20
306.0179348978
 11
138.1051490242
 21
306.0179348978
  0
LINE
  5
285
100
AcDbEntity
  8
0
100
AcDbLine
 62
7
  6
CONTINUOUS
 10
138.0587610368
 20
307.7385120344
 11
141.3855513561
 21
307.7385120344
  0
LINE
  5
286
100
AcDbEntity
  8
0
100
AcDbLine
 62
7
  6
CONTINUOUS
 10
410.385551356
 20
307.738512035
 11
413.7123416753
 21
307.738512035
  0
LINE
  5
287
100
AcDbEntity
  8
0
100
AcDbLine
 62
7
  6
CONTINUOUS
 10
124.885551356
 20
333.738512035
 11
122.885551356
 21
334.038512035
  0
LINE
  5
288
100
AcDbEntity
  8
0
100
AcDbLine
 62
7
  6
CONTINUOUS
 10
200.885551356
 20
432.738512035
 11
200.885551356
 21
346.738512035
  0
LINE
  5
289
100
AcDbEntity
  8
0
100
AcDbLine
 62
7
  6
CONTINUOUS
 10
208.385551356
 20
407.738512035
 11
208.385551356
 21
427.738512035
  0
LINE
  5
28A
100
AcDbEntity
  8
0
100
AcDbLine
 62
7
  6
CONTINUOUS
 10
203.2138020125
 20
419.2031273445
 11
206.3424913133
 21
438.9568941564
  0
LINE
  5
28B
100
AcDbEntity
  8
0
100
AcDbLine
 62
7
  6
CONTINUOUS
 10
217.3885774689
 20
452.999780761
 11
209.7349088216
 21
434.5221901107
  0
LINE
  5
28C
100
AcDbEntity
  8
0
100
AcDbLine
 62
7
  6
CONTINUOUS
 10
218.0498246142
 20
431.0780392194
 11
225.7034932615
 21
449.5556298697
  0
LINE
  5
28D
100
AcDbEntity
  8
0
100
AcDbLine
 62
7
  6
CONTINUOUS
 10
137.8855513561
 20
307.4385120344
 11
138.0587564369
 21
307.7385120344
  0
LINE
  5
28E
100
AcDbEntity
  8
0
100
AcDbLine
 62
7
  6
CONTINUOUS
 10
157.385551356
 20
320.2385120345
 11
157.0968762214
 21
319.7385120345
  0
LINE
  5
28F
100
AcDbEntity
  8
0
100
AcDbLine
 62
7
  6
CONTINUOUS
 10
227.5951834541
 20
452.3867443132
 11
241.7373190779
 21
466.5288799369
  0
LINE
  5
290
100
AcDbEntity
  8
0
100
AcDbLine
 62
7
  6
CONTINUOUS
 10
125.885551356
 20
340.488512035
 11
126.073051356
 21
340.676012035
  0
LINE
  5
291
100
AcDbEntity
  8
0
100
AcDbLine
 62
7
  6
CONTINUOUS
 10
131.885551356
 20
339.738512035
 11
131.6941905834
 21
339.5471512624
  0
LINE
  5
292
100
AcDbEntity
  8
0
100
AcDbLine
 62
7
  6
CONTINUOUS
 10
446.885551356
 20
338.738512035
 11
448.885551356
 21
339.038512035
  0
LINE
  5
293
100
AcDbEntity
  8
0
100
AcDbLine
 62
7
  6
CONTINUOUS
 10
461.885551356
 20
312.738512035
 11
459.885551356
 21
312.738512035
  0
LINE
  5
294
100
AcDbEntity
  8
0
100
AcDbLine
 62
7
  6
CONTINUOUS
 10
89.885551356
 20
312.738512035
 11
91.885551356
 21
312.738512035
  0
LINE
  5
295
100
AcDbEntity
  8
0
100
AcDbLine
 62
7
  6
CONTINUOUS
 10
413.7123416753
 20
317.738512035
 11
410.385551356
 21
317.738512035
  0
LINE
  5
296
100
AcDbEntity
  8
0
100
AcDbLine
 62
7
  6
CONTINUOUS
 10
138.0587610367
 20
317.7385120344
 11
141.385551356
 21
317.7385120344
  0
LINE
  5
297
100
AcDbEntity
  8
0
100
AcDbLine
 62
7
  6
CONTINUOUS
 10
411.885551356
 20
319.4590891716
 11
413.6659536879
 21
319.4590891716
  0
LINE
  5
298
100
AcDbEntity
  8
0
100
AcDbLine
 62
7
  6
CONTINUOUS
 10
408.385551356
 20
319.738512035
 11
394.6742264906
 21
319.738512035
  0
LINE
  5
299
100
AcDbEntity
  8
0
100
AcDbLine
 62
7
  6
CONTINUOUS
 10
143.385551356
 20
319.7385120344
 11
157.0968762214
 21
319.7385120345
  0
LINE
  5
29A
100
AcDbEntity
  8
0
100
AcDbLine
 62
7
  6
CONTINUOUS
 10
411.885551356
 20
321.0179348984
 11
413.6659536879
 21
321.0179348984
  0
LINE
  5
29B
100
AcDbEntity
  8
0
100
AcDbLine
 62
7
  6
CONTINUOUS
 10
461.885551356
 20
322.738512035
 11
459.885551356
 21
322.738512035
  0
LINE
  5
29C
100
AcDbEntity
  8
0
100
AcDbLine
 62
7
  6
CONTINUOUS
 10
413.2657642879
 20
322.738512035
 11
410.385551356
 21
322.738512035
  0
LINE
  5
29D
100
AcDbEntity
  8
0
100
AcDbLine
 62
7
  6
CONTINUOUS
 10
383.385551356
 20
322.738512035
 11
168.385551356
 21
322.738512035
  0
LINE
  5
29E
100
AcDbEntity
  8
0
100
AcDbLine
 62
7
  6
CONTINUOUS
 10
89.885551356
 20
322.738512035
 11
91.885551356
 21
322.738512035
  0
LINE
  5
29F
100
AcDbEntity
  8
0
100
AcDbLine
 62
7
  6
CONTINUOUS
 10
138.5053384242
 20
322.7385120344
 11
141.385551356
 21
322.7385120344
  0
LINE
  5
2A0
100
AcDbEntity
  8
0
100
AcDbLine
 62
7
  6
CONTINUOUS
 10
139.885551356
 20
324.459089171
 11
138.1051490241
 21
324.459089171
  0
LINE
  5
2A1
100
AcDbEntity
  8
0
100
AcDbLine
 62
7
  6
CONTINUOUS
 10
408.385551356
 20
325.738512035
 11
394.6742264906
 21
325.738512035
  0
LINE
  5
2A2
100
AcDbEntity
  8
0
100
AcDbLine
 62
7
  6
CONTINUOUS
 10
143.385551356
 20
325.7385120344
 11
157.0968762214
 21
325.7385120345
  0
LINE
  5
2A3
100
AcDbEntity
  8
0
100
AcDbLine
 62
7
  6
CONTINUOUS
 10
139.885551356
 20
326.0179348978
 11
138.1051490241
 21
326.0179348978
  0
LINE
  5
2A4
100
AcDbEntity
  8
0
100
AcDbLine
 62
7
  6
CONTINUOUS
 10
138.0587610367
 20
327.7385120344
 11
141.385551356
 21
327.7385120344
  0
LINE
  5
2A5
100
AcDbEntity
  8
0
100
AcDbLine
 62
7
  6
CONTINUOUS
 10
410.385551356
 20
327.738512035
 11
413.7123416753
 21
327.738512035
  0
LINE
  5
2A6
100
AcDbEntity
  8
0
100
AcDbLine
 62
7
  6
CONTINUOUS
 10
123.885551356
 20
328.538512035
 11
133.885551356
 21
328.538512035
  0
LINE
  5
2A7
100
AcDbEntity
  8
0
100
AcDbLine
 62
7
  6
CONTINUOUS
 10
417.885551356
 20
328.538512035
 11
427.885551356
 21
328.538512035
  0
LINE
  5
2A8
100
AcDbEntity
  8
0
100
AcDbLine
 62
7
  6
CONTINUOUS
 10
104.885551356
 20
338.738512035
 11
102.885551356
 21
339.038512035
  0
LINE
  5
2A9
100
AcDbEntity
  8
0
100
AcDbLine
 62
7
  6
CONTINUOUS
 10
200.885551356
 20
386.3964301369
 11
208.3084246321
 21
371.8282210644
  0
LINE
  5
2AA
100
AcDbEntity
  8
0
100
AcDbLine
 62
7
  6
CONTINUOUS
 10
206.3424913133
 20
396.5201299136
 11
203.2138020125
 21
416.2738967255
  0
LINE
  5
2AB
100
AcDbEntity
  8
0
100
AcDbLine
 62
7
  6
CONTINUOUS
 10
217.385551356
 20
427.738512035
 11
217.385551356
 21
407.738512035
  0
LINE
  5
2AC
100
AcDbEntity
  8
0
100
AcDbLine
 62
7
  6
CONTINUOUS
 10
157.3855513561
 20
300.2385120345
 11
157.0968762215
 21
299.7385120345
  0
LINE
  5
2AD
100
AcDbEntity
  8
0
100
AcDbLine
 62
7
  6
CONTINUOUS
 10
326.5571181264
 20
469.2209306614
 11
326.9212824046
 21
469.3708807647
  0
LINE
  5
2AE
100
AcDbEntity
  8
0
100
AcDbLine
 62
7
  6
CONTINUOUS
 10
279.885551356
 20
338.738512035
 11
281.885551356
 21
339.038512035
  0
LINE
  5
2AF
100
AcDbEntity
  8
0
100
AcDbLine
 62
7
  6
CONTINUOUS
 10
383.885551356
 20
329.038512035
 11
377.885551356
 21
329.038512035
  0
LINE
  5
2B0
100
AcDbEntity
  8
0
100
AcDbLine
 62
7
  6
CONTINUOUS
 10
173.885551356
 20
329.038512035
 11
167.885551356
 21
329.038512035
  0
LINE
  5
2B1
100
AcDbEntity
  8
0
100
AcDbLine
 62
7
  6
CONTINUOUS
 10
103.885551356
 20
333.538512035
 11
113.885551356
 21
333.538512035
  0
LINE
  5
2B2
100
AcDbEntity
  8
0
100
AcDbLine
 62
7
  6
CONTINUOUS
 10
270.885551356
 20
333.538512035
 11
280.885551356
 21
333.538512035
  0
LINE
  5
2B3
100
AcDbEntity
  8
0
100
AcDbLine
 62
7
  6
CONTINUOUS
 10
437.885551356
 20
333.538512035
 11
447.885551356
 21
333.538512035
  0
LINE
  5
2B4
100
AcDbEntity
  8
0
100
AcDbLine
 62
7
  6
CONTINUOUS
 10
428.6590540479
 20
333.738512035
 11
417.1120486641
 21
333.738512035
  0
LINE
  5
2B5
100
AcDbEntity
  8
0
100
AcDbLine
 62
7
  6
CONTINUOUS
 10
134.6590540479
 20
333.738512035
 11
123.1120486641
 21
333.738512035
  0
LINE
  5
2B6
100
AcDbEntity
  8
0
100
AcDbLine
 62
7
  6
CONTINUOUS
 10
122.885551356
 20
334.038512035
 11
134.885551356
 21
334.038512035
  0
LINE
  5
2B7
100
AcDbEntity
  8
0
100
AcDbLine
 62
7
  6
CONTINUOUS
 10
416.885551356
 20
334.038512035
 11
428.885551356
 21
334.038512035
  0
LINE
  5
2B8
100
AcDbEntity
  8
0
100
AcDbLine
 62
7
  6
CONTINUOUS
 10
383.885551356
 20
334.238512035
 11
377.885551356
 21
334.238512035
  0
LINE
  5
2B9
100
AcDbEntity
  8
0
100
AcDbLine
 62
7
  6
CONTINUOUS
 10
173.885551356
 20
334.238512035
 11
167.885551356
 21
334.238512035
  0
LINE
  5
2BA
100
AcDbEntity
  8
0
100
AcDbLine
 62
7
  6
CONTINUOUS
 10
388.385551356
 20
334.738512035
 11
281.6590540479
 21
334.738512035
  0
LINE
  5
2BB
100
AcDbEntity
  8
0
100
AcDbLine
 62
7
  6
CONTINUOUS
 10
270.1120486641
 20
334.738512035
 11
163.385551356
 21
334.738512035
  0
LINE
  5
2BC
100
AcDbEntity
  8
0
100
AcDbLine
 62
7
  6
CONTINUOUS
 10
70.926801356
 20
334.738512035
 11
75.844301356
 21
334.738512035
  0
LINE
  5
2BD
100
AcDbEntity
  8
0
100
AcDbLine
 62
7
  6
CONTINUOUS
 10
273.426801356
 20
334.738512035
 11
278.344301356
 21
334.738512035
  0
LINE
  5
2BE
100
AcDbEntity
  8
0
100
AcDbLine
 62
7
  6
CONTINUOUS
 10
475.926801356
 20
334.738512035
 11
480.844301356
 21
334.738512035
  0
LINE
  5
2BF
100
AcDbEntity
  8
0
100
AcDbLine
 62
7
  6
CONTINUOUS
 10
428.8855494831
 20
335.038512035
 11
428.4288285511
 21
335.038512035
  0
LINE
  5
2C0
100
AcDbEntity
  8
0
100
AcDbLine
 62
7
  6
CONTINUOUS
 10
427.6456713978
 20
335.038512035
 11
423.6687085093
 21
335.038512035
  0
LINE
  5
2C1
100
AcDbEntity
  8
0
100
AcDbLine
 62
7
  6
CONTINUOUS
 10
422.1023942027
 20
335.038512035
 11
418.1254313143
 21
335.038512035
  0
LINE
  5
2C2
100
AcDbEntity
  8
0
100
AcDbLine
 62
7
  6
CONTINUOUS
 10
417.3422741609
 20
335.038512035
 11
416.8855532289
 21
335.038512035
  0
LINE
  5
2C3
100
AcDbEntity
  8
0
100
AcDbLine
 62
7
  6
CONTINUOUS
 10
134.8855494831
 20
335.038512035
 11
134.4288285511
 21
335.038512035
  0
LINE
  5
2C4
100
AcDbEntity
  8
0
100
AcDbLine
 62
7
  6
CONTINUOUS
 10
133.6456713978
 20
335.038512035
 11
129.6687085093
 21
335.038512035
  0
LINE
  5
2C5
100
AcDbEntity
  8
0
100
AcDbLine
 62
7
  6
CONTINUOUS
 10
128.1023942027
 20
335.038512035
 11
124.1254313143
 21
335.038512035
  0
LINE
  5
2C6
100
AcDbEntity
  8
0
100
AcDbLine
 62
7
  6
CONTINUOUS
 10
123.3422741609
 20
335.038512035
 11
122.8855532289
 21
335.038512035
  0
LINE
  5
2C7
100
AcDbEntity
  8
0
100
AcDbLine
 62
7
  6
CONTINUOUS
 10
70.385551356
 20
335.279762035
 11
76.385551356
 21
335.279762035
  0
LINE
  5
2C8
100
AcDbEntity
  8
0
100
AcDbLine
 62
7
  6
CONTINUOUS
 10
272.885551356
 20
335.279762035
 11
278.885551356
 21
335.279762035
  0
LINE
  5
2C9
100
AcDbEntity
  8
0
100
AcDbLine
 62
7
  6
CONTINUOUS
 10
475.385551356
 20
335.279762035
 11
481.385551356
 21
335.279762035
  0
LINE
  5
2CA
100
AcDbEntity
  8
0
100
AcDbLine
 62
7
  6
CONTINUOUS
 10
118.385551356
 20
335.7385120344
 11
139.385551356
 21
335.7385120344
  0
LINE
  5
2CB
100
AcDbEntity
  8
0
100
AcDbLine
 62
7
  6
CONTINUOUS
 10
412.385551356
 20
335.738512035
 11
433.385551356
 21
335.738512035
  0
LINE
  5
2CC
100
AcDbEntity
  8
0
100
AcDbLine
 62
7
  6
CONTINUOUS
 10
410.885551356
 20
337.738512035
 11
281.6590540479
 21
337.738512035
  0
LINE
  5
2CD
100
AcDbEntity
  8
0
100
AcDbLine
 62
7
  6
CONTINUOUS
 10
270.1120486641
 20
337.738512035
 11
140.885551356
 21
337.738512035
  0
LINE
  5
2CE
100
AcDbEntity
  8
0
100
AcDbLine
 62
7
  6
CONTINUOUS
 10
118.385551356
 20
337.7385120344
 11
139.385551356
 21
337.7385120344
  0
LINE
  5
2CF
100
AcDbEntity
  8
0
100
AcDbLine
 62
7
  6
CONTINUOUS
 10
412.385551356
 20
337.738512035
 11
433.385551356
 21
337.738512035
  0
LINE
  5
2D0
100
AcDbEntity
  8
0
100
AcDbLine
 62
7
  6
CONTINUOUS
 10
448.6590540479
 20
338.738512035
 11
437.1120486641
 21
338.738512035
  0
LINE
  5
2D1
100
AcDbEntity
  8
0
100
AcDbLine
 62
7
  6
CONTINUOUS
 10
281.6590540479
 20
338.738512035
 11
278.885551356
 21
338.738512035
  0
LINE
  5
2D2
100
AcDbEntity
  8
0
100
AcDbLine
 62
7
  6
CONTINUOUS
 10
278.885551356
 20
338.738512035
 11
272.885551356
 21
338.738512035
  0
LINE
  5
2D3
100
AcDbEntity
  8
0
100
AcDbLine
 62
7
  6
CONTINUOUS
 10
272.885551356
 20
338.738512035
 11
270.1120486641
 21
338.738512035
  0
LINE
  5
2D4
100
AcDbEntity
  8
0
100
AcDbLine
 62
7
  6
CONTINUOUS
 10
114.6590540479
 20
338.738512035
 11
103.1120486641
 21
338.738512035
  0
LINE
  5
2D5
100
AcDbEntity
  8
0
100
AcDbLine
 62
7
  6
CONTINUOUS
 10
102.885551356
 20
339.038512035
 11
114.885551356
 21
339.038512035
  0
LINE
  5
2D6
100
AcDbEntity
  8
0
100
AcDbLine
 62
7
  6
CONTINUOUS
 10
269.885551356
 20
339.038512035
 11
272.885551356
 21
339.038512035
  0
LINE
  5
2D7
100
AcDbEntity
  8
0
100
AcDbLine
 62
7
  6
CONTINUOUS
 10
278.885551356
 20
339.038512035
 11
281.885551356
 21
339.038512035
  0
LINE
  5
2D8
100
AcDbEntity
  8
0
100
AcDbLine
 62
7
  6
CONTINUOUS
 10
436.885551356
 20
339.038512035
 11
448.885551356
 21
339.038512035
  0
LINE
  5
2D9
100
AcDbEntity
  8
0
100
AcDbLine
 62
7
  6
CONTINUOUS
 10
425.885551356
 20
339.197262035
 11
419.885551356
 21
339.197262035
  0
LINE
  5
2DA
100
AcDbEntity
  8
0
100
AcDbLine
 62
7
  6
CONTINUOUS
 10
131.885551356
 20
339.197262035
 11
125.885551356
 21
339.197262035
  0
LINE
  5
2DB
100
AcDbEntity
  8
0
100
AcDbLine
 62
7
  6
CONTINUOUS
 10
425.6941905834
 20
339.5471512624
 11
420.0769121287
 21
339.5471512624
  0
LINE
  5
2DC
100
AcDbEntity
  8
0
100
AcDbLine
 62
7
  6
CONTINUOUS
 10
131.6941905834
 20
339.5471512624
 11
126.0769121287
 21
339.5471512624
  0
LINE
  5
2DD
100
AcDbEntity
  8
0
100
AcDbLine
 62
7
  6
CONTINUOUS
 10
125.885551356
 20
339.738512035
 11
131.885551356
 21
339.738512035
  0
LINE
  5
2DE
100
AcDbEntity
  8
0
100
AcDbLine
 62
7
  6
CONTINUOUS
 10
419.885551356
 20
339.738512035
 11
425.885551356
 21
339.738512035
  0
LINE
  5
2DF
100
AcDbEntity
  8
0
100
AcDbLine
 62
7
  6
CONTINUOUS
 10
448.8855494831
 20
340.038512035
 11
448.4288285511
 21
340.038512035
  0
LINE
  5
2E0
100
AcDbEntity
  8
0
100
AcDbLine
 62
7
  6
CONTINUOUS
 10
447.6456713978
 20
340.038512035
 11
443.6687085093
 21
340.038512035
  0
LINE
  5
2E1
100
AcDbEntity
  8
0
100
AcDbLine
 62
7
  6
CONTINUOUS
 10
442.1023942027
 20
340.038512035
 11
438.1254313143
 21
340.038512035
  0
LINE
  5
2E2
100
AcDbEntity
  8
0
100
AcDbLine
 62
7
  6
CONTINUOUS
 10
437.3422741609
 20
340.038512035
 11
436.8855532289
 21
340.038512035
  0
LINE
  5
2E3
100
AcDbEntity
  8
0
100
AcDbLine
 62
7
  6
CONTINUOUS
 10
281.8855494831
 20
340.038512035
 11
281.4288285511
 21
340.038512035
  0
LINE
  5
2E4
100
AcDbEntity
  8
0
100
AcDbLine
 62
7
  6
CONTINUOUS
 10
280.6456713978
 20
340.038512035
 11
278.885551356
 21
340.038512035
  0
LINE
  5
2E5
100
AcDbEntity
  8
0
100
AcDbLine
 62
7
  6
CONTINUOUS
 10
272.885551356
 20
340.038512035
 11
271.1254313143
 21
340.038512035
  0
LINE
  5
2E6
100
AcDbEntity
  8
0
100
AcDbLine
 62
7
  6
CONTINUOUS
 10
270.3422741609
 20
340.038512035
 11
269.8855532289
 21
340.038512035
  0
LINE
  5
2E7
100
AcDbEntity
  8
0
100
AcDbLine
 62
7
  6
CONTINUOUS
 10
114.8855494831
 20
340.038512035
 11
114.4288285511
 21
340.038512035
  0
LINE
  5
2E8
100
AcDbEntity
  8
0
100
AcDbLine
 62
7
  6
CONTINUOUS
 10
113.6456713978
 20
340.038512035
 11
109.6687085093
 21
340.038512035
  0
LINE
  5
2E9
100
AcDbEntity
  8
0
100
AcDbLine
 62
7
  6
CONTINUOUS
 10
108.1023942027
 20
340.038512035
 11
104.1254313143
 21
340.038512035
  0
LINE
  5
2EA
100
AcDbEntity
  8
0
100
AcDbLine
 62
7
  6
CONTINUOUS
 10
103.3422741609
 20
340.038512035
 11
102.8855532289
 21
340.038512035
  0
LINE
  5
2EB
100
AcDbEntity
  8
0
100
AcDbLine
 62
7
  6
CONTINUOUS
 10
425.885551356
 20
340.488512035
 11
419.885551356
 21
340.488512035
  0
LINE
  5
2EC
100
AcDbEntity
  8
0
100
AcDbLine
 62
7
  6
CONTINUOUS
 10
131.885551356
 20
340.488512035
 11
125.885551356
 21
340.488512035
  0
LINE
  5
2ED
100
AcDbEntity
  8
0
100
AcDbLine
 62
7
  6
CONTINUOUS
 10
93.385551356
 20
340.738512035
 11
272.885551356
 21
340.738512035
  0
LINE
  5
2EE
100
AcDbEntity
  8
0
100
AcDbLine
 62
7
  6
CONTINUOUS
 10
278.885551356
 20
340.738512035
 11
458.385551356
 21
340.738512035
  0
LINE
  5
2EF
100
AcDbEntity
  8
0
100
AcDbLine
 62
7
  6
CONTINUOUS
 10
62.885551356
 20
341.238512035
 11
488.885551356
 21
341.238512035
  0
LINE
  5
2F0
100
AcDbEntity
  8
0
100
AcDbLine
 62
7
  6
CONTINUOUS
 10
62.0234194466
 20
344.738512035
 11
59.9275114645
 21
344.738512035
  0
LINE
  5
2F1
100
AcDbEntity
  8
0
100
AcDbLine
 62
7
  6
CONTINUOUS
 10
62.385551356
 20
344.738512035
 11
489.385551356
 21
344.738512035
  0
LINE
  5
2F2
100
AcDbEntity
  8
0
100
AcDbLine
 62
7
  6
CONTINUOUS
 10
271.885551356
 20
338.738512035
 11
269.885551356
 21
339.038512035
  0
LINE
  5
2F3
100
AcDbEntity
  8
0
100
AcDbLine
 62
7
  6
CONTINUOUS
 10
270.885551356
 20
333.538512035
 11
270.1120486641
 21
333.9850940224
  0
LINE
  5
2F4
100
AcDbEntity
  8
0
100
AcDbLine
 62
7
  6
CONTINUOUS
 10
221.2312224235
 20
376.7263187262
 11
235.3733580472
 21
362.5841831025
  0
LINE
  5
2F5
100
AcDbEntity
  8
0
100
AcDbLine
 62
7
  6
CONTINUOUS
 10
226.0123925725
 20
366.5737236222
 11
226.0138980341
 21
366.5713415379
  0
LINE
  5
2F6
100
AcDbEntity
  8
0
100
AcDbLine
 62
7
  6
CONTINUOUS
 10
221.9428499828
 20
364.0596735479
 11
221.9411549459
 21
364.0623848508
  0
LINE
  5
2F7
100
AcDbEntity
  8
0
100
AcDbLine
 62
7
  6
CONTINUOUS
 10
221.9741387579
 20
364.0792618689
 11
221.9724787352
 21
364.0819374919
  0
LINE
  5
2F8
100
AcDbEntity
  8
0
100
AcDbLine
 62
7
  6
CONTINUOUS
 10
226.0435303109
 20
366.5926988791
 11
226.0450172676
 21
366.5902548818
  0
LINE
  5
2F9
100
AcDbEntity
  8
0
100
AcDbLine
 62
7
  6
CONTINUOUS
 10
192.8648254138
 20
412.738512035
 11
190.8440994717
 21
416.238512035
  0
LINE
  5
2FA
100
AcDbEntity
  8
0
100
AcDbLine
 62
7
  6
CONTINUOUS
 10
196.9062772982
 20
419.738512035
 11
198.9270032403
 21
416.238512035
  0
LINE
  5
2FB
100
AcDbEntity
  8
0
100
AcDbLine
 62
7
  6
CONTINUOUS
 10
216.3274833498
 20
375.914135562
 11
207.247673355
 21
393.7342660458
  0
LINE
  5
2FC
100
AcDbEntity
  8
0
100
AcDbLine
 62
7
  6
CONTINUOUS
 10
209.7349088216
 20
400.9548339593
 11
217.3885774689
 21
382.4772433091
  0
LINE
  5
2FD
100
AcDbEntity
  8
0
100
AcDbLine
 62
7
  6
CONTINUOUS
 10
225.7034932615
 20
385.9213942004
 11
218.0498246142
 21
404.3989848506
  0
LINE
  5
2FE
100
AcDbEntity
  8
0
100
AcDbLine
 62
7
  6
CONTINUOUS
 10
221.6333103905
 20
364.8139499792
 11
221.6326594039
 21
364.8168786897
  0
LINE
  5
2FF
100
AcDbEntity
  8
0
100
AcDbLine
 62
7
  6
CONTINUOUS
 10
221.669035788
 20
364.821913477
 11
221.6683959215
 21
364.8247980051
  0
LINE
  5
300
100
AcDbEntity
  8
0
100
AcDbLine
 62
7
  6
CONTINUOUS
 10
226.3161474923
 20
365.7873275909
 11
226.3177092878
 21
365.7801107443
  0
LINE
  5
301
100
AcDbEntity
  8
0
100
AcDbLine
 62
7
  6
CONTINUOUS
 10
226.352097165
 20
365.7942500291
 11
226.3535016187
 21
365.7868876492
  0
LINE
  5
302
100
AcDbEntity
  8
0
100
AcDbLine
 62
7
  6
CONTINUOUS
 10
112.4556413873
 20
340.038512035
 11
113.6456713978
 21
340.738512035
  0
LINE
  5
303
100
AcDbEntity
  8
0
100
AcDbLine
 62
7
  6
CONTINUOUS
 10
113.885551356
 20
333.538512035
 11
114.6590540479
 21
333.9850940224
  0
LINE
  5
304
100
AcDbEntity
  8
0
100
AcDbLine
 62
7
  6
CONTINUOUS
 10
344.46267808
 20
463.6488030057
 11
336.4436193623
 21
459.562888508
  0
LINE
  5
305
100
AcDbEntity
  8
0
100
AcDbLine
 62
7
  6
CONTINUOUS
 10
207.247673355
 20
393.7342660458
 11
200.885551356
 21
390.4926029745
  0
LINE
  5
306
100
AcDbEntity
  8
0
100
AcDbLine
 62
7
  6
CONTINUOUS
 10
335.3825252431
 20
452.9997807609
 11
327.0676094505
 21
449.5556298697
  0
LINE
  5
307
100
AcDbEntity
  8
0
100
AcDbLine
 62
7
  6
CONTINUOUS
 10
218.0498246142
 20
404.3989848506
 11
209.7349088216
 21
400.9548339593
  0
LINE
  5
308
100
AcDbEntity
  8
0
100
AcDbLine
 62
7
  6
CONTINUOUS
 10
132.885551356
 20
333.738512035
 11
134.885551356
 21
334.038512035
  0
LINE
  5
309
100
AcDbEntity
  8
0
100
AcDbLine
 62
7
  6
CONTINUOUS
 10
62.385551356
 20
346.738512035
 11
489.385551356
 21
346.738512035
  0
LINE
  5
30A
100
AcDbEntity
  8
0
100
AcDbLine
 62
7
  6
CONTINUOUS
 10
493.385551356
 20
349.738512035
 11
491.385551356
 21
349.738512035
  0
LINE
  5
30B
100
AcDbEntity
  8
0
100
AcDbLine
 62
7
  6
CONTINUOUS
 10
58.385551356
 20
349.738512035
 11
60.385551356
 21
349.738512035
  0
LINE
  5
30C
100
AcDbEntity
  8
0
100
AcDbLine
 62
7
  6
CONTINUOUS
 10
228.9513864535
 20
350.238512035
 11
323.8197162585
 21
350.238512035
  0
LINE
  5
30D
100
AcDbEntity
  8
0
100
AcDbLine
 62
7
  6
CONTINUOUS
 10
266.385551356
 20
358.738512035
 11
286.385551356
 21
358.738512035
  0
LINE
  5
30E
100
AcDbEntity
  8
0
100
AcDbLine
 62
7
  6
CONTINUOUS
 10
493.385551356
 20
359.738512035
 11
491.385551356
 21
359.738512035
  0
LINE
  5
30F
100
AcDbEntity
  8
0
100
AcDbLine
 62
7
  6
CONTINUOUS
 10
58.385551356
 20
359.738512035
 11
60.385551356
 21
359.738512035
  0
LINE
  5
310
100
AcDbEntity
  8
0
100
AcDbLine
 62
7
  6
CONTINUOUS
 10
418.885551356
 20
333.738512035
 11
416.885551356
 21
334.038512035
  0
LINE
  5
311
100
AcDbEntity
  8
0
100
AcDbLine
 62
7
  6
CONTINUOUS
 10
241.1242826301
 20
358.7415381479
 11
259.6018732803
 21
351.0878695006
  0
LINE
  5
312
100
AcDbEntity
  8
0
100
AcDbLine
 62
7
  6
CONTINUOUS
 10
263.0460241716
 20
359.4027852932
 11
244.5684335214
 21
367.0564539405
  0
LINE
  5
313
100
AcDbEntity
  8
0
100
AcDbLine
 62
7
  6
CONTINUOUS
 10
271.1254313143
 20
340.738512035
 11
272.3154613247
 21
340.038512035
  0
LINE
  5
314
100
AcDbEntity
  8
0
100
AcDbLine
 62
7
  6
CONTINUOUS
 10
232.1949145935
 20
371.0022908603
 11
230.9221223874
 21
372.2750830664
  0
LINE
  5
315
100
AcDbEntity
  8
0
100
AcDbLine
 62
7
  6
CONTINUOUS
 10
273.426801356
 20
334.738512035
 11
272.885551356
 21
335.279762035
  0
LINE
  5
316
100
AcDbEntity
  8
0
100
AcDbLine
 62
7
  6
CONTINUOUS
 10
241.7373190779
 20
368.9481441331
 11
227.5951834541
 21
383.0902797569
  0
LINE
  5
317
100
AcDbEntity
  8
0
100
AcDbLine
 62
7
  6
CONTINUOUS
 10
221.6327601326
 20
469.6164235659
 11
221.6321122259
 21
469.6193529592
  0
LINE
  5
318
100
AcDbEntity
  8
0
100
AcDbLine
 62
7
  6
CONTINUOUS
 10
221.6684938838
 20
469.6243494953
 11
221.6678570506
 21
469.6272346946
  0
LINE
  5
319
100
AcDbEntity
  8
0
100
AcDbLine
 62
7
  6
CONTINUOUS
 10
226.3166181174
 20
470.5848768048
 11
226.3181723238
 21
470.57765832
  0
LINE
  5
31A
100
AcDbEntity
  8
0
100
AcDbLine
 62
7
  6
CONTINUOUS
 10
226.3525750489
 20
470.5917614394
 11
226.3539717605
 21
470.5843975869
  0
LINE
  5
31B
100
AcDbEntity
  8
0
100
AcDbLine
 62
7
  6
CONTINUOUS
 10
293.1692294317
 20
484.3891545694
 11
289.7250785404
 21
476.0742387768
  0
LINE
  5
31C
100
AcDbEntity
  8
0
100
AcDbLine
 62
7
  6
CONTINUOUS
 10
244.5684335214
 20
367.0564539405
 11
241.1242826301
 21
358.7415381479
  0
LINE
  5
31D
100
AcDbEntity
  8
0
100
AcDbLine
 62
7
  6
CONTINUOUS
 10
317.3977446648
 20
472.8928409676
 11
311.0337836342
 21
466.5288799369
  0
LINE
  5
31E
100
AcDbEntity
  8
0
100
AcDbLine
 62
7
  6
CONTINUOUS
 10
227.5951834541
 20
383.0902797569
 11
221.2312224235
 21
376.7263187262
  0
LINE
  5
31F
100
AcDbEntity
  8
0
100
AcDbLine
 62
7
  6
CONTINUOUS
 10
323.1960202706
 20
467.0945653618
 11
316.8355963016
 21
460.7341413928
  0
LINE
  5
320
100
AcDbEntity
  8
0
100
AcDbLine
 62
7
  6
CONTINUOUS
 10
313.5193759953
 20
457.4179210866
 11
310.5882190247
 21
454.4867641159
  0
LINE
  5
321
100
AcDbEntity
  8
0
100
AcDbLine
 62
7
  6
CONTINUOUS
 10
309.3265461468
 20
453.225091238
 11
305.4013416377
 21
449.299886729
  0
LINE
  5
322
100
AcDbEntity
  8
0
100
AcDbLine
 62
7
  6
CONTINUOUS
 10
304.1396687598
 20
448.0382138511
 11
300.3196036572
 21
444.2181487485
  0
LINE
  5
323
100
AcDbEntity
  8
0
100
AcDbLine
 62
7
  6
CONTINUOUS
 10
299.0579307793
 20
442.9564758706
 11
295.0976798014
 21
438.9962248927
  0
LINE
  5
324
100
AcDbEntity
  8
0
100
AcDbLine
 62
7
  6
CONTINUOUS
 10
293.8360069235
 20
437.7345520148
 11
289.9458488833
 21
433.8443939745
  0
LINE
  5
325
100
AcDbEntity
  8
0
100
AcDbLine
 62
7
  6
CONTINUOUS
 10
288.6841760054
 20
432.5827210966
 11
284.8247868888
 21
428.7233319801
  0
LINE
  5
326
100
AcDbEntity
  8
0
100
AcDbLine
 62
7
  6
CONTINUOUS
 10
283.5122645606
 20
427.4108096519
 11
279.4892278625
 21
423.3877729538
  0
LINE
  5
327
100
AcDbEntity
  8
0
100
AcDbLine
 62
7
  6
CONTINUOUS
 10
314.7920240767
 20
456.1449847557
 11
311.817531344
 21
453.170492023
  0
LINE
  5
328
100
AcDbEntity
  8
0
100
AcDbLine
 62
7
  6
CONTINUOUS
 10
310.5558584661
 20
451.9088191451
 11
306.6306539571
 21
447.9836146361
  0
LINE
  5
329
100
AcDbEntity
  8
0
100
AcDbLine
 62
7
  6
CONTINUOUS
 10
305.3689810792
 20
446.7219417582
 11
301.5489159766
 21
442.9018766556
  0
LINE
  5
32A
100
AcDbEntity
  8
0
100
AcDbLine
 62
7
  6
CONTINUOUS
 10
300.2872430987
 20
441.6402037777
 11
296.3269921208
 21
437.6799527998
  0
LINE
  5
32B
100
AcDbEntity
  8
0
100
AcDbLine
 62
7
  6
CONTINUOUS
 10
295.0653192429
 20
436.4182799219
 11
291.1751612027
 21
432.5281218816
  0
LINE
  5
32C
100
AcDbEntity
  8
0
100
AcDbLine
 62
7
  6
CONTINUOUS
 10
289.9134883247
 20
431.2664490037
 11
286.128469691
 21
427.48143037
  0
LINE
  5
32D
100
AcDbEntity
  8
0
100
AcDbLine
 62
7
  6
CONTINUOUS
 10
284.876088662
 20
426.2290493409
 11
280.941592304
 21
422.294552983
  0
LINE
  5
32E
100
AcDbEntity
  8
0
100
AcDbLine
 62
7
  6
CONTINUOUS
 10
271.829510408
 20
413.182471087
 11
267.8950140501
 21
409.2479747291
  0
LINE
  5
32F
100
AcDbEntity
  8
0
100
AcDbLine
 62
7
  6
CONTINUOUS
 10
266.642633021
 20
407.9955937
 11
262.8576143873
 21
404.2105750663
  0
LINE
  5
330
100
AcDbEntity
  8
0
100
AcDbLine
 62
7
  6
CONTINUOUS
 10
261.5959415094
 20
402.9489021884
 11
257.7057834691
 21
399.0587441481
  0
LINE
  5
331
100
AcDbEntity
  8
0
100
AcDbLine
 62
7
  6
CONTINUOUS
 10
256.4441105912
 20
397.7970712702
 11
252.4838596133
 21
393.8368202923
  0
LINE
  5
332
100
AcDbEntity
  8
0
100
AcDbLine
 62
7
  6
CONTINUOUS
 10
251.2221867354
 20
392.5751474144
 11
247.4021216329
 21
388.7550823119
  0
LINE
  5
333
100
AcDbEntity
  8
0
100
AcDbLine
 62
7
  6
CONTINUOUS
 10
246.1404487549
 20
387.4934094339
 11
242.2152442459
 21
383.5682049249
  0
LINE
  5
334
100
AcDbEntity
  8
0
100
AcDbLine
 62
7
  6
CONTINUOUS
 10
240.953571368
 20
382.306532047
 11
237.9790786353
 21
379.3320393143
  0
LINE
  5
335
100
AcDbEntity
  8
0
100
AcDbLine
 62
7
  6
CONTINUOUS
 10
234.6627142043
 20
376.0156748833
 11
228.3022902353
 21
369.6552509143
  0
LINE
  5
336
100
AcDbEntity
  8
0
100
AcDbLine
 62
7
  6
CONTINUOUS
 10
318.1083885077
 20
459.4613491867
 11
324.4688124767
 21
465.8217731557
  0
LINE
  5
337
100
AcDbEntity
  8
0
100
AcDbLine
 62
7
  6
CONTINUOUS
 10
273.2818748495
 20
412.0892511162
 11
269.2588381514
 21
408.0662144181
  0
LINE
  5
338
100
AcDbEntity
  8
0
100
AcDbLine
 62
7
  6
CONTINUOUS
 10
267.9463158232
 20
406.75369209
 11
264.0869267067
 21
402.8943029734
  0
LINE
  5
339
100
AcDbEntity
  8
0
100
AcDbLine
 62
7
  6
CONTINUOUS
 10
262.8252538288
 20
401.6326300955
 11
258.9350957885
 21
397.7424720553
  0
LINE
  5
33A
100
AcDbEntity
  8
0
100
AcDbLine
 62
7
  6
CONTINUOUS
 10
257.6734229106
 20
396.4807991773
 11
253.7131719327
 21
392.5205481995
  0
LINE
  5
33B
100
AcDbEntity
  8
0
100
AcDbLine
 62
7
  6
CONTINUOUS
 10
252.4514990548
 20
391.2588753215
 11
248.6314339522
 21
387.438810219
  0
LINE
  5
33C
100
AcDbEntity
  8
0
100
AcDbLine
 62
7
  6
CONTINUOUS
 10
247.3697610743
 20
386.1771373411
 11
243.4445565653
 21
382.251932832
  0
LINE
  5
33D
100
AcDbEntity
  8
0
100
AcDbLine
 62
7
  6
CONTINUOUS
 10
242.1828836874
 20
380.9902599541
 11
239.2517267167
 21
378.0591029834
  0
LINE
  5
33E
100
AcDbEntity
  8
0
100
AcDbLine
 62
7
  6
CONTINUOUS
 10
229.5750824415
 20
368.3824587082
 11
235.9355064104
 21
374.7428826772
  0
LINE
  5
33F
100
AcDbEntity
  8
0
100
AcDbLine
 62
7
  6
CONTINUOUS
 10
132.4556413873
 20
335.038512035
 11
133.6456713978
 21
335.738512035
  0
LINE
  5
340
100
AcDbEntity
  8
0
100
AcDbLine
 62
7
  6
CONTINUOUS
 10
133.885551356
 20
328.538512035
 11
134.6590540479
 21
328.9850940224
  0
LINE
  5
341
100
AcDbEntity
  8
0
100
AcDbLine
 62
7
  6
CONTINUOUS
 10
217.3885774689
 20
382.4772433091
 11
225.7034932615
 21
385.9213942004
  0
LINE
  5
342
100
AcDbEntity
  8
0
100
AcDbLine
 62
7
  6
CONTINUOUS
 10
334.7212780978
 20
431.0780392194
 11
343.0361938904
 21
434.5221901107
  0
LINE
  5
343
100
AcDbEntity
  8
0
100
AcDbLine
 62
7
  6
CONTINUOUS
 10
112.885551356
 20
338.738512035
 11
114.885551356
 21
339.038512035
  0
LINE
  5
344
100
AcDbEntity
  8
0
100
AcDbLine
 62
7
  6
CONTINUOUS
 10
225.845551356
 20
365.3385120574
 11
225.5016534743
 21
365.3385120533
  0
LINE
  5
345
100
AcDbEntity
  8
0
100
AcDbLine
 62
7
  6
CONTINUOUS
 10
330.6455504637
 20
365.3366900838
 11
330.3016527469
 21
365.3370269467
  0
LINE
  5
346
100
AcDbEntity
  8
0
100
AcDbLine
 62
7
  6
CONTINUOUS
 10
438.885551356
 20
338.738512035
 11
436.885551356
 21
339.038512035
  0
LINE
  5
347
100
AcDbEntity
  8
0
100
AcDbLine
 62
7
  6
CONTINUOUS
 10
266.385551356
 20
350.238512035
 11
266.385551356
 21
358.738512035
  0
LINE
  5
348
100
AcDbEntity
  8
0
100
AcDbLine
 62
7
  6
CONTINUOUS
 10
266.385551356
 20
476.738512035
 11
266.385551356
 21
485.238512035
  0
LINE
  5
349
100
AcDbEntity
  8
0
100
AcDbLine
 62
7
  6
CONTINUOUS
 10
269.885551356
 20
339.038512035
 11
269.885551356
 21
340.038512035
  0
LINE
  5
34A
100
AcDbEntity
  8
0
100
AcDbLine
 62
7
  6
CONTINUOUS
 10
270.1120486641
 20
338.738512035
 11
270.1120486641
 21
333.9850940224
  0
LINE
  5
34B
100
AcDbEntity
  8
0
100
AcDbLine
 62
7
  6
CONTINUOUS
 10
270.3422741609
 20
340.038512035
 11
270.3422741609
 21
340.738512035
  0
LINE
  5
34C
100
AcDbEntity
  8
0
100
AcDbLine
 62
7
  6
CONTINUOUS
 10
271.1254313143
 20
340.738512035
 11
271.1254313143
 21
340.038512035
  0
LINE
  5
34D
100
AcDbEntity
  8
0
100
AcDbLine
 62
7
  6
CONTINUOUS
 10
272.885551356
 20
335.279762035
 11
272.885551356
 21
333.538512035
  0
LINE
  5
34E
100
AcDbEntity
  8
0
100
AcDbLine
 62
7
  6
CONTINUOUS
 10
272.885551356
 20
335.279762035
 11
272.885551356
 21
341.238512035
  0
LINE
  5
34F
100
AcDbEntity
  8
0
100
AcDbLine
 62
7
  6
CONTINUOUS
 10
272.9988000101
 20
335.166513381
 11
272.9988000101
 21
333.9850940224
  0
LINE
  5
350
100
AcDbEntity
  8
0
100
AcDbLine
 62
7
  6
CONTINUOUS
 10
259.6018732803
 20
351.0878695006
 11
263.0460241716
 21
359.4027852932
  0
LINE
  5
351
100
AcDbEntity
  8
0
100
AcDbLine
 62
7
  6
CONTINUOUS
 10
308.2026691907
 20
468.4205701295
 11
311.6468200819
 21
476.7354859221
  0
LINE
  5
352
100
AcDbEntity
  8
0
100
AcDbLine
 62
7
  6
CONTINUOUS
 10
235.3733580472
 20
362.5841831025
 11
241.7373190779
 21
368.9481441331
  0
LINE
  5
353
100
AcDbEntity
  8
0
100
AcDbLine
 62
7
  6
CONTINUOUS
 10
325.1759192579
 20
452.3867443132
 11
331.5398802886
 21
458.7507053438
  0
LINE
  5
354
100
AcDbEntity
  8
0
100
AcDbLine
 62
7
  6
CONTINUOUS
 10
208.3084246321
 20
371.8282210644
 11
216.3274833498
 21
375.914135562
  0
LINE
  5
355
100
AcDbEntity
  8
0
100
AcDbLine
 62
7
  6
CONTINUOUS
 10
345.5234293571
 20
441.7427580242
 11
353.5424880748
 21
445.8286725219
  0
LINE
  5
356
100
AcDbEntity
  8
0
100
AcDbLine
 62
7
  6
CONTINUOUS
 10
226.0136902326
 20
471.3715917888
 11
226.0151931887
 21
471.3692081229
  0
LINE
  5
357
100
AcDbEntity
  8
0
100
AcDbLine
 62
7
  6
CONTINUOUS
 10
221.9415064594
 20
468.8618220818
 11
221.9398142742
 21
468.8645351655
  0
LINE
  5
358
100
AcDbEntity
  8
0
100
AcDbLine
 62
7
  6
CONTINUOUS
 10
221.9728158136
 20
468.8813774929
 11
221.9711586051
 21
468.8840548599
  0
LINE
  5
359
100
AcDbEntity
  8
0
100
AcDbLine
 62
7
  6
CONTINUOUS
 10
226.0448479055
 20
471.390534295
 11
226.0463322917
 21
471.3880887356
  0
LINE
  5
35A
100
AcDbEntity
  8
0
100
AcDbLine
 62
7
  6
CONTINUOUS
 10
241.1242826301
 20
476.7354859221
 11
244.5684335214
 21
468.4205701295
  0
LINE
  5
35B
100
AcDbEntity
  8
0
100
AcDbLine
 62
7
  6
CONTINUOUS
 10
289.7250785404
 20
359.4027852932
 11
293.1692294317
 21
351.0878695006
  0
LINE
  5
35C
100
AcDbEntity
  8
0
100
AcDbLine
 62
7
  6
CONTINUOUS
 10
278.772302702
 20
335.166513381
 11
278.772302702
 21
333.9850940224
  0
LINE
  5
35D
100
AcDbEntity
  8
0
100
AcDbLine
 62
7
  6
CONTINUOUS
 10
278.885551356
 20
341.238512035
 11
278.885551356
 21
335.279762035
  0
LINE
  5
35E
100
AcDbEntity
  8
0
100
AcDbLine
 62
7
  6
CONTINUOUS
 10
278.885551356
 20
335.279762035
 11
278.885551356
 21
333.538512035
  0
LINE
  5
35F
100
AcDbEntity
  8
0
100
AcDbLine
 62
7
  6
CONTINUOUS
 10
280.6456713978
 20
340.038512035
 11
280.6456713978
 21
340.738512035
  0
LINE
  5
360
100
AcDbEntity
  8
0
100
AcDbLine
 62
7
  6
CONTINUOUS
 10
281.4288285511
 20
340.738512035
 11
281.4288285511
 21
340.038512035
  0
LINE
  5
361
100
AcDbEntity
  8
0
100
AcDbLine
 62
7
  6
CONTINUOUS
 10
281.6590540479
 20
338.738512035
 11
281.6590540479
 21
333.9850940224
  0
LINE
  5
362
100
AcDbEntity
  8
0
100
AcDbLine
 62
7
  6
CONTINUOUS
 10
281.885551356
 20
339.038512035
 11
281.885551356
 21
340.038512035
  0
LINE
  5
363
100
AcDbEntity
  8
0
100
AcDbLine
 62
7
  6
CONTINUOUS
 10
286.385551356
 20
485.238512035
 11
286.385551356
 21
476.738512035
  0
LINE
  5
364
100
AcDbEntity
  8
0
100
AcDbLine
 62
7
  6
CONTINUOUS
 10
286.385551356
 20
358.738512035
 11
286.385551356
 21
350.238512035
  0
LINE
  5
365
100
AcDbEntity
  8
0
100
AcDbLine
 62
7
  6
CONTINUOUS
 10
221.7590485851
 20
364.4162562964
 11
222.12289739
 21
364.5669702713
  0
LINE
  5
366
100
AcDbEntity
  8
0
100
AcDbLine
 62
7
  6
CONTINUOUS
 10
200.885551356
 20
395.6558355326
 11
206.3424913133
 21
396.5201299136
  0
LINE
  5
367
100
AcDbEntity
  8
0
100
AcDbLine
 62
7
  6
CONTINUOUS
 10
349.5573006996
 20
419.2031273445
 11
350.885551356
 21
419.4135015813
  0
LINE
  5
368
100
AcDbEntity
  8
0
100
AcDbLine
 62
7
  6
CONTINUOUS
 10
344.385551356
 20
407.738512035
 11
335.385551356
 21
407.738512035
  0
LINE
  5
369
100
AcDbEntity
  8
0
100
AcDbLine
 62
7
  6
CONTINUOUS
 10
217.385551356
 20
407.738512035
 11
208.385551356
 21
407.738512035
  0
LINE
  5
36A
100
AcDbEntity
  8
0
100
AcDbLine
 62
7
  6
CONTINUOUS
 10
200.885551356
 20
419.5718860216
 11
203.2138020125
 21
419.2031273445
  0
LINE
  5
36B
100
AcDbEntity
  8
0
100
AcDbLine
 62
7
  6
CONTINUOUS
 10
346.4286113988
 20
396.5201299136
 11
350.885551356
 21
395.814219973
  0
LINE
  5
36C
100
AcDbEntity
  8
0
100
AcDbLine
 62
7
  6
CONTINUOUS
 10
209.7349088216
 20
434.5221901107
 11
218.0498246142
 21
431.0780392194
  0
LINE
  5
36D
100
AcDbEntity
  8
0
100
AcDbLine
 62
7
  6
CONTINUOUS
 10
327.0676094505
 20
385.9213942004
 11
335.3825252431
 21
382.4772433091
  0
LINE
  5
36E
100
AcDbEntity
  8
0
100
AcDbLine
 62
7
  6
CONTINUOUS
 10
199.2286146373
 20
445.8286725219
 11
207.247673355
 21
441.7427580242
  0
LINE
  5
36F
100
AcDbEntity
  8
0
100
AcDbLine
 62
7
  6
CONTINUOUS
 10
336.4436193623
 20
375.914135562
 11
344.46267808
 21
371.8282210644
  0
LINE
  5
370
100
AcDbEntity
  8
0
100
AcDbLine
 62
7
  6
CONTINUOUS
 10
417.885551356
 20
328.538512035
 11
417.1120486641
 21
328.9850940224
  0
LINE
  5
371
100
AcDbEntity
  8
0
100
AcDbLine
 62
7
  6
CONTINUOUS
 10
221.2312224235
 20
458.7507053438
 11
227.5951834541
 21
452.3867443132
  0
LINE
  5
372
100
AcDbEntity
  8
0
100
AcDbLine
 62
7
  6
CONTINUOUS
 10
311.0337836342
 20
368.9481441331
 11
317.3977446648
 21
362.5841831025
  0
LINE
  5
373
100
AcDbEntity
  8
0
100
AcDbLine
 62
7
  6
CONTINUOUS
 10
279.4892278625
 20
412.0892511162
 11
283.5122645606
 21
408.0662144181
  0
LINE
  5
374
100
AcDbEntity
  8
0
100
AcDbLine
 62
7
  6
CONTINUOUS
 10
284.8247868888
 20
406.75369209
 11
288.6841760054
 21
402.8943029734
  0
LINE
  5
375
100
AcDbEntity
  8
0
100
AcDbLine
 62
7
  6
CONTINUOUS
 10
289.9458488833
 20
401.6326300955
 11
293.8360069235
 21
397.7424720553
  0
LINE
  5
376
100
AcDbEntity
  8
0
100
AcDbLine
 62
7
  6
CONTINUOUS
 10
295.0976798014
 20
396.4807991773
 11
299.0579307793
 21
392.5205481995
  0
LINE
  5
377
100
AcDbEntity
  8
0
100
AcDbLine
 62
7
  6
CONTINUOUS
 10
300.3196036572
 20
391.2588753215
 11
304.1396687598
 21
387.438810219
  0
LINE
  5
378
100
AcDbEntity
  8
0
100
AcDbLine
 62
7
  6
CONTINUOUS
 10
305.4013416377
 20
386.1771373411
 11
309.3265461468
 21
382.251932832
  0
LINE
  5
379
100
AcDbEntity
  8
0
100
AcDbLine
 62
7
  6
CONTINUOUS
 10
310.5882190247
 20
380.9902599541
 11
313.5260869113
 21
378.0523920674
  0
LINE
  5
37A
100
AcDbEntity
  8
0
100
AcDbLine
 62
7
  6
CONTINUOUS
 10
316.8355963016
 20
374.7428826772
 11
323.1960202706
 21
368.3824587082
  0
LINE
  5
37B
100
AcDbEntity
  8
0
100
AcDbLine
 62
7
  6
CONTINUOUS
 10
358.9062772982
 20
412.738512035
 11
354.8648254138
 21
412.738512035
  0
LINE
  5
37C
100
AcDbEntity
  8
0
100
AcDbLine
 62
7
  6
CONTINUOUS
 10
196.9062772982
 20
412.738512035
 11
192.8648254138
 21
412.738512035
  0
LINE
  5
37D
100
AcDbEntity
  8
0
100
AcDbLine
 62
7
  6
CONTINUOUS
 10
192.8648254138
 20
419.738512035
 11
196.9062772982
 21
419.738512035
  0
LINE
  5
37E
100
AcDbEntity
  8
0
100
AcDbLine
 62
7
  6
CONTINUOUS
 10
354.8648254138
 20
419.738512035
 11
358.9062772982
 21
419.738512035
  0
LINE
  5
37F
100
AcDbEntity
  8
0
100
AcDbLine
 62
7
  6
CONTINUOUS
 10
437.885551356
 20
333.538512035
 11
437.1120486641
 21
333.9850940224
  0
LINE
  5
380
100
AcDbEntity
  8
0
100
AcDbLine
 62
7
  6
CONTINUOUS
 10
418.1254313143
 20
335.738512035
 11
419.3154613247
 21
335.038512035
  0
LINE
  5
381
100
AcDbEntity
  8
0
100
AcDbLine
 62
7
  6
CONTINUOUS
 10
228.3022902353
 20
465.8217731557
 11
234.6627142043
 21
459.4613491867
  0
LINE
  5
382
100
AcDbEntity
  8
0
100
AcDbLine
 62
7
  6
CONTINUOUS
 10
237.9727985803
 20
456.1512648107
 11
240.953571368
 21
453.170492023
  0
LINE
  5
383
100
AcDbEntity
  8
0
100
AcDbLine
 62
7
  6
CONTINUOUS
 10
242.2152442459
 20
451.9088191451
 11
246.1404487549
 21
447.9836146361
  0
LINE
  5
384
100
AcDbEntity
  8
0
100
AcDbLine
 62
7
  6
CONTINUOUS
 10
247.4021216329
 20
446.7219417582
 11
251.2221867354
 21
442.9018766556
  0
LINE
  5
385
100
AcDbEntity
  8
0
100
AcDbLine
 62
7
  6
CONTINUOUS
 10
252.4838596133
 20
441.6402037777
 11
256.4441105912
 21
437.6799527998
  0
LINE
  5
386
100
AcDbEntity
  8
0
100
AcDbLine
 62
7
  6
CONTINUOUS
 10
257.7057834691
 20
436.4182799219
 11
261.5959415094
 21
432.5281218816
  0
LINE
  5
387
100
AcDbEntity
  8
0
100
AcDbLine
 62
7
  6
CONTINUOUS
 10
262.8576143873
 20
431.2664490037
 11
266.642633021
 21
427.48143037
  0
LINE
  5
388
100
AcDbEntity
  8
0
100
AcDbLine
 62
7
  6
CONTINUOUS
 10
267.8950140501
 20
426.2290493409
 11
271.829510408
 21
422.294552983
  0
LINE
  5
389
100
AcDbEntity
  8
0
100
AcDbLine
 62
7
  6
CONTINUOUS
 10
280.941592304
 20
413.182471087
 11
284.876088662
 21
409.2479747291
  0
LINE
  5
38A
100
AcDbEntity
  8
0
100
AcDbLine
 62
7
  6
CONTINUOUS
 10
286.128469691
 20
407.9955937
 11
289.9134883247
 21
404.2105750663
  0
LINE
  5
38B
100
AcDbEntity
  8
0
100
AcDbLine
 62
7
  6
CONTINUOUS
 10
291.1751612027
 20
402.9489021884
 11
295.0653192429
 21
399.0587441481
  0
LINE
  5
38C
100
AcDbEntity
  8
0
100
AcDbLine
 62
7
  6
CONTINUOUS
 10
296.3269921208
 20
397.7970712702
 11
300.2872430987
 21
393.8368202923
  0
LINE
  5
38D
100
AcDbEntity
  8
0
100
AcDbLine
 62
7
  6
CONTINUOUS
 10
301.5489159766
 20
392.5751474144
 11
305.3689810792
 21
388.7550823119
  0
LINE
  5
38E
100
AcDbEntity
  8
0
100
AcDbLine
 62
7
  6
CONTINUOUS
 10
306.6306539571
 20
387.4934094339
 11
310.5558584661
 21
383.5682049249
  0
LINE
  5
38F
100
AcDbEntity
  8
0
100
AcDbLine
 62
7
  6
CONTINUOUS
 10
311.8175313441
 20
382.306532047
 11
314.7983041317
 21
379.3257592593
  0
LINE
  5
390
100
AcDbEntity
  8
0
100
AcDbLine
 62
7
  6
CONTINUOUS
 10
318.1083885077
 20
376.0156748833
 11
324.4688124767
 21
369.6552509143
  0
LINE
  5
391
100
AcDbEntity
  8
0
100
AcDbLine
 62
7
  6
CONTINUOUS
 10
239.2450158007
 20
457.4246320026
 11
242.1828836874
 21
454.4867641159
  0
LINE
  5
392
100
AcDbEntity
  8
0
100
AcDbLine
 62
7
  6
CONTINUOUS
 10
243.4445565653
 20
453.225091238
 11
247.3697610743
 21
449.299886729
  0
LINE
  5
393
100
AcDbEntity
  8
0
100
AcDbLine
 62
7
  6
CONTINUOUS
 10
248.6314339522
 20
448.0382138511
 11
252.4514990548
 21
444.2181487485
  0
LINE
  5
394
100
AcDbEntity
  8
0
100
AcDbLine
 62
7
  6
CONTINUOUS
 10
253.7131719327
 20
442.9564758706
 11
257.6734229106
 21
438.9962248927
  0
LINE
  5
395
100
AcDbEntity
  8
0
100
AcDbLine
 62
7
  6
CONTINUOUS
 10
258.9350957885
 20
437.7345520148
 11
262.8252538288
 21
433.8443939745
  0
LINE
  5
396
100
AcDbEntity
  8
0
100
AcDbLine
 62
7
  6
CONTINUOUS
 10
264.0869267067
 20
432.5827210966
 11
267.9463158232
 21
428.7233319801
  0
LINE
  5
397
100
AcDbEntity
  8
0
100
AcDbLine
 62
7
  6
CONTINUOUS
 10
269.2588381514
 20
427.4108096519
 11
273.2818748495
 21
423.3877729538
  0
LINE
  5
398
100
AcDbEntity
  8
0
100
AcDbLine
 62
7
  6
CONTINUOUS
 10
235.9355064104
 20
460.7341413928
 11
229.5750824415
 21
467.0945653618
  0
LINE
  5
399
100
AcDbEntity
  8
0
100
AcDbLine
 62
7
  6
CONTINUOUS
 10
331.5398802886
 20
376.7263187262
 11
325.1759192579
 21
383.0902797569
  0
LINE
  5
39A
100
AcDbEntity
  8
0
100
AcDbLine
 62
7
  6
CONTINUOUS
 10
241.7373190779
 20
466.5288799369
 11
235.3733580472
 21
472.8928409676
  0
LINE
  5
39B
100
AcDbEntity
  8
0
100
AcDbLine
 62
7
  6
CONTINUOUS
 10
330.8136015586
 20
366.5717376256
 11
330.8151046862
 21
366.5693540678
  0
LINE
  5
39C
100
AcDbEntity
  8
0
100
AcDbLine
 62
7
  6
CONTINUOUS
 10
326.7415982693
 20
364.0616751013
 11
326.739905889
 21
364.0643880633
  0
LINE
  5
39D
100
AcDbEntity
  8
0
100
AcDbLine
 62
7
  6
CONTINUOUS
 10
326.7729062172
 20
364.0812327638
 11
326.7712488162
 21
364.0839100116
  0
LINE
  5
39E
100
AcDbEntity
  8
0
100
AcDbLine
 62
7
  6
CONTINUOUS
 10
311.646820082
 20
358.7415381479
 11
308.2026691907
 21
367.0564539405
  0
LINE
  5
39F
100
AcDbEntity
  8
0
100
AcDbLine
 62
7
  6
CONTINUOUS
 10
263.0460241716
 20
476.0742387768
 11
259.6018732803
 21
484.3891545694
  0
LINE
  5
3A0
100
AcDbEntity
  8
0
100
AcDbLine
 62
7
  6
CONTINUOUS
 10
334.7212780978
 20
404.3989848506
 11
327.0676094505
 21
385.9213942004
  0
LINE
  5
3A1
100
AcDbEntity
  8
0
100
AcDbLine
 62
7
  6
CONTINUOUS
 10
325.1759192579
 20
383.0902797569
 11
311.0337836342
 21
368.9481441331
  0
LINE
  5
3A2
100
AcDbEntity
  8
0
100
AcDbLine
 62
7
  6
CONTINUOUS
 10
278.885551356
 20
335.279762035
 11
278.344301356
 21
334.738512035
  0
LINE
  5
3A3
100
AcDbEntity
  8
0
100
AcDbLine
 62
7
  6
CONTINUOUS
 10
321.8489803246
 20
372.2750830664
 11
320.5761881185
 21
371.0022908603
  0
LINE
  5
3A4
100
AcDbEntity
  8
0
100
AcDbLine
 62
7
  6
CONTINUOUS
 10
317.3977446648
 20
362.5841831025
 11
331.5398802886
 21
376.7263187262
  0
LINE
  5
3A5
100
AcDbEntity
  8
0
100
AcDbLine
 62
7
  6
CONTINUOUS
 10
279.4556413873
 20
340.038512035
 11
280.6456713978
 21
340.738512035
  0
LINE
  5
3A6
100
AcDbEntity
  8
0
100
AcDbLine
 62
7
  6
CONTINUOUS
 10
308.2026691907
 20
367.0564539405
 11
289.7250785404
 21
359.4027852932
  0
LINE
  5
3A7
100
AcDbEntity
  8
0
100
AcDbLine
 62
7
  6
CONTINUOUS
 10
293.1692294317
 20
351.0878695006
 11
311.646820082
 21
358.7415381479
  0
LINE
  5
3A8
100
AcDbEntity
  8
0
100
AcDbLine
 62
7
  6
CONTINUOUS
 10
326.5581462524
 20
364.4184377224
 11
326.9221425155
 21
364.5687952148
  0
LINE
  5
3A9
100
AcDbEntity
  8
0
100
AcDbLine
 62
7
  6
CONTINUOUS
 10
355.3178064641
 20
440.3648043417
 11
346.4286113988
 21
438.9568941564
  0
LINE
  5
3AA
100
AcDbEntity
  8
0
100
AcDbLine
 62
7
  6
CONTINUOUS
 10
203.2138020125
 20
416.2738967255
 11
200.885551356
 21
415.9051380484
  0
LINE
  5
3AB
100
AcDbEntity
  8
0
100
AcDbLine
 62
7
  6
CONTINUOUS
 10
208.385551356
 20
427.738512035
 11
217.385551356
 21
427.738512035
  0
LINE
  5
3AC
100
AcDbEntity
  8
0
100
AcDbLine
 62
7
  6
CONTINUOUS
 10
335.385551356
 20
427.738512035
 11
344.385551356
 21
427.738512035
  0
LINE
  5
3AD
100
AcDbEntity
  8
0
100
AcDbLine
 62
7
  6
CONTINUOUS
 10
365.885551356
 20
432.738512035
 11
350.885551356
 21
432.738512035
  0
LINE
  5
3AE
100
AcDbEntity
  8
0
100
AcDbLine
 62
7
  6
CONTINUOUS
 10
185.885551356
 20
432.738512035
 11
200.885551356
 21
432.738512035
  0
LINE
  5
3AF
100
AcDbEntity
  8
0
100
AcDbLine
 62
7
  6
CONTINUOUS
 10
350.885551356
 20
416.0635224887
 11
349.5573006996
 21
416.2738967255
  0
LINE
  5
3B0
100
AcDbEntity
  8
0
100
AcDbLine
 62
7
  6
CONTINUOUS
 10
206.3424913133
 20
438.9568941564
 11
197.4532962479
 21
440.3648043417
  0
LINE
  5
3B1
100
AcDbEntity
  8
0
100
AcDbLine
 62
7
  6
CONTINUOUS
 10
343.0361938904
 20
400.9548339593
 11
334.7212780978
 21
404.3989848506
  0
LINE
  5
3B2
100
AcDbEntity
  8
0
100
AcDbLine
 62
7
  6
CONTINUOUS
 10
225.7034932615
 20
449.5556298697
 11
217.3885774689
 21
452.999780761
  0
LINE
  5
3B3
100
AcDbEntity
  8
0
100
AcDbLine
 62
7
  6
CONTINUOUS
 10
350.885551356
 20
391.002128424
 11
345.5234293571
 21
393.7342660458
  0
LINE
  5
3B4
100
AcDbEntity
  8
0
100
AcDbLine
 62
7
  6
CONTINUOUS
 10
216.3274833498
 20
459.562888508
 11
208.3084246321
 21
463.6488030057
  0
LINE
  5
3B5
100
AcDbEntity
  8
0
100
AcDbLine
 62
7
  6
CONTINUOUS
 10
438.1254313143
 20
340.738512035
 11
439.3154613247
 21
340.038512035
  0
LINE
  5
3B6
100
AcDbEntity
  8
0
100
AcDbLine
 62
7
  6
CONTINUOUS
 10
330.8447578694
 20
366.5906823722
 11
330.8462424314
 21
366.5882369196
  0
LINE
  5
3B7
100
AcDbEntity
  8
0
100
AcDbLine
 62
7
  6
CONTINUOUS
 10
326.4327976812
 20
364.816254382
 11
326.4321495638
 21
364.8191837287
  0
LINE
  5
3B8
100
AcDbEntity
  8
0
100
AcDbLine
 62
7
  6
CONTINUOUS
 10
326.4685308624
 20
364.8241828809
 11
326.4678938216
 21
364.8270680345
  0
LINE
  5
3B9
100
AcDbEntity
  8
0
100
AcDbLine
 62
7
  6
CONTINUOUS
 10
331.116586014
 20
365.7850444267
 11
331.1181407395
 21
365.7778260537
  0
LINE
  5
3BA
100
AcDbEntity
  8
0
100
AcDbLine
 62
7
  6
CONTINUOUS
 10
331.1525424504
 20
365.7919316469
 11
331.1539396915
 21
365.7845678948
  0
LINE
  5
3BB
100
AcDbEntity
  8
0
100
AcDbLine
 62
7
  6
CONTINUOUS
 10
335.385551356
 20
407.738512035
 11
335.385551356
 21
427.738512035
  0
LINE
  5
3BC
100
AcDbEntity
  8
0
100
AcDbLine
 62
7
  6
CONTINUOUS
 10
335.3825252431
 20
382.4772433091
 11
343.0361938904
 21
400.9548339593
  0
LINE
  5
3BD
100
AcDbEntity
  8
0
100
AcDbLine
 62
7
  6
CONTINUOUS
 10
345.5234293571
 20
393.7342660458
 11
336.4436193623
 21
375.914135562
  0
LINE
  5
3BE
100
AcDbEntity
  8
0
100
AcDbLine
 62
7
  6
CONTINUOUS
 10
352.8440994717
 20
416.238512035
 11
354.8648254138
 21
419.738512035
  0
LINE
  5
3BF
100
AcDbEntity
  8
0
100
AcDbLine
 62
7
  6
CONTINUOUS
 10
360.9270032403
 20
416.238512035
 11
358.9062772982
 21
412.738512035
  0
LINE
  5
3C0
100
AcDbEntity
  8
0
100
AcDbLine
 62
7
  6
CONTINUOUS
 10
280.885551356
 20
333.538512035
 11
281.6590540479
 21
333.9850940224
  0
LINE
  5
3C1
100
AcDbEntity
  8
0
100
AcDbLine
 62
7
  6
CONTINUOUS
 10
420.0769121287
 20
339.5471512624
 11
419.885551356
 21
339.738512035
  0
LINE
  5
3C2
100
AcDbEntity
  8
0
100
AcDbLine
 62
7
  6
CONTINUOUS
 10
394.385551356
 20
300.238512035
 11
394.6742264906
 21
299.738512035
  0
LINE
  5
3C3
100
AcDbEntity
  8
0
100
AcDbLine
 62
7
  6
CONTINUOUS
 10
326.432214772
 20
469.6188873312
 11
326.4315699328
 21
469.6218174013
  0
LINE
  5
3C4
100
AcDbEntity
  8
0
100
AcDbLine
 62
7
  6
CONTINUOUS
 10
326.4679568024
 20
469.6267758414
 11
326.4673229905
 21
469.6296617059
  0
LINE
  5
3C5
100
AcDbEntity
  8
0
100
AcDbLine
 62
7
  6
CONTINUOUS
 10
344.385551356
 20
427.738512035
 11
344.385551356
 21
407.738512035
  0
LINE
  5
3C6
100
AcDbEntity
  8
0
100
AcDbLine
 62
7
  6
CONTINUOUS
 10
350.885551356
 20
432.738512035
 11
350.885551356
 21
346.738512035
  0
LINE
  5
3C7
100
AcDbEntity
  8
0
100
AcDbLine
 62
7
  6
CONTINUOUS
 10
349.5573006996
 20
416.2738967255
 11
346.4286113988
 21
396.5201299136
  0
LINE
  5
3C8
100
AcDbEntity
  8
0
100
AcDbLine
 62
7
  6
CONTINUOUS
 10
344.46267808
 20
371.8282210644
 11
350.885551356
 21
384.4338196314
  0
LINE
  5
3C9
100
AcDbEntity
  8
0
100
AcDbLine
 62
7
  6
CONTINUOUS
 10
225.8455503278
 20
470.1365563344
 11
225.5016526362
 21
470.1369179265
  0
LINE
  5
3CA
100
AcDbEntity
  8
0
100
AcDbLine
 62
7
  6
CONTINUOUS
 10
330.6455472606
 20
470.1346088322
 11
330.3016501361
 21
470.1353305006
  0
LINE
  5
3CB
100
AcDbEntity
  8
0
100
AcDbLine
 62
7
  6
CONTINUOUS
 10
425.698051356
 20
340.676012035
 11
425.885551356
 21
340.488512035
  0
LINE
  5
3CC
100
AcDbEntity
  8
0
100
AcDbLine
 62
7
  6
CONTINUOUS
 10
311.0337836342
 20
466.5288799369
 11
325.1759192579
 21
452.3867443132
  0
LINE
  5
3CD
100
AcDbEntity
  8
0
100
AcDbLine
 62
7
  6
CONTINUOUS
 10
394.385551356
 20
320.238512035
 11
394.6742264906
 21
319.738512035
  0
LINE
  5
3CE
100
AcDbEntity
  8
0
100
AcDbLine
 62
7
  6
CONTINUOUS
 10
413.885551356
 20
307.438512035
 11
413.7123462753
 21
307.738512035
  0
LINE
  5
3CF
100
AcDbEntity
  8
0
100
AcDbLine
 62
7
  6
CONTINUOUS
 10
354.8648254138
 20
412.738512035
 11
352.8440994717
 21
416.238512035
  0
LINE
  5
3D0
100
AcDbEntity
  8
0
100
AcDbLine
 62
7
  6
CONTINUOUS
 10
327.0676094505
 20
449.5556298697
 11
334.7212780978
 21
431.0780392194
  0
LINE
  5
3D1
100
AcDbEntity
  8
0
100
AcDbLine
 62
7
  6
CONTINUOUS
 10
343.0361938904
 20
434.5221901107
 11
335.3825252431
 21
452.9997807609
  0
LINE
  5
3D2
100
AcDbEntity
  8
0
100
AcDbLine
 62
7
  6
CONTINUOUS
 10
331.1170842038
 20
470.5824358276
 11
331.1186308512
 21
470.5752157194
  0
LINE
  5
3D3
100
AcDbEntity
  8
0
100
AcDbLine
 62
7
  6
CONTINUOUS
 10
331.1530483241
 20
470.5892828098
 11
331.1544373247
 21
470.5819174989
  0
LINE
  5
3D4
100
AcDbEntity
  8
0
100
AcDbLine
 62
7
  6
CONTINUOUS
 10
346.4286113988
 20
438.9568941564
 11
349.5573006996
 21
419.2031273445
  0
LINE
  5
3D5
100
AcDbEntity
  8
0
100
AcDbLine
 62
7
  6
CONTINUOUS
 10
362.885551356
 20
346.738512035
 11
362.885551356
 21
432.738512035
  0
LINE
  5
3D6
100
AcDbEntity
  8
0
100
AcDbLine
 62
7
  6
CONTINUOUS
 10
365.885551356
 20
432.738512035
 11
365.885551356
 21
346.738512035
  0
LINE
  5
3D7
100
AcDbEntity
  8
0
100
AcDbLine
 62
7
  6
CONTINUOUS
 10
371.385551356
 20
346.738512035
 11
371.385551356
 21
492.5313899143
  0
LINE
  5
3D8
100
AcDbEntity
  8
0
100
AcDbLine
 62
7
  6
CONTINUOUS
 10
371.885551356
 20
478.738512035
 11
371.885551356
 21
491.738512035
  0
LINE
  5
3D9
100
AcDbEntity
  8
0
100
AcDbLine
 62
7
  6
CONTINUOUS
 10
372.885551356
 20
346.738512035
 11
372.885551356
 21
493.738512035
  0
LINE
  5
3DA
100
AcDbEntity
  8
0
100
AcDbLine
 62
7
  6
CONTINUOUS
 10
286.385551356
 20
476.738512035
 11
266.385551356
 21
476.738512035
  0
LINE
  5
3DB
100
AcDbEntity
  8
0
100
AcDbLine
 62
7
  6
CONTINUOUS
 10
180.885551356
 20
478.738512035
 11
179.885551356
 21
478.738512035
  0
LINE
  5
3DC
100
AcDbEntity
  8
0
100
AcDbLine
 62
7
  6
CONTINUOUS
 10
371.885551356
 20
478.738512035
 11
372.885551356
 21
478.738512035
  0
LINE
  5
3DD
100
AcDbEntity
  8
0
100
AcDbLine
 62
7
  6
CONTINUOUS
 10
323.8197162585
 20
485.238512035
 11
228.9513864535
 21
485.238512035
  0
LINE
  5
3DE
100
AcDbEntity
  8
0
100
AcDbLine
 62
7
  6
CONTINUOUS
 10
289.7250785404
 20
476.0742387768
 11
308.2026691907
 21
468.4205701295
  0
LINE
  5
3DF
100
AcDbEntity
  8
0
100
AcDbLine
 62
7
  6
CONTINUOUS
 10
311.6468200819
 20
476.7354859221
 11
293.1692294317
 21
484.3891545694
  0
LINE
  5
3E0
100
AcDbEntity
  8
0
100
AcDbLine
 62
7
  6
CONTINUOUS
 10
320.5761881185
 20
464.4747332098
 11
321.8489803246
 21
463.2019410036
  0
LINE
  5
3E1
100
AcDbEntity
  8
0
100
AcDbLine
 62
7
  6
CONTINUOUS
 10
331.5398802886
 20
458.7507053438
 11
317.3977446648
 21
472.8928409676
  0
LINE
  5
3E2
100
AcDbEntity
  8
0
100
AcDbLine
 62
7
  6
CONTINUOUS
 10
330.8149802112
 20
471.3694675595
 11
330.8164806707
 21
471.3670823212
  0
LINE
  5
3E3
100
AcDbEntity
  8
0
100
AcDbLine
 62
7
  6
CONTINUOUS
 10
326.7401708276
 20
468.8639629893
 11
326.738481484
 21
468.8666778433
  0
LINE
  5
3E4
100
AcDbEntity
  8
0
100
AcDbLine
 62
7
  6
CONTINUOUS
 10
326.77150064
 20
468.8834856074
 11
326.7698462357
 21
468.8861647081
  0
LINE
  5
3E5
100
AcDbEntity
  8
0
100
AcDbLine
 62
7
  6
CONTINUOUS
 10
330.8461577008
 20
471.3883774318
 11
330.8476395255
 21
471.3859303195
  0
LINE
  5
3E6
100
AcDbEntity
  8
0
100
AcDbLine
 62
7
  6
CONTINUOUS
 10
358.9062772982
 20
419.738512035
 11
360.9270032403
 21
416.238512035
  0
LINE
  5
3E7
100
AcDbEntity
  8
0
100
AcDbLine
 62
7
  6
CONTINUOUS
 10
413.885551356
 20
327.438512035
 11
413.7123462753
 21
327.738512035
  0
LINE
  5
3E8
100
AcDbEntity
  8
0
100
AcDbLine
 62
7
  6
CONTINUOUS
 10
336.4436193623
 20
459.562888508
 11
345.5234293571
 21
441.7427580242
  0
LINE
  5
3E9
100
AcDbEntity
  8
0
100
AcDbLine
 62
7
  6
CONTINUOUS
 10
353.5424880748
 20
445.8286725219
 11
344.46267808
 21
463.6488030057
  0
LINE
  5
3EA
100
AcDbEntity
  8
0
100
AcDbLine
 62
7
  6
CONTINUOUS
 10
356.5256925029
 20
432.738512035
 11
355.8308066944
 21
437.1258483609
  0
LINE
  5
3EB
100
AcDbEntity
  8
0
100
AcDbLine
 62
7
  6
CONTINUOUS
 10
375.385551356
 20
492.738512035
 11
375.385551356
 21
346.738512035
  0
LINE
  5
3EC
100
AcDbEntity
  8
0
100
AcDbLine
 62
7
  6
CONTINUOUS
 10
377.885551356
 20
334.238512035
 11
377.885551356
 21
329.038512035
  0
LINE
  5
3ED
100
AcDbEntity
  8
0
100
AcDbLine
 62
7
  6
CONTINUOUS
 10
383.885551356
 20
334.238512035
 11
383.885551356
 21
329.038512035
  0
LINE
  5
3EE
100
AcDbEntity
  8
0
100
AcDbLine
 62
7
  6
CONTINUOUS
 10
388.385551356
 20
327.738512035
 11
388.385551356
 21
337.738512035
  0
LINE
  5
3EF
100
AcDbEntity
  8
0
100
AcDbLine
 62
7
  6
CONTINUOUS
 10
171.885551356
 20
492.738512035
 11
180.21077848
 21
492.738512035
  0
LINE
  5
3F0
100
AcDbEntity
  8
0
100
AcDbLine
 62
7
  6
CONTINUOUS
 10
181.885551356
 20
492.738512035
 11
370.885551356
 21
492.738512035
  0
LINE
  5
3F1
100
AcDbEntity
  8
0
100
AcDbLine
 62
7
  6
CONTINUOUS
 10
372.560356462
 20
492.738512035
 11
380.885551356
 21
492.738512035
  0
LINE
  5
3F2
100
AcDbEntity
  8
0
100
AcDbLine
 62
7
  6
CONTINUOUS
 10
179.885551356
 20
493.738512035
 11
372.885551356
 21
493.738512035
  0
LINE
  5
3F3
100
AcDbEntity
  8
0
100
AcDbLine
 62
7
  6
CONTINUOUS
 10
475.926801356
 20
334.738512035
 11
475.385551356
 21
335.279762035
  0
LINE
  5
3F4
100
AcDbEntity
  8
0
100
AcDbLine
 62
7
  6
CONTINUOUS
 10
425.6941905834
 20
339.5471512624
 11
425.885551356
 21
339.197262035
  0
LINE
  5
3F5
100
AcDbEntity
  8
0
100
AcDbLine
 62
7
  6
CONTINUOUS
 10
394.385551356
 20
325.2384468103
 11
394.385551356
 21
320.2385772598
  0
LINE
  5
3F6
100
AcDbEntity
  8
0
100
AcDbLine
 62
7
  6
CONTINUOUS
 10
394.385551356
 20
305.2384468103
 11
394.385551356
 21
300.2385772598
  0
LINE
  5
3F7
100
AcDbEntity
  8
0
100
AcDbLine
 62
7
  6
CONTINUOUS
 10
394.6742264906
 20
325.738512035
 11
394.6742264906
 21
319.738512035
  0
LINE
  5
3F8
100
AcDbEntity
  8
0
100
AcDbLine
 62
7
  6
CONTINUOUS
 10
394.6742264906
 20
305.738512035
 11
394.6742264906
 21
299.738512035
  0
LINE
  5
3F9
100
AcDbEntity
  8
0
100
AcDbLine
 62
7
  6
CONTINUOUS
 10
400.885551356
 20
472.738512035
 11
400.885551356
 21
346.738512035
  0
LINE
  5
3FA
100
AcDbEntity
  8
0
100
AcDbLine
 62
7
  6
CONTINUOUS
 10
388.385551356
 20
327.738512035
 11
383.385551356
 21
322.738512035
  0
LINE
  5
3FB
100
AcDbEntity
  8
0
100
AcDbLine
 62
7
  6
CONTINUOUS
 10
426.4556413873
 20
335.038512035
 11
427.6456713978
 21
335.738512035
  0
LINE
  5
3FC
100
AcDbEntity
  8
0
100
AcDbLine
 62
7
  6
CONTINUOUS
 10
446.4556413873
 20
340.038512035
 11
447.6456713978
 21
340.738512035
  0
LINE
  5
3FD
100
AcDbEntity
  8
0
100
AcDbLine
 62
7
  6
CONTINUOUS
 10
427.885551356
 20
328.538512035
 11
428.6590540479
 21
328.9850940224
  0
LINE
  5
3FE
100
AcDbEntity
  8
0
100
AcDbLine
 62
7
  6
CONTINUOUS
 10
408.385551356
 20
333.738512035
 11
408.385551356
 21
287.738512035
  0
LINE
  5
3FF
100
AcDbEntity
  8
0
100
AcDbLine
 62
7
  6
CONTINUOUS
 10
410.385551356
 20
287.738512035
 11
410.385551356
 21
333.738512035
  0
LINE
  5
400
100
AcDbEntity
  8
0
100
AcDbLine
 62
7
  6
CONTINUOUS
 10
410.885551356
 20
340.738512035
 11
410.885551356
 21
337.738512035
  0
LINE
  5
401
100
AcDbEntity
  8
0
100
AcDbLine
 62
7
  6
CONTINUOUS
 10
411.885551356
 20
299.4590891716
 11
411.885551356
 21
301.0179348984
  0
LINE
  5
402
100
AcDbEntity
  8
0
100
AcDbLine
 62
7
  6
CONTINUOUS
 10
411.885551356
 20
319.4590891716
 11
411.885551356
 21
321.0179348984
  0
LINE
  5
403
100
AcDbEntity
  8
0
100
AcDbLine
 62
7
  6
CONTINUOUS
 10
413.885551356
 20
298.0385721395
 11
413.885551356
 21
307.4384519305
  0
LINE
  5
404
100
AcDbEntity
  8
0
100
AcDbLine
 62
7
  6
CONTINUOUS
 10
413.885551356
 20
318.0385721395
 11
413.885551356
 21
327.4384519305
  0
LINE
  5
405
100
AcDbEntity
  8
0
100
AcDbLine
 62
7
  6
CONTINUOUS
 10
416.885551356
 20
334.038512035
 11
416.885551356
 21
335.038512035
  0
LINE
  5
406
100
AcDbEntity
  8
0
100
AcDbLine
 62
7
  6
CONTINUOUS
 10
417.1120486641
 20
333.738512035
 11
417.1120486641
 21
328.9850940224
  0
LINE
  5
407
100
AcDbEntity
  8
0
100
AcDbLine
 62
7
  6
CONTINUOUS
 10
417.3422741609
 20
335.038512035
 11
417.3422741609
 21
335.738512035
  0
LINE
  5
408
100
AcDbEntity
  8
0
100
AcDbLine
 62
7
  6
CONTINUOUS
 10
418.1254313143
 20
335.738512035
 11
418.1254313143
 21
335.038512035
  0
LINE
  5
409
100
AcDbEntity
  8
0
100
AcDbLine
 62
7
  6
CONTINUOUS
 10
419.885551356
 20
333.738512035
 11
419.885551356
 21
328.538512035
  0
LINE
  5
40A
100
AcDbEntity
  8
0
100
AcDbLine
 62
7
  6
CONTINUOUS
 10
419.885551356
 20
335.038512035
 11
419.885551356
 21
335.738512035
  0
LINE
  5
40B
100
AcDbEntity
  8
0
100
AcDbLine
 62
7
  6
CONTINUOUS
 10
419.885551356
 20
337.738512035
 11
419.885551356
 21
339.197262035
  0
LINE
  5
40C
100
AcDbEntity
  8
0
100
AcDbLine
 62
7
  6
CONTINUOUS
 10
419.885551356
 20
339.738512035
 11
419.885551356
 21
340.488512035
  0
LINE
  5
40D
100
AcDbEntity
  8
0
100
AcDbLine
 62
7
  6
CONTINUOUS
 10
419.9988000101
 20
333.738512035
 11
419.9988000101
 21
328.9850940224
  0
LINE
  5
40E
100
AcDbEntity
  8
0
100
AcDbLine
 62
7
  6
CONTINUOUS
 10
422.1023942027
 20
335.038512035
 11
422.1023942027
 21
335.738512035
  0
LINE
  5
40F
100
AcDbEntity
  8
0
100
AcDbLine
 62
7
  6
CONTINUOUS
 10
394.385551356
 20
325.238512035
 11
394.6742264906
 21
325.738512035
  0
LINE
  5
410
100
AcDbEntity
  8
0
100
AcDbLine
 62
7
  6
CONTINUOUS
 10
394.385551356
 20
305.238512035
 11
394.6742264906
 21
305.738512035
  0
LINE
  5
411
100
AcDbEntity
  8
0
100
AcDbLine
 62
7
  6
CONTINUOUS
 10
419.885551356
 20
340.488512035
 11
420.073051356
 21
340.676012035
  0
LINE
  5
412
100
AcDbEntity
  8
0
100
AcDbLine
 62
7
  6
CONTINUOUS
 10
425.885551356
 20
339.738512035
 11
425.6941905834
 21
339.5471512624
  0
LINE
  5
413
100
AcDbEntity
  8
0
100
AcDbLine
 62
7
  6
CONTINUOUS
 10
447.885551356
 20
333.538512035
 11
448.6590540479
 21
333.9850940224
  0
LINE
  5
414
100
AcDbEntity
  8
0
100
AcDbLine
 62
7
  6
CONTINUOUS
 10
380.885551356
 20
492.738512035
 11
400.885551356
 21
472.738512035
  0
LINE
  5
415
100
AcDbEntity
  8
0
100
AcDbLine
 62
7
  6
CONTINUOUS
 10
423.6687085093
 20
335.738512035
 11
423.6687085093
 21
335.038512035
  0
LINE
  5
416
100
AcDbEntity
  8
0
100
AcDbLine
 62
7
  6
CONTINUOUS
 10
425.385551356
 20
337.738512035
 11
425.385551356
 21
335.738512035
  0
LINE
  5
417
100
AcDbEntity
  8
0
100
AcDbLine
 62
7
  6
CONTINUOUS
 10
425.772302702
 20
333.738512035
 11
425.772302702
 21
328.9850940224
  0
LINE
  5
418
100
AcDbEntity
  8
0
100
AcDbLine
 62
7
  6
CONTINUOUS
 10
425.885551356
 20
340.488512035
 11
425.885551356
 21
339.738512035
  0
LINE
  5
419
100
AcDbEntity
  8
0
100
AcDbLine
 62
7
  6
CONTINUOUS
 10
425.885551356
 20
339.197262035
 11
425.885551356
 21
337.738512035
  0
LINE
  5
41A
100
AcDbEntity
  8
0
100
AcDbLine
 62
7
  6
CONTINUOUS
 10
425.885551356
 20
335.738512035
 11
425.885551356
 21
335.038512035
  0
LINE
  5
41B
100
AcDbEntity
  8
0
100
AcDbLine
 62
7
  6
CONTINUOUS
 10
425.885551356
 20
333.738512035
 11
425.885551356
 21
328.538512035
  0
LINE
  5
41C
100
AcDbEntity
  8
0
100
AcDbLine
 62
7
  6
CONTINUOUS
 10
427.6456713978
 20
335.038512035
 11
427.6456713978
 21
335.738512035
  0
LINE
  5
41D
100
AcDbEntity
  8
0
100
AcDbLine
 62
7
  6
CONTINUOUS
 10
428.4288285511
 20
335.738512035
 11
428.4288285511
 21
335.038512035
  0
LINE
  5
41E
100
AcDbEntity
  8
0
100
AcDbLine
 62
7
  6
CONTINUOUS
 10
428.6590540479
 20
333.738512035
 11
428.6590540479
 21
328.9850940224
  0
LINE
  5
41F
100
AcDbEntity
  8
0
100
AcDbLine
 62
7
  6
CONTINUOUS
 10
428.885551356
 20
334.038512035
 11
428.885551356
 21
335.038512035
  0
LINE
  5
420
100
AcDbEntity
  8
0
100
AcDbLine
 62
7
  6
CONTINUOUS
 10
433.385551356
 20
337.738512035
 11
433.385551356
 21
335.738512035
  0
LINE
  5
421
100
AcDbEntity
  8
0
100
AcDbLine
 62
7
  6
CONTINUOUS
 10
436.885551356
 20
339.038512035
 11
436.885551356
 21
340.038512035
  0
LINE
  5
422
100
AcDbEntity
  8
0
100
AcDbLine
 62
7
  6
CONTINUOUS
 10
437.1120486641
 20
338.738512035
 11
437.1120486641
 21
333.9850940224
  0
LINE
  5
423
100
AcDbEntity
  8
0
100
AcDbLine
 62
7
  6
CONTINUOUS
 10
437.3422741609
 20
340.038512035
 11
437.3422741609
 21
340.738512035
  0
LINE
  5
424
100
AcDbEntity
  8
0
100
AcDbLine
 62
7
  6
CONTINUOUS
 10
438.1254313143
 20
340.738512035
 11
438.1254313143
 21
340.038512035
  0
LINE
  5
425
100
AcDbEntity
  8
0
100
AcDbLine
 62
7
  6
CONTINUOUS
 10
419.885551356
 20
339.197262035
 11
420.0769121287
 21
339.5471512624
  0
LINE
  5
426
100
AcDbEntity
  8
0
100
AcDbLine
 62
7
  6
CONTINUOUS
 10
413.885551356
 20
318.038512035
 11
413.7123462753
 21
317.738512035
  0
LINE
  5
427
100
AcDbEntity
  8
0
100
AcDbLine
 62
7
  6
CONTINUOUS
 10
439.885551356
 20
338.738512035
 11
439.885551356
 21
333.538512035
  0
LINE
  5
428
100
AcDbEntity
  8
0
100
AcDbLine
 62
7
  6
CONTINUOUS
 10
439.885551356
 20
340.038512035
 11
439.885551356
 21
340.738512035
  0
LINE
  5
429
100
AcDbEntity
  8
0
100
AcDbLine
 62
7
  6
CONTINUOUS
 10
439.9988000101
 20
338.738512035
 11
439.9988000101
 21
333.9850940224
  0
LINE
  5
42A
100
AcDbEntity
  8
0
100
AcDbLine
 62
7
  6
CONTINUOUS
 10
442.1023942027
 20
340.038512035
 11
442.1023942027
 21
340.738512035
  0
LINE
  5
42B
100
AcDbEntity
  8
0
100
AcDbLine
 62
7
  6
CONTINUOUS
 10
443.6687085093
 20
340.738512035
 11
443.6687085093
 21
340.038512035
  0
LINE
  5
42C
100
AcDbEntity
  8
0
100
AcDbLine
 62
7
  6
CONTINUOUS
 10
445.772302702
 20
338.738512035
 11
445.772302702
 21
333.9850940224
  0
LINE
  5
42D
100
AcDbEntity
  8
0
100
AcDbLine
 62
7
  6
CONTINUOUS
 10
445.885551356
 20
340.738512035
 11
445.885551356
 21
340.038512035
  0
LINE
  5
42E
100
AcDbEntity
  8
0
100
AcDbLine
 62
7
  6
CONTINUOUS
 10
445.885551356
 20
338.738512035
 11
445.885551356
 21
333.538512035
  0
LINE
  5
42F
100
AcDbEntity
  8
0
100
AcDbLine
 62
7
  6
CONTINUOUS
 10
447.6456713978
 20
340.038512035
 11
447.6456713978
 21
340.738512035
  0
LINE
  5
430
100
AcDbEntity
  8
0
100
AcDbLine
 62
7
  6
CONTINUOUS
 10
448.4288285511
 20
340.738512035
 11
448.4288285511
 21
340.038512035
  0
LINE
  5
431
100
AcDbEntity
  8
0
100
AcDbLine
 62
7
  6
CONTINUOUS
 10
448.6590540479
 20
338.738512035
 11
448.6590540479
 21
333.9850940224
  0
LINE
  5
432
100
AcDbEntity
  8
0
100
AcDbLine
 62
7
  6
CONTINUOUS
 10
448.885551356
 20
339.038512035
 11
448.885551356
 21
340.038512035
  0
LINE
  5
433
100
AcDbEntity
  8
0
100
AcDbLine
 62
7
  6
CONTINUOUS
 10
413.885551356
 20
298.038512035
 11
413.7123462753
 21
297.738512035
  0
LINE
  5
434
100
AcDbEntity
  8
0
100
AcDbLine
 62
7
  6
CONTINUOUS
 10
459.885551356
 20
312.738512035
 11
459.885551356
 21
339.238512035
  0
LINE
  5
435
100
AcDbEntity
  8
0
100
AcDbLine
 62
7
  6
CONTINUOUS
 10
461.885551356
 20
312.738512035
 11
461.885551356
 21
339.238512035
  0
LINE
  5
436
100
AcDbEntity
  8
0
100
AcDbLine
 62
7
  6
CONTINUOUS
 10
481.385551356
 20
335.279762035
 11
480.844301356
 21
334.738512035
  0
LINE
  5
437
100
AcDbEntity
  8
0
100
AcDbLine
 62
7
  6
CONTINUOUS
 10
475.385551356
 20
335.279762035
 11
475.385551356
 21
341.238512035
  0
LINE
  5
438
100
AcDbEntity
  8
0
100
AcDbLine
 62
7
  6
CONTINUOUS
 10
480.885551356
 20
341.238512035
 11
480.885551356
 21
344.738512035
  0
LINE
  5
439
100
AcDbEntity
  8
0
100
AcDbLine
 62
7
  6
CONTINUOUS
 10
481.385551356
 20
341.238512035
 11
481.385551356
 21
335.279762035
  0
LINE
  5
43A
100
AcDbEntity
  8
0
100
AcDbLine
 62
7
  6
CONTINUOUS
 10
491.385551356
 20
348.738512035
 11
491.385551356
 21
359.738512035
  0
LINE
  5
43B
100
AcDbEntity
  8
0
100
AcDbLine
 62
7
  6
CONTINUOUS
 10
493.385551356
 20
348.738512035
 11
493.385551356
 21
359.738512035
  0
ARC
  5
43C
100
AcDbEntity
  8
0
100
AcDbCircle
 62
7
  6
CONTINUOUS
 10
139.385551356
 20
333.7385120344
 40
4.0
100
AcDbArc
 50
0.0000000001
 51
90.0000000001
  0
ARC
  5
43D
100
AcDbEntity
  8
0
100
AcDbCircle
 62
7
  6
CONTINUOUS
 10
62.385551356
 20
348.738512035
 40
4.0
100
AcDbArc
 50
180.0
 51
270.0
  0
ARC
  5
43E
100
AcDbEntity
  8
0
100
AcDbCircle
 62
7
  6
CONTINUOUS
 10
93.385551356
 20
339.238512035
 40
3.5
100
AcDbArc
 50
143.5182862065
 51
180.0
  0
ARC
  5
43F
100
AcDbEntity
  8
0
100
AcDbCircle
 62
7
  6
CONTINUOUS
 10
62.885551356
 20
344.238512035
 40
3.0
100
AcDbArc
 50
170.405931773
 51
270.0
  0
CIRCLE
  5
440
100
AcDbEntity
  8
0
100
AcDbCircle
 62
7
  6
CONTINUOUS
 10
158.885551356
 20
350.738512035
 40
2.5
  0
ARC
  5
441
100
AcDbEntity
  8
0
100
AcDbCircle
 62
7
  6
CONTINUOUS
 10
223.9777546584
 20
365.4075668094
 40
2.429989187
100
AcDbArc
 50
216.6069647654
 51
216.7988711203
  0
ARC
  5
442
100
AcDbEntity
  8
0
100
AcDbCircle
 62
7
  6
CONTINUOUS
 10
223.9730205164
 20
365.4045543222
 40
2.4243924983
100
AcDbArc
 50
204.0555748925
 51
216.6165318057
  0
ARC
  5
443
100
AcDbEntity
  8
0
100
AcDbCircle
 62
7
  6
CONTINUOUS
 10
223.9736499404
 20
365.3336660747
 40
2.4227872386
100
AcDbArc
 50
21.5520921226
 51
22.2823455519
  0
ARC
  5
444
100
AcDbEntity
  8
0
100
AcDbCircle
 62
7
  6
CONTINUOUS
 10
223.980041802
 20
365.3364175766
 40
2.4158293941
100
AcDbArc
 50
22.2794554018
 51
31.2658036006
  0
ARC
  5
445
100
AcDbEntity
  8
0
100
AcDbCircle
 62
7
  6
CONTINUOUS
 10
223.9889078318
 20
365.3400812621
 40
2.4136744749
100
AcDbArc
 50
202.4845634833
 51
211.301129919
  0
ARC
  5
446
100
AcDbEntity
  8
0
100
AcDbCircle
 62
7
  6
CONTINUOUS
 10
223.983681535
 20
365.3374597521
 40
2.4120634223
100
AcDbArc
 50
10.9164516652
 51
21.5558128663
  0
ARC
  5
447
100
AcDbEntity
  8
0
100
AcDbCircle
 62
7
  6
CONTINUOUS
 10
223.9867989311
 20
365.3395848161
 40
2.4116158941
100
AcDbArc
 50
215.3525106573
 51
231.1803305307
  0
ARC
  5
448
100
AcDbEntity
  8
0
100
AcDbCircle
 62
7
  6
CONTINUOUS
 10
223.9857905459
 20
365.3388256091
 40
2.4103230714
100
AcDbArc
 50
192.5775905756
 51
201.7993487884
  0
ARC
  5
449
100
AcDbEntity
  8
0
100
AcDbCircle
 62
7
  6
CONTINUOUS
 10
223.9855123408
 20
365.3386012604
 40
2.4100565298
100
AcDbArc
 50
232.6960965288
 51
10.7198602576
  0
ARC
  5
44A
100
AcDbEntity
  8
0
100
AcDbCircle
 62
7
  6
CONTINUOUS
 10
223.9855552754
 20
365.3385253717
 40
2.4100233262
100
AcDbArc
 50
31.3590132639
 51
191.6522682796
  0
ARC
  5
44B
100
AcDbEntity
  8
0
100
AcDbCircle
 62
7
  6
CONTINUOUS
 10
223.9830544872
 20
365.3371258746
 40
2.4071391457
100
AcDbArc
 50
212.0523021446
 51
215.3563434161
  0
ARC
  5
44C
100
AcDbEntity
  8
0
100
AcDbCircle
 62
7
  6
CONTINUOUS
 10
223.9775485554
 20
365.3335976093
 40
2.4006000938
100
AcDbArc
 50
211.3097604361
 51
211.9743511866
  0
ARC
  5
44D
100
AcDbEntity
  8
0
100
AcDbCircle
 62
7
  6
CONTINUOUS
 10
223.976206789
 20
365.3352227807
 40
2.4000867215
100
AcDbArc
 50
201.8044528832
 51
202.1446989954
  0
ARC
  5
44E
100
AcDbEntity
  8
0
100
AcDbCircle
 62
7
  6
CONTINUOUS
 10
223.9789197514
 20
365.3301563208
 40
2.3993307175
100
AcDbArc
 50
231.1857845873
 51
232.6991045533
  0
ARC
  5
44F
100
AcDbEntity
  8
0
100
AcDbCircle
 62
7
  6
CONTINUOUS
 10
223.9743834676
 20
365.3344805251
 40
2.3981181067
100
AcDbArc
 50
202.144694038
 51
202.5132294261
  0
ARC
  5
450
100
AcDbEntity
  8
0
100
AcDbCircle
 62
7
  6
CONTINUOUS
 10
223.9716289207
 20
365.3352351213
 40
2.3957194725
100
AcDbArc
 50
191.6424695337
 51
192.4957825563
  0
ARC
  5
451
100
AcDbEntity
  8
0
100
AcDbCircle
 62
7
  6
CONTINUOUS
 10
223.9053480089
 20
365.3354302461
 40
2.327620075
100
AcDbArc
 50
232.6756492792
 51
234.1412053942
  0
ARC
  5
452
100
AcDbEntity
  8
0
100
AcDbCircle
 62
7
  6
CONTINUOUS
 10
139.385551356
 20
333.7385120344
 40
2.0
100
AcDbArc
 50
0.0000000001
 51
90.0000000001
  0
ARC
  5
453
100
AcDbEntity
  8
0
100
AcDbCircle
 62
7
  6
CONTINUOUS
 10
62.385551356
 20
348.738512035
 40
2.0
100
AcDbArc
 50
180.0
 51
270.0
  0
CIRCLE
  5
454
100
AcDbEntity
  8
0
100
AcDbCircle
 62
7
  6
CONTINUOUS
 10
223.985551356
 20
365.338512035
 40
1.5
  0
ARC
  5
455
100
AcDbEntity
  8
0
100
AcDbCircle
 62
7
  6
CONTINUOUS
 10
93.385551356
 20
339.238512035
 40
1.5
100
AcDbArc
 50
90.0
 51
180.0
  0
CIRCLE
  5
456
100
AcDbEntity
  8
0
100
AcDbCircle
 62
7
  6
CONTINUOUS
 10
194.885551356
 20
416.238512035
 40
3.5
  0
CIRCLE
  5
457
100
AcDbEntity
  8
0
100
AcDbCircle
 62
7
  6
CONTINUOUS
 10
160.885551356
 20
426.738512035
 40
2.5
  0
CIRCLE
  5
458
100
AcDbEntity
  8
0
100
AcDbCircle
 62
7
  6
CONTINUOUS
 10
194.885551356
 20
416.238512035
 40
2.2
  0
CIRCLE
  5
459
100
AcDbEntity
  8
0
100
AcDbCircle
 62
7
  6
CONTINUOUS
 10
194.885551356
 20
416.238512035
 40
2.0
  0
ARC
  5
45A
100
AcDbEntity
  8
0
100
AcDbCircle
 62
7
  6
CONTINUOUS
 10
174.9739775711
 20
487.6598026652
 40
7.3270104906
100
AcDbArc
 50
34.9150373438
 51
35.5267629372
  0
ARC
  5
45B
100
AcDbEntity
  8
0
100
AcDbCircle
 62
7
  6
CONTINUOUS
 10
181.885551356
 20
491.738512035
 40
2.0
100
AcDbArc
 50
90.0
 51
180.0
  0
ARC
  5
45C
100
AcDbEntity
  8
0
100
AcDbCircle
 62
7
  6
CONTINUOUS
 10
181.885551356
 20
491.738512035
 40
1.0
100
AcDbArc
 50
90.0
 51
180.0
  0
ARC
  5
45D
100
AcDbEntity
  8
0
100
AcDbCircle
 62
7
  6
CONTINUOUS
 10
267.7588486255
 20
417.738512035
 40
7.9
100
AcDbArc
 50
327.566646281
 51
32.433353719
  0
ARC
  5
45E
100
AcDbEntity
  8
0
100
AcDbCircle
 62
7
  6
CONTINUOUS
 10
267.7588486255
 20
417.738512035
 40
6.1
100
AcDbArc
 50
333.6227214574
 51
26.3772785426
  0
ARC
  5
45F
100
AcDbEntity
  8
0
100
AcDbCircle
 62
7
  6
CONTINUOUS
 10
223.9778272405
 20
470.2075749462
 40
2.4299891486
100
AcDbArc
 50
216.5467203036
 51
216.7386266615
  0
ARC
  5
460
100
AcDbEntity
  8
0
100
AcDbCircle
 62
7
  6
CONTINUOUS
 10
223.9730899645
 20
470.2045674614
 40
2.4243924983
100
AcDbArc
 50
203.9953304319
 51
216.5562873452
  0
ARC
  5
461
100
AcDbEntity
  8
0
100
AcDbCircle
 62
7
  6
CONTINUOUS
 10
223.9736448577
 20
470.1336785937
 40
2.4227872321
100
AcDbArc
 50
21.4918476608
 51
22.2221010924
  0
ARC
  5
462
100
AcDbEntity
  8
0
100
AcDbCircle
 62
7
  6
CONTINUOUS
 10
223.9800396028
 20
470.1364233709
 40
2.4158293941
100
AcDbArc
 50
22.2192109412
 51
31.20555914
  0
ARC
  5
463
100
AcDbEntity
  8
0
100
AcDbCircle
 62
7
  6
CONTINUOUS
 10
223.9889094799
 20
470.140077732
 40
2.4136744749
100
AcDbArc
 50
202.4243190227
 51
211.2408854584
  0
ARC
  5
464
100
AcDbEntity
  8
0
100
AcDbCircle
 62
7
  6
CONTINUOUS
 10
223.9836804296
 20
470.1374617188
 40
2.4120634223
100
AcDbArc
 50
10.8562072046
 51
21.4955684058
  0
ARC
  5
465
100
AcDbEntity
  8
0
100
AcDbCircle
 62
7
  6
CONTINUOUS
 10
223.9868000584
 20
470.1395835037
 40
2.4116158941
100
AcDbArc
 50
215.2922661968
 51
231.1200860701
  0
ARC
  5
466
100
AcDbEntity
  8
0
100
AcDbCircle
 62
7
  6
CONTINUOUS
 10
223.9857908755
 20
470.1388253575
 40
2.4103230714
100
AcDbArc
 50
192.517346115
 51
201.7391043278
  0
ARC
  5
467
100
AcDbEntity
  8
0
100
AcDbCircle
 62
7
  6
CONTINUOUS
 10
223.9855124346
 20
470.1386013014
 40
2.4100565298
100
AcDbArc
 50
232.6358520686
 51
10.6596157967
  0
ARC
  5
468
100
AcDbEntity
  8
0
100
AcDbCircle
 62
7
  6
CONTINUOUS
 10
223.9855552894
 20
470.1385253676
 40
2.4100233262
100
AcDbArc
 50
31.2987688033
 51
191.592023819
  0
ARC
  5
469
100
AcDbEntity
  8
0
100
AcDbCircle
 62
7
  6
CONTINUOUS
 10
223.983053031
 20
470.1371285007
 40
2.4071391456
100
AcDbArc
 50
211.9920576839
 51
215.2960989556
  0
ARC
  5
46A
100
AcDbEntity
  8
0
100
AcDbCircle
 62
7
  6
CONTINUOUS
 10
223.9775433908
 20
470.1336060257
 40
2.4006000918
100
AcDbArc
 50
211.2495159751
 51
211.9141067262
  0
ARC
  5
46B
100
AcDbEntity
  8
0
100
AcDbCircle
 62
7
  6
CONTINUOUS
 10
223.9762033257
 20
470.1352326039
 40
2.4000867107
100
AcDbArc
 50
201.7442084217
 51
202.0844545354
  0
ARC
  5
46C
100
AcDbEntity
  8
0
100
AcDbCircle
 62
7
  6
CONTINUOUS
 10
223.9789109692
 20
470.130163298
 40
2.3993307172
100
AcDbArc
 50
231.1255401267
 51
232.6388600928
  0
ARC
  5
46D
100
AcDbEntity
  8
0
100
AcDbCircle
 62
7
  6
CONTINUOUS
 10
223.9743792258
 20
470.1344922663
 40
2.3981180969
100
AcDbArc
 50
202.0844495768
 51
202.4529849664
  0
ARC
  5
46E
100
AcDbEntity
  8
0
100
AcDbCircle
 62
7
  6
CONTINUOUS
 10
223.9716254815
 20
470.1352497617
 40
2.3957194711
100
AcDbArc
 50
191.582225073
 51
192.4355380961
  0
ARC
  5
46F
100
AcDbEntity
  8
0
100
AcDbCircle
 62
7
  6
CONTINUOUS
 10
223.905344813
 20
470.135514579
 40
2.3276200753
100
AcDbArc
 50
232.6154048186
 51
234.0809609334
  0
CIRCLE
  5
470
100
AcDbEntity
  8
0
100
AcDbCircle
 62
7
  6
CONTINUOUS
 10
223.985551356
 20
470.138512035
 40
1.5
  0
ARC
  5
471
100
AcDbEntity
  8
0
100
AcDbCircle
 62
7
  6
CONTINUOUS
 10
412.385551356
 20
333.738512035
 40
4.0
100
AcDbArc
 50
90.0
 51
180.0
  0
ARC
  5
472
100
AcDbEntity
  8
0
100
AcDbCircle
 62
7
  6
CONTINUOUS
 10
489.385551356
 20
348.738512035
 40
4.0
100
AcDbArc
 50
270.0
 51
360.0
  0
ARC
  5
473
100
AcDbEntity
  8
0
100
AcDbCircle
 62
7
  6
CONTINUOUS
 10
458.385551356
 20
339.238512035
 40
3.5
100
AcDbArc
 50
0.0
 51
36.4817137935
  0
ARC
  5
474
100
AcDbEntity
  8
0
100
AcDbCircle
 62
7
  6
CONTINUOUS
 10
488.885551356
 20
344.238512035
 40
3.0
100
AcDbArc
 50
270.0
 51
9.594068227
  0
CIRCLE
  5
475
100
AcDbEntity
  8
0
100
AcDbCircle
 62
7
  6
CONTINUOUS
 10
393.885551356
 20
350.738512035
 40
2.5
  0
ARC
  5
476
100
AcDbEntity
  8
0
100
AcDbCircle
 62
7
  6
CONTINUOUS
 10
328.7778222934
 20
365.4075744048
 40
2.4299891723
100
AcDbArc
 50
216.5508403467
 51
216.7427467028
  0
ARC
  5
477
100
AcDbEntity
  8
0
100
AcDbCircle
 62
7
  6
CONTINUOUS
 10
328.7730852146
 20
365.4045665652
 40
2.4243924983
100
AcDbArc
 50
203.9994504742
 51
216.5604073873
  0
ARC
  5
478
100
AcDbEntity
  8
0
100
AcDbCircle
 62
7
  6
CONTINUOUS
 10
328.7736451929
 20
365.3336777326
 40
2.4227872454
100
AcDbArc
 50
21.4959677043
 51
22.226221135
  0
ARC
  5
479
100
AcDbEntity
  8
0
100
AcDbCircle
 62
7
  6
CONTINUOUS
 10
328.780039753
 20
365.3364229745
 40
2.4158293941
100
AcDbArc
 50
22.2233309834
 51
31.2096791822
  0
ARC
  5
47A
100
AcDbEntity
  8
0
100
AcDbCircle
 62
7
  6
CONTINUOUS
 10
328.7889093673
 20
365.3400779735
 40
2.413674475
100
AcDbArc
 50
202.4284390649
 51
211.2450055006
  0
ARC
  5
47B
100
AcDbEntity
  8
0
100
AcDbCircle
 62
7
  6
CONTINUOUS
 10
328.7836805052
 20
365.3374615842
 40
2.4120634223
100
AcDbArc
 50
10.8603272469
 51
21.499688448
  0
ARC
  5
47C
100
AcDbEntity
  8
0
100
AcDbCircle
 62
7
  6
CONTINUOUS
 10
328.7867999813
 20
365.3395835935
 40
2.4116158941
100
AcDbArc
 50
215.296386239
 51
231.1242061123
  0
ARC
  5
47D
100
AcDbEntity
  8
0
100
AcDbCircle
 62
7
  6
CONTINUOUS
 10
328.785790853
 20
365.3388253747
 40
2.4103230714
100
AcDbArc
 50
192.5214661572
 51
201.74322437
  0
ARC
  5
47E
100
AcDbEntity
  8
0
100
AcDbCircle
 62
7
  6
CONTINUOUS
 10
328.7855124282
 20
365.3386012986
 40
2.4100565298
100
AcDbArc
 50
232.6399721108
 51
10.6637358391
  0
ARC
  5
47F
100
AcDbEntity
  8
0
100
AcDbCircle
 62
7
  6
CONTINUOUS
 10
328.7855552885
 20
365.3385253679
 40
2.4100233262
100
AcDbArc
 50
31.3028888454
 51
191.5961438612
  0
ARC
  5
480
100
AcDbEntity
  8
0
100
AcDbCircle
 62
7
  6
CONTINUOUS
 10
328.7830531306
 20
365.3371283211
 40
2.4071391457
100
AcDbArc
 50
211.9961777262
 51
215.3002189978
  0
ARC
  5
481
100
AcDbEntity
  8
0
100
AcDbCircle
 62
7
  6
CONTINUOUS
 10
328.7775437445
 20
365.3336054504
 40
2.4006000928
100
AcDbArc
 50
211.2536360175
 51
211.9182267684
  0
ARC
  5
482
100
AcDbEntity
  8
0
100
AcDbCircle
 62
7
  6
CONTINUOUS
 10
328.776203579
 20
365.3352319388
 40
2.4000867296
100
AcDbArc
 50
201.7483284654
 51
202.0885745764
  0
ARC
  5
483
100
AcDbEntity
  8
0
100
AcDbCircle
 62
7
  6
CONTINUOUS
 10
328.7789115693
 20
365.3301628203
 40
2.3993307168
100
AcDbArc
 50
231.1296601688
 51
232.6429801353
  0
ARC
  5
484
100
AcDbEntity
  8
0
100
AcDbCircle
 62
7
  6
CONTINUOUS
 10
328.7743795323
 20
365.3344914701
 40
2.3981181158
100
AcDbArc
 50
202.0885696204
 51
202.4571050071
  0
ARC
  5
485
100
AcDbEntity
  8
0
100
AcDbCircle
 62
7
  6
CONTINUOUS
 10
328.7716257179
 20
365.3352487608
 40
2.3957194729
100
AcDbArc
 50
191.5863451157
 51
192.4396581381
  0
ARC
  5
486
100
AcDbEntity
  8
0
100
AcDbCircle
 62
7
  6
CONTINUOUS
 10
328.7053450287
 20
365.3355088115
 40
2.3276200753
100
AcDbArc
 50
232.6195248608
 51
234.0850809757
  0
ARC
  5
487
100
AcDbEntity
  8
0
100
AcDbCircle
 62
7
  6
CONTINUOUS
 10
412.385551356
 20
333.738512035
 40
2.0
100
AcDbArc
 50
90.0
 51
180.0
  0
ARC
  5
488
100
AcDbEntity
  8
0
100
AcDbCircle
 62
7
  6
CONTINUOUS
 10
489.385551356
 20
348.738512035
 40
2.0
100
AcDbArc
 50
270.0
 51
360.0
  0
CIRCLE
  5
489
100
AcDbEntity
  8
0
100
AcDbCircle
 62
7
  6
CONTINUOUS
 10
328.785551356
 20
365.338512035
 40
1.5
  0
ARC
  5
48A
100
AcDbEntity
  8
0
100
AcDbCircle
 62
7
  6
CONTINUOUS
 10
458.385551356
 20
339.238512035
 40
1.5
100
AcDbArc
 50
0.0
 51
90.0
  0
ARC
  5
48B
100
AcDbEntity
  8
0
100
AcDbCircle
 62
7
  6
CONTINUOUS
 10
276.385551356
 20
417.738512035
 40
82.5
100
AcDbArc
 50
305.0968012276
 51
335.6338500374
  0
ARC
  5
48C
100
AcDbEntity
  8
0
100
AcDbCircle
 62
7
  6
CONTINUOUS
 10
276.385551356
 20
417.738512035
 40
82.5
100
AcDbArc
 50
12.8774292714
 51
54.9031987724
  0
ARC
  5
48D
100
AcDbEntity
  8
0
100
AcDbCircle
 62
7
  6
CONTINUOUS
 10
276.385551356
 20
417.738512035
 40
82.5
100
AcDbArc
 50
125.0968012276
 51
167.1225707286
  0
ARC
  5
48E
100
AcDbEntity
  8
0
100
AcDbCircle
 62
7
  6
CONTINUOUS
 10
276.385551356
 20
417.738512035
 40
82.5
100
AcDbArc
 50
202.2594982239
 51
234.9031987724
  0
CIRCLE
  5
48F
100
AcDbEntity
  8
0
100
AcDbCircle
 62
7
  6
CONTINUOUS
 10
276.385551356
 20
417.738512035
 40
55.0
  0
CIRCLE
  5
490
100
AcDbEntity
  8
0
100
AcDbCircle
 62
7
  6
CONTINUOUS
 10
276.385551356
 20
417.738512035
 40
50.55
  0
CIRCLE
  5
491
100
AcDbEntity
  8
0
100
AcDbCircle
 62
7
  6
CONTINUOUS
 10
276.385551356
 20
417.738512035
 40
48.75
  0
CIRCLE
  5
492
100
AcDbEntity
  8
0
100
AcDbCircle
 62
7
  6
CONTINUOUS
 10
276.385551356
 20
417.738512035
 40
43.15
  0
CIRCLE
  5
493
100
AcDbEntity
  8
0
100
AcDbCircle
 62
7
  6
CONTINUOUS
 10
276.385551356
 20
417.738512035
 40
41.35
  0
CIRCLE
  5
494
100
AcDbEntity
  8
0
100
AcDbCircle
 62
7
  6
CONTINUOUS
 10
276.385551356
 20
417.738512035
 40
35.9
  0
CIRCLE
  5
495
100
AcDbEntity
  8
0
100
AcDbCircle
 62
7
  6
CONTINUOUS
 10
276.385551356
 20
417.738512035
 40
34.1
  0
CIRCLE
  5
496
100
AcDbEntity
  8
0
100
AcDbCircle
 62
7
  6
CONTINUOUS
 10
276.385551356
 20
417.738512035
 40
28.45
  0
CIRCLE
  5
497
100
AcDbEntity
  8
0
100
AcDbCircle
 62
7
  6
CONTINUOUS
 10
276.385551356
 20
417.738512035
 40
26.65
  0
CIRCLE
  5
498
100
AcDbEntity
  8
0
100
AcDbCircle
 62
7
  6
CONTINUOUS
 10
276.385551356
 20
417.738512035
 40
21.1
  0
CIRCLE
  5
499
100
AcDbEntity
  8
0
100
AcDbCircle
 62
7
  6
CONTINUOUS
 10
276.385551356
 20
417.738512035
 40
19.3
  0
CIRCLE
  5
49A
100
AcDbEntity
  8
0
100
AcDbCircle
 62
7
  6
CONTINUOUS
 10
276.385551356
 20
417.738512035
 40
13.9
  0
CIRCLE
  5
49B
100
AcDbEntity
  8
0
100
AcDbCircle
 62
7
  6
CONTINUOUS
 10
276.385551356
 20
417.738512035
 40
12.1
  0
ARC
  5
49C
100
AcDbEntity
  8
0
100
AcDbCircle
 62
7
  6
CONTINUOUS
 10
285.0122540865
 20
417.738512035
 40
7.9
100
AcDbArc
 50
147.566646281
 51
212.433353719
  0
CIRCLE
  5
49D
100
AcDbEntity
  8
0
100
AcDbCircle
 62
7
  6
CONTINUOUS
 10
276.385551356
 20
417.738512035
 40
6.5
  0
ARC
  5
49E
100
AcDbEntity
  8
0
100
AcDbCircle
 62
7
  6
CONTINUOUS
 10
285.0122540865
 20
417.738512035
 40
6.1
100
AcDbArc
 50
153.6227214574
 51
206.3772785426
  0
CIRCLE
  5
49F
100
AcDbEntity
  8
0
100
AcDbCircle
 62
7
  6
CONTINUOUS
 10
276.385551356
 20
417.738512035
 40
4.7
  0
ARC
  5
4A0
100
AcDbEntity
  8
0
100
AcDbCircle
 62
7
  6
CONTINUOUS
 10
328.777899538
 20
470.207582982
 40
2.4299891253
100
AcDbArc
 50
216.4867290128
 51
216.6786353726
  0
ARC
  5
4A1
100
AcDbEntity
  8
0
100
AcDbCircle
 62
7
  6
CONTINUOUS
 10
328.7731591343
 20
470.2045804729
 40
2.4243924983
100
AcDbArc
 50
203.9353391419
 51
216.4962960551
  0
ARC
  5
4A2
100
AcDbEntity
  8
0
100
AcDbCircle
 62
7
  6
CONTINUOUS
 10
328.7736398094
 20
470.1336910654
 40
2.4227872255
100
AcDbArc
 50
21.4318563706
 51
22.1621098027
  0
ARC
  5
4A3
100
AcDbEntity
  8
0
100
AcDbCircle
 62
7
  6
CONTINUOUS
 10
328.7800374189
 20
470.1364291431
 40
2.4158293941
100
AcDbArc
 50
22.1592196512
 51
31.1455678498
  0
ARC
  5
4A4
100
AcDbEntity
  8
0
100
AcDbCircle
 62
7
  6
CONTINUOUS
 10
328.7889111174
 20
470.1400742151
 40
2.4136744749
100
AcDbArc
 50
202.3643277327
 51
211.1808941684
  0
ARC
  5
4A5
100
AcDbEntity
  8
0
100
AcDbCircle
 62
7
  6
CONTINUOUS
 10
328.7836793309
 20
470.1374636783
 40
2.4120634223
100
AcDbArc
 50
10.7962159146
 51
21.4355771157
  0
ARC
  5
4A6
100
AcDbEntity
  8
0
100
AcDbCircle
 62
7
  6
CONTINUOUS
 10
328.7868011796
 20
470.1395821957
 40
2.4116158941
100
AcDbArc
 50
215.2322749067
 51
231.0600947801
  0
ARC
  5
4A7
100
AcDbEntity
  8
0
100
AcDbCircle
 62
7
  6
CONTINUOUS
 10
328.7857912034
 20
470.1388251065
 40
2.4103230714
100
AcDbArc
 50
192.457354825
 51
201.6791130378
  0
ARC
  5
4A8
100
AcDbEntity
  8
0
100
AcDbCircle
 62
7
  6
CONTINUOUS
 10
328.7855125281
 20
470.1386013422
 40
2.4100565298
100
AcDbArc
 50
232.5758607794
 51
10.5996245058
  0
ARC
  5
4A9
100
AcDbEntity
  8
0
100
AcDbCircle
 62
7
  6
CONTINUOUS
 10
328.7855553034
 20
470.1385253635
 40
2.4100233262
100
AcDbArc
 50
31.2387775131
 51
191.5320325289
  0
ARC
  5
4AA
100
AcDbEntity
  8
0
100
AcDbCircle
 62
7
  6
CONTINUOUS
 10
328.7830515838
 20
470.1371311173
 40
2.4071391457
100
AcDbArc
 50
211.9320663939
 51
215.2361076654
  0
ARC
  5
4AB
100
AcDbEntity
  8
0
100
AcDbCircle
 62
7
  6
CONTINUOUS
 10
328.7775382615
 20
470.133614415
 40
2.4006000955
100
AcDbArc
 50
211.1895246856
 51
211.8541154356
  0
ARC
  5
4AC
100
AcDbEntity
  8
0
100
AcDbCircle
 62
7
  6
CONTINUOUS
 10
328.776199905
 20
470.1352423967
 40
2.4000867193
100
AcDbArc
 50
201.6842171323
 51
202.0244632448
  0
ARC
  5
4AD
100
AcDbEntity
  8
0
100
AcDbCircle
 62
7
  6
CONTINUOUS
 10
328.7789022312
 20
470.1301702552
 40
2.3993307169
100
AcDbArc
 50
231.0655488366
 51
232.5788688029
  0
ARC
  5
4AE
100
AcDbEntity
  8
0
100
AcDbCircle
 62
7
  6
CONTINUOUS
 10
328.7743750387
 20
470.1345039726
 40
2.3981181138
100
AcDbArc
 50
202.0244582881
 51
202.3929936751
  0
ARC
  5
4AF
100
AcDbEntity
  8
0
100
AcDbCircle
 62
7
  6
CONTINUOUS
 10
328.771622075
 20
470.1352643449
 40
2.3957194727
100
AcDbArc
 50
191.5222337832
 51
192.3755468059
  0
ARC
  5
4B0
100
AcDbEntity
  8
0
100
AcDbCircle
 62
7
  6
CONTINUOUS
 10
328.7053417181
 20
470.1355985599
 40
2.3276200746
100
AcDbArc
 50
232.5554135282
 51
234.0209696435
  0
CIRCLE
  5
4B1
100
AcDbEntity
  8
0
100
AcDbCircle
 62
7
  6
CONTINUOUS
 10
328.785551356
 20
470.138512035
 40
1.5
  0
CIRCLE
  5
4B2
100
AcDbEntity
  8
0
100
AcDbCircle
 62
7
  6
CONTINUOUS
 10
356.885551356
 20
416.238512035
 40
3.5
  0
CIRCLE
  5
4B3
100
AcDbEntity
  8
0
100
AcDbCircle
 62
7
  6
CONTINUOUS
 10
391.885551356
 20
426.738512035
 40
2.5
  0
CIRCLE
  5
4B4
100
AcDbEntity
  8
0
100
AcDbCircle
 62
7
  6
CONTINUOUS
 10
356.885551356
 20
416.238512035
 40
2.2
  0
CIRCLE
  5
4B5
100
AcDbEntity
  8
0
100
AcDbCircle
 62
7
  6
CONTINUOUS
 10
356.885551356
 20
416.238512035
 40
2.0
  0
ARC
  5
4B6
100
AcDbEntity
  8
0
100
AcDbCircle
 62
7
  6
CONTINUOUS
 10
377.7971270667
 20
487.6598013004
 40
7.3270128508
100
AcDbArc
 50
144.4732376775
 51
145.0849635583
  0
ARC
  5
4B7
100
AcDbEntity
  8
0
100
AcDbCircle
 62
7
  6
CONTINUOUS
 10
370.885551356
 20
491.738512035
 40
2.0
100
AcDbArc
 50
0.0
 51
90.0
  0
ARC
  5
4B8
100
AcDbEntity
  8
0
100
AcDbCircle
 62
7
  6
CONTINUOUS
 10
370.885551356
 20
491.738512035
 40
1.0
100
AcDbArc
 50
0.0
 51
90.0
  0
SPLINE
  5
4B9
100
AcDbEntity
  8
0
100
AcDbSpline
 62
7
  6
CONTINUOUS
 70
0
 71
3
 72
13
 73
9
 74
0
 42
0.0000001
 43
0.0000001
 44
0.0000000001
 40
0.0
 40
0.0
 40
0.0
 40
0.0
 40
0.1579692225
 40
0.3453239108
 40
0.5326785991
 40
0.7200332875
 40
0.9073879758
 40
1.0
 40
1.0
 40
1.0
 40
1.0
 10
225.8453970195
 20
365.3385189087
 30
0.0
 10
225.8548049749
 20
365.0374790504
 30
0.0
 10
225.7146800037
 20
364.3688287858
 30
0.0
 10
224.983847742
 20
363.5663690304
 30
0.0
 10
223.8555003151
 20
363.2715975245
 30
0.0
 10
222.7288394688
 20
363.6459961338
 30
0.0
 10
222.1021723376
 20
364.4311879807
 30
0.0
 10
221.9628345316
 20
365.0054656437
 30
0.0
 10
221.9438116547
 20
365.1988891894
 30
0.0
  0
SPLINE
  5
4BA
100
AcDbEntity
  8
0
100
AcDbSpline
 62
7
  6
CONTINUOUS
 70
0
 71
3
 72
14
 73
10
 74
0
 42
0.0000001
 43
0.0000001
 44
0.0000000001
 40
0.0
 40
0.0
 40
0.0
 40
0.0
 40
0.0865709652
 40
0.2577660265
 40
0.4289610879
 40
0.6001561492
 40
0.7713512106
 40
0.9425462719
 40
1.0
 40
1.0
 40
1.0
 40
1.0
 10
221.9438116547
 20
365.1988891894
 30
0.0
 10
221.9243511359
 20
365.3967626534
 30
0.0
 10
221.9507584703
 20
365.9966975718
 30
0.0
 10
222.4321740969
 20
366.9234335564
 30
0.0
 10
223.5384047141
 20
367.5500389419
 30
0.0
 10
224.8284079882
 20
367.4713422881
 30
0.0
 10
225.8840882487
 20
366.6899024575
 30
0.0
 10
226.2474601633
 20
365.7165928667
 30
0.0
 10
226.2289580686
 20
365.1383184676
 30
0.0
 10
226.210479041
 20
364.9943665778
 30
0.0
  0
SPLINE
  5
4BB
100
AcDbEntity
  8
0
100
AcDbSpline
 62
7
  6
CONTINUOUS
 70
0
 71
3
 72
11
 73
7
 74
0
 42
0.0000001
 43
0.0000001
 44
0.0000000001
 40
0.0
 40
0.0
 40
0.0
 40
0.0
 40
0.1849645359
 40
0.4633595058
 40
0.7417544758
 40
1.0
 40
1.0
 40
1.0
 40
1.0
 10
226.210479041
 20
364.9943665778
 30
0.0
 10
226.1738960497
 20
364.7093845509
 30
0.0
 10
225.9464668286
 20
364.0087625705
 30
0.0
 10
225.073575031
 20
363.1528060447
 30
0.0
 10
223.7367645106
 20
362.8826335705
 30
0.0
 10
222.8879854451
 20
363.1995696277
 30
0.0
 10
222.5446524876
 20
363.4469591338
 30
0.0
  0
LINE
  5
4BC
100
AcDbEntity
  8
0
100
AcDbLine
 62
7
  6
CONTINUOUS
 10
222.5446524876
 20
363.4469591338
 11
222.5418522652
 21
363.4489799895
  0
SPLINE
  5
4BD
100
AcDbEntity
  8
0
100
AcDbSpline
 62
7
  6
CONTINUOUS
 70
0
 71
3
 72
9
 73
5
 74
0
 42
0.0000001
 43
0.0000001
 44
0.0000000001
 40
0.0
 40
0.0
 40
0.0
 40
0.0
 40
0.0549713783
 40
1.0
 40
1.0
 40
1.0
 40
1.0
 10
222.4940504571
 20
363.4844698376
 30
0.0
 10
222.4844797001
 20
363.491767418
 30
0.0
 10
222.3113745136
 20
363.6258996159
 30
0.0
 10
222.1568852622
 20
363.7849829244
 30
0.0
 10
222.0319574061
 20
363.9519842793
 30
0.0
  0
SPLINE
  5
4BE
100
AcDbEntity
  8
0
100
AcDbSpline
 62
7
  6
CONTINUOUS
 70
0
 71
3
 72
21
 73
17
 74
0
 42
0.0000001
 43
0.0000001
 44
0.0000000001
 40
0.0
 40
0.0
 40
0.0
 40
0.0
 40
0.0625997179
 40
0.1251916951
 40
0.1877894752
 40
0.2503763918
 40
0.3129590492
 40
0.3755498085
 40
0.5001009799
 40
0.6246419292
 40
0.6872095084
 40
0.7497777899
 40
0.8123351036
 40
0.8748942141
 40
0.9374547862
 40
1.0
 40
1.0
 40
1.0
 40
1.0
 10
222.4216389989
 20
365.3385120162
 30
0.0
 10
222.4226142479
 20
365.237840867
 30
0.0
 10
222.4441314371
 20
365.0361546571
 30
0.0
 10
222.5340302105
 20
364.7459372122
 30
0.0
 10
222.6782139863
 20
364.4783930468
 30
0.0
 10
222.871373792
 20
364.2438150314
 30
0.0
 10
223.1064214902
 20
364.051086772
 30
0.0
 10
223.4622185381
 20
363.860214145
 30
0.0
 10
223.9670704839
 20
363.7579905834
 30
0.0
 10
224.4724256521
 20
363.8581711458
 30
0.0
 10
224.8285503032
 20
364.0483730331
 30
0.0
 10
225.0634843241
 20
364.2411524012
 30
0.0
 10
225.2557917756
 20
364.4763424789
 30
0.0
 10
225.398045812
 20
364.7448268711
 30
0.0
 10
225.4845495461
 20
365.0359608938
 30
0.0
 10
225.5026688411
 20
365.2379289613
 30
0.0
 10
225.5016534743
 20
365.3385120533
 30
0.0
  0
SPLINE
  5
4BF
100
AcDbEntity
  8
0
100
AcDbSpline
 62
7
  6
CONTINUOUS
 70
0
 71
3
 72
21
 73
17
 74
0
 42
0.0000001
 43
0.0000001
 44
0.0000000001
 40
0.0
 40
0.0
 40
0.0
 40
0.0
 40
0.0625997278
 40
0.1251953621
 40
0.1877819248
 40
0.2503711858
 40
0.3129582136
 40
0.375537181
 40
0.5000946073
 40
0.6246339359
 40
0.6872021497
 40
0.7497605473
 40
0.812325063
 40
0.8748880147
 40
0.9374427986
 40
1.0
 40
1.0
 40
1.0
 40
1.0
 10
225.5972739642
 20
365.3385120544
 30
0.0
 10
225.5962891223
 20
365.4423084248
 30
0.0
 10
225.5741587871
 20
365.6502655127
 30
0.0
 10
225.4815463925
 20
365.9495076583
 30
0.0
 10
225.3328827687
 20
366.2253463151
 30
0.0
 10
225.1337598858
 20
366.4672191878
 30
0.0
 10
224.8914363518
 20
366.6659498823
 30
0.0
 10
224.5245695705
 20
366.8626923206
 30
0.0
 10
224.004064106
 20
366.9681252434
 30
0.0
 10
223.4830274017
 20
366.8647653387
 30
0.0
 10
223.115849261
 20
366.6686949476
 30
0.0
 10
222.8736475943
 20
366.4699083467
 30
0.0
 10
222.6753229232
 20
366.2274592244
 30
0.0
 10
222.5286078346
 20
365.9506513182
 30
0.0
 10
222.4393798497
 20
365.6504765357
 30
0.0
 10
222.4206341594
 20
365.4422376755
 30
0.0
 10
222.4216389989
 20
365.3385120162
 30
0.0
  0
SPLINE
  5
4C0
100
AcDbEntity
  8
0
100
AcDbSpline
 62
7
  6
CONTINUOUS
 70
0
 71
3
 72
13
 73
9
 74
0
 42
0.0000001
 43
0.0000001
 44
0.0000000001
 40
0.0
 40
0.0
 40
0.0
 40
0.0
 40
0.1579692225
 40
0.3453239108
 40
0.5326785991
 40
0.7200332875
 40
0.9073879758
 40
1.0
 40
1.0
 40
1.0
 40
1.0
 10
330.645396134
 20
365.3366970862
 30
0.0
 10
330.6545091995
 20
365.0356481567
 30
0.0
 10
330.5137293154
 20
364.3671354731
 30
0.0
 10
329.7821113502
 20
363.5653919937
 30
0.0
 10
328.6534757195
 20
363.2717259084
 30
0.0
 10
327.5271821581
 20
363.6472279651
 30
0.0
 10
326.9012844667
 20
364.4330332907
 30
0.0
 10
326.7625092646
 20
365.0074471673
 30
0.0
 10
326.7436758659
 20
365.2008892542
 30
0.0
  0
SPLINE
  5
4C1
100
AcDbEntity
  8
0
100
AcDbSpline
 62
7
  6
CONTINUOUS
 70
0
 71
3
 72
14
 73
10
 74
0
 42
0.0000001
 43
0.0000001
 44
0.0000000001
 40
0.0
 40
0.0
 40
0.0
 40
0.0
 40
0.0865709652
 40
0.2577660265
 40
0.4289610879
 40
0.6001561492
 40
0.7713512106
 40
0.9425462719
 40
1.0
 40
1.0
 40
1.0
 40
1.0
 10
326.7436758659
 20
365.2008892542
 30
0.0
 10
326.7244091845
 20
365.3987816859
 30
0.0
 10
326.7514041759
 20
365.9986904491
 30
0.0
 10
327.2337273611
 20
366.9249544156
 30
0.0
 10
328.3405712425
 20
367.550475886
 30
0.0
 10
329.63049681
 20
367.4705156398
 30
0.0
 10
330.6854111
 20
366.6880420864
 30
0.0
 10
331.0478294293
 20
365.7143770196
 30
0.0
 10
331.0287608915
 20
365.1361210218
 30
0.0
 10
331.0101408639
 20
364.9921873022
 30
0.0
  0
SPLINE
  5
4C2
100
AcDbEntity
  8
0
100
AcDbSpline
 62
7
  6
CONTINUOUS
 70
0
 71
3
 72
11
 73
7
 74
0
 42
0.0000001
 43
0.0000001
 44
0.0000000001
 40
0.0
 40
0.0
 40
0.0
 40
0.0
 40
0.1849645359
 40
0.4633595058
 40
0.7417544758
 40
1.0
 40
1.0
 40
1.0
 40
1.0
 10
331.0101408639
 20
364.9921873022
 30
0.0
 10
330.9732787344
 20
364.7072412472
 30
0.0
 10
330.7451633241
 20
364.0068423825
 30
0.0
 10
329.8714334881
 20
363.1517413135
 30
0.0
 10
328.5343589601
 20
362.8828784494
 30
0.0
 10
327.6858907584
 20
363.2006457809
 30
0.0
 10
327.3428002974
 20
363.4483714821
 30
0.0
  0
LINE
  5
4C3
100
AcDbEntity
  8
0
100
AcDbLine
 62
7
  6
CONTINUOUS
 10
327.3428002974
 20
363.4483714821
 11
327.3400020559
 21
363.4503950798
  0
SPLINE
  5
4C4
100
AcDbEntity
  8
0
100
AcDbSpline
 62
7
  6
CONTINUOUS
 70
0
 71
3
 72
9
 73
5
 74
0
 42
0.0000001
 43
0.0000001
 44
0.0000000001
 40
0.0
 40
0.0
 40
0.0
 40
0.0
 40
0.0549713783
 40
1.0
 40
1.0
 40
1.0
 40
1.0
 10
327.292235035
 20
363.4859317353
 30
0.0
 10
327.2826714309
 20
363.4932386874
 30
0.0
 10
327.1096977175
 20
363.6275403871
 30
0.0
 10
326.9553643712
 20
363.7867749501
 30
0.0
 10
326.8306001621
 20
363.9538985987
 30
0.0
  0
SPLINE
  5
4C5
100
AcDbEntity
  8
0
100
AcDbSpline
 62
7
  6
CONTINUOUS
 70
0
 71
3
 72
21
 73
17
 74
0
 42
0.0000001
 43
0.0000001
 44
0.0000000001
 40
0.0
 40
0.0
 40
0.0
 40
0.0
 40
0.0625997179
 40
0.1251916951
 40
0.1877894752
 40
0.2503763918
 40
0.3129590492
 40
0.3755498085
 40
0.5001009799
 40
0.6246419292
 40
0.6872095084
 40
0.7497777899
 40
0.8123351036
 40
0.8748942141
 40
0.9374547862
 40
1.0
 40
1.0
 40
1.0
 40
1.0
 10
327.2216397492
 20
365.3400439555
 30
0.0
 10
327.2225163847
 20
365.2393718993
 30
0.0
 10
327.2438360007
 20
365.0376647089
 30
0.0
 10
327.3334504469
 20
364.7473593423
 30
0.0
 10
327.477372079
 20
364.4796740693
 30
0.0
 10
327.6703020098
 20
364.2449069556
 30
0.0
 10
327.9051608072
 20
364.0519485464
 30
0.0
 10
328.260770714
 20
363.8607274879
 30
0.0
 10
328.7655222839
 20
363.7580094447
 30
0.0
 10
329.2709753421
 20
363.8576949355
 30
0.0
 10
329.6272861357
 20
364.0475478876
 30
0.0
 10
329.862408882
 20
364.2400970323
 30
0.0
 10
330.054946623
 20
364.4750986212
 30
0.0
 10
330.1974635866
 20
364.7434435388
 30
0.0
 10
330.2842524612
 20
365.0344926867
 30
0.0
 10
330.3025695865
 20
365.2364429084
 30
0.0
 10
330.3016527469
 20
365.3370269467
 30
0.0
  0
SPLINE
  5
4C6
100
AcDbEntity
  8
0
100
AcDbSpline
 62
7
  6
CONTINUOUS
 70
0
 71
3
 72
21
 73
17
 74
0
 42
0.0000001
 43
0.0000001
 44
0.0000000001
 40
0.0
 40
0.0
 40
0.0
 40
0.0
 40
0.0625997278
 40
0.1251953621
 40
0.1877819248
 40
0.2503711858
 40
0.3129582136
 40
0.375537181
 40
0.5000946073
 40
0.6246339359
 40
0.6872021497
 40
0.7497605473
 40
0.812325063
 40
0.8748880147
 40
0.9374427986
 40
1.0
 40
1.0
 40
1.0
 40
1.0
 10
330.397273191
 20
365.3369332823
 30
0.0
 10
330.3963900239
 20
365.4407305676
 30
0.0
 10
330.3744634048
 20
365.6487092336
 30
0.0
 10
330.2821441791
 20
365.9480419547
 30
0.0
 10
330.1337508259
 20
366.2240261035
 30
0.0
 10
329.9348649665
 20
366.4660939121
 30
0.0
 10
329.6927362165
 20
366.6650618806
 30
0.0
 10
329.3260623314
 20
366.862163591
 30
0.0
 10
328.8056603941
 20
366.9681063273
 30
0.0
 10
328.284522693
 20
366.8652568567
 30
0.0
 10
327.9171526665
 20
366.6695462311
 30
0.0
 10
327.6747563935
 20
366.4709969756
 30
0.0
 10
327.4761943251
 20
366.2287422397
 30
0.0
 10
327.3292081581
 20
365.9520781819
 30
0.0
 10
327.2396861781
 20
365.6519909472
 30
0.0
 10
327.2207365152
 20
365.4437705494
 30
0.0
 10
327.2216397492
 20
365.3400439555
 30
0.0
  0
SPLINE
  5
4C7
100
AcDbEntity
  8
0
100
AcDbSpline
 62
7
  6
CONTINUOUS
 70
0
 71
3
 72
13
 73
9
 74
0
 42
0.0000001
 43
0.0000001
 44
0.0000000001
 40
0.0
 40
0.0
 40
0.0
 40
0.0
 40
0.1579692225
 40
0.3453239108
 40
0.5326785991
 40
0.7200332875
 40
0.9073879758
 40
1.0
 40
1.0
 40
1.0
 40
1.0
 10
225.8453959986
 20
470.1365633479
 30
0.0
 10
225.8544874163
 20
469.8355137639
 30
0.0
 10
225.7136594609
 20
469.1670112053
 30
0.0
 10
224.9819838456
 20
468.3653203373
 30
0.0
 10
223.8533271008
 20
468.071735411
 30
0.0
 10
222.727060544
 20
468.4473184567
 30
0.0
 10
222.1012193602
 20
469.2331687875
 30
0.0
 10
221.9624854635
 20
469.8075926417
 30
0.0
 10
221.943665975
 20
470.0010360824
 30
0.0
  0
SPLINE
  5
4C8
100
AcDbEntity
  8
0
100
AcDbSpline
 62
7
  6
CONTINUOUS
 70
0
 71
3
 72
14
 73
10
 74
0
 42
0.0000001
 43
0.0000001
 44
0.0000000001
 40
0.0
 40
0.0
 40
0.0
 40
0.0
 40
0.0865709652
 40
0.2577660265
 40
0.4289610879
 40
0.6001561492
 40
0.7713512106
 40
0.9425462719
 40
1.0
 40
1.0
 40
1.0
 40
1.0
 10
221.943665975
 20
470.0010360824
 30
0.0
 10
221.9244135237
 20
470.198929899
 30
0.0
 10
221.9514516535
 20
470.7988367194
 30
0.0
 10
222.4338414435
 20
471.7250660005
 30
0.0
 10
223.5407303022
 20
472.350507878
 30
0.0
 10
224.8306501165
 20
472.2704548757
 30
0.0
 10
225.8855081375
 20
471.4879054673
 30
0.0
 10
226.2478564513
 20
470.5142143421
 30
0.0
 10
226.2287463321
 20
469.9359597169
 30
0.0
 10
226.2101159545
 20
469.7920273367
 30
0.0
  0
SPLINE
  5
4C9
100
AcDbEntity
  8
0
100
AcDbSpline
 62
7
  6
CONTINUOUS
 70
0
 71
3
 72
11
 73
7
 74
0
 42
0.0000001
 43
0.0000001
 44
0.0000000001
 40
0.0
 40
0.0
 40
0.0
 40
0.0
 40
0.1849645359
 40
0.4633595058
 40
0.7417544758
 40
1.0
 40
1.0
 40
1.0
 40
1.0
 10
226.2101159545
 20
469.7920273367
 30
0.0
 10
226.1732333351
 20
469.507083933
 30
0.0
 10
225.945067561
 20
468.8067014736
 30
0.0
 10
225.0712762384
 20
467.9516632352
 30
0.0
 10
223.7341823803
 20
467.6828965185
 30
0.0
 10
222.8857370309
 20
468.0007248611
 30
0.0
 10
222.5426643843
 20
468.2484752327
 30
0.0
  0
LINE
  5
4CA
100
AcDbEntity
  8
0
100
AcDbLine
 62
7
  6
CONTINUOUS
 10
222.5426643843
 20
468.2484752327
 11
222.5398662884
 21
468.2504990316
  0
SPLINE
  5
4CB
100
AcDbEntity
  8
0
100
AcDbSpline
 62
7
  6
CONTINUOUS
 70
0
 71
3
 72
9
 73
5
 74
0
 42
0.0000001
 43
0.0000001
 44
0.0000000001
 40
0.0
 40
0.0
 40
0.0
 40
0.0
 40
0.0549713783
 40
1.0
 40
1.0
 40
1.0
 40
1.0
 10
222.492101823
 20
468.286039122
 30
0.0
 10
222.4825387443
 20
468.2933467617
 30
0.0
 10
222.3095746888
 20
468.4276608993
 30
0.0
 10
222.1552527931
 20
468.5869065598
 30
0.0
 10
222.030500602
 20
468.7540391795
 30
0.0
  0
SPLINE
  5
4CC
100
AcDbEntity
  8
0
100
AcDbSpline
 62
7
  6
CONTINUOUS
 70
0
 71
3
 72
21
 73
17
 74
0
 42
0.0000001
 43
0.0000001
 44
0.0000000001
 40
0.0
 40
0.0
 40
0.0
 40
0.0
 40
0.0625997179
 40
0.1251916951
 40
0.1877894752
 40
0.2503763918
 40
0.3129590492
 40
0.3755498085
 40
0.5001009799
 40
0.6246419292
 40
0.6872095084
 40
0.7497777899
 40
0.8123351036
 40
0.8748942141
 40
0.9374547862
 40
1.0
 40
1.0
 40
1.0
 40
1.0
 10
222.4216398634
 20
470.1401564137
 30
0.0
 10
222.4225092597
 20
470.0394842948
 30
0.0
 10
222.4438143713
 20
469.8377755718
 30
0.0
 10
222.5334079418
 20
469.547463762
 30
0.0
 10
222.6773103248
 20
469.2797681405
 30
0.0
 10
222.8702233734
 20
469.0449871541
 30
0.0
 10
223.1050682949
 20
468.8520118571
 30
0.0
 10
223.4606644503
 20
468.6607652278
 30
0.0
 10
223.9654086327
 20
468.5580108891
 30
0.0
 10
224.4708688578
 20
468.6576600333
 30
0.0
 10
224.8271933025
 20
468.8474873632
 30
0.0
 10
225.0623298941
 20
469.0400196001
 30
0.0
 10
225.2548845331
 20
469.2750073434
 30
0.0
 10
225.3974207926
 20
469.5433420122
 30
0.0
 10
225.4842305958
 20
469.8343849184
 30
0.0
 10
225.5025622429
 20
470.0363338225
 30
0.0
 10
225.5016526362
 20
470.1369179265
 30
0.0
  0
SPLINE
  5
4CD
100
AcDbEntity
  8
0
100
AcDbSpline
 62
7
  6
CONTINUOUS
 70
0
 71
3
 72
21
 73
17
 74
0
 42
0.0000001
 43
0.0000001
 44
0.0000000001
 40
0.0
 40
0.0
 40
0.0
 40
0.0
 40
0.0625997278
 40
0.1251953621
 40
0.1877819248
 40
0.2503711858
 40
0.3129582136
 40
0.375537181
 40
0.5000946073
 40
0.6246339359
 40
0.6872021497
 40
0.7497605473
 40
0.812325063
 40
0.8748880147
 40
0.9374427986
 40
1.0
 40
1.0
 40
1.0
 40
1.0
 10
225.5972730733
 20
470.1368173861
 30
0.0
 10
225.5963973701
 20
470.2406147347
 30
0.0
 10
225.5744857065
 20
470.4485949768
 30
0.0
 10
225.4821880055
 20
470.7479343357
 30
0.0
 10
225.3338144982
 20
471.0239291544
 30
0.0
 10
225.134946046
 20
471.266011264
 30
0.0
 10
224.8928316041
 20
471.464996643
 30
0.0
 10
224.5261718932
 20
471.6621247198
 30
0.0
 10
224.0057775754
 20
471.768104877
 30
0.0
 10
223.4846324799
 20
471.6652928809
 30
0.0
 10
223.1172483812
 20
471.4696086727
 30
0.0
 10
222.8748378315
 20
471.2710768481
 30
0.0
 10
222.6762583434
 20
471.028836391
 30
0.0
 10
222.5292522824
 20
470.7521829034
 30
0.0
 10
222.4397087238
 20
470.4521021069
 30
0.0
 10
222.4207440882
 20
470.2438830723
 30
0.0
 10
222.4216398634
 20
470.1401564137
 30
0.0
  0
SPLINE
  5
4CE
100
AcDbEntity
  8
0
100
AcDbSpline
 62
7
  6
CONTINUOUS
 70
0
 71
3
 72
13
 73
9
 74
0
 42
0.0000001
 43
0.0000001
 44
0.0000000001
 40
0.0
 40
0.0
 40
0.0
 40
0.0
 40
0.1579692225
 40
0.3453239108
 40
0.5326785991
 40
0.7200332875
 40
0.9073879758
 40
1.0
 40
1.0
 40
1.0
 40
1.0
 10
330.6453929388
 20
470.1346160073
 30
0.0
 10
330.6541691389
 20
469.8335570692
 30
0.0
 10
330.5126413082
 20
469.1652023302
 30
0.0
 10
329.7801266873
 20
468.3642779993
 30
0.0
 10
328.6511631644
 20
468.0718749887
 30
0.0
 10
327.5252904775
 20
468.4486370807
 30
0.0
 10
326.9002724576
 20
469.2351422648
 30
0.0
 10
326.7621400848
 20
469.8097110648
 30
0.0
 10
326.7435231507
 20
470.0031741043
 30
0.0
  0
SPLINE
  5
4CF
100
AcDbEntity
  8
0
100
AcDbSpline
 62
7
  6
CONTINUOUS
 70
0
 71
3
 72
14
 73
10
 74
0
 42
0.0000001
 43
0.0000001
 44
0.0000000001
 40
0.0
 40
0.0
 40
0.0
 40
0.0
 40
0.0865709652
 40
0.2577660265
 40
0.4289610879
 40
0.6001561492
 40
0.7713512106
 40
0.9425462719
 40
1.0
 40
1.0
 40
1.0
 40
1.0
 10
326.7435231507
 20
470.0031741043
 30
0.0
 10
326.7244779138
 20
470.2010879707
 30
0.0
 10
326.7521441583
 20
470.8009661521
 30
0.0
 10
327.235503488
 20
471.7266898415
 30
0.0
 10
328.343046606
 20
472.3509724133
 30
0.0
 10
329.6328818941
 20
472.2695688504
 30
0.0
 10
330.6869199722
 20
471.4859153867
 30
0.0
 10
331.0482485886
 20
470.5118454001
 30
0.0
 10
331.028533021
 20
469.9336111011
 30
0.0
 10
331.0097519499
 20
469.7896983066
 30
0.0
  0
SPLINE
  5
4D0
100
AcDbEntity
  8
0
100
AcDbSpline
 62
7
  6
CONTINUOUS
 70
0
 71
3
 72
11
 73
7
 74
0
 42
0.0000001
 43
0.0000001
 44
0.0000000001
 40
0.0
 40
0.0
 40
0.0
 40
0.0
 40
0.1849645359
 40
0.4633595058
 40
0.7417544758
 40
1.0
 40
1.0
 40
1.0
 40
1.0
 10
331.0097519499
 20
469.7896983066
 30
0.0
 10
330.9725710021
 20
469.5047936769
 30
0.0
 10
330.7436720208
 20
468.8046505013
 30
0.0
 10
329.8689859134
 20
467.9505276307
 30
0.0
 10
328.5316113773
 20
467.6831610593
 30
0.0
 10
327.6834992736
 20
468.0018775884
 30
0.0
 10
327.340686221
 20
468.2499870368
 30
0.0
  0
LINE
  5
4D1
100
AcDbEntity
  8
0
100
AcDbLine
 62
7
  6
CONTINUOUS
 10
327.340686221
 20
468.2499870368
 11
327.3378902456
 21
468.2520137644
  0
SPLINE
  5
4D2
100
AcDbEntity
  8
0
100
AcDbSpline
 62
7
  6
CONTINUOUS
 70
0
 71
3
 72
9
 73
5
 74
0
 42
0.0000001
 43
0.0000001
 44
0.0000000001
 40
0.0
 40
0.0
 40
0.0
 40
0.0
 40
0.0549713783
 40
1.0
 40
1.0
 40
1.0
 40
1.0
 10
327.2901630185
 20
468.2876038468
 30
0.0
 10
327.2806075965
 20
468.2949214955
 30
0.0
 10
327.1077842688
 20
468.4294166607
 30
0.0
 10
326.9536291951
 20
468.5888238159
 30
0.0
 10
326.8290520678
 20
468.7560869652
 30
0.0
  0
SPLINE
  5
4D3
100
AcDbEntity
  8
0
100
AcDbSpline
 62
7
  6
CONTINUOUS
 70
0
 71
3
 72
21
 73
17
 74
0
 42
0.0000001
 43
0.0000001
 44
0.0000000001
 40
0.0
 40
0.0
 40
0.0
 40
0.0
 40
0.0625997179
 40
0.1251916951
 40
0.1877894752
 40
0.2503763918
 40
0.3129590492
 40
0.3755498085
 40
0.5001009799
 40
0.6246419292
 40
0.6872095084
 40
0.7497777899
 40
0.8123351036
 40
0.8748942141
 40
0.9374547862
 40
1.0
 40
1.0
 40
1.0
 40
1.0
 10
327.2216424424
 20
470.1417938991
 30
0.0
 10
327.22240643
 20
470.041120925
 30
0.0
 10
327.2435003317
 20
469.8393900052
 30
0.0
 10
327.3327898835
 20
469.5489845459
 30
0.0
 10
327.4764118981
 20
469.2811383989
 30
0.0
 10
327.6690790146
 20
469.0461555525
 30
0.0
 10
327.9037217535
 20
468.852934468
 30
0.0
 10
328.2591174701
 20
468.6613156182
 30
0.0
 10
328.7637537873
 20
468.5580328458
 30
0.0
 10
329.2693180726
 20
468.6571526956
 30
0.0
 10
329.6258410798
 20
468.8466068336
 30
0.0
 10
329.8611791324
 20
469.0388927663
 30
0.0
 10
330.0539797088
 20
469.2736787673
 30
0.0
 10
330.1967968487
 20
469.5418640471
 30
0.0
 10
330.2839113395
 20
469.8328159
 30
0.0
 10
330.3024544262
 20
470.0347454993
 30
0.0
 10
330.3016501361
 20
470.1353305006
 30
0.0
  0
SPLINE
  5
4D4
100
AcDbEntity
  8
0
100
AcDbSpline
 62
7
  6
CONTINUOUS
 70
0
 71
3
 72
21
 73
17
 74
0
 42
0.0000001
 43
0.0000001
 44
0.0000000001
 40
0.0
 40
0.0
 40
0.0
 40
0.0
 40
0.0625997278
 40
0.1251953621
 40
0.1877819248
 40
0.2503711858
 40
0.3129582136
 40
0.375537181
 40
0.5000946073
 40
0.6246339359
 40
0.6872021497
 40
0.7497605473
 40
0.812325063
 40
0.8748880147
 40
0.9374427986
 40
1.0
 40
1.0
 40
1.0
 40
1.0
 10
330.3972704154
 20
470.1351298413
 30
0.0
 10
330.3965033932
 20
470.2389280499
 30
0.0
 10
330.3748095064
 20
470.4469311205
 30
0.0
 10
330.2828252779
 20
470.7463669552
 30
0.0
 10
330.134740831
 20
471.0225169764
 30
0.0
 10
329.9361259588
 20
471.2648071776
 30
0.0
 10
329.6942199963
 20
471.4640459523
 30
0.0
 10
329.3277668884
 20
471.6615578304
 30
0.0
 10
328.8074838219
 20
471.768082806
 30
0.0
 10
328.2862313633
 20
471.6658165287
 30
0.0
 10
327.9186425757
 20
471.4705170957
 30
0.0
 10
327.676024287
 20
471.2722391947
 30
0.0
 10
327.4771912711
 20
471.0302067921
 30
0.0
 10
327.3298956219
 20
470.7537073782
 30
0.0
 10
327.2400379142
 20
470.4537205023
 30
0.0
 10
327.2208552742
 20
470.2455214387
 30
0.0
 10
327.2216424424
 20
470.1417938991
 30
0.0
  0
SPLINE
  5
4D5
100
AcDbEntity
  8
0
100
AcDbSpline
 62
7
  6
CONTINUOUS
 70
0
 71
3
 72
11
 73
7
 74
0
 42
0.0000001
 43
0.0000001
 44
0.0000000001
 40
0.0
 40
0.0
 40
0.0
 40
0.0
 40
0.2616433677
 40
0.5144965769
 40
0.7595948856
 40
1.0
 40
1.0
 40
1.0
 40
1.0
 10
123.1120486641
 20
328.9850940224
 30
0.0
 10
123.2274302727
 20
328.9184784196
 30
0.0
 10
123.4595521627
 20
328.7961380533
 30
0.0
 10
123.819475945
 20
328.6520473198
 30
0.0
 10
124.1853264714
 20
328.5598554025
 30
0.0
 10
124.4330078453
 20
328.538512035
 30
0.0
 10
124.5554243372
 20
328.538512035
 30
0.0
  0
SPLINE
  5
4D6
100
AcDbEntity
  8
0
100
AcDbSpline
 62
7
  6
CONTINUOUS
 70
0
 71
3
 72
11
 73
7
 74
0
 42
0.0000001
 43
0.0000001
 44
0.0000000001
 40
0.0
 40
0.0
 40
0.0
 40
0.0
 40
0.2404051783
 40
0.4855034955
 40
0.7383567051
 40
1.0
 40
1.0
 40
1.0
 40
1.0
 10
124.5554243372
 20
328.538512035
 30
0.0
 10
124.677840861
 20
328.538512035
 30
0.0
 10
124.9255222648
 20
328.5598554242
 30
0.0
 10
125.2913728499
 20
328.6520472912
 30
0.0
 10
125.6512965014
 20
328.7961382482
 30
0.0
 10
125.8834184342
 20
328.9184784385
 30
0.0
 10
125.9988000101
 20
328.9850940224
 30
0.0
  0
SPLINE
  5
4D7
100
AcDbEntity
  8
0
100
AcDbSpline
 62
7
  6
CONTINUOUS
 70
0
 71
3
 72
11
 73
7
 74
0
 42
0.0000001
 43
0.0000001
 44
0.0000000001
 40
0.0
 40
0.0
 40
0.0
 40
0.0
 40
0.2404051783
 40
0.4855034954
 40
0.7383567049
 40
1.0
 40
1.0
 40
1.0
 40
1.0
 10
133.2156783495
 20
328.538512035
 30
0.0
 10
133.3380948754
 20
328.5385120336
 30
0.0
 10
133.5857762835
 20
328.5598554205
 30
0.0
 10
133.9516268753
 20
328.6520472868
 30
0.0
 10
134.3115505333
 20
328.7961382451
 30
0.0
 10
134.5436724701
 20
328.9184784374
 30
0.0
 10
134.6590540479
 20
328.9850940224
 30
0.0
  0
SPLINE
  5
4D8
100
AcDbEntity
  8
0
100
AcDbSpline
 62
7
  6
CONTINUOUS
 70
0
 71
3
 72
11
 73
7
 74
0
 42
0.0000001
 43
0.0000001
 44
0.0000000001
 40
0.0
 40
0.0
 40
0.0
 40
0.0
 40
0.2616433676
 40
0.5144965768
 40
0.7595948856
 40
1.0
 40
1.0
 40
1.0
 40
1.0
 10
131.772302702
 20
328.9850940224
 30
0.0
 10
131.8876843085
 20
328.9184784208
 30
0.0
 10
132.1198061945
 20
328.7961380564
 30
0.0
 10
132.4797299704
 20
328.6520473243
 30
0.0
 10
132.8455804902
 20
328.5598554061
 30
0.0
 10
133.0932618596
 20
328.5385120364
 30
0.0
 10
133.2156783495
 20
328.538512035
 30
0.0
  0
SPLINE
  5
4D9
100
AcDbEntity
  8
0
100
AcDbSpline
 62
7
  6
CONTINUOUS
 70
0
 71
3
 72
10
 73
6
 74
0
 42
0.0000001
 43
0.0000001
 44
0.0000000001
 40
0.0
 40
0.0
 40
0.0
 40
0.0
 40
0.2500482299
 40
0.5000995429
 40
1.0
 40
1.0
 40
1.0
 40
1.0
 10
128.8855513561
 20
328.538512035
 30
0.0
 10
129.1297391461
 20
328.538512035
 30
0.0
 10
129.6183764272
 20
328.5593522811
 30
0.0
 10
130.5882171481
 20
328.6804279436
 30
0.0
 10
131.3032705217
 20
328.8496960946
 30
0.0
 10
131.772302702
 20
328.9850940224
 30
0.0
  0
SPLINE
  5
4DA
100
AcDbEntity
  8
0
100
AcDbSpline
 62
7
  6
CONTINUOUS
 70
0
 71
3
 72
10
 73
6
 74
0
 42
0.0000001
 43
0.0000001
 44
0.0000000001
 40
0.0
 40
0.0
 40
0.0
 40
0.0
 40
0.4999005286
 40
0.7499518349
 40
1.0
 40
1.0
 40
1.0
 40
1.0
 10
125.9988000101
 20
328.9850940224
 30
0.0
 10
126.4678322571
 20
328.8496960754
 30
0.0
 10
127.1828856988
 20
328.6804279384
 30
0.0
 10
128.1527264182
 20
328.5593522716
 30
0.0
 10
128.6413636294
 20
328.538512035
 30
0.0
 10
128.8855513561
 20
328.538512035
 30
0.0
  0
SPLINE
  5
4DB
100
AcDbEntity
  8
0
100
AcDbSpline
 62
7
  6
CONTINUOUS
 70
0
 71
3
 72
11
 73
7
 74
0
 42
0.0000001
 43
0.0000001
 44
0.0000000001
 40
0.0
 40
0.0
 40
0.0
 40
0.0
 40
0.2616433677
 40
0.5144965769
 40
0.7595948856
 40
1.0
 40
1.0
 40
1.0
 40
1.0
 10
417.1120486641
 20
328.9850940224
 30
0.0
 10
417.2274302727
 20
328.9184784196
 30
0.0
 10
417.4595521627
 20
328.7961380533
 30
0.0
 10
417.819475945
 20
328.6520473198
 30
0.0
 10
418.1853264714
 20
328.5598554025
 30
0.0
 10
418.4330078453
 20
328.538512035
 30
0.0
 10
418.5554243372
 20
328.538512035
 30
0.0
  0
SPLINE
  5
4DC
100
AcDbEntity
  8
0
100
AcDbSpline
 62
7
  6
CONTINUOUS
 70
0
 71
3
 72
11
 73
7
 74
0
 42
0.0000001
 43
0.0000001
 44
0.0000000001
 40
0.0
 40
0.0
 40
0.0
 40
0.0
 40
0.2404051783
 40
0.4855034955
 40
0.7383567051
 40
1.0
 40
1.0
 40
1.0
 40
1.0
 10
418.5554243372
 20
328.538512035
 30
0.0
 10
418.677840861
 20
328.538512035
 30
0.0
 10
418.9255222648
 20
328.5598554242
 30
0.0
 10
419.2913728499
 20
328.6520472912
 30
0.0
 10
419.6512965014
 20
328.7961382482
 30
0.0
 10
419.8834184342
 20
328.9184784385
 30
0.0
 10
419.9988000101
 20
328.9850940224
 30
0.0
  0
SPLINE
  5
4DD
100
AcDbEntity
  8
0
100
AcDbSpline
 62
7
  6
CONTINUOUS
 70
0
 71
3
 72
11
 73
7
 74
0
 42
0.0000001
 43
0.0000001
 44
0.0000000001
 40
0.0
 40
0.0
 40
0.0
 40
0.0
 40
0.2404051783
 40
0.4855034954
 40
0.7383567049
 40
1.0
 40
1.0
 40
1.0
 40
1.0
 10
427.2156783495
 20
328.538512035
 30
0.0
 10
427.3380948754
 20
328.5385120336
 30
0.0
 10
427.5857762835
 20
328.5598554205
 30
0.0
 10
427.9516268753
 20
328.6520472868
 30
0.0
 10
428.3115505333
 20
328.7961382451
 30
0.0
 10
428.5436724701
 20
328.9184784374
 30
0.0
 10
428.6590540479
 20
328.9850940224
 30
0.0
  0
SPLINE
  5
4DE
100
AcDbEntity
  8
0
100
AcDbSpline
 62
7
  6
CONTINUOUS
 70
0
 71
3
 72
11
 73
7
 74
0
 42
0.0000001
 43
0.0000001
 44
0.0000000001
 40
0.0
 40
0.0
 40
0.0
 40
0.0
 40
0.2616433676
 40
0.5144965768
 40
0.7595948856
 40
1.0
 40
1.0
 40
1.0
 40
1.0
 10
425.772302702
 20
328.9850940224
 30
0.0
 10
425.8876843085
 20
328.9184784208
 30
0.0
 10
426.1198061945
 20
328.7961380564
 30
0.0
 10
426.4797299704
 20
328.6520473243
 30
0.0
 10
426.8455804902
 20
328.5598554061
 30
0.0
 10
427.0932618596
 20
328.5385120364
 30
0.0
 10
427.2156783495
 20
328.538512035
 30
0.0
  0
SPLINE
  5
4DF
100
AcDbEntity
  8
0
100
AcDbSpline
 62
7
  6
CONTINUOUS
 70
0
 71
3
 72
10
 73
6
 74
0
 42
0.0000001
 43
0.0000001
 44
0.0000000001
 40
0.0
 40
0.0
 40
0.0
 40
0.0
 40
0.2500482299
 40
0.5000995429
 40
1.0
 40
1.0
 40
1.0
 40
1.0
 10
422.8855513561
 20
328.538512035
 30
0.0
 10
423.1297391461
 20
328.538512035
 30
0.0
 10
423.6183764272
 20
328.5593522811
 30
0.0
 10
424.5882171481
 20
328.6804279436
 30
0.0
 10
425.3032705217
 20
328.8496960946
 30
0.0
 10
425.772302702
 20
328.9850940224
 30
0.0
  0
SPLINE
  5
4E0
100
AcDbEntity
  8
0
100
AcDbSpline
 62
7
  6
CONTINUOUS
 70
0
 71
3
 72
10
 73
6
 74
0
 42
0.0000001
 43
0.0000001
 44
0.0000000001
 40
0.0
 40
0.0
 40
0.0
 40
0.0
 40
0.4999005286
 40
0.7499518349
 40
1.0
 40
1.0
 40
1.0
 40
1.0
 10
419.9988000101
 20
328.9850940224
 30
0.0
 10
420.4678322571
 20
328.8496960754
 30
0.0
 10
421.1828856988
 20
328.6804279384
 30
0.0
 10
422.1527264182
 20
328.5593522716
 30
0.0
 10
422.6413636294
 20
328.538512035
 30
0.0
 10
422.8855513561
 20
328.538512035
 30
0.0
  0
SPLINE
  5
4E1
100
AcDbEntity
  8
0
100
AcDbSpline
 62
7
  6
CONTINUOUS
 70
0
 71
3
 72
11
 73
7
 74
0
 42
0.0000001
 43
0.0000001
 44
0.0000000001
 40
0.0
 40
0.0
 40
0.0
 40
0.0
 40
0.2616433677
 40
0.5144965769
 40
0.7595948856
 40
1.0
 40
1.0
 40
1.0
 40
1.0
 10
103.1120486641
 20
333.9850940224
 30
0.0
 10
103.2274302727
 20
333.9184784196
 30
0.0
 10
103.4595521627
 20
333.7961380533
 30
0.0
 10
103.819475945
 20
333.6520473198
 30
0.0
 10
104.1853264714
 20
333.5598554025
 30
0.0
 10
104.4330078453
 20
333.538512035
 30
0.0
 10
104.5554243372
 20
333.538512035
 30
0.0
  0
SPLINE
  5
4E2
100
AcDbEntity
  8
0
100
AcDbSpline
 62
7
  6
CONTINUOUS
 70
0
 71
3
 72
11
 73
7
 74
0
 42
0.0000001
 43
0.0000001
 44
0.0000000001
 40
0.0
 40
0.0
 40
0.0
 40
0.0
 40
0.2404051783
 40
0.4855034955
 40
0.7383567051
 40
1.0
 40
1.0
 40
1.0
 40
1.0
 10
104.5554243372
 20
333.538512035
 30
0.0
 10
104.677840861
 20
333.538512035
 30
0.0
 10
104.9255222648
 20
333.5598554242
 30
0.0
 10
105.2913728499
 20
333.6520472912
 30
0.0
 10
105.6512965014
 20
333.7961382482
 30
0.0
 10
105.8834184342
 20
333.9184784385
 30
0.0
 10
105.9988000101
 20
333.9850940224
 30
0.0
  0
SPLINE
  5
4E3
100
AcDbEntity
  8
0
100
AcDbSpline
 62
7
  6
CONTINUOUS
 70
0
 71
3
 72
11
 73
7
 74
0
 42
0.0000001
 43
0.0000001
 44
0.0000000001
 40
0.0
 40
0.0
 40
0.0
 40
0.0
 40
0.2404051783
 40
0.4855034954
 40
0.7383567049
 40
1.0
 40
1.0
 40
1.0
 40
1.0
 10
113.2156783495
 20
333.538512035
 30
0.0
 10
113.3380948754
 20
333.5385120336
 30
0.0
 10
113.5857762835
 20
333.5598554205
 30
0.0
 10
113.9516268753
 20
333.6520472868
 30
0.0
 10
114.3115505333
 20
333.7961382451
 30
0.0
 10
114.5436724701
 20
333.9184784374
 30
0.0
 10
114.6590540479
 20
333.9850940224
 30
0.0
  0
SPLINE
  5
4E4
100
AcDbEntity
  8
0
100
AcDbSpline
 62
7
  6
CONTINUOUS
 70
0
 71
3
 72
11
 73
7
 74
0
 42
0.0000001
 43
0.0000001
 44
0.0000000001
 40
0.0
 40
0.0
 40
0.0
 40
0.0
 40
0.2616433676
 40
0.5144965768
 40
0.7595948856
 40
1.0
 40
1.0
 40
1.0
 40
1.0
 10
111.772302702
 20
333.9850940224
 30
0.0
 10
111.8876843085
 20
333.9184784208
 30
0.0
 10
112.1198061945
 20
333.7961380564
 30
0.0
 10
112.4797299704
 20
333.6520473243
 30
0.0
 10
112.8455804902
 20
333.5598554061
 30
0.0
 10
113.0932618596
 20
333.5385120364
 30
0.0
 10
113.2156783495
 20
333.538512035
 30
0.0
  0
SPLINE
  5
4E5
100
AcDbEntity
  8
0
100
AcDbSpline
 62
7
  6
CONTINUOUS
 70
0
 71
3
 72
10
 73
6
 74
0
 42
0.0000001
 43
0.0000001
 44
0.0000000001
 40
0.0
 40
0.0
 40
0.0
 40
0.0
 40
0.2500482299
 40
0.5000995429
 40
1.0
 40
1.0
 40
1.0
 40
1.0
 10
108.8855513561
 20
333.538512035
 30
0.0
 10
109.1297391461
 20
333.538512035
 30
0.0
 10
109.6183764272
 20
333.5593522811
 30
0.0
 10
110.5882171481
 20
333.6804279436
 30
0.0
 10
111.3032705217
 20
333.8496960946
 30
0.0
 10
111.772302702
 20
333.9850940224
 30
0.0
  0
SPLINE
  5
4E6
100
AcDbEntity
  8
0
100
AcDbSpline
 62
7
  6
CONTINUOUS
 70
0
 71
3
 72
10
 73
6
 74
0
 42
0.0000001
 43
0.0000001
 44
0.0000000001
 40
0.0
 40
0.0
 40
0.0
 40
0.0
 40
0.4999005286
 40
0.7499518349
 40
1.0
 40
1.0
 40
1.0
 40
1.0
 10
105.9988000101
 20
333.9850940224
 30
0.0
 10
106.4678322571
 20
333.8496960754
 30
0.0
 10
107.1828856988
 20
333.6804279384
 30
0.0
 10
108.1527264182
 20
333.5593522716
 30
0.0
 10
108.6413636294
 20
333.538512035
 30
0.0
 10
108.8855513561
 20
333.538512035
 30
0.0
  0
SPLINE
  5
4E7
100
AcDbEntity
  8
0
100
AcDbSpline
 62
7
  6
CONTINUOUS
 70
0
 71
3
 72
11
 73
7
 74
0
 42
0.0000001
 43
0.0000001
 44
0.0000000001
 40
0.0
 40
0.0
 40
0.0
 40
0.0
 40
0.2616433677
 40
0.5144965769
 40
0.7595948856
 40
1.0
 40
1.0
 40
1.0
 40
1.0
 10
437.1120486641
 20
333.9850940224
 30
0.0
 10
437.2274302727
 20
333.9184784196
 30
0.0
 10
437.4595521627
 20
333.7961380533
 30
0.0
 10
437.819475945
 20
333.6520473198
 30
0.0
 10
438.1853264714
 20
333.5598554025
 30
0.0
 10
438.4330078453
 20
333.538512035
 30
0.0
 10
438.5554243372
 20
333.538512035
 30
0.0
  0
SPLINE
  5
4E8
100
AcDbEntity
  8
0
100
AcDbSpline
 62
7
  6
CONTINUOUS
 70
0
 71
3
 72
11
 73
7
 74
0
 42
0.0000001
 43
0.0000001
 44
0.0000000001
 40
0.0
 40
0.0
 40
0.0
 40
0.0
 40
0.2404051783
 40
0.4855034955
 40
0.7383567051
 40
1.0
 40
1.0
 40
1.0
 40
1.0
 10
438.5554243372
 20
333.538512035
 30
0.0
 10
438.677840861
 20
333.538512035
 30
0.0
 10
438.9255222648
 20
333.5598554242
 30
0.0
 10
439.2913728499
 20
333.6520472912
 30
0.0
 10
439.6512965014
 20
333.7961382482
 30
0.0
 10
439.8834184342
 20
333.9184784385
 30
0.0
 10
439.9988000101
 20
333.9850940224
 30
0.0
  0
SPLINE
  5
4E9
100
AcDbEntity
  8
0
100
AcDbSpline
 62
7
  6
CONTINUOUS
 70
0
 71
3
 72
11
 73
7
 74
0
 42
0.0000001
 43
0.0000001
 44
0.0000000001
 40
0.0
 40
0.0
 40
0.0
 40
0.0
 40
0.2404051783
 40
0.4855034954
 40
0.7383567049
 40
1.0
 40
1.0
 40
1.0
 40
1.0
 10
447.2156783495
 20
333.538512035
 30
0.0
 10
447.3380948754
 20
333.5385120336
 30
0.0
 10
447.5857762835
 20
333.5598554205
 30
0.0
 10
447.9516268753
 20
333.6520472868
 30
0.0
 10
448.3115505333
 20
333.7961382451
 30
0.0
 10
448.5436724701
 20
333.9184784374
 30
0.0
 10
448.6590540479
 20
333.9850940224
 30
0.0
  0
SPLINE
  5
4EA
100
AcDbEntity
  8
0
100
AcDbSpline
 62
7
  6
CONTINUOUS
 70
0
 71
3
 72
11
 73
7
 74
0
 42
0.0000001
 43
0.0000001
 44
0.0000000001
 40
0.0
 40
0.0
 40
0.0
 40
0.0
 40
0.2616433676
 40
0.5144965768
 40
0.7595948856
 40
1.0
 40
1.0
 40
1.0
 40
1.0
 10
445.772302702
 20
333.9850940224
 30
0.0
 10
445.8876843085
 20
333.9184784208
 30
0.0
 10
446.1198061945
 20
333.7961380564
 30
0.0
 10
446.4797299704
 20
333.6520473243
 30
0.0
 10
446.8455804902
 20
333.5598554061
 30
0.0
 10
447.0932618596
 20
333.5385120364
 30
0.0
 10
447.2156783495
 20
333.538512035
 30
0.0
  0
SPLINE
  5
4EB
100
AcDbEntity
  8
0
100
AcDbSpline
 62
7
  6
CONTINUOUS
 70
0
 71
3
 72
10
 73
6
 74
0
 42
0.0000001
 43
0.0000001
 44
0.0000000001
 40
0.0
 40
0.0
 40
0.0
 40
0.0
 40
0.2500482299
 40
0.5000995429
 40
1.0
 40
1.0
 40
1.0
 40
1.0
 10
442.8855513561
 20
333.538512035
 30
0.0
 10
443.1297391461
 20
333.538512035
 30
0.0
 10
443.6183764272
 20
333.5593522811
 30
0.0
 10
444.5882171481
 20
333.6804279436
 30
0.0
 10
445.3032705217
 20
333.8496960946
 30
0.0
 10
445.772302702
 20
333.9850940224
 30
0.0
  0
SPLINE
  5
4EC
100
AcDbEntity
  8
0
100
AcDbSpline
 62
7
  6
CONTINUOUS
 70
0
 71
3
 72
10
 73
6
 74
0
 42
0.0000001
 43
0.0000001
 44
0.0000000001
 40
0.0
 40
0.0
 40
0.0
 40
0.0
 40
0.4999005286
 40
0.7499518349
 40
1.0
 40
1.0
 40
1.0
 40
1.0
 10
439.9988000101
 20
333.9850940224
 30
0.0
 10
440.4678322571
 20
333.8496960754
 30
0.0
 10
441.1828856988
 20
333.6804279384
 30
0.0
 10
442.1527264182
 20
333.5593522716
 30
0.0
 10
442.6413636294
 20
333.538512035
 30
0.0
 10
442.8855513561
 20
333.538512035
 30
0.0
  0
SPLINE
  5
4ED
100
AcDbEntity
  8
0
100
AcDbSpline
 62
7
  6
CONTINUOUS
 70
0
 71
3
 72
11
 73
7
 74
0
 42
0.0000001
 43
0.0000001
 44
0.0000000001
 40
0.0
 40
0.0
 40
0.0
 40
0.0
 40
0.2616433677
 40
0.5144965769
 40
0.7595948856
 40
1.0
 40
1.0
 40
1.0
 40
1.0
 10
270.1120486641
 20
333.9850940224
 30
0.0
 10
270.2274302727
 20
333.9184784196
 30
0.0
 10
270.4595521627
 20
333.7961380533
 30
0.0
 10
270.819475945
 20
333.6520473198
 30
0.0
 10
271.1853264714
 20
333.5598554025
 30
0.0
 10
271.4330078453
 20
333.538512035
 30
0.0
 10
271.5554243372
 20
333.538512035
 30
0.0
  0
SPLINE
  5
4EE
100
AcDbEntity
  8
0
100
AcDbSpline
 62
7
  6
CONTINUOUS
 70
0
 71
3
 72
11
 73
7
 74
0
 42
0.0000001
 43
0.0000001
 44
0.0000000001
 40
0.0
 40
0.0
 40
0.0
 40
0.0
 40
0.2404051783
 40
0.4855034955
 40
0.7383567051
 40
1.0
 40
1.0
 40
1.0
 40
1.0
 10
271.5554243372
 20
333.538512035
 30
0.0
 10
271.677840861
 20
333.538512035
 30
0.0
 10
271.9255222648
 20
333.5598554242
 30
0.0
 10
272.2913728499
 20
333.6520472912
 30
0.0
 10
272.6512965014
 20
333.7961382482
 30
0.0
 10
272.8834184342
 20
333.9184784385
 30
0.0
 10
272.9988000101
 20
333.9850940224
 30
0.0
  0
SPLINE
  5
4EF
100
AcDbEntity
  8
0
100
AcDbSpline
 62
7
  6
CONTINUOUS
 70
0
 71
3
 72
11
 73
7
 74
0
 42
0.0000001
 43
0.0000001
 44
0.0000000001
 40
0.0
 40
0.0
 40
0.0
 40
0.0
 40
0.2404051783
 40
0.4855034954
 40
0.7383567049
 40
1.0
 40
1.0
 40
1.0
 40
1.0
 10
280.2156783495
 20
333.538512035
 30
0.0
 10
280.3380948754
 20
333.5385120336
 30
0.0
 10
280.5857762835
 20
333.5598554205
 30
0.0
 10
280.9516268753
 20
333.6520472868
 30
0.0
 10
281.3115505333
 20
333.7961382451
 30
0.0
 10
281.5436724701
 20
333.9184784374
 30
0.0
 10
281.6590540479
 20
333.9850940224
 30
0.0
  0
SPLINE
  5
4F0
100
AcDbEntity
  8
0
100
AcDbSpline
 62
7
  6
CONTINUOUS
 70
0
 71
3
 72
11
 73
7
 74
0
 42
0.0000001
 43
0.0000001
 44
0.0000000001
 40
0.0
 40
0.0
 40
0.0
 40
0.0
 40
0.2616433676
 40
0.5144965768
 40
0.7595948856
 40
1.0
 40
1.0
 40
1.0
 40
1.0
 10
278.772302702
 20
333.9850940224
 30
0.0
 10
278.8876843085
 20
333.9184784208
 30
0.0
 10
279.1198061945
 20
333.7961380564
 30
0.0
 10
279.4797299704
 20
333.6520473243
 30
0.0
 10
279.8455804902
 20
333.5598554061
 30
0.0
 10
280.0932618596
 20
333.5385120364
 30
0.0
 10
280.2156783495
 20
333.538512035
 30
0.0
  0
SPLINE
  5
4F1
100
AcDbEntity
  8
0
100
AcDbSpline
 62
7
  6
CONTINUOUS
 70
0
 71
3
 72
10
 73
6
 74
0
 42
0.0000001
 43
0.0000001
 44
0.0000000001
 40
0.0
 40
0.0
 40
0.0
 40
0.0
 40
0.2500482299
 40
0.5000995429
 40
1.0
 40
1.0
 40
1.0
 40
1.0
 10
275.8855513561
 20
333.538512035
 30
0.0
 10
276.1297391461
 20
333.538512035
 30
0.0
 10
276.6183764272
 20
333.5593522811
 30
0.0
 10
277.5882171481
 20
333.6804279436
 30
0.0
 10
278.3032705217
 20
333.8496960946
 30
0.0
 10
278.772302702
 20
333.9850940224
 30
0.0
  0
SPLINE
  5
4F2
100
AcDbEntity
  8
0
100
AcDbSpline
 62
7
  6
CONTINUOUS
 70
0
 71
3
 72
10
 73
6
 74
0
 42
0.0000001
 43
0.0000001
 44
0.0000000001
 40
0.0
 40
0.0
 40
0.0
 40
0.0
 40
0.4999005286
 40
0.7499518349
 40
1.0
 40
1.0
 40
1.0
 40
1.0
 10
272.9988000101
 20
333.9850940224
 30
0.0
 10
273.4678322571
 20
333.8496960754
 30
0.0
 10
274.1828856988
 20
333.6804279384
 30
0.0
 10
275.1527264182
 20
333.5593522716
 30
0.0
 10
275.6413636294
 20
333.538512035
 30
0.0
 10
275.8855513561
 20
333.538512035
 30
0.0
  0
LINE
  5
4F3
100
AcDbEntity
  8
0
100
AcDbLine
 62
7
  6
CONTINUOUS
 10
413.885551356
 20
301.2114223795
 11
413.6659536879
 21
301.0179348984
  0
LINE
  5
4F4
100
AcDbEntity
  8
0
100
AcDbLine
 62
7
  6
CONTINUOUS
 10
413.6659536879
 20
299.4590891716
 11
413.885551356
 21
299.6525766527
  0
SPLINE
  5
4F5
100
AcDbEntity
  8
0
100
AcDbSpline
 62
7
  6
CONTINUOUS
 70
0
 71
3
 72
9
 73
5
 74
0
 42
0.0000001
 43
0.0000001
 44
0.0000000001
 40
0.0
 40
0.0
 40
0.0
 40
0.0
 40
0.2491223356
 40
1.0
 40
1.0
 40
1.0
 40
1.0
 10
413.6659536879
 20
299.4590891716
 30
0.0
 10
413.6487303045
 20
299.3132543548
 30
0.0
 10
413.5610310219
 20
298.7300206149
 30
0.0
 10
413.40573127
 20
298.1584129813
 30
0.0
 10
413.2657642879
 20
297.738512035
 30
0.0
  0
SPLINE
  5
4F6
100
AcDbEntity
  8
0
100
AcDbSpline
 62
7
  6
CONTINUOUS
 70
0
 71
3
 72
9
 73
5
 74
0
 42
0.0000001
 43
0.0000001
 44
0.0000000001
 40
0.0
 40
0.0
 40
0.0
 40
0.0
 40
0.2512608425
 40
1.0
 40
1.0
 40
1.0
 40
1.0
 10
413.2657642879
 20
302.738512035
 30
0.0
 10
413.3125925735
 20
302.598027178
 30
0.0
 10
413.4883663963
 20
302.0356088112
 30
0.0
 10
413.6141973687
 20
301.4561689648
 30
0.0
 10
413.6659536879
 20
301.0179348984
 30
0.0
  0
SPLINE
  5
4F7
100
AcDbEntity
  8
0
100
AcDbSpline
 62
7
  6
CONTINUOUS
 70
0
 71
3
 72
13
 73
9
 74
0
 42
0.0000001
 43
0.0000001
 44
0.0000000001
 40
0.0
 40
0.0
 40
0.0
 40
0.0
 40
0.2507972322
 40
0.3755357351
 40
0.4999999894
 40
0.6244642602
 40
0.7492027741
 40
1.0
 40
1.0
 40
1.0
 40
1.0
 10
413.2657642879
 20
302.738512035
 30
0.0
 10
413.4005576796
 20
303.1428922102
 30
0.0
 10
413.5699441643
 20
303.7610968326
 30
0.0
 10
413.6914473306
 20
304.603171781
 30
0.0
 10
413.722777377
 20
305.2385119979
 30
0.0
 10
413.6914472333
 20
305.8738522288
 30
0.0
 10
413.5699440021
 20
306.7159271977
 30
0.0
 10
413.4005576762
 20
307.3341318699
 30
0.0
 10
413.2657642879
 20
307.738512035
 30
0.0
  0
LINE
  5
4F8
100
AcDbEntity
  8
0
100
AcDbLine
 62
7
  6
CONTINUOUS
 10
413.885551356
 20
321.2114223795
 11
413.6659536879
 21
321.0179348984
  0
LINE
  5
4F9
100
AcDbEntity
  8
0
100
AcDbLine
 62
7
  6
CONTINUOUS
 10
413.6659536879
 20
319.4590891716
 11
413.885551356
 21
319.6525766527
  0
SPLINE
  5
4FA
100
AcDbEntity
  8
0
100
AcDbSpline
 62
7
  6
CONTINUOUS
 70
0
 71
3
 72
9
 73
5
 74
0
 42
0.0000001
 43
0.0000001
 44
0.0000000001
 40
0.0
 40
0.0
 40
0.0
 40
0.0
 40
0.2491223356
 40
1.0
 40
1.0
 40
1.0
 40
1.0
 10
413.6659536879
 20
319.4590891716
 30
0.0
 10
413.6487303045
 20
319.3132543548
 30
0.0
 10
413.5610310219
 20
318.7300206149
 30
0.0
 10
413.40573127
 20
318.1584129813
 30
0.0
 10
413.2657642879
 20
317.738512035
 30
0.0
  0
SPLINE
  5
4FB
100
AcDbEntity
  8
0
100
AcDbSpline
 62
7
  6
CONTINUOUS
 70
0
 71
3
 72
9
 73
5
 74
0
 42
0.0000001
 43
0.0000001
 44
0.0000000001
 40
0.0
 40
0.0
 40
0.0
 40
0.0
 40
0.2512608425
 40
1.0
 40
1.0
 40
1.0
 40
1.0
 10
413.2657642879
 20
322.738512035
 30
0.0
 10
413.3125925735
 20
322.598027178
 30
0.0
 10
413.4883663963
 20
322.0356088112
 30
0.0
 10
413.6141973687
 20
321.4561689648
 30
0.0
 10
413.6659536879
 20
321.0179348984
 30
0.0
  0
SPLINE
  5
4FC
100
AcDbEntity
  8
0
100
AcDbSpline
 62
7
  6
CONTINUOUS
 70
0
 71
3
 72
13
 73
9
 74
0
 42
0.0000001
 43
0.0000001
 44
0.0000000001
 40
0.0
 40
0.0
 40
0.0
 40
0.0
 40
0.2507972322
 40
0.3755357351
 40
0.4999999894
 40
0.6244642602
 40
0.7492027741
 40
1.0
 40
1.0
 40
1.0
 40
1.0
 10
413.2657642879
 20
322.738512035
 30
0.0
 10
413.4005576796
 20
323.1428922102
 30
0.0
 10
413.5699441643
 20
323.7610968326
 30
0.0
 10
413.6914473306
 20
324.603171781
 30
0.0
 10
413.722777377
 20
325.2385119979
 30
0.0
 10
413.6914472333
 20
325.8738522288
 30
0.0
 10
413.5699440021
 20
326.7159271977
 30
0.0
 10
413.4005576762
 20
327.3341318699
 30
0.0
 10
413.2657642879
 20
327.738512035
 30
0.0
  0
LINE
  5
4FD
100
AcDbEntity
  8
0
100
AcDbLine
 62
7
  6
CONTINUOUS
 10
137.8855513561
 20
304.26560169
 11
138.1051490242
 21
304.459089171
  0
LINE
  5
4FE
100
AcDbEntity
  8
0
100
AcDbLine
 62
7
  6
CONTINUOUS
 10
138.1051490242
 20
306.0179348978
 11
137.8855513561
 21
305.8244474168
  0
SPLINE
  5
4FF
100
AcDbEntity
  8
0
100
AcDbSpline
 62
7
  6
CONTINUOUS
 70
0
 71
3
 72
9
 73
5
 74
0
 42
0.0000001
 43
0.0000001
 44
0.0000000001
 40
0.0
 40
0.0
 40
0.0
 40
0.0
 40
0.2491223356
 40
1.0
 40
1.0
 40
1.0
 40
1.0
 10
138.1051490242
 20
306.0179348978
 30
0.0
 10
138.1223724076
 20
306.1637697147
 30
0.0
 10
138.2100716902
 20
306.7470034546
 30
0.0
 10
138.3653714421
 20
307.3186110881
 30
0.0
 10
138.5053384242
 20
307.7385120344
 30
0.0
  0
SPLINE
  5
500
100
AcDbEntity
  8
0
100
AcDbSpline
 62
7
  6
CONTINUOUS
 70
0
 71
3
 72
9
 73
5
 74
0
 42
0.0000001
 43
0.0000001
 44
0.0000000001
 40
0.0
 40
0.0
 40
0.0
 40
0.0
 40
0.2512608425
 40
1.0
 40
1.0
 40
1.0
 40
1.0
 10
138.5053384243
 20
302.7385120344
 30
0.0
 10
138.4585101386
 20
302.8789968914
 30
0.0
 10
138.2827363158
 20
303.4414152583
 30
0.0
 10
138.1569053434
 20
304.0208551047
 30
0.0
 10
138.1051490242
 20
304.459089171
 30
0.0
  0
SPLINE
  5
501
100
AcDbEntity
  8
0
100
AcDbSpline
 62
7
  6
CONTINUOUS
 70
0
 71
3
 72
13
 73
9
 74
0
 42
0.0000001
 43
0.0000001
 44
0.0000000001
 40
0.0
 40
0.0
 40
0.0
 40
0.0
 40
0.2507972322
 40
0.3755357351
 40
0.4999999894
 40
0.6244642602
 40
0.7492027741
 40
1.0
 40
1.0
 40
1.0
 40
1.0
 10
138.5053384243
 20
302.7385120344
 30
0.0
 10
138.3705450325
 20
302.3341318593
 30
0.0
 10
138.2011585479
 20
301.7159272369
 30
0.0
 10
138.0796553816
 20
300.8738522884
 30
0.0
 10
138.0483253351
 20
300.2385120715
 30
0.0
 10
138.0796554789
 20
299.6031718406
 30
0.0
 10
138.2011587101
 20
298.7610968718
 30
0.0
 10
138.3705450359
 20
298.1428921996
 30
0.0
 10
138.5053384243
 20
297.7385120344
 30
0.0
  0
LINE
  5
502
100
AcDbEntity
  8
0
100
AcDbLine
 62
7
  6
CONTINUOUS
 10
137.885551356
 20
324.26560169
 11
138.1051490241
 21
324.459089171
  0
LINE
  5
503
100
AcDbEntity
  8
0
100
AcDbLine
 62
7
  6
CONTINUOUS
 10
138.1051490241
 20
326.0179348978
 11
137.885551356
 21
325.8244474168
  0
SPLINE
  5
504
100
AcDbEntity
  8
0
100
AcDbSpline
 62
7
  6
CONTINUOUS
 70
0
 71
3
 72
9
 73
5
 74
0
 42
0.0000001
 43
0.0000001
 44
0.0000000001
 40
0.0
 40
0.0
 40
0.0
 40
0.0
 40
0.2491223356
 40
1.0
 40
1.0
 40
1.0
 40
1.0
 10
138.1051490241
 20
326.0179348978
 30
0.0
 10
138.1223724075
 20
326.1637697147
 30
0.0
 10
138.2100716901
 20
326.7470034546
 30
0.0
 10
138.365371442
 20
327.3186110881
 30
0.0
 10
138.5053384241
 20
327.7385120344
 30
0.0
  0
SPLINE
  5
505
100
AcDbEntity
  8
0
100
AcDbSpline
 62
7
  6
CONTINUOUS
 70
0
 71
3
 72
9
 73
5
 74
0
 42
0.0000001
 43
0.0000001
 44
0.0000000001
 40
0.0
 40
0.0
 40
0.0
 40
0.0
 40
0.2512608425
 40
1.0
 40
1.0
 40
1.0
 40
1.0
 10
138.5053384242
 20
322.7385120344
 30
0.0
 10
138.4585101385
 20
322.8789968914
 30
0.0
 10
138.2827363157
 20
323.4414152583
 30
0.0
 10
138.1569053433
 20
324.0208551047
 30
0.0
 10
138.1051490241
 20
324.459089171
 30
0.0
  0
SPLINE
  5
506
100
AcDbEntity
  8
0
100
AcDbSpline
 62
7
  6
CONTINUOUS
 70
0
 71
3
 72
13
 73
9
 74
0
 42
0.0000001
 43
0.0000001
 44
0.0000000001
 40
0.0
 40
0.0
 40
0.0
 40
0.0
 40
0.2507972322
 40
0.3755357351
 40
0.4999999894
 40
0.6244642602
 40
0.7492027741
 40
1.0
 40
1.0
 40
1.0
 40
1.0
 10
138.5053384242
 20
322.7385120344
 30
0.0
 10
138.3705450324
 20
322.3341318593
 30
0.0
 10
138.2011585478
 20
321.7159272369
 30
0.0
 10
138.0796553815
 20
320.8738522884
 30
0.0
 10
138.048325335
 20
320.2385120715
 30
0.0
 10
138.0796554788
 20
319.6031718406
 30
0.0
 10
138.20115871
 20
318.7610968718
 30
0.0
 10
138.3705450358
 20
318.1428921996
 30
0.0
 10
138.5053384242
 20
317.7385120344
 30
0.0
  0
SPLINE
  5
507
100
AcDbEntity
  8
0
100
AcDbSpline
 62
7
  6
CONTINUOUS
 70
0
 71
3
 72
11
 73
7
 74
0
 42
0.0000001
 43
0.0000001
 44
0.0000000001
 40
0.0
 40
0.0
 40
0.0
 40
0.0
 40
0.205897236
 40
0.4399539867
 40
0.708859782
 40
1.0
 40
1.0
 40
1.0
 40
1.0
 10
231.6491789252
 20
373.0021396043
 30
0.0
 10
231.7071277569
 20
373.0600884359
 30
0.0
 10
231.8717213189
 20
373.1459124122
 30
0.0
 10
232.1619345065
 20
373.1387551012
 30
0.0
 10
232.4606439803
 20
373.0218521898
 30
0.0
 10
232.6398688735
 20
372.8839175014
 30
0.0
 10
232.721808951
 20
372.8019774239
 30
0.0
  0
SPLINE
  5
508
100
AcDbEntity
  8
0
100
AcDbSpline
 62
7
  6
CONTINUOUS
 70
0
 71
3
 72
11
 73
7
 74
0
 42
0.0000001
 43
0.0000001
 44
0.0000000001
 40
0.0
 40
0.0
 40
0.0
 40
0.0
 40
0.291140218
 40
0.5600460133
 40
0.794102764
 40
1.0
 40
1.0
 40
1.0
 40
1.0
 10
232.721808951
 20
372.8019774239
 30
0.0
 10
232.8037490285
 20
372.7200373464
 30
0.0
 10
232.9416837169
 20
372.5408124532
 30
0.0
 10
233.0585866283
 20
372.2421029793
 30
0.0
 10
233.0657439393
 20
371.9518897917
 30
0.0
 10
232.979919963
 20
371.7872962298
 30
0.0
 10
232.9219711314
 20
371.7293473981
 30
0.0
  0
SPLINE
  5
509
100
AcDbEntity
  8
0
100
AcDbSpline
 62
7
  6
CONTINUOUS
 70
0
 71
3
 72
11
 73
7
 74
0
 42
0.0000001
 43
0.0000001
 44
0.0000000001
 40
0.0
 40
0.0
 40
0.0
 40
0.0
 40
0.205897236
 40
0.4399539867
 40
0.708859782
 40
1.0
 40
1.0
 40
1.0
 40
1.0
 10
235.2084498726
 20
374.0158261393
 30
0.0
 10
235.2663987043
 20
374.073774971
 30
0.0
 10
235.3522226805
 20
374.238368533
 30
0.0
 10
235.3450653696
 20
374.5285817206
 30
0.0
 10
235.2281624581
 20
374.8272911944
 30
0.0
 10
235.0902277698
 20
375.0065160876
 30
0.0
 10
235.0082876922
 20
375.0884561651
 30
0.0
  0
SPLINE
  5
50A
100
AcDbEntity
  8
0
100
AcDbSpline
 62
7
  6
CONTINUOUS
 70
0
 71
3
 72
11
 73
7
 74
0
 42
0.0000001
 43
0.0000001
 44
0.0000000001
 40
0.0
 40
0.0
 40
0.0
 40
0.0
 40
0.291140218
 40
0.5600460133
 40
0.794102764
 40
1.0
 40
1.0
 40
1.0
 40
1.0
 10
235.0082876922
 20
375.0884561651
 30
0.0
 10
234.9263476147
 20
375.1703962426
 30
0.0
 10
234.7471227215
 20
375.308330931
 30
0.0
 10
234.4484132477
 20
375.4252338424
 30
0.0
 10
234.1582000601
 20
375.4323911534
 30
0.0
 10
233.9936064981
 20
375.3465671771
 30
0.0
 10
233.9356576665
 20
375.2886183455
 30
0.0
  0
SPLINE
  5
50B
100
AcDbEntity
  8
0
100
AcDbSpline
 62
7
  6
CONTINUOUS
 70
0
 71
3
 72
11
 73
7
 74
0
 42
0.0000001
 43
0.0000001
 44
0.0000000001
 40
0.0
 40
0.0
 40
0.0
 40
0.0
 40
0.205897236
 40
0.4399539867
 40
0.708859782
 40
1.0
 40
1.0
 40
1.0
 40
1.0
 10
233.9356576665
 20
460.1884057246
 30
0.0
 10
233.9936064981
 20
460.1304568929
 30
0.0
 10
234.1582000601
 20
460.0446329166
 30
0.0
 10
234.4484132477
 20
460.0517902276
 30
0.0
 10
234.7471227215
 20
460.168693139
 30
0.0
 10
234.9263476147
 20
460.3066278274
 30
0.0
 10
235.0082876922
 20
460.3885679049
 30
0.0
  0
SPLINE
  5
50C
100
AcDbEntity
  8
0
100
AcDbSpline
 62
7
  6
CONTINUOUS
 70
0
 71
3
 72
11
 73
7
 74
0
 42
0.0000001
 43
0.0000001
 44
0.0000000001
 40
0.0
 40
0.0
 40
0.0
 40
0.0
 40
0.291140218
 40
0.5600460133
 40
0.794102764
 40
1.0
 40
1.0
 40
1.0
 40
1.0
 10
235.0082876922
 20
460.3885679049
 30
0.0
 10
235.0902277698
 20
460.4705079824
 30
0.0
 10
235.2281624581
 20
460.6497328756
 30
0.0
 10
235.3450653696
 20
460.9484423494
 30
0.0
 10
235.3522226805
 20
461.2386555371
 30
0.0
 10
235.2663987043
 20
461.403249099
 30
0.0
 10
235.2084498726
 20
461.4611979307
 30
0.0
  0
SPLINE
  5
50D
100
AcDbEntity
  8
0
100
AcDbSpline
 62
7
  6
CONTINUOUS
 70
0
 71
3
 72
11
 73
7
 74
0
 42
0.0000001
 43
0.0000001
 44
0.0000000001
 40
0.0
 40
0.0
 40
0.0
 40
0.0
 40
0.291140218
 40
0.5600460133
 40
0.794102764
 40
1.0
 40
1.0
 40
1.0
 40
1.0
 10
232.721808951
 20
462.6750466461
 30
0.0
 10
232.6398688735
 20
462.5931065686
 30
0.0
 10
232.4606439803
 20
462.4551718803
 30
0.0
 10
232.1619345065
 20
462.3382689688
 30
0.0
 10
231.8717213189
 20
462.3311116579
 30
0.0
 10
231.7071277569
 20
462.4169356341
 30
0.0
 10
231.6491789252
 20
462.4748844658
 30
0.0
  0
SPLINE
  5
50E
100
AcDbEntity
  8
0
100
AcDbSpline
 62
7
  6
CONTINUOUS
 70
0
 71
3
 72
11
 73
7
 74
0
 42
0.0000001
 43
0.0000001
 44
0.0000000001
 40
0.0
 40
0.0
 40
0.0
 40
0.0
 40
0.205897236
 40
0.4399539867
 40
0.708859782
 40
1.0
 40
1.0
 40
1.0
 40
1.0
 10
232.9219711314
 20
463.7476766719
 30
0.0
 10
232.979919963
 20
463.6897278403
 30
0.0
 10
233.0657439393
 20
463.5251342783
 30
0.0
 10
233.0585866283
 20
463.2349210907
 30
0.0
 10
232.9416837169
 20
462.9362116168
 30
0.0
 10
232.8037490285
 20
462.7569867237
 30
0.0
 10
232.721808951
 20
462.6750466461
 30
0.0
  0
SPLINE
  5
50F
100
AcDbEntity
  8
0
100
AcDbSpline
 62
7
  6
CONTINUOUS
 70
0
 71
3
 72
11
 73
7
 74
0
 42
0.0000001
 43
0.0000001
 44
0.0000000001
 40
0.0
 40
0.0
 40
0.0
 40
0.0
 40
0.205897236
 40
0.4399539867
 40
0.708859782
 40
1.0
 40
1.0
 40
1.0
 40
1.0
 10
319.8491315806
 20
371.7293473981
 30
0.0
 10
319.791182749
 20
371.7872962298
 30
0.0
 10
319.7053587727
 20
371.9518897917
 30
0.0
 10
319.7125160837
 20
372.2421029793
 30
0.0
 10
319.8294189951
 20
372.5408124532
 30
0.0
 10
319.9673536835
 20
372.7200373464
 30
0.0
 10
320.049293761
 20
372.8019774239
 30
0.0
  0
SPLINE
  5
510
100
AcDbEntity
  8
0
100
AcDbSpline
 62
7
  6
CONTINUOUS
 70
0
 71
3
 72
11
 73
7
 74
0
 42
0.0000001
 43
0.0000001
 44
0.0000000001
 40
0.0
 40
0.0
 40
0.0
 40
0.0
 40
0.291140218
 40
0.5600460133
 40
0.794102764
 40
1.0
 40
1.0
 40
1.0
 40
1.0
 10
320.049293761
 20
372.8019774239
 30
0.0
 10
320.1312338385
 20
372.8839175014
 30
0.0
 10
320.3104587317
 20
373.0218521898
 30
0.0
 10
320.6091682055
 20
373.1387551012
 30
0.0
 10
320.8993813931
 20
373.1459124122
 30
0.0
 10
321.0639749551
 20
373.0600884359
 30
0.0
 10
321.1219237868
 20
373.0021396043
 30
0.0
  0
SPLINE
  5
511
100
AcDbEntity
  8
0
100
AcDbSpline
 62
7
  6
CONTINUOUS
 70
0
 71
3
 72
11
 73
7
 74
0
 42
0.0000001
 43
0.0000001
 44
0.0000000001
 40
0.0
 40
0.0
 40
0.0
 40
0.0
 40
0.205897236
 40
0.4399539867
 40
0.708859782
 40
1.0
 40
1.0
 40
1.0
 40
1.0
 10
318.8354450456
 20
375.2886183455
 30
0.0
 10
318.7774962139
 20
375.3465671771
 30
0.0
 10
318.6129026519
 20
375.4323911534
 30
0.0
 10
318.3226894643
 20
375.4252338424
 30
0.0
 10
318.0239799905
 20
375.308330931
 30
0.0
 10
317.8447550973
 20
375.1703962426
 30
0.0
 10
317.7628150198
 20
375.0884561651
 30
0.0
  0
SPLINE
  5
512
100
AcDbEntity
  8
0
100
AcDbSpline
 62
7
  6
CONTINUOUS
 70
0
 71
3
 72
11
 73
7
 74
0
 42
0.0000001
 43
0.0000001
 44
0.0000000001
 40
0.0
 40
0.0
 40
0.0
 40
0.0
 40
0.291140218
 40
0.5600460133
 40
0.794102764
 40
1.0
 40
1.0
 40
1.0
 40
1.0
 10
317.7628150198
 20
375.0884561651
 30
0.0
 10
317.6808749423
 20
375.0065160876
 30
0.0
 10
317.5429402539
 20
374.8272911944
 30
0.0
 10
317.4260373425
 20
374.5285817206
 30
0.0
 10
317.4188800315
 20
374.238368533
 30
0.0
 10
317.5047040078
 20
374.073774971
 30
0.0
 10
317.5626528394
 20
374.0158261393
 30
0.0
  0
SPLINE
  5
513
100
AcDbEntity
  8
0
100
AcDbSpline
 62
7
  6
CONTINUOUS
 70
0
 71
3
 72
11
 73
7
 74
0
 42
0.0000001
 43
0.0000001
 44
0.0000000001
 40
0.0
 40
0.0
 40
0.0
 40
0.0
 40
0.291140218
 40
0.5600460133
 40
0.794102764
 40
1.0
 40
1.0
 40
1.0
 40
1.0
 10
320.049293761
 20
462.6750466461
 30
0.0
 10
319.9673536835
 20
462.7569867237
 30
0.0
 10
319.8294189951
 20
462.9362116168
 30
0.0
 10
319.7125160837
 20
463.2349210907
 30
0.0
 10
319.7053587727
 20
463.5251342783
 30
0.0
 10
319.791182749
 20
463.6897278403
 30
0.0
 10
319.8491315806
 20
463.7476766719
 30
0.0
  0
SPLINE
  5
514
100
AcDbEntity
  8
0
100
AcDbSpline
 62
7
  6
CONTINUOUS
 70
0
 71
3
 72
11
 73
7
 74
0
 42
0.0000001
 43
0.0000001
 44
0.0000000001
 40
0.0
 40
0.0
 40
0.0
 40
0.0
 40
0.205897236
 40
0.4399539867
 40
0.708859782
 40
1.0
 40
1.0
 40
1.0
 40
1.0
 10
317.5626528394
 20
461.4611979307
 30
0.0
 10
317.5047040078
 20
461.403249099
 30
0.0
 10
317.4188800315
 20
461.2386555371
 30
0.0
 10
317.4260373425
 20
460.9484423494
 30
0.0
 10
317.5429402539
 20
460.6497328756
 30
0.0
 10
317.6808749423
 20
460.4705079824
 30
0.0
 10
317.7628150198
 20
460.3885679049
 30
0.0
  0
SPLINE
  5
515
100
AcDbEntity
  8
0
100
AcDbSpline
 62
7
  6
CONTINUOUS
 70
0
 71
3
 72
11
 73
7
 74
0
 42
0.0000001
 43
0.0000001
 44
0.0000000001
 40
0.0
 40
0.0
 40
0.0
 40
0.0
 40
0.291140218
 40
0.5600460133
 40
0.794102764
 40
1.0
 40
1.0
 40
1.0
 40
1.0
 10
317.7628150198
 20
460.3885679049
 30
0.0
 10
317.8447550973
 20
460.3066278274
 30
0.0
 10
318.0239799905
 20
460.168693139
 30
0.0
 10
318.3226894643
 20
460.0517902276
 30
0.0
 10
318.6129026519
 20
460.0446329166
 30
0.0
 10
318.7774962139
 20
460.1304568929
 30
0.0
 10
318.8354450455
 20
460.1884057246
 30
0.0
  0
SPLINE
  5
516
100
AcDbEntity
  8
0
100
AcDbSpline
 62
7
  6
CONTINUOUS
 70
0
 71
3
 72
11
 73
7
 74
0
 42
0.0000001
 43
0.0000001
 44
0.0000000001
 40
0.0
 40
0.0
 40
0.0
 40
0.0
 40
0.205897236
 40
0.4399539867
 40
0.708859782
 40
1.0
 40
1.0
 40
1.0
 40
1.0
 10
321.1219237868
 20
462.4748844658
 30
0.0
 10
321.0639749551
 20
462.4169356341
 30
0.0
 10
320.8993813931
 20
462.3311116579
 30
0.0
 10
320.6091682055
 20
462.3382689688
 30
0.0
 10
320.3104587317
 20
462.4551718803
 30
0.0
 10
320.1312338385
 20
462.5931065686
 30
0.0
 10
320.049293761
 20
462.6750466461
 30
0.0
  0
SPLINE
  5
517
100
AcDbEntity
  8
0
100
AcDbSpline
 62
7
  6
CONTINUOUS
 70
0
 71
3
 72
9
 73
5
 74
0
 42
0.0000001
 43
0.0000001
 44
0.0000000001
 40
0.0
 40
0.0
 40
0.0
 40
0.0
 40
0.2434223452
 40
1.0
 40
1.0
 40
1.0
 40
1.0
 10
371.7889641004
 20
491.8534983668
 30
0.0
 10
371.7547985881
 20
491.8045633022
 30
0.0
 10
371.6167496162
 20
491.6019192989
 30
0.0
 10
371.4851683143
 20
491.3949899873
 30
0.0
 10
371.385551356
 20
491.238512035
 30
0.0
  0
SPLINE
  5
518
100
AcDbEntity
  8
0
100
AcDbSpline
 62
7
  6
CONTINUOUS
 70
0
 71
3
 72
9
 73
5
 74
0
 42
0.0000001
 43
0.0000001
 44
0.0000000001
 40
0.0
 40
0.0
 40
0.0
 40
0.0
 40
0.2542798602
 40
1.0
 40
1.0
 40
1.0
 40
1.0
 10
181.385551356
 20
491.238512035
 30
0.0
 10
181.352071819
 20
491.2911015688
 30
0.0
 10
181.2203837787
 20
491.4978881538
 30
0.0
 10
181.0868010327
 20
491.7035909949
 30
0.0
 10
180.9821385361
 20
491.8534984753
 30
0.0
  0
SPLINE
  5
519
100
AcDbEntity
  8
0
100
AcDbSpline
 62
7
  6
CONTINUOUS
 70
0
 71
3
 72
9
 73
5
 74
0
 42
0.0000001
 43
0.0000001
 44
0.0000000001
 40
0.0
 40
0.0
 40
0.0
 40
0.0
 40
0.2384858965
 40
1.0
 40
1.0
 40
1.0
 40
1.0
 10
179.885551356
 20
492.738512035
 30
0.0
 10
179.885551356
 20
492.7088253307
 30
0.0
 10
179.8948378973
 20
492.5842809115
 30
0.0
 10
179.941727081
 20
492.4645415692
 30
0.0
 10
179.988758724
 20
492.3822386075
 30
0.0
  0
SPLINE
  5
51A
100
AcDbEntity
  8
0
100
AcDbSpline
 62
7
  6
CONTINUOUS
 70
0
 71
3
 72
9
 73
5
 74
0
 42
0.0000001
 43
0.0000001
 44
0.0000000001
 40
0.0
 40
0.0
 40
0.0
 40
0.0
 40
0.2451496062
 40
1.0
 40
1.0
 40
1.0
 40
1.0
 10
180.8440424161
 20
491.5912115385
 30
0.0
 10
180.8876581252
 20
491.5614356292
 30
0.0
 10
181.066608225
 20
491.4414885427
 30
0.0
 10
181.2483789656
 20
491.325838691
 30
0.0
 10
181.385551356
 20
491.238512035
 30
0.0
  0
SPLINE
  5
51B
100
AcDbEntity
  8
0
100
AcDbSpline
 62
7
  6
CONTINUOUS
 70
0
 71
3
 72
9
 73
5
 74
0
 42
0.0000001
 43
0.0000001
 44
0.0000000001
 40
0.0
 40
0.0
 40
0.0
 40
0.0
 40
0.754850394
 40
1.0
 40
1.0
 40
1.0
 40
1.0
 10
371.385551356
 20
491.238512035
 30
0.0
 10
371.5227237789
 20
491.3258387116
 30
0.0
 10
371.7044945623
 20
491.4414885909
 30
0.0
 10
371.8834447031
 20
491.5614357076
 30
0.0
 10
371.927060422
 20
491.5912116246
 30
0.0
  0
SPLINE
  5
51C
100
AcDbEntity
  8
0
100
AcDbSpline
 62
7
  6
CONTINUOUS
 70
0
 71
3
 72
9
 73
5
 74
0
 42
0.0000001
 43
0.0000001
 44
0.0000000001
 40
0.0
 40
0.0
 40
0.0
 40
0.0
 40
0.2675125121
 40
1.0
 40
1.0
 40
1.0
 40
1.0
 10
372.7823573087
 20
492.3822619169
 30
0.0
 10
372.7988665975
 20
492.4111541469
 30
0.0
 10
372.8552124157
 20
492.5219390225
 30
0.0
 10
372.885551356
 20
492.6473965467
 30
0.0
 10
372.885551356
 20
492.738512035
 30
0.0
  0
ENDSEC
  0
SECTION
  2
OBJECTS
  0
DICTIONARY
  5
C
100
AcDbDictionary
280
0
281
1
  3
ACAD_GROUP
350
D
  3
ACAD_MLINESTYLE
350
17
  3
ACAD_LAYOUT
350
1A
  3
ACAD_PLOTSETTINGS
350
19
  3
ACAD_PLOTSTYLENAME
350
E
  0
DICTIONARY
  5
D
102
{ACAD_REACTORS
330
C
102
}
100
AcDbDictionary
280
0
281
1
  0
ACDBDICTIONARYWDFLT
  5
E
102
{ACAD_REACTORS
330
C
102
}
100
AcDbDictionary
281
1
  3
Normal
350
F
100
AcDbDictionaryWithDefault
340
F
  0
DICTIONARY
  5
17
102
{ACAD_REACTORS
330
C
102
}
100
AcDbDictionary
280
0
281
1
  3
Standard
350
18
  0
DICTIONARY
  5
19
102
{ACAD_REACTORS
330
C
102
}
100
AcDbDictionary
281
1
  0
DICTIONARY
  5
1A
102
{ACAD_REACTORS
330
C
102
}
100
AcDbDictionary
281
1
  3
Model
350
51D
  3
Layout1
350
51E
  0
ACDBPLACEHOLDER
  5
F
102
{ACAD_REACTORS
330
E
102
}
  0
MLINESTYLE
  5
18
102
{ACAD_REACTORS
330
17
102
}
100
AcDbMlineStyle
  2
STANDARD
 70
0
  3

 62
256
 51
90.0
 52
90.0
 71
2
 49
0.5
 62
256
  6
BYLAYER
 49
-0.5
 62
256
  6
BYLAYER
  0
LAYOUT
  5
51D
102
{ACAD_REACTORS
330
1A
102
}
100
AcDbPlotSettings
  1

  2
none_device
  4

  6

 40
0.0
 41
0.0
 42
0.0
 43
0.0
 44
210.0
 45
297.0
 46
0.0
 47
0.0
 48
0.0
 49
0.0
140
0.0
141
0.0
142
1.0
143
1.0
 70
1024
 72
1
 73
0
 74
0
  7

 75
0
147
1.0
148
0.0
149
0.0
100
AcDbLayout
  1
Model
 70
0
 71
0
 10
0.0
 20
0.0
 11
210.0
 21
297.0
 12
0.0
 22
0.0
 32
0.0
 14
0.0
 24
0.0
 34
0.0
 15
0.0
 25
0.0
 35
0.0
146
0.0
 13
0.0
 23
0.0
 33
0.0
 16
1.0
 26
0.0
 36
0.0
 17
0.0
 27
1.0
 37
0.0
 76
0
330
210
345
0
346
0
  0
LAYOUT
  5
51E
102
{ACAD_REACTORS
330
1A
102
}
100
AcDbPlotSettings
  1

  2
none_device
  4

  6

 40
0.0
 41
0.0
 42
0.0
 43
0.0
 44
210.0
 45
297.0
 46
0.0
 47
0.0
 48
0.0
 49
0.0
140
0.0
141
0.0
142
1.0
143
1.0
 70
0
 72
1
 73
0
 74
0
  7

 75
0
147
1.0
148
0.0
149
0.0
100
AcDbLayout
  1
Layout1
 70
0
 71
1
 10
0.0
 20
0.0
 11
210.0
 21
297.0
 12
0.0
 22
0.0
 32
0.0
 14
0.0
 24
0.0
 34
0.0
 15
0.0
 25
0.0
 35
0.0
146
0.0
 13
0.0
 23
0.0
 33
0.0
 16
1.0
 26
0.0
 36
0.0
 17
0.0
 27
1.0
 37
0.0
 76
0
330
211
345
0
346
0
  0
ENDSEC
  0
EOF
