999
DXF file: C:\Users\sesa63760\Dev\_Creo\CAD\MCADPP0003175_3D-CAD\drw0001_6.dxf
999
Pro/ENGINEER 2019471 by Parametric Technology Corporation
  0
SECTION
  2
HEADER
  9
$ACADVER
  1
AC1024
  9
$DWGCODEPAGE
  3
ANSI_1252
  9
$EXTMAX
 10
344.8955154842
 20
487.7808004706
 30
0.0
  9
$EXTMIN
 10
0.0
 20
0.0
 30
0.0
  9
$LIMMIN
 10
0.0
 20
0.0
  9
$LIMMAX
 10
344.8955154842
 20
487.7808004706
  9
$VIEWCTR
 10
172.4477577421
 20
243.8904002353
  9
$VIEWSIZE
 40
487.7808004706
  9
$CLAYER
  8
0
  9
$LTSCALE
 40
31.7960818085
  9
$CELTYPE
  6
BYLAYER
  9
$DIMSCALE
 40
1.0
  9
$DIMASZ
 40
4.1058989939
  9
$DIMEXO
 40
1.0
  9
$DIMDLI
 40
21.9682019767
  9
$DIMEXE
 40
1.0
  9
$DIMCEN
 40
5.202995205
  9
$DIMLFAC
 40
1.0
  9
$DIMBLK
  1
_FILLED
  9
$DIMALT
 70
0
  9
$DIMALTF
 40
0.0393700787
  9
$DIMTXT
 40
5.7482585914
  9
$DIMTOL
 70
1
  9
$DIMLIM
 70
0
  9
$DIMTFAC
 40
1.0
  9
$DIMTP
 40
0.01
  9
$DIMTM
 40
0.01
  9
$DIMGAP
 40
0.625
  9
$DIMDSEP
 70
46
  9
$AUNITS
 70
0
  9
$PDMODE
 70
3
  9
$PDSIZE
 40
0.3125
  9
$HANDSEED
  5
77C
  9
$TILEMODE
 70
1
  9
$MEASUREMENT
 70
1
  9
$INSUNITS
 70
4
  0
ENDSEC
  0
SECTION
  2
CLASSES
  0
CLASS
  1
ACDBDICTIONARYWDFLT
  2
AcDbDictionaryWithDefault
  3
AutoCAD 2000
 90
0
 91
1
280
0
281
0
  0
CLASS
  1
ACDBPLACEHOLDER
  2
AcDbPlaceHolder
  3
AutoCAD 2000
 90
0
 91
1
280
0
281
0
  0
CLASS
  1
LAYOUT
  2
AcDbLayout
  3
AutoCAD 2000
 90
0
 91
0
280
0
281
0
  0
ENDSEC
  0
SECTION
  2
TABLES
  0
TABLE
  2
VPORT
  5
8
100
AcDbSymbolTable
 70
2
  0
VPORT
  5
1F4
100
AcDbSymbolTableRecord
100
AcDbViewportTableRecord
  2
*ACTIVE
 70
0
 10
0.0
 20
0.0
 11
1.0
 21
1.0
 12
172.4477577421
 22
243.8904002353
 13
0.0
 23
0.0
 14
1.0
 24
1.0
 15
0.0
 25
0.0
 16
0.0
 26
0.0
 36
1.0
 17
0.0
 27
0.0
 37
0.0
 40
487.7808004706
 41
0.7070707071
 42
50.0
 43
0.0
 44
0.0
 50
0.0
 51
0.0
 71
0
 72
100
 73
1
 74
1
 75
0
 76
0
 77
0
 78
0
  0
ENDTAB
  0
TABLE
  2
LTYPE
  5
5
100
AcDbSymbolTable
 70
6
  0
LTYPE
  5
14
100
AcDbSymbolTableRecord
100
AcDbLinetypeTableRecord
  2
BYBLOCK
 70
0
  3

 72
65
 73
0
 40
0.0
  0
LTYPE
  5
15
100
AcDbSymbolTableRecord
100
AcDbLinetypeTableRecord
  2
BYLAYER
 70
0
  3

 72
65
 73
0
 40
0.0
  0
LTYPE
  5
16
100
AcDbSymbolTableRecord
100
AcDbLinetypeTableRecord
  2
CONTINUOUS
 70
64
  3
Solid line
 72
65
 73
0
 40
0.0
  0
LTYPE
  5
1F5
100
AcDbSymbolTableRecord
100
AcDbLinetypeTableRecord
  2
CENTER
 70
64
  3
____ _ ____ _ ____ _ ____ _ ____ _ ____ _ ____
 72
65
 73
4
 40
0.6
 49
0.375
 74
0
 49
-0.075
 74
0
 49
0.075
 74
0
 49
-0.075
 74
0
  0
LTYPE
  5
1F6
100
AcDbSymbolTableRecord
100
AcDbLinetypeTableRecord
  2
HIDDEN
 70
64
  3
- - - - - - - - - - - - - - - - - - - -
 72
65
 73
2
 40
0.2
 49
0.1
 74
0
 49
-0.1
 74
0
  0
LTYPE
  5
1F7
100
AcDbSymbolTableRecord
100
AcDbLinetypeTableRecord
  2
PHANTOM
 70
64
  3
_____ _ _ _____ _ _ _____ _ _ _____
 72
65
 73
6
 40
0.8
 49
0.45
 74
0
 49
-0.05
 74
0
 49
0.1
 74
0
 49
-0.05
 74
0
 49
0.1
 74
0
 49
-0.05
 74
0
  0
LTYPE
  5
1F8
100
AcDbSymbolTableRecord
100
AcDbLinetypeTableRecord
  2
DOT
 70
64
  3
. . . . . . . . . . . . . . . . . . . .
 72
65
 73
2
 40
0.2
 49
0.1
 74
0
 49
-0.1
 74
0
  0
LTYPE
  5
1F9
100
AcDbSymbolTableRecord
100
AcDbLinetypeTableRecord
  2
DASHED
 70
64
  3
- - - - - - - - - - - - - - - - - - - -
 72
65
 73
2
 40
0.2
 49
0.1
 74
0
 49
-0.1
 74
0
  0
ENDTAB
  0
TABLE
  2
LAYER
  5
2
100
AcDbSymbolTable
 70
36
  0
LAYER
  5
10
100
AcDbSymbolTableRecord
100
AcDbLayerTableRecord
  2
0
 70
0
 62
7
  6
CONTINUOUS
370
-3
390
F
  0
LAYER
  5
1FA
100
AcDbSymbolTableRecord
100
AcDbLayerTableRecord
  2
DEFAULT_1
 70
0
 62
7
  6
CENTER
370
-3
390
F
  0
LAYER
  5
1FB
100
AcDbSymbolTableRecord
100
AcDbLayerTableRecord
  2
DEFAULT_2
 70
0
 62
8
  6
HIDDEN
370
-3
390
F
  0
LAYER
  5
1FC
100
AcDbSymbolTableRecord
100
AcDbLayerTableRecord
  2
DEFAULT_3
 70
0
 62
7
  6
PHANTOM
370
-3
390
F
  0
LAYER
  5
1FD
100
AcDbSymbolTableRecord
100
AcDbLayerTableRecord
  2
00_COMPONENTS
 70
0
 62
7
  6
CONTINUOUS
370
-3
390
F
  0
LAYER
  5
1FE
100
AcDbSymbolTableRecord
100
AcDbLayerTableRecord
  2
01_1_DEFAULT_DATUMS
 70
0
 62
7
  6
CONTINUOUS
370
-3
390
F
  0
LAYER
  5
1FF
100
AcDbSymbolTableRecord
100
AcDbLayerTableRecord
  2
01_PLANES
 70
0
 62
7
  6
CONTINUOUS
370
-3
390
F
  0
LAYER
  5
200
100
AcDbSymbolTableRecord
100
AcDbLayerTableRecord
  2
02_COORD_SYS
 70
0
 62
7
  6
CONTINUOUS
370
-3
390
F
  0
LAYER
  5
201
100
AcDbSymbolTableRecord
100
AcDbLayerTableRecord
  2
03_AXES
 70
0
 62
7
  6
CONTINUOUS
370
-3
390
F
  0
LAYER
  5
202
100
AcDbSymbolTableRecord
100
AcDbLayerTableRecord
  2
04_POINTS
 70
0
 62
7
  6
CONTINUOUS
370
-3
390
F
  0
LAYER
  5
203
100
AcDbSymbolTableRecord
100
AcDbLayerTableRecord
  2
05_CURVES
 70
0
 62
7
  6
CONTINUOUS
370
-3
390
F
  0
LAYER
  5
204
100
AcDbSymbolTableRecord
100
AcDbLayerTableRecord
  2
06_SURFS
 70
0
 62
7
  6
CONTINUOUS
370
-3
390
F
  0
LAYER
  5
205
100
AcDbSymbolTableRecord
100
AcDbLayerTableRecord
  2
07_COSMETICS
 70
0
 62
7
  6
CONTINUOUS
370
-3
390
F
  0
LAYER
  5
206
100
AcDbSymbolTableRecord
100
AcDbLayerTableRecord
  2
10_NOTES
 70
0
 62
7
  6
CONTINUOUS
370
-3
390
F
  0
LAYER
  5
207
100
AcDbSymbolTableRecord
100
AcDbLayerTableRecord
  2
11_NOTES_PUB
 70
0
 62
7
  6
CONTINUOUS
370
-3
390
F
  0
LAYER
  5
208
100
AcDbSymbolTableRecord
100
AcDbLayerTableRecord
  2
13_REF_GTOL
 70
0
 62
7
  6
CONTINUOUS
370
-3
390
F
  0
LAYER
  5
209
100
AcDbSymbolTableRecord
100
AcDbLayerTableRecord
  2
16_MISC
 70
0
 62
7
  6
CONTINUOUS
370
-3
390
F
  0
LAYER
  5
20A
100
AcDbSymbolTableRecord
100
AcDbLayerTableRecord
  2
17_NO_PRINT
 70
0
 62
7
  6
CONTINUOUS
370
-3
390
F
  0
LAYER
  5
20B
100
AcDbSymbolTableRecord
100
AcDbLayerTableRecord
  2
18_DATUM_CAMS_JOINTS
 70
0
 62
7
  6
CONTINUOUS
370
-3
390
F
  0
LAYER
  5
20C
100
AcDbSymbolTableRecord
100
AcDbLayerTableRecord
  2
19_DATUM_FUNCTIONAL
 70
0
 62
7
  6
CONTINUOUS
370
-3
390
F
  0
LAYER
  5
20D
100
AcDbSymbolTableRecord
100
AcDbLayerTableRecord
  2
20_DATUM_KINEMATIC_SCHEME
 70
0
 62
7
  6
CONTINUOUS
370
-3
390
F
  0
ENDTAB
  0
TABLE
  2
STYLE
  5
3
100
AcDbSymbolTable
 70
1
  0
STYLE
  5
11
100
AcDbSymbolTableRecord
100
AcDbTextStyleTableRecord
  2
STANDARD
 70
0
 40
0.0
 41
0.8
 50
0.0
 71
0
 42
0.2
  3
txt
  4

  0
STYLE
  5
20E
100
AcDbSymbolTableRecord
100
AcDbTextStyleTableRecord
  2
TEXTSTYLE_1
 70
0
 40
0.0
 41
0.8
 50
0.0
 71
0
 42
0.2
  3
gdt
  4

  0
ENDTAB
  0
TABLE
  2
VIEW
  5
6
100
AcDbSymbolTable
 70
0
  0
ENDTAB
  0
TABLE
  2
UCS
  5
7
100
AcDbSymbolTable
 70
0
  0
ENDTAB
  0
TABLE
  2
APPID
  5
9
100
AcDbSymbolTable
 70
1
  0
APPID
  5
20F
100
AcDbSymbolTableRecord
100
AcDbRegAppTableRecord
  2
ACAD
 70
0
  0
ENDTAB
  0
TABLE
  2
BLOCK_RECORD
  5
1
100
AcDbSymbolTable
 70
0
  0
BLOCK_RECORD
  5
210
100
AcDbSymbolTableRecord
100
AcDbBlockTableRecord
  2
*Model_Space
  0
BLOCK_RECORD
  5
211
100
AcDbSymbolTableRecord
100
AcDbBlockTableRecord
  2
*Paper_Space
  0
BLOCK_RECORD
  5
212
100
AcDbSymbolTableRecord
100
AcDbBlockTableRecord
  2
_FILLED
  0
ENDTAB
  0
TABLE
  2
DIMSTYLE
  5
A
100
AcDbSymbolTable
 70
1
100
AcDbDimStyleTable
 71
0
  0
DIMSTYLE
105
213
100
AcDbSymbolTableRecord
100
AcDbDimStyleTableRecord
  2
STANDARD
 70
0
  3

  4

 40
1.0
 41
4.1058989939
 42
1.0
 43
0.38
 44
1.0
 45
0.0
 46
0.0
 47
0.01
 48
0.01
140
5.7482585914
141
0.09
142
0.0
143
25.4
144
1.0
145
0.0
146
1.0
147
0.625
 71
1
 72
0
 73
0
 74
0
 75
0
 76
0
 77
1
 78
8
 79
2
170
0
171
1
172
0
173
0
174
0
175
0
176
0
177
0
178
0
270
2
179
2
271
2
272
2
273
2
274
2
275
0
280
0
281
0
282
0
283
1
284
8
285
0
286
0
287
3
288
0
340
11
278
46
341
212
342
212
343
212
344
212
  0
ENDTAB
  0
ENDSEC
  0
SECTION
  2
BLOCKS
  0
BLOCK
  5
20
100
AcDbEntity
  8
0
100
AcDbBlockBegin
  2
*Model_Space
 70
0
 10
0.0
 20
0.0
 30
0.0
  3
*Model_Space
  1

  0
ENDBLK
  5
21
100
AcDbEntity
  8
0
100
AcDbBlockEnd
  0
BLOCK
  5
1C
100
AcDbEntity
  8
0
100
AcDbBlockBegin
  2
*Paper_Space
 70
0
 10
0.0
 20
0.0
 30
0.0
  3
*Paper_Space
  1

  0
ENDBLK
  5
1D
100
AcDbEntity
  8
0
100
AcDbBlockEnd
  0
BLOCK
  5
214
100
AcDbEntity
  8
0
100
AcDbBlockBegin
  2
_FILLED
 70
64
 10
0.0
 20
0.0
  3
_FILLED
  1

  0
SOLID
  5
215
100
AcDbEntity
  8
0
  6
BYBLOCK
 62
0
100
AcDbTrace
 10
0.0
 20
0.0
 11
-1.0
 21
0.25
 12
-1.0
 22
-0.25
 13
-1.0
 23
-0.25
  0
ENDBLK
  5
216
100
AcDbEntity
  8
0
  6
BYBLOCK
 62
0
100
AcDbBlockEnd
  0
ENDSEC
  0
SECTION
  2
ENTITIES
  0
LINE
  5
217
100
AcDbEntity
  8
0
100
AcDbLine
 62
7
  6
CONTINUOUS
 10
39.0095583478
 20
183.0133208259
 11
39.0095583478
 21
180.9051208259
  0
LINE
  5
218
100
AcDbEntity
  8
0
100
AcDbLine
 62
7
  6
CONTINUOUS
 10
40.5335583478
 20
183.0133208259
 11
40.5335583478
 21
180.9051208259
  0
LINE
  5
219
100
AcDbEntity
  8
0
100
AcDbLine
 62
7
  6
CONTINUOUS
 10
41.2946345212
 20
187.5853208259
 11
41.2946345212
 21
185.4771208259
  0
LINE
  5
21A
100
AcDbEntity
  8
0
100
AcDbLine
 62
7
  6
CONTINUOUS
 10
42.2226583478
 20
187.5853208259
 11
42.2226583478
 21
195.0402208259
  0
LINE
  5
21B
100
AcDbEntity
  8
0
100
AcDbLine
 62
7
  6
CONTINUOUS
 10
42.8186345212
 20
187.5853208259
 11
42.8186345212
 21
185.4771208259
  0
LINE
  5
21C
100
AcDbEntity
  8
0
100
AcDbLine
 62
7
  6
CONTINUOUS
 10
45.4865583478
 20
180.9051208259
 11
45.4865583478
 21
183.0133208259
  0
LINE
  5
21D
100
AcDbEntity
  8
0
100
AcDbLine
 62
7
  6
CONTINUOUS
 10
45.9310583478
 20
193.8591208259
 11
45.9310583478
 21
195.3831208259
  0
LINE
  5
21E
100
AcDbEntity
  8
0
100
AcDbLine
 62
7
  6
CONTINUOUS
 10
48.4964583478
 20
181.5401208259
 11
48.1535626141
 21
184.5880829031
  0
LINE
  5
21F
100
AcDbEntity
  8
0
100
AcDbLine
 62
7
  6
CONTINUOUS
 10
48.1535583478
 20
193.8591208259
 11
48.1535583478
 21
184.5881208259
  0
LINE
  5
220
100
AcDbEntity
  8
0
100
AcDbLine
 62
7
  6
CONTINUOUS
 10
48.2521517761
 20
195.5228208259
 11
48.2521517761
 21
196.713976263
  0
LINE
  5
221
100
AcDbEntity
  8
0
100
AcDbLine
 62
7
  6
CONTINUOUS
 10
48.9724504694
 20
197.0976208259
 11
48.9724504694
 21
195.3196208259
  0
LINE
  5
222
100
AcDbEntity
  8
0
100
AcDbLine
 62
7
  6
CONTINUOUS
 10
49.0298583478
 20
191.7763208259
 11
49.0298583478
 21
187.5853208259
  0
LINE
  5
223
100
AcDbEntity
  8
0
100
AcDbLine
 62
7
  6
CONTINUOUS
 10
49.3620003753
 20
195.5228208259
 11
49.3620003753
 21
196.713976263
  0
LINE
  5
224
100
AcDbEntity
  8
0
100
AcDbLine
 62
7
  6
CONTINUOUS
 10
49.5196745085
 20
197.0976208259
 11
49.5196745085
 21
195.5228208259
  0
LINE
  5
225
100
AcDbEntity
  8
0
100
AcDbLine
 62
7
  6
CONTINUOUS
 10
49.5368437024
 20
195.3196208259
 11
49.5368437024
 21
197.0976208259
  0
LINE
  5
226
100
AcDbEntity
  8
0
100
AcDbLine
 62
7
  6
CONTINUOUS
 10
49.574815176
 20
195.5228208259
 11
49.574815176
 21
195.3196208259
  0
LINE
  5
227
100
AcDbEntity
  8
0
100
AcDbLine
 62
7
  6
CONTINUOUS
 10
49.6130480846
 20
195.3196208259
 11
49.6130480846
 21
197.0976208259
  0
LINE
  5
228
100
AcDbEntity
  8
0
100
AcDbLine
 62
7
  6
CONTINUOUS
 10
49.6416801526
 20
195.3196208259
 11
49.6416801526
 21
195.5228208259
  0
LINE
  5
229
100
AcDbEntity
  8
0
100
AcDbLine
 62
7
  6
CONTINUOUS
 10
49.9617295522
 20
197.0976208259
 11
49.9617295522
 21
195.3196208259
  0
LINE
  5
22A
100
AcDbEntity
  8
0
100
AcDbLine
 62
7
  6
CONTINUOUS
 10
50.0124509422
 20
195.3196208259
 11
50.0124509422
 21
195.5228208259
  0
LINE
  5
22B
100
AcDbEntity
  8
0
100
AcDbLine
 62
7
  6
CONTINUOUS
 10
50.4649547601
 20
191.7763208259
 11
50.4649547601
 21
187.5853208259
  0
LINE
  5
22C
100
AcDbEntity
  8
0
100
AcDbLine
 62
7
  6
CONTINUOUS
 10
50.5035814265
 20
195.5228208259
 11
50.5035814265
 21
197.0976208259
  0
LINE
  5
22D
100
AcDbEntity
  8
0
100
AcDbLine
 62
7
  6
CONTINUOUS
 10
50.6295352691
 20
195.5228208259
 11
50.6295352691
 21
197.0976208259
  0
LINE
  5
22E
100
AcDbEntity
  8
0
100
AcDbLine
 62
7
  6
CONTINUOUS
 10
50.9475583478
 20
204.2477208259
 11
50.9475583478
 21
239.2362208259
  0
LINE
  5
22F
100
AcDbEntity
  8
0
100
AcDbLine
 62
7
  6
CONTINUOUS
 10
51.1206657534
 20
195.3196208259
 11
51.1206657534
 21
195.5228208259
  0
LINE
  5
230
100
AcDbEntity
  8
0
100
AcDbLine
 62
7
  6
CONTINUOUS
 10
51.1713871433
 20
197.0976208259
 11
51.1713871433
 21
195.3196208259
  0
LINE
  5
231
100
AcDbEntity
  8
0
100
AcDbLine
 62
7
  6
CONTINUOUS
 10
51.3285583478
 20
186.2391208259
 11
51.3285583478
 21
185.4771208259
  0
LINE
  5
232
100
AcDbEntity
  8
0
100
AcDbLine
 62
7
  6
CONTINUOUS
 10
51.491436543
 20
195.3196208259
 11
51.491436543
 21
195.5228208259
  0
LINE
  5
233
100
AcDbEntity
  8
0
100
AcDbLine
 62
7
  6
CONTINUOUS
 10
51.5200686109
 20
195.3196208259
 11
51.5200686109
 21
197.0976208259
  0
LINE
  5
234
100
AcDbEntity
  8
0
100
AcDbLine
 62
7
  6
CONTINUOUS
 10
51.5583015195
 20
195.5228208259
 11
51.5583015195
 21
195.3196208259
  0
LINE
  5
235
100
AcDbEntity
  8
0
100
AcDbLine
 62
7
  6
CONTINUOUS
 10
51.5962729932
 20
195.3196208259
 11
51.5962729932
 21
197.0976208259
  0
LINE
  5
236
100
AcDbEntity
  8
0
100
AcDbLine
 62
7
  6
CONTINUOUS
 10
51.6134421871
 20
197.0976208259
 11
51.6134421871
 21
195.5228208259
  0
LINE
  5
237
100
AcDbEntity
  8
0
100
AcDbLine
 62
7
  6
CONTINUOUS
 10
51.7711163202
 20
195.5228208259
 11
51.7711163202
 21
196.713976263
  0
LINE
  5
238
100
AcDbEntity
  8
0
100
AcDbLine
 62
7
  6
CONTINUOUS
 10
51.8365583478
 20
180.9051208259
 11
51.8365583478
 21
183.0133208259
  0
LINE
  5
239
100
AcDbEntity
  8
0
100
AcDbLine
 62
7
  6
CONTINUOUS
 10
52.1528568572
 20
195.3196208259
 11
52.1528568572
 21
197.0976208259
  0
LINE
  5
23A
100
AcDbEntity
  8
0
100
AcDbLine
 62
7
  6
CONTINUOUS
 10
52.8809649194
 20
196.713976263
 11
52.8809649194
 21
195.5228208259
  0
LINE
  5
23B
100
AcDbEntity
  8
0
100
AcDbLine
 62
7
  6
CONTINUOUS
 10
52.9795583478
 20
193.8591208259
 11
52.9795583478
 21
184.5881208259
  0
LINE
  5
23C
100
AcDbEntity
  8
0
100
AcDbLine
 62
7
  6
CONTINUOUS
 10
55.2020583478
 20
193.8591208259
 11
55.2020583478
 21
195.3831208259
  0
LINE
  5
23D
100
AcDbEntity
  8
0
100
AcDbLine
 62
7
  6
CONTINUOUS
 10
56.1545583478
 20
186.2391208259
 11
56.1545583478
 21
185.4771208259
  0
LINE
  5
23E
100
AcDbEntity
  8
0
100
AcDbLine
 62
7
  6
CONTINUOUS
 10
56.8149583478
 20
262.5788208259
 11
56.8149583478
 21
187.5345208259
  0
LINE
  5
23F
100
AcDbEntity
  8
0
100
AcDbLine
 62
7
  6
CONTINUOUS
 10
58.9104583478
 20
256.7368208259
 11
58.910455956
 21
239.2362208259
  0
LINE
  5
240
100
AcDbEntity
  8
0
100
AcDbLine
 62
7
  6
CONTINUOUS
 10
58.9104547601
 20
239.2362208259
 11
58.9104553581
 21
215.6904208259
  0
LINE
  5
241
100
AcDbEntity
  8
0
100
AcDbLine
 62
7
  6
CONTINUOUS
 10
58.9104583478
 20
212.2106208259
 11
58.9104583478
 21
187.5345208259
  0
LINE
  5
242
100
AcDbEntity
  8
0
100
AcDbLine
 62
7
  6
CONTINUOUS
 10
59.3676583478
 20
230.7018208259
 11
59.3676583478
 21
216.7064208259
  0
LINE
  5
243
100
AcDbEntity
  8
0
100
AcDbLine
 62
7
  6
CONTINUOUS
 10
59.8366345212
 20
187.5853208259
 11
59.8366345212
 21
185.4771208259
  0
LINE
  5
244
100
AcDbEntity
  8
0
100
AcDbLine
 62
7
  6
CONTINUOUS
 10
61.0123083478
 20
219.3353208259
 11
61.0123083478
 21
220.6434208259
  0
LINE
  5
245
100
AcDbEntity
  8
0
100
AcDbLine
 62
7
  6
CONTINUOUS
 10
61.0123083478
 20
228.7968208259
 11
61.0123083478
 21
229.3937208259
  0
LINE
  5
246
100
AcDbEntity
  8
0
100
AcDbLine
 62
7
  6
CONTINUOUS
 10
61.0123083478
 20
230.7018208259
 11
61.0123083478
 21
232.6068208259
  0
LINE
  5
247
100
AcDbEntity
  8
0
100
AcDbLine
 62
7
  6
CONTINUOUS
 10
63.6602547601
 20
190.7603208259
 11
63.6602547601
 21
187.5345208259
  0
LINE
  5
248
100
AcDbEntity
  8
0
100
AcDbLine
 62
7
  6
CONTINUOUS
 10
64.6373341505
 20
232.6068208259
 11
64.6373341505
 21
231.3368208259
  0
LINE
  5
249
100
AcDbEntity
  8
0
100
AcDbLine
 62
7
  6
CONTINUOUS
 10
66.1375711478
 20
232.6068208259
 11
66.1375711478
 21
231.3368208259
  0
LINE
  5
24A
100
AcDbEntity
  8
0
100
AcDbLine
 62
7
  6
CONTINUOUS
 10
52.6366583478
 20
181.5401208259
 11
52.9795540815
 21
184.5880829031
  0
LINE
  5
24B
100
AcDbEntity
  8
0
100
AcDbLine
 62
7
  6
CONTINUOUS
 10
78.2987135321
 20
185.0961208258
 11
79.889833139
 21
182.3402208259
  0
LINE
  5
24C
100
AcDbEntity
  8
0
100
AcDbLine
 62
7
  6
CONTINUOUS
 10
80.1244682884
 20
186.1502208259
 11
81.7155878952
 21
183.3943208259
  0
LINE
  5
24D
100
AcDbEntity
  8
0
100
AcDbLine
 62
7
  6
CONTINUOUS
 10
67.1019583478
 20
206.2162208259
 11
67.1019583478
 21
241.2682208259
  0
LINE
  5
24E
100
AcDbEntity
  8
0
100
AcDbLine
 62
7
  6
CONTINUOUS
 10
69.7626083478
 20
219.3353208259
 11
69.7626083478
 21
220.6434208259
  0
LINE
  5
24F
100
AcDbEntity
  8
0
100
AcDbLine
 62
7
  6
CONTINUOUS
 10
69.7626083478
 20
228.7968208259
 11
69.7626083478
 21
229.3937208259
  0
LINE
  5
250
100
AcDbEntity
  8
0
100
AcDbLine
 62
7
  6
CONTINUOUS
 10
69.7626083478
 20
230.7018208259
 11
69.7626083478
 21
232.6068208259
  0
LINE
  5
251
100
AcDbEntity
  8
0
100
AcDbLine
 62
7
  6
CONTINUOUS
 10
70.8611583478
 20
246.6507263491
 11
70.8611583478
 21
234.4089706942
  0
LINE
  5
252
100
AcDbEntity
  8
0
100
AcDbLine
 62
7
  6
CONTINUOUS
 10
71.4199583478
 20
230.7018208259
 11
71.4199583478
 21
219.3353208259
  0
LINE
  5
253
100
AcDbEntity
  8
0
100
AcDbLine
 62
7
  6
CONTINUOUS
 10
71.5596547601
 20
212.2106208259
 11
71.5596547601
 21
208.4006208259
  0
LINE
  5
254
100
AcDbEntity
  8
0
100
AcDbLine
 62
7
  6
CONTINUOUS
 10
72.4959836261
 20
200.7806208259
 11
72.4959836261
 21
208.4006208259
  0
LINE
  5
255
100
AcDbEntity
  8
0
100
AcDbLine
 62
7
  6
CONTINUOUS
 10
72.7661583478
 20
246.6507263491
 11
72.7661583478
 21
234.4089706942
  0
LINE
  5
256
100
AcDbEntity
  8
0
100
AcDbLine
 62
7
  6
CONTINUOUS
 10
73.2741583478
 20
245.9303141348
 11
73.2741583478
 21
215.6904208259
  0
LINE
  5
257
100
AcDbEntity
  8
0
100
AcDbLine
 62
7
  6
CONTINUOUS
 10
73.2741583478
 20
245.9303141348
 11
73.2741583478
 21
248.9643594786
  0
LINE
  5
258
100
AcDbEntity
  8
0
100
AcDbLine
 62
7
  6
CONTINUOUS
 10
73.2741583478
 20
248.9643594786
 11
73.2741583478
 21
249.9804570506
  0
LINE
  5
259
100
AcDbEntity
  8
0
100
AcDbLine
 62
7
  6
CONTINUOUS
 10
73.5281583478
 20
246.8949227066
 11
73.5281583478
 21
248.9009208259
  0
LINE
  5
25A
100
AcDbEntity
  8
0
100
AcDbLine
 62
7
  6
CONTINUOUS
 10
74.0361583478
 20
218.4336208259
 11
74.0361583478
 21
210.1278208259
  0
LINE
  5
25B
100
AcDbEntity
  8
0
100
AcDbLine
 62
7
  6
CONTINUOUS
 10
74.0361583478
 20
218.4336208259
 11
74.0361583478
 21
221.2530208259
  0
LINE
  5
25C
100
AcDbEntity
  8
0
100
AcDbLine
 62
7
  6
CONTINUOUS
 10
76.1951583478
 20
220.3513208259
 11
76.1951583478
 21
219.3353208259
  0
LINE
  5
25D
100
AcDbEntity
  8
0
100
AcDbLine
 62
7
  6
CONTINUOUS
 10
50.5665583478
 20
194.586385984
 11
49.2966930942
 21
195.31954303
  0
LINE
  5
25E
100
AcDbEntity
  8
0
100
AcDbLine
 62
7
  6
CONTINUOUS
 10
76.6460964187
 20
223.9073208259
 11
76.6460964187
 21
220.3513208259
  0
LINE
  5
25F
100
AcDbEntity
  8
0
100
AcDbLine
 62
7
  6
CONTINUOUS
 10
76.8220691931
 20
200.7806208259
 11
76.8220691931
 21
208.4006208259
  0
LINE
  5
260
100
AcDbEntity
  8
0
100
AcDbLine
 62
7
  6
CONTINUOUS
 10
77.2365583478
 20
187.5853208259
 11
77.2365583478
 21
185.4771208259
  0
LINE
  5
261
100
AcDbEntity
  8
0
100
AcDbLine
 62
7
  6
CONTINUOUS
 10
77.8715583478
 20
223.3993208259
 11
77.8715583478
 21
223.9073208259
  0
LINE
  5
262
100
AcDbEntity
  8
0
100
AcDbLine
 62
7
  6
CONTINUOUS
 10
78.5573583478
 20
246.9386439596
 11
78.5573583478
 21
245.9288308686
  0
LINE
  5
263
100
AcDbEntity
  8
0
100
AcDbLine
 62
7
  6
CONTINUOUS
 10
78.5573583478
 20
245.9288308686
 11
78.5573583478
 21
244.2908208259
  0
LINE
  5
264
100
AcDbEntity
  8
0
100
AcDbLine
 62
7
  6
CONTINUOUS
 10
78.5573583478
 20
247.5653755921
 11
78.5573583478
 21
246.9386439596
  0
LINE
  5
265
100
AcDbEntity
  8
0
100
AcDbLine
 62
7
  6
CONTINUOUS
 10
78.5573583478
 20
239.9220208259
 11
78.5573583478
 21
227.3744208259
  0
LINE
  5
266
100
AcDbEntity
  8
0
100
AcDbLine
 62
7
  6
CONTINUOUS
 10
78.5573583478
 20
247.5653755921
 11
78.5573583478
 21
248.96376324
  0
LINE
  5
267
100
AcDbEntity
  8
0
100
AcDbLine
 62
7
  6
CONTINUOUS
 10
78.5573583478
 20
248.96376324
 11
78.5573583478
 21
249.9801102341
  0
LINE
  5
268
100
AcDbEntity
  8
0
100
AcDbLine
 62
7
  6
CONTINUOUS
 10
78.8621583478
 20
221.2530208259
 11
78.8621583478
 21
215.6904208259
  0
LINE
  5
269
100
AcDbEntity
  8
0
100
AcDbLine
 62
7
  6
CONTINUOUS
 10
78.8971265666
 20
223.9073208259
 11
78.8971265666
 21
220.3513208259
  0
LINE
  5
26A
100
AcDbEntity
  8
0
100
AcDbLine
 62
7
  6
CONTINUOUS
 10
79.1957538085
 20
218.4336208259
 11
79.1957538085
 21
215.6904208259
  0
LINE
  5
26B
100
AcDbEntity
  8
0
100
AcDbLine
 62
7
  6
CONTINUOUS
 10
79.6335443374
 20
215.6904208259
 11
79.6335443374
 21
223.0945208259
  0
LINE
  5
26C
100
AcDbEntity
  8
0
100
AcDbLine
 62
7
  6
CONTINUOUS
 10
80.7417583478
 20
248.96376324
 11
80.7417583478
 21
247.5653755921
  0
LINE
  5
26D
100
AcDbEntity
  8
0
100
AcDbLine
 62
7
  6
CONTINUOUS
 10
80.7417583478
 20
246.9386439596
 11
80.7417583478
 21
245.9303141348
  0
LINE
  5
26E
100
AcDbEntity
  8
0
100
AcDbLine
 62
7
  6
CONTINUOUS
 10
80.7417583478
 20
247.5653755921
 11
80.7417583478
 21
246.9386439596
  0
LINE
  5
26F
100
AcDbEntity
  8
0
100
AcDbLine
 62
7
  6
CONTINUOUS
 10
80.7417583478
 20
245.9303141348
 11
80.7417583478
 21
244.2908208259
  0
LINE
  5
270
100
AcDbEntity
  8
0
100
AcDbLine
 62
7
  6
CONTINUOUS
 10
80.7417583478
 20
239.9220208259
 11
80.7417583478
 21
227.3744208259
  0
LINE
  5
271
100
AcDbEntity
  8
0
100
AcDbLine
 62
7
  6
CONTINUOUS
 10
80.7417583478
 20
248.96376324
 11
80.7417583478
 21
249.9801102341
  0
LINE
  5
272
100
AcDbEntity
  8
0
100
AcDbLine
 62
7
  6
CONTINUOUS
 10
81.1481583478
 20
215.6904208259
 11
81.1481583478
 21
223.0945208259
  0
LINE
  5
273
100
AcDbEntity
  8
0
100
AcDbLine
 62
7
  6
CONTINUOUS
 10
81.7554458835
 20
221.3673208259
 11
81.7554458835
 21
223.3993208259
  0
LINE
  5
274
100
AcDbEntity
  8
0
100
AcDbLine
 62
7
  6
CONTINUOUS
 10
82.2126460494
 20
223.3993208259
 11
82.2126460494
 21
221.3673208259
  0
LINE
  5
275
100
AcDbEntity
  8
0
100
AcDbLine
 62
7
  6
CONTINUOUS
 10
82.7453128003
 20
221.3673208259
 11
82.7453128003
 21
223.3993208259
  0
LINE
  5
276
100
AcDbEntity
  8
0
100
AcDbLine
 62
7
  6
CONTINUOUS
 10
83.2025129662
 20
221.3673208259
 11
83.2025129662
 21
223.3993208259
  0
LINE
  5
277
100
AcDbEntity
  8
0
100
AcDbLine
 62
7
  6
CONTINUOUS
 10
83.3991884958
 20
223.9073208259
 11
83.3991884958
 21
220.3513208259
  0
LINE
  5
278
100
AcDbEntity
  8
0
100
AcDbLine
 62
7
  6
CONTINUOUS
 10
83.5865583478
 20
185.4771208259
 11
83.5865583478
 21
187.5853208259
  0
LINE
  5
279
100
AcDbEntity
  8
0
100
AcDbLine
 62
7
  6
CONTINUOUS
 10
84.4247583478
 20
223.3993208259
 11
84.4247583478
 21
223.9073208259
  0
LINE
  5
27A
100
AcDbEntity
  8
0
100
AcDbLine
 62
7
  6
CONTINUOUS
 10
84.9835583478
 20
183.0133208259
 11
84.9835583478
 21
180.9051208259
  0
LINE
  5
27B
100
AcDbEntity
  8
0
100
AcDbLine
 62
7
  6
CONTINUOUS
 10
85.4742403272
 20
200.7806208259
 11
85.4742403272
 21
208.4006208259
  0
LINE
  5
27C
100
AcDbEntity
  8
0
100
AcDbLine
 62
7
  6
CONTINUOUS
 10
85.6502202769
 20
223.9073208259
 11
85.6502202769
 21
220.3513208259
  0
LINE
  5
27D
100
AcDbEntity
  8
0
100
AcDbLine
 62
7
  6
CONTINUOUS
 10
86.1011583478
 20
220.3513208259
 11
86.1011583478
 21
219.3353208259
  0
LINE
  5
27E
100
AcDbEntity
  8
0
100
AcDbLine
 62
7
  6
CONTINUOUS
 10
86.1519583478
 20
241.2682208259
 11
86.1519583478
 21
206.2162208259
  0
LINE
  5
27F
100
AcDbEntity
  8
0
100
AcDbLine
 62
7
  6
CONTINUOUS
 10
86.5075583478
 20
183.0133208259
 11
86.5075583478
 21
180.9051208259
  0
LINE
  5
280
100
AcDbEntity
  8
0
100
AcDbLine
 62
7
  6
CONTINUOUS
 10
87.9640959478
 20
246.8949227066
 11
87.9640959478
 21
248.7999227066
  0
LINE
  5
281
100
AcDbEntity
  8
0
100
AcDbLine
 62
7
  6
CONTINUOUS
 10
88.5141583478
 20
246.9959208259
 11
88.5141583478
 21
248.9009208259
  0
LINE
  5
282
100
AcDbEntity
  8
0
100
AcDbLine
 62
7
  6
CONTINUOUS
 10
88.6919627271
 20
281.0573346728
 11
88.6919576137
 21
229.7493346727
  0
LINE
  5
283
100
AcDbEntity
  8
0
100
AcDbLine
 62
7
  6
CONTINUOUS
 10
88.7681583478
 20
219.3353208259
 11
88.7681583478
 21
216.7064208259
  0
LINE
  5
284
100
AcDbEntity
  8
0
100
AcDbLine
 62
7
  6
CONTINUOUS
 10
89.0221583478
 20
248.9643618968
 11
89.0221583478
 21
245.9288308686
  0
LINE
  5
285
100
AcDbEntity
  8
0
100
AcDbLine
 62
7
  6
CONTINUOUS
 10
89.0221583478
 20
245.9288308686
 11
89.0221583478
 21
215.6904208259
  0
LINE
  5
286
100
AcDbEntity
  8
0
100
AcDbLine
 62
7
  6
CONTINUOUS
 10
89.0221583478
 20
248.9643618968
 11
89.0221583478
 21
249.9804570506
  0
LINE
  5
287
100
AcDbEntity
  8
0
100
AcDbLine
 62
7
  6
CONTINUOUS
 10
89.1364547601
 20
190.7603208259
 11
89.1364547601
 21
187.5345208259
  0
LINE
  5
288
100
AcDbEntity
  8
0
100
AcDbLine
 62
7
  6
CONTINUOUS
 10
89.8003258942
 20
200.7806208259
 11
89.8003258942
 21
208.4006208259
  0
LINE
  5
289
100
AcDbEntity
  8
0
100
AcDbLine
 62
7
  6
CONTINUOUS
 10
89.9365583478
 20
187.5853208259
 11
89.9365583478
 21
185.4771208259
  0
LINE
  5
28A
100
AcDbEntity
  8
0
100
AcDbLine
 62
7
  6
CONTINUOUS
 10
90.46996255
 20
279.2793344956
 11
90.4699577405
 21
231.0215324817
  0
LINE
  5
28B
100
AcDbEntity
  8
0
100
AcDbLine
 62
7
  6
CONTINUOUS
 10
90.7366547601
 20
212.2106208259
 11
90.7366547601
 21
208.4006208259
  0
LINE
  5
28C
100
AcDbEntity
  8
0
100
AcDbLine
 62
7
  6
CONTINUOUS
 10
91.7145583478
 20
187.5853208259
 11
91.7145583478
 21
185.4771208259
  0
LINE
  5
28D
100
AcDbEntity
  8
0
100
AcDbLine
 62
7
  6
CONTINUOUS
 10
93.2385583478
 20
187.5853208259
 11
93.2385583478
 21
185.4771208259
  0
LINE
  5
28E
100
AcDbEntity
  8
0
100
AcDbLine
 62
7
  6
CONTINUOUS
 10
94.3434571519
 20
262.5788208259
 11
94.3434547601
 21
215.6904208259
  0
LINE
  5
28F
100
AcDbEntity
  8
0
100
AcDbLine
 62
7
  6
CONTINUOUS
 10
94.3434583478
 20
212.2106208259
 11
94.3434583478
 21
187.5345208259
  0
LINE
  5
290
100
AcDbEntity
  8
0
100
AcDbLine
 62
7
  6
CONTINUOUS
 10
94.4577583478
 20
190.7095208259
 11
94.4577583478
 21
187.5345208259
  0
LINE
  5
291
100
AcDbEntity
  8
0
100
AcDbLine
 62
7
  6
CONTINUOUS
 10
96.4389583478
 20
262.5788208259
 11
96.4389583478
 21
237.9679916074
  0
LINE
  5
292
100
AcDbEntity
  8
0
100
AcDbLine
 62
7
  6
CONTINUOUS
 10
96.4389583478
 20
190.7603208259
 11
96.4389583478
 21
190.7095208259
  0
LINE
  5
293
100
AcDbEntity
  8
0
100
AcDbLine
 62
7
  6
CONTINUOUS
 10
96.4389583478
 20
190.7095208259
 11
96.4389583478
 21
187.5345208259
  0
LINE
  5
294
100
AcDbEntity
  8
0
100
AcDbLine
 62
7
  6
CONTINUOUS
 10
96.4389583478
 20
190.7603208259
 11
96.4389583478
 21
237.9679916074
  0
LINE
  5
295
100
AcDbEntity
  8
0
100
AcDbLine
 62
7
  6
CONTINUOUS
 10
78.8621583478
 20
221.2530208259
 11
79.6335443374
 21
223.0945208259
  0
LINE
  5
296
100
AcDbEntity
  8
0
100
AcDbLine
 62
7
  6
CONTINUOUS
 10
79.1957538085
 20
218.4336208259
 11
81.1481583478
 21
223.0945208259
  0
LINE
  5
297
100
AcDbEntity
  8
0
100
AcDbLine
 62
7
  6
CONTINUOUS
 10
98.3185583478
 20
187.5853208259
 11
98.3185583478
 21
185.4771208259
  0
LINE
  5
298
100
AcDbEntity
  8
0
100
AcDbLine
 62
7
  6
CONTINUOUS
 10
99.2837583478
 20
187.5345208259
 11
99.2837583478
 21
190.7095208259
  0
LINE
  5
299
100
AcDbEntity
  8
0
100
AcDbLine
 62
7
  6
CONTINUOUS
 10
99.3056037955
 20
190.7095208259
 11
99.3056037955
 21
187.5345208259
  0
LINE
  5
29A
100
AcDbEntity
  8
0
100
AcDbLine
 62
7
  6
CONTINUOUS
 10
99.8425583478
 20
187.5853208259
 11
99.8425583478
 21
185.4771208259
  0
LINE
  5
29B
100
AcDbEntity
  8
0
100
AcDbLine
 62
7
  6
CONTINUOUS
 10
102.2301583478
 20
190.7095208259
 11
102.2301583478
 21
187.5345208259
  0
LINE
  5
29C
100
AcDbEntity
  8
0
100
AcDbLine
 62
7
  6
CONTINUOUS
 10
103.5890583478
 20
226.2568208259
 11
103.5890583478
 21
239.2489208259
  0
LINE
  5
29D
100
AcDbEntity
  8
0
100
AcDbLine
 62
7
  6
CONTINUOUS
 10
104.1097583478
 20
187.5345208259
 11
104.1097583478
 21
262.5788208259
  0
LINE
  5
29E
100
AcDbEntity
  8
0
100
AcDbLine
 62
7
  6
CONTINUOUS
 10
56.8226484072
 20
186.1502208259
 11
55.2315288004
 21
183.3943208259
  0
LINE
  5
29F
100
AcDbEntity
  8
0
100
AcDbLine
 62
7
  6
CONTINUOUS
 10
58.6484031635
 20
185.0961208259
 11
57.0572835566
 21
182.3402208259
  0
LINE
  5
2A0
100
AcDbEntity
  8
0
100
AcDbLine
 62
7
  6
CONTINUOUS
 10
110.4597583478
 20
239.2489208259
 11
110.4597583478
 21
262.5788208259
  0
LINE
  5
2A1
100
AcDbEntity
  8
0
100
AcDbLine
 62
7
  6
CONTINUOUS
 10
50.9475583478
 20
204.2477208259
 11
42.2226583478
 21
195.0402208259
  0
LINE
  5
2A2
100
AcDbEntity
  8
0
100
AcDbLine
 62
7
  6
CONTINUOUS
 10
179.2175583478
 20
180.9051208259
 11
178.7095583477
 21
180.9051208259
  0
LINE
  5
2A3
100
AcDbEntity
  8
0
100
AcDbLine
 62
7
  6
CONTINUOUS
 10
291.4855583478
 20
180.9051208259
 11
179.2175583478
 21
180.9051208259
  0
LINE
  5
2A4
100
AcDbEntity
  8
0
100
AcDbLine
 62
7
  6
CONTINUOUS
 10
178.7095583477
 20
180.9051208259
 11
161.4375583478
 21
180.9051208259
  0
LINE
  5
2A5
100
AcDbEntity
  8
0
100
AcDbLine
 62
7
  6
CONTINUOUS
 10
86.5075583478
 20
180.9051208259
 11
82.3754992529
 21
180.9051208259
  0
LINE
  5
2A6
100
AcDbEntity
  8
0
100
AcDbLine
 62
7
  6
CONTINUOUS
 10
54.5716174427
 20
180.9051208259
 11
39.0095583478
 21
180.9051208259
  0
LINE
  5
2A7
100
AcDbEntity
  8
0
100
AcDbLine
 62
7
  6
CONTINUOUS
 10
52.6366583478
 20
181.5401208259
 11
48.4967511967
 21
181.5401208259
  0
LINE
  5
2A8
100
AcDbEntity
  8
0
100
AcDbLine
 62
7
  6
CONTINUOUS
 10
171.9150583478
 20
181.8693048259
 11
167.7748583478
 21
181.8693048259
  0
LINE
  5
2A9
100
AcDbEntity
  8
0
100
AcDbLine
 62
7
  6
CONTINUOUS
 10
291.4855583478
 20
182.5053208259
 11
234.8943583478
 21
182.5053208259
  0
LINE
  5
2AA
100
AcDbEntity
  8
0
100
AcDbLine
 62
7
  6
CONTINUOUS
 10
218.3843583478
 20
182.5053208259
 11
180.6793676728
 21
182.5053208259
  0
LINE
  5
2AB
100
AcDbEntity
  8
0
100
AcDbLine
 62
7
  6
CONTINUOUS
 10
39.0095583478
 20
183.0133208259
 11
54.5716174427
 21
183.0133208259
  0
LINE
  5
2AC
100
AcDbEntity
  8
0
100
AcDbLine
 62
7
  6
CONTINUOUS
 10
82.3754992529
 20
183.0133208259
 11
86.5075583478
 21
183.0133208259
  0
LINE
  5
2AD
100
AcDbEntity
  8
0
100
AcDbLine
 62
7
  6
CONTINUOUS
 10
291.4855583478
 20
183.3435208259
 11
179.2175583478
 21
183.3435208259
  0
LINE
  5
2AE
100
AcDbEntity
  8
0
100
AcDbLine
 62
7
  6
CONTINUOUS
 10
178.7087883256
 20
183.3435208259
 11
161.4375583478
 21
183.3435208259
  0
LINE
  5
2AF
100
AcDbEntity
  8
0
100
AcDbLine
 62
7
  6
CONTINUOUS
 10
178.7087883256
 20
183.3435208259
 11
179.2175583478
 21
183.3435208259
  0
LINE
  5
2B0
100
AcDbEntity
  8
0
100
AcDbLine
 62
7
  6
CONTINUOUS
 10
291.4855583478
 20
183.7245208259
 11
234.8943583478
 21
183.7245208259
  0
LINE
  5
2B1
100
AcDbEntity
  8
0
100
AcDbLine
 62
7
  6
CONTINUOUS
 10
218.3843583478
 20
183.7245208259
 11
180.6793676728
 21
183.7245208259
  0
LINE
  5
2B2
100
AcDbEntity
  8
0
100
AcDbLine
 62
7
  6
CONTINUOUS
 10
251.9885583478
 20
184.1309208259
 11
235.2753583478
 21
184.1309208259
  0
LINE
  5
2B3
100
AcDbEntity
  8
0
100
AcDbLine
 62
7
  6
CONTINUOUS
 10
52.9795583478
 20
184.5881208259
 11
48.1538997054
 21
184.5881208259
  0
LINE
  5
2B4
100
AcDbEntity
  8
0
100
AcDbLine
 62
7
  6
CONTINUOUS
 10
172.2579583478
 20
184.9173048259
 11
167.4319583478
 21
184.9173048259
  0
LINE
  5
2B5
100
AcDbEntity
  8
0
100
AcDbLine
 62
7
  6
CONTINUOUS
 10
291.4855583478
 20
185.0951048259
 11
234.8943583478
 21
185.0951048259
  0
LINE
  5
2B6
100
AcDbEntity
  8
0
100
AcDbLine
 62
7
  6
CONTINUOUS
 10
218.3843583478
 20
185.0951048259
 11
180.7415583478
 21
185.0951048259
  0
LINE
  5
2B7
100
AcDbEntity
  8
0
100
AcDbLine
 62
7
  6
CONTINUOUS
 10
183.9228963711
 20
187.9150292308
 11
181.0018963711
 21
187.9145048259
  0
LINE
  5
2B8
100
AcDbEntity
  8
0
100
AcDbLine
 62
7
  6
CONTINUOUS
 10
234.6760219114
 20
185.4761048259
 11
234.1323583478
 21
185.4761048259
  0
LINE
  5
2B9
100
AcDbEntity
  8
0
100
AcDbLine
 62
7
  6
CONTINUOUS
 10
234.1323583478
 20
185.4761048259
 11
172.04217076
 21
185.4761048259
  0
LINE
  5
2BA
100
AcDbEntity
  8
0
100
AcDbLine
 62
7
  6
CONTINUOUS
 10
167.6477459356
 20
185.4761048259
 11
161.4375583478
 21
185.4761048259
  0
LINE
  5
2BB
100
AcDbEntity
  8
0
100
AcDbLine
 62
7
  6
CONTINUOUS
 10
167.6477459356
 20
185.4761048259
 11
172.04217076
 21
185.4761048259
  0
LINE
  5
2BC
100
AcDbEntity
  8
0
100
AcDbLine
 62
7
  6
CONTINUOUS
 10
234.6760219114
 20
185.4761048259
 11
300.6295583478
 21
185.4761048259
  0
LINE
  5
2BD
100
AcDbEntity
  8
0
100
AcDbLine
 62
7
  6
CONTINUOUS
 10
48.3693459356
 20
185.4771208259
 11
41.2946345212
 21
185.4771208259
  0
LINE
  5
2BE
100
AcDbEntity
  8
0
100
AcDbLine
 62
7
  6
CONTINUOUS
 10
48.3693459356
 20
185.4771208259
 11
52.76377076
 21
185.4771208259
  0
LINE
  5
2BF
100
AcDbEntity
  8
0
100
AcDbLine
 62
7
  6
CONTINUOUS
 10
52.76377076
 20
185.4771208259
 11
99.8425583478
 21
185.4771208259
  0
LINE
  5
2C0
100
AcDbEntity
  8
0
100
AcDbLine
 62
7
  6
CONTINUOUS
 10
234.5133583478
 20
185.7819208259
 11
161.4375583478
 21
185.7819208259
  0
LINE
  5
2C1
100
AcDbEntity
  8
0
100
AcDbLine
 62
7
  6
CONTINUOUS
 10
177.1092348893
 20
186.2381048259
 11
179.5223583478
 21
186.2381048259
  0
LINE
  5
2C2
100
AcDbEntity
  8
0
100
AcDbLine
 62
7
  6
CONTINUOUS
 10
179.5223583478
 20
186.2381048259
 11
181.9353583478
 21
186.2381048259
  0
LINE
  5
2C3
100
AcDbEntity
  8
0
100
AcDbLine
 62
7
  6
CONTINUOUS
 10
292.3236348893
 20
186.2381048259
 11
297.1498818063
 21
186.2381048259
  0
LINE
  5
2C4
100
AcDbEntity
  8
0
100
AcDbLine
 62
7
  6
CONTINUOUS
 10
51.3285583478
 20
186.2391208259
 11
56.1545583478
 21
186.2391208259
  0
LINE
  5
2C5
100
AcDbEntity
  8
0
100
AcDbLine
 62
7
  6
CONTINUOUS
 10
291.4855583478
 20
186.3143048259
 11
234.8943583478
 21
186.3143048259
  0
LINE
  5
2C6
100
AcDbEntity
  8
0
100
AcDbLine
 62
7
  6
CONTINUOUS
 10
218.3843583478
 20
186.3143048259
 11
180.7415583478
 21
186.3143048259
  0
LINE
  5
2C7
100
AcDbEntity
  8
0
100
AcDbLine
 62
7
  6
CONTINUOUS
 10
189.0029217711
 20
186.6222872358
 11
161.4946963711
 21
186.6201536358
  0
LINE
  5
2C8
100
AcDbEntity
  8
0
100
AcDbLine
 62
7
  6
CONTINUOUS
 10
293.1048217711
 20
186.6222872358
 11
299.4548217711
 21
186.6222872358
  0
LINE
  5
2C9
100
AcDbEntity
  8
0
100
AcDbLine
 62
7
  6
CONTINUOUS
 10
234.5133583478
 20
187.3059208259
 11
161.4375583478
 21
187.3059208259
  0
LINE
  5
2CA
100
AcDbEntity
  8
0
100
AcDbLine
 62
7
  6
CONTINUOUS
 10
104.1097583478
 20
187.5345208259
 11
89.1364547601
 21
187.5345208259
  0
LINE
  5
2CB
100
AcDbEntity
  8
0
100
AcDbLine
 62
7
  6
CONTINUOUS
 10
63.6602547601
 20
187.5345208259
 11
56.8149583478
 21
187.5345208259
  0
LINE
  5
2CC
100
AcDbEntity
  8
0
100
AcDbLine
 62
7
  6
CONTINUOUS
 10
58.9104583478
 20
187.5853208259
 11
42.2226583478
 21
187.5853208259
  0
LINE
  5
2CD
100
AcDbEntity
  8
0
100
AcDbLine
 62
7
  6
CONTINUOUS
 10
42.2226583478
 20
187.5853208259
 11
41.2946345212
 21
187.5853208259
  0
LINE
  5
2CE
100
AcDbEntity
  8
0
100
AcDbLine
 62
7
  6
CONTINUOUS
 10
58.9104583478
 20
187.5853208259
 11
99.8425583478
 21
187.5853208259
  0
LINE
  5
2CF
100
AcDbEntity
  8
0
100
AcDbLine
 62
7
  6
CONTINUOUS
 10
268.0096083479
 20
187.8922872358
 11
262.4216083479
 21
187.8922872358
  0
LINE
  5
2D0
100
AcDbEntity
  8
0
100
AcDbLine
 62
7
  6
CONTINUOUS
 10
230.3414083479
 20
187.8922872358
 11
225.9472083479
 21
187.8922872358
  0
LINE
  5
2D1
100
AcDbEntity
  8
0
100
AcDbLine
 62
7
  6
CONTINUOUS
 10
293.1048217711
 20
187.8922872358
 11
268.0096083479
 21
187.8922872358
  0
LINE
  5
2D2
100
AcDbEntity
  8
0
100
AcDbLine
 62
7
  6
CONTINUOUS
 10
190.9078963711
 20
187.8922872358
 11
189.0029217711
 21
187.8922872358
  0
LINE
  5
2D3
100
AcDbEntity
  8
0
100
AcDbLine
 62
7
  6
CONTINUOUS
 10
262.4216083479
 20
187.8922872358
 11
230.3414083479
 21
187.8922872358
  0
LINE
  5
2D4
100
AcDbEntity
  8
0
100
AcDbLine
 62
7
  6
CONTINUOUS
 10
225.9472083479
 20
187.8922872358
 11
190.9078963711
 21
187.8922872358
  0
LINE
  5
2D5
100
AcDbEntity
  8
0
100
AcDbLine
 62
7
  6
CONTINUOUS
 10
234.1323583478
 20
187.9145048259
 11
183.9228963711
 21
187.9150292308
  0
LINE
  5
2D6
100
AcDbEntity
  8
0
100
AcDbLine
 62
7
  6
CONTINUOUS
 10
181.0018963711
 20
187.9145048259
 11
172.04217076
 21
187.9145048259
  0
LINE
  5
2D7
100
AcDbEntity
  8
0
100
AcDbLine
 62
7
  6
CONTINUOUS
 10
167.6477459356
 20
187.9145048259
 11
161.4375583478
 21
187.9145048259
  0
LINE
  5
2D8
100
AcDbEntity
  8
0
100
AcDbLine
 62
7
  6
CONTINUOUS
 10
167.6477459356
 20
187.9145048259
 11
172.04217076
 21
187.9145048259
  0
LINE
  5
2D9
100
AcDbEntity
  8
0
100
AcDbLine
 62
7
  6
CONTINUOUS
 10
234.1323583478
 20
187.9145048259
 11
234.6760219114
 21
187.9145048259
  0
LINE
  5
2DA
100
AcDbEntity
  8
0
100
AcDbLine
 62
7
  6
CONTINUOUS
 10
234.6760219114
 20
187.9145048259
 11
300.6295583478
 21
187.9145048259
  0
LINE
  5
2DB
100
AcDbEntity
  8
0
100
AcDbLine
 62
7
  6
CONTINUOUS
 10
51.3284348893
 20
188.3473208259
 11
56.1546818063
 21
188.3473208259
  0
LINE
  5
2DC
100
AcDbEntity
  8
0
100
AcDbLine
 62
7
  6
CONTINUOUS
 10
177.1092348893
 20
188.6765048259
 11
179.5223583478
 21
188.6765048259
  0
LINE
  5
2DD
100
AcDbEntity
  8
0
100
AcDbLine
 62
7
  6
CONTINUOUS
 10
179.5223583478
 20
188.6765048259
 11
181.9353583478
 21
188.6765048259
  0
LINE
  5
2DE
100
AcDbEntity
  8
0
100
AcDbLine
 62
7
  6
CONTINUOUS
 10
159.9135583478
 20
188.8553208259
 11
152.3189583478
 21
188.8553208259
  0
LINE
  5
2DF
100
AcDbEntity
  8
0
100
AcDbLine
 62
7
  6
CONTINUOUS
 10
236.0373583478
 20
188.8553208259
 11
243.6319583478
 21
188.8553208259
  0
LINE
  5
2E0
100
AcDbEntity
  8
0
100
AcDbLine
 62
7
  6
CONTINUOUS
 10
183.9228963711
 20
190.4322872358
 11
175.3503963711
 21
190.4322872358
  0
LINE
  5
2E1
100
AcDbEntity
  8
0
100
AcDbLine
 62
7
  6
CONTINUOUS
 10
94.4577583478
 20
190.7095208259
 11
104.1097583478
 21
190.7095208259
  0
LINE
  5
2E2
100
AcDbEntity
  8
0
100
AcDbLine
 62
7
  6
CONTINUOUS
 10
56.8149583478
 20
190.7603208259
 11
96.4389583478
 21
190.7603208259
  0
LINE
  5
2E3
100
AcDbEntity
  8
0
100
AcDbLine
 62
7
  6
CONTINUOUS
 10
56.8149547601
 20
191.7763208259
 11
49.0298583478
 21
191.7763208259
  0
LINE
  5
2E4
100
AcDbEntity
  8
0
100
AcDbLine
 62
7
  6
CONTINUOUS
 10
247.1625583479
 20
191.7911872358
 11
238.2725583479
 21
191.7911872358
  0
LINE
  5
2E5
100
AcDbEntity
  8
0
100
AcDbLine
 62
7
  6
CONTINUOUS
 10
271.5719539684
 20
193.1733164465
 11
168.3209539684
 21
193.1733267367
  0
LINE
  5
2E6
100
AcDbEntity
  8
0
100
AcDbLine
 62
7
  6
CONTINUOUS
 10
265.1286526365
 20
193.5945872358
 11
262.4216083479
 21
193.5945872358
  0
LINE
  5
2E7
100
AcDbEntity
  8
0
100
AcDbLine
 62
7
  6
CONTINUOUS
 10
262.4326108798
 20
193.5945872358
 11
253.2394709711
 21
193.5945872358
  0
LINE
  5
2E8
100
AcDbEntity
  8
0
100
AcDbLine
 62
7
  6
CONTINUOUS
 10
265.1286526365
 20
193.5945872358
 11
267.0317622234
 21
193.5945872358
  0
LINE
  5
2E9
100
AcDbEntity
  8
0
100
AcDbLine
 62
7
  6
CONTINUOUS
 10
55.2014025818
 20
193.8591208259
 11
45.9310583478
 21
193.8591208259
  0
LINE
  5
2EA
100
AcDbEntity
  8
0
100
AcDbLine
 62
7
  6
CONTINUOUS
 10
56.8149583478
 20
193.8591208259
 11
55.2014025818
 21
193.8591208259
  0
LINE
  5
2EB
100
AcDbEntity
  8
0
100
AcDbLine
 62
7
  6
CONTINUOUS
 10
45.9310583478
 20
193.8591208259
 11
42.2226583478
 21
193.8591208259
  0
LINE
  5
2EC
100
AcDbEntity
  8
0
100
AcDbLine
 62
7
  6
CONTINUOUS
 10
263.0184963711
 20
193.9247872358
 11
265.2155963711
 21
193.9247872358
  0
LINE
  5
2ED
100
AcDbEntity
  8
0
100
AcDbLine
 62
7
  6
CONTINUOUS
 10
174.4804583478
 20
194.1883048259
 11
165.2094583478
 21
194.1883048259
  0
LINE
  5
2EE
100
AcDbEntity
  8
0
100
AcDbLine
 62
7
  6
CONTINUOUS
 10
161.4946963711
 20
194.1883048259
 11
165.2094583478
 21
194.1883048259
  0
LINE
  5
2EF
100
AcDbEntity
  8
0
100
AcDbLine
 62
7
  6
CONTINUOUS
 10
174.4804583478
 20
194.1883048259
 11
181.0018963711
 21
194.1883048259
  0
LINE
  5
2F0
100
AcDbEntity
  8
0
100
AcDbLine
 62
7
  6
CONTINUOUS
 10
251.9948963711
 20
194.2422872358
 11
216.9428963711
 21
194.2422872358
  0
LINE
  5
2F1
100
AcDbEntity
  8
0
100
AcDbLine
 62
7
  6
CONTINUOUS
 10
269.7939541456
 20
194.9513166237
 11
168.3209541456
 21
194.9513267367
  0
LINE
  5
2F2
100
AcDbEntity
  8
0
100
AcDbLine
 62
7
  6
CONTINUOUS
 10
52.1606662262
 20
195.3196208259
 11
48.9802598384
 21
195.3196208259
  0
LINE
  5
2F3
100
AcDbEntity
  8
0
100
AcDbLine
 62
7
  6
CONTINUOUS
 10
55.2014025818
 20
195.3831208259
 11
45.9310583478
 21
195.3831208259
  0
LINE
  5
2F4
100
AcDbEntity
  8
0
100
AcDbLine
 62
7
  6
CONTINUOUS
 10
52.8809649194
 20
195.5228208259
 11
51.7711163202
 21
195.5228208259
  0
LINE
  5
2F5
100
AcDbEntity
  8
0
100
AcDbLine
 62
7
  6
CONTINUOUS
 10
50.0124509422
 20
195.5228208259
 11
49.5603822732
 21
195.5228208259
  0
LINE
  5
2F6
100
AcDbEntity
  8
0
100
AcDbLine
 62
7
  6
CONTINUOUS
 10
49.5603822732
 20
195.5228208259
 11
48.2521517761
 21
195.5228208259
  0
LINE
  5
2F7
100
AcDbEntity
  8
0
100
AcDbLine
 62
7
  6
CONTINUOUS
 10
50.0124509422
 20
195.5228208259
 11
51.1206657533
 21
195.5228208259
  0
LINE
  5
2F8
100
AcDbEntity
  8
0
100
AcDbLine
 62
7
  6
CONTINUOUS
 10
51.1206657533
 20
195.5228208259
 11
51.5727344224
 21
195.5228208259
  0
LINE
  5
2F9
100
AcDbEntity
  8
0
100
AcDbLine
 62
7
  6
CONTINUOUS
 10
51.5727344224
 20
195.5228208259
 11
51.7711163202
 21
195.5228208259
  0
LINE
  5
2FA
100
AcDbEntity
  8
0
100
AcDbLine
 62
7
  6
CONTINUOUS
 10
171.4350583682
 20
195.6488048259
 11
171.0522765166
 21
195.6488048259
  0
LINE
  5
2FB
100
AcDbEntity
  8
0
100
AcDbLine
 62
7
  6
CONTINUOUS
 10
171.0522765166
 20
195.6488048259
 11
170.436639249
 21
195.6488048259
  0
LINE
  5
2FC
100
AcDbEntity
  8
0
100
AcDbLine
 62
7
  6
CONTINUOUS
 10
170.436639249
 20
195.6488048259
 11
170.1053061214
 21
195.6488048259
  0
LINE
  5
2FD
100
AcDbEntity
  8
0
100
AcDbLine
 62
7
  6
CONTINUOUS
 10
170.1053061214
 20
195.6488048259
 11
169.5809105004
 21
195.6488048259
  0
LINE
  5
2FE
100
AcDbEntity
  8
0
100
AcDbLine
 62
7
  6
CONTINUOUS
 10
169.265310616
 20
195.6488048259
 11
168.6377731189
 21
195.6488048259
  0
LINE
  5
2FF
100
AcDbEntity
  8
0
100
AcDbLine
 62
7
  6
CONTINUOUS
 10
168.2548583275
 20
195.6488048259
 11
168.1123874624
 21
195.6488048259
  0
LINE
  5
300
100
AcDbEntity
  8
0
100
AcDbLine
 62
7
  6
CONTINUOUS
 10
168.2548583275
 20
195.6488048259
 11
168.637640179
 21
195.6488048259
  0
LINE
  5
301
100
AcDbEntity
  8
0
100
AcDbLine
 62
7
  6
CONTINUOUS
 10
169.265310616
 20
195.6488048259
 11
169.5846105742
 21
195.6488048259
  0
LINE
  5
302
100
AcDbEntity
  8
0
100
AcDbLine
 62
7
  6
CONTINUOUS
 10
171.4350583682
 20
195.6488048259
 11
171.5775292332
 21
195.6488048259
  0
LINE
  5
303
100
AcDbEntity
  8
0
100
AcDbLine
 62
7
  6
CONTINUOUS
 10
174.4804583478
 20
195.7123048259
 11
165.2094583478
 21
195.7123048259
  0
LINE
  5
304
100
AcDbEntity
  8
0
100
AcDbLine
 62
7
  6
CONTINUOUS
 10
172.2070482828
 20
195.8520048259
 11
171.1077407168
 21
195.8520048259
  0
LINE
  5
305
100
AcDbEntity
  8
0
100
AcDbLine
 62
7
  6
CONTINUOUS
 10
169.2655109309
 20
195.8520048259
 11
168.816431554
 21
195.8520048259
  0
LINE
  5
306
100
AcDbEntity
  8
0
100
AcDbLine
 62
7
  6
CONTINUOUS
 10
168.816431554
 20
195.8520048259
 11
167.4828684128
 21
195.8520048259
  0
LINE
  5
307
100
AcDbEntity
  8
0
100
AcDbLine
 62
7
  6
CONTINUOUS
 10
169.2655109309
 20
195.8520048259
 11
170.4244057646
 21
195.8520048259
  0
LINE
  5
308
100
AcDbEntity
  8
0
100
AcDbLine
 62
7
  6
CONTINUOUS
 10
170.4244057646
 20
195.8520048259
 11
170.8734851416
 21
195.8520048259
  0
LINE
  5
309
100
AcDbEntity
  8
0
100
AcDbLine
 62
7
  6
CONTINUOUS
 10
170.8734851416
 20
195.8520048259
 11
171.1077407168
 21
195.8520048259
  0
LINE
  5
30A
100
AcDbEntity
  8
0
100
AcDbLine
 62
7
  6
CONTINUOUS
 10
187.9869083479
 20
196.8190465174
 11
185.4469083479
 21
196.8190465174
  0
LINE
  5
30B
100
AcDbEntity
  8
0
100
AcDbLine
 62
7
  6
CONTINUOUS
 10
171.2172319722
 20
196.9706264482
 11
165.4246767214
 21
196.9706270255
  0
LINE
  5
30C
100
AcDbEntity
  8
0
100
AcDbLine
 62
7
  6
CONTINUOUS
 10
230.5262319798
 20
197.0468205372
 11
224.733676729
 21
197.0468211145
  0
LINE
  5
30D
100
AcDbEntity
  8
0
100
AcDbLine
 62
7
  6
CONTINUOUS
 10
52.9637900683
 20
197.0976208259
 11
52.3005590253
 21
197.0976208259
  0
LINE
  5
30E
100
AcDbEntity
  8
0
100
AcDbLine
 62
7
  6
CONTINUOUS
 10
51.6129330112
 20
197.0976208259
 11
51.1882258639
 21
197.0976208259
  0
LINE
  5
30F
100
AcDbEntity
  8
0
100
AcDbLine
 62
7
  6
CONTINUOUS
 10
52.1528568571
 20
197.0976208259
 11
51.6129330112
 21
197.0976208259
  0
LINE
  5
310
100
AcDbEntity
  8
0
100
AcDbLine
 62
7
  6
CONTINUOUS
 10
48.9802598386
 20
197.0976208259
 11
48.8360501581
 21
197.0976208259
  0
LINE
  5
311
100
AcDbEntity
  8
0
100
AcDbLine
 62
7
  6
CONTINUOUS
 10
51.1882258639
 20
197.0976208259
 11
49.9448908316
 21
197.0976208259
  0
LINE
  5
312
100
AcDbEntity
  8
0
100
AcDbLine
 62
7
  6
CONTINUOUS
 10
48.8360501581
 20
197.0976208259
 11
48.1693266272
 21
197.0976208259
  0
LINE
  5
313
100
AcDbEntity
  8
0
100
AcDbLine
 62
7
  6
CONTINUOUS
 10
49.5201836844
 20
197.0976208259
 11
48.9802598386
 21
197.0976208259
  0
LINE
  5
314
100
AcDbEntity
  8
0
100
AcDbLine
 62
7
  6
CONTINUOUS
 10
49.5201836844
 20
197.0976208259
 11
49.9448908316
 21
197.0976208259
  0
LINE
  5
315
100
AcDbEntity
  8
0
100
AcDbLine
 62
7
  6
CONTINUOUS
 10
52.1528568571
 20
197.0976208259
 11
52.2970665375
 21
197.0976208259
  0
LINE
  5
316
100
AcDbEntity
  8
0
100
AcDbLine
 62
7
  6
CONTINUOUS
 10
172.2425292433
 20
197.4268048259
 11
171.5775292412
 21
197.4268048259
  0
LINE
  5
317
100
AcDbEntity
  8
0
100
AcDbLine
 62
7
  6
CONTINUOUS
 10
170.8692144357
 20
197.4268048259
 11
170.6154176909
 21
197.4268048259
  0
LINE
  5
318
100
AcDbEntity
  8
0
100
AcDbLine
 62
7
  6
CONTINUOUS
 10
171.4356258259
 20
197.4268048259
 11
170.8692144357
 21
197.4268048259
  0
LINE
  5
319
100
AcDbEntity
  8
0
100
AcDbLine
 62
7
  6
CONTINUOUS
 10
168.1123874544
 20
197.4268048259
 11
167.4473874523
 21
197.4268048259
  0
LINE
  5
31A
100
AcDbEntity
  8
0
100
AcDbLine
 62
7
  6
CONTINUOUS
 10
168.1123874544
 20
197.4268048259
 11
168.2104955686
 21
197.4268048259
  0
LINE
  5
31B
100
AcDbEntity
  8
0
100
AcDbLine
 62
7
  6
CONTINUOUS
 10
168.2104955686
 20
197.4268048259
 11
168.8207022599
 21
197.4268048259
  0
LINE
  5
31C
100
AcDbEntity
  8
0
100
AcDbLine
 62
7
  6
CONTINUOUS
 10
169.2487720531
 20
197.4268048259
 11
170.6154176909
 21
197.4268048259
  0
LINE
  5
31D
100
AcDbEntity
  8
0
100
AcDbLine
 62
7
  6
CONTINUOUS
 10
168.8207022599
 20
197.4268048259
 11
169.2487720531
 21
197.4268048259
  0
LINE
  5
31E
100
AcDbEntity
  8
0
100
AcDbLine
 62
7
  6
CONTINUOUS
 10
171.4356258259
 20
197.4268048259
 11
171.5775293584
 21
197.4268048259
  0
LINE
  5
31F
100
AcDbEntity
  8
0
100
AcDbLine
 62
7
  6
CONTINUOUS
 10
253.2394709711
 20
198.4459872358
 11
262.4216083479
 21
198.4459872358
  0
LINE
  5
320
100
AcDbEntity
  8
0
100
AcDbLine
 62
7
  6
CONTINUOUS
 10
265.1286526365
 20
198.4459872358
 11
267.0317622234
 21
198.4459872358
  0
LINE
  5
321
100
AcDbEntity
  8
0
100
AcDbLine
 62
7
  6
CONTINUOUS
 10
262.4216083479
 20
198.4459872358
 11
265.1286526365
 21
198.4459872358
  0
LINE
  5
322
100
AcDbEntity
  8
0
100
AcDbLine
 62
7
  6
CONTINUOUS
 10
249.9756083479
 20
200.7319872358
 11
249.5692128223
 21
200.7319872358
  0
LINE
  5
323
100
AcDbEntity
  8
0
100
AcDbLine
 62
7
  6
CONTINUOUS
 10
249.9756083479
 20
200.7319872358
 11
287.4407353479
 21
200.7319872358
  0
LINE
  5
324
100
AcDbEntity
  8
0
100
AcDbLine
 62
7
  6
CONTINUOUS
 10
287.4407353479
 20
200.7319872358
 11
297.9308083479
 21
200.7319872358
  0
LINE
  5
325
100
AcDbEntity
  8
0
100
AcDbLine
 62
7
  6
CONTINUOUS
 10
187.9869083479
 20
200.7352385947
 11
185.4469083479
 21
200.7352385947
  0
LINE
  5
326
100
AcDbEntity
  8
0
100
AcDbLine
 62
7
  6
CONTINUOUS
 10
89.8003258942
 20
200.7806208259
 11
72.4959836261
 21
200.7806208259
  0
LINE
  5
327
100
AcDbEntity
  8
0
100
AcDbLine
 62
7
  6
CONTINUOUS
 10
271.6926083479
 20
201.4156579257
 11
287.4407353479
 21
201.4156579257
  0
LINE
  5
328
100
AcDbEntity
  8
0
100
AcDbLine
 62
7
  6
CONTINUOUS
 10
287.4407353479
 20
202.3067034749
 11
271.6926083479
 21
202.3067034749
  0
LINE
  5
329
100
AcDbEntity
  8
0
100
AcDbLine
 62
7
  6
CONTINUOUS
 10
269.5336083479
 20
202.3067872358
 11
249.9756083479
 21
202.3067872358
  0
LINE
  5
32A
100
AcDbEntity
  8
0
100
AcDbLine
 62
7
  6
CONTINUOUS
 10
271.6926083479
 20
202.3067872358
 11
269.5336083479
 21
202.3067872358
  0
LINE
  5
32B
100
AcDbEntity
  8
0
100
AcDbLine
 62
7
  6
CONTINUOUS
 10
271.6926083479
 20
202.5142056527
 11
287.4407353479
 21
202.5142056527
  0
LINE
  5
32C
100
AcDbEntity
  8
0
100
AcDbLine
 62
7
  6
CONTINUOUS
 10
271.6926083479
 20
202.5512952712
 11
287.4407353479
 21
202.5512952712
  0
LINE
  5
32D
100
AcDbEntity
  8
0
100
AcDbLine
 62
7
  6
CONTINUOUS
 10
273.0896083479
 20
202.7258778498
 11
299.4548217711
 21
202.7258778498
  0
LINE
  5
32E
100
AcDbEntity
  8
0
100
AcDbLine
 62
7
  6
CONTINUOUS
 10
203.0745083479
 20
202.7338300259
 11
208.5609083479
 21
202.7338300259
  0
LINE
  5
32F
100
AcDbEntity
  8
0
100
AcDbLine
 62
7
  6
CONTINUOUS
 10
287.4407353479
 20
203.0525451171
 11
271.6926083479
 21
203.0525451171
  0
LINE
  5
330
100
AcDbEntity
  8
0
100
AcDbLine
 62
7
  6
CONTINUOUS
 10
249.9756083479
 20
203.0687872358
 11
287.4407353479
 21
203.0687872358
  0
LINE
  5
331
100
AcDbEntity
  8
0
100
AcDbLine
 62
7
  6
CONTINUOUS
 10
287.4407353479
 20
203.1087783996
 11
271.6926083479
 21
203.1087783996
  0
LINE
  5
332
100
AcDbEntity
  8
0
100
AcDbLine
 62
7
  6
CONTINUOUS
 10
271.6926083479
 20
203.6475646253
 11
287.4407353479
 21
203.6475646253
  0
LINE
  5
333
100
AcDbEntity
  8
0
100
AcDbLine
 62
7
  6
CONTINUOUS
 10
94.3434583478
 20
203.8159208259
 11
96.4389583478
 21
203.8159208259
  0
LINE
  5
334
100
AcDbEntity
  8
0
100
AcDbLine
 62
7
  6
CONTINUOUS
 10
287.4407353479
 20
203.9723566758
 11
271.6926083479
 21
203.9723566758
  0
LINE
  5
335
100
AcDbEntity
  8
0
100
AcDbLine
 62
7
  6
CONTINUOUS
 10
249.9756083479
 20
204.2879872358
 11
271.6926083479
 21
204.2879872358
  0
LINE
  5
336
100
AcDbEntity
  8
0
100
AcDbLine
 62
7
  6
CONTINUOUS
 10
287.4407353479
 20
204.511163263
 11
271.6926083479
 21
204.511163263
  0
LINE
  5
337
100
AcDbEntity
  8
0
100
AcDbLine
 62
7
  6
CONTINUOUS
 10
287.4407353479
 20
204.7611231958
 11
271.6926083479
 21
204.7611231958
  0
LINE
  5
338
100
AcDbEntity
  8
0
100
AcDbLine
 62
7
  6
CONTINUOUS
 10
280.2714463711
 20
204.9356872358
 11
271.5211463711
 21
204.9356872358
  0
LINE
  5
339
100
AcDbEntity
  8
0
100
AcDbLine
 62
7
  6
CONTINUOUS
 10
269.8637963711
 20
204.9356872358
 11
265.0885963711
 21
204.9356872358
  0
LINE
  5
33A
100
AcDbEntity
  8
0
100
AcDbLine
 62
7
  6
CONTINUOUS
 10
255.1825963711
 20
204.9356872358
 11
252.5155963711
 21
204.9356872358
  0
LINE
  5
33B
100
AcDbEntity
  8
0
100
AcDbLine
 62
7
  6
CONTINUOUS
 10
255.1825963711
 20
204.9356872358
 11
265.0885963711
 21
204.9356872358
  0
LINE
  5
33C
100
AcDbEntity
  8
0
100
AcDbLine
 62
7
  6
CONTINUOUS
 10
160.1818536687
 20
205.3691531192
 11
88.6919576137
 21
229.7493346727
  0
LINE
  5
33D
100
AcDbEntity
  8
0
100
AcDbLine
 62
7
  6
CONTINUOUS
 10
162.8039485961
 20
206.3534894873
 11
90.4699577405
 21
231.0215324817
  0
LINE
  5
33E
100
AcDbEntity
  8
0
100
AcDbLine
 62
7
  6
CONTINUOUS
 10
169.8449583478
 20
194.915569984
 11
168.5749583478
 21
195.6488048259
  0
LINE
  5
33F
100
AcDbEntity
  8
0
100
AcDbLine
 62
7
  6
CONTINUOUS
 10
145.9689583478
 20
200.5393208259
 11
145.9689583478
 21
195.2053208259
  0
LINE
  5
340
100
AcDbEntity
  8
0
100
AcDbLine
 62
7
  6
CONTINUOUS
 10
236.365316002
 20
217.7659355309
 11
226.2934102366
 21
217.0616440401
  0
LINE
  5
341
100
AcDbEntity
  8
0
100
AcDbLine
 62
7
  6
CONTINUOUS
 10
267.0697900601
 20
205.4817872358
 11
263.3614026821
 21
205.4817872358
  0
LINE
  5
342
100
AcDbEntity
  8
0
100
AcDbLine
 62
7
  6
CONTINUOUS
 10
271.6926083479
 20
205.6247231958
 11
287.4407353479
 21
205.6247231958
  0
LINE
  5
343
100
AcDbEntity
  8
0
100
AcDbLine
 62
7
  6
CONTINUOUS
 10
255.1825963711
 20
205.9516872358
 11
265.0885963711
 21
205.9516872358
  0
LINE
  5
344
100
AcDbEntity
  8
0
100
AcDbLine
 62
7
  6
CONTINUOUS
 10
86.1519583478
 20
206.2162208259
 11
67.1019583478
 21
206.2162208259
  0
LINE
  5
345
100
AcDbEntity
  8
0
100
AcDbLine
 62
7
  6
CONTINUOUS
 10
261.2404963711
 20
206.2437872358
 11
269.1906963711
 21
206.2437872358
  0
LINE
  5
346
100
AcDbEntity
  8
0
100
AcDbLine
 62
7
  6
CONTINUOUS
 10
269.8637963711
 20
206.2437872358
 11
271.5211463711
 21
206.2437872358
  0
LINE
  5
347
100
AcDbEntity
  8
0
100
AcDbLine
 62
7
  6
CONTINUOUS
 10
280.2714463711
 20
206.2437872358
 11
281.9160963711
 21
206.2437872358
  0
LINE
  5
348
100
AcDbEntity
  8
0
100
AcDbLine
 62
7
  6
CONTINUOUS
 10
261.8755353027
 20
206.8787872358
 11
268.5556574395
 21
206.8787872358
  0
LINE
  5
349
100
AcDbEntity
  8
0
100
AcDbLine
 62
7
  6
CONTINUOUS
 10
159.9135583478
 20
206.8893208259
 11
152.3189583478
 21
206.8893208259
  0
LINE
  5
34A
100
AcDbEntity
  8
0
100
AcDbLine
 62
7
  6
CONTINUOUS
 10
236.0373583478
 20
206.8893208259
 11
243.6319583478
 21
206.8893208259
  0
LINE
  5
34B
100
AcDbEntity
  8
0
100
AcDbLine
 62
7
  6
CONTINUOUS
 10
261.5856435202
 20
206.9676872358
 11
260.7937499868
 21
206.9676872358
  0
LINE
  5
34C
100
AcDbEntity
  8
0
100
AcDbLine
 62
7
  6
CONTINUOUS
 10
259.5283088354
 20
206.9676872358
 11
258.0812417527
 21
206.9676872358
  0
LINE
  5
34D
100
AcDbEntity
  8
0
100
AcDbLine
 62
7
  6
CONTINUOUS
 10
260.7937499868
 20
206.9676872358
 11
259.5283088354
 21
206.9676872358
  0
LINE
  5
34E
100
AcDbEntity
  8
0
100
AcDbLine
 62
7
  6
CONTINUOUS
 10
261.5856435202
 20
206.9676872358
 11
261.7327508237
 21
206.9676872358
  0
LINE
  5
34F
100
AcDbEntity
  8
0
100
AcDbLine
 62
7
  6
CONTINUOUS
 10
261.7327508237
 20
206.9676872358
 11
262.1899509895
 21
206.9676872358
  0
LINE
  5
350
100
AcDbEntity
  8
0
100
AcDbLine
 62
7
  6
CONTINUOUS
 10
171.2172329722
 20
207.0036264481
 11
165.4246777214
 21
207.0036270254
  0
LINE
  5
351
100
AcDbEntity
  8
0
100
AcDbLine
 62
7
  6
CONTINUOUS
 10
230.5262329797
 20
207.0798205372
 11
224.7336777289
 21
207.0798211145
  0
LINE
  5
352
100
AcDbEntity
  8
0
100
AcDbLine
 62
7
  6
CONTINUOUS
 10
234.6620891008
 20
207.7566546259
 11
161.2888275948
 21
207.7566546259
  0
LINE
  5
353
100
AcDbEntity
  8
0
100
AcDbLine
 62
7
  6
CONTINUOUS
 10
71.5596547601
 20
208.4006208259
 11
90.7366547601
 21
208.4006208259
  0
LINE
  5
354
100
AcDbEntity
  8
0
100
AcDbLine
 62
7
  6
CONTINUOUS
 10
161.4375583478
 20
208.8342853604
 11
234.5133583478
 21
208.8342853604
  0
LINE
  5
355
100
AcDbEntity
  8
0
100
AcDbLine
 62
7
  6
CONTINUOUS
 10
262.1899509895
 20
208.9996872358
 11
261.7327508237
 21
208.9996872358
  0
LINE
  5
356
100
AcDbEntity
  8
0
100
AcDbLine
 62
7
  6
CONTINUOUS
 10
258.0812417527
 20
208.9996872358
 11
259.5283088354
 21
208.9996872358
  0
LINE
  5
357
100
AcDbEntity
  8
0
100
AcDbLine
 62
7
  6
CONTINUOUS
 10
256.8589963711
 20
208.9996872358
 11
258.0812417527
 21
208.9996872358
  0
LINE
  5
358
100
AcDbEntity
  8
0
100
AcDbLine
 62
7
  6
CONTINUOUS
 10
262.1899509895
 20
208.9996872358
 11
263.4121963711
 21
208.9996872358
  0
LINE
  5
359
100
AcDbEntity
  8
0
100
AcDbLine
 62
7
  6
CONTINUOUS
 10
260.7937499868
 20
208.9996872358
 11
261.5856435202
 21
208.9996872358
  0
LINE
  5
35A
100
AcDbEntity
  8
0
100
AcDbLine
 62
7
  6
CONTINUOUS
 10
259.5283088354
 20
208.9996872358
 11
260.7937499868
 21
208.9996872358
  0
LINE
  5
35B
100
AcDbEntity
  8
0
100
AcDbLine
 62
7
  6
CONTINUOUS
 10
261.5856435202
 20
208.9996872358
 11
261.7327508237
 21
208.9996872358
  0
LINE
  5
35C
100
AcDbEntity
  8
0
100
AcDbLine
 62
7
  6
CONTINUOUS
 10
287.4407353479
 20
209.1153452009
 11
271.6926083479
 21
209.1153452009
  0
LINE
  5
35D
100
AcDbEntity
  8
0
100
AcDbLine
 62
7
  6
CONTINUOUS
 10
255.633534442
 20
209.5076872358
 11
264.6376583002
 21
209.5076872358
  0
LINE
  5
35E
100
AcDbEntity
  8
0
100
AcDbLine
 62
7
  6
CONTINUOUS
 10
271.6926083479
 20
209.9789452009
 11
287.4407353479
 21
209.9789452009
  0
LINE
  5
35F
100
AcDbEntity
  8
0
100
AcDbLine
 62
7
  6
CONTINUOUS
 10
271.6926083479
 20
210.2289049958
 11
287.4407353479
 21
210.2289049958
  0
LINE
  5
360
100
AcDbEntity
  8
0
100
AcDbLine
 62
7
  6
CONTINUOUS
 10
234.5133583478
 20
210.5293560047
 11
161.4375583478
 21
210.5293560047
  0
LINE
  5
361
100
AcDbEntity
  8
0
100
AcDbLine
 62
7
  6
CONTINUOUS
 10
234.5133583478
 20
210.5584945357
 11
161.4375583478
 21
210.5584945357
  0
LINE
  5
362
100
AcDbEntity
  8
0
100
AcDbLine
 62
7
  6
CONTINUOUS
 10
287.4407353479
 20
210.7677095761
 11
271.6926083479
 21
210.7677095761
  0
LINE
  5
363
100
AcDbEntity
  8
0
100
AcDbLine
 62
7
  6
CONTINUOUS
 10
287.4407353479
 20
211.0925049958
 11
271.6926083479
 21
211.0925049958
  0
LINE
  5
364
100
AcDbEntity
  8
0
100
AcDbLine
 62
7
  6
CONTINUOUS
 10
287.4407353479
 20
211.6313095761
 11
271.6926083479
 21
211.6313095761
  0
LINE
  5
365
100
AcDbEntity
  8
0
100
AcDbLine
 62
7
  6
CONTINUOUS
 10
94.3434583478
 20
212.2106208259
 11
58.9104583478
 21
212.2106208259
  0
LINE
  5
366
100
AcDbEntity
  8
0
100
AcDbLine
 62
7
  6
CONTINUOUS
 10
161.4375583478
 20
212.25356518
 11
234.5133583478
 21
212.25356518
  0
LINE
  5
367
100
AcDbEntity
  8
0
100
AcDbLine
 62
7
  6
CONTINUOUS
 10
236.2722963711
 20
212.4921872358
 11
194.6162963711
 21
212.4921872358
  0
LINE
  5
368
100
AcDbEntity
  8
0
100
AcDbLine
 62
7
  6
CONTINUOUS
 10
246.1529083479
 20
212.4922126358
 11
236.2722963711
 21
212.4921872358
  0
LINE
  5
369
100
AcDbEntity
  8
0
100
AcDbLine
 62
7
  6
CONTINUOUS
 10
194.6162963711
 20
212.4921872358
 11
185.4469083479
 21
212.4922126358
  0
LINE
  5
36A
100
AcDbEntity
  8
0
100
AcDbLine
 62
7
  6
CONTINUOUS
 10
187.9869083479
 20
213.1950391714
 11
185.4469083479
 21
213.1950391714
  0
LINE
  5
36B
100
AcDbEntity
  8
0
100
AcDbLine
 62
7
  6
CONTINUOUS
 10
216.9428963711
 20
213.2922872358
 11
251.9948963711
 21
213.2922872358
  0
LINE
  5
36C
100
AcDbEntity
  8
0
100
AcDbLine
 62
7
  6
CONTINUOUS
 10
234.5133583478
 20
213.3311959145
 11
161.4375583478
 21
213.3311959145
  0
LINE
  5
36D
100
AcDbEntity
  8
0
100
AcDbLine
 62
7
  6
CONTINUOUS
 10
183.9228963711
 20
213.8002872358
 11
181.0018963711
 21
213.8002872358
  0
LINE
  5
36E
100
AcDbEntity
  8
0
100
AcDbLine
 62
7
  6
CONTINUOUS
 10
185.4469043556
 20
213.8256872358
 11
183.9228963711
 21
213.8256872358
  0
LINE
  5
36F
100
AcDbEntity
  8
0
100
AcDbLine
 62
7
  6
CONTINUOUS
 10
236.2722963711
 20
214.0669872358
 11
220.0162963711
 21
214.0669872358
  0
LINE
  5
370
100
AcDbEntity
  8
0
100
AcDbLine
 62
7
  6
CONTINUOUS
 10
220.0162963711
 20
214.0669872358
 11
209.1831581578
 21
214.0669872358
  0
LINE
  5
371
100
AcDbEntity
  8
0
100
AcDbLine
 62
7
  6
CONTINUOUS
 10
202.4522345844
 20
214.0669872358
 11
194.6162963711
 21
214.0669872358
  0
LINE
  5
372
100
AcDbEntity
  8
0
100
AcDbLine
 62
7
  6
CONTINUOUS
 10
202.4522345844
 20
214.0669872358
 11
209.1831581578
 21
214.0669872358
  0
LINE
  5
373
100
AcDbEntity
  8
0
100
AcDbLine
 62
7
  6
CONTINUOUS
 10
216.9682963711
 20
214.0923872358
 11
236.2722963711
 21
214.0923872358
  0
LINE
  5
374
100
AcDbEntity
  8
0
100
AcDbLine
 62
7
  6
CONTINUOUS
 10
280.2714463711
 20
214.3971872358
 11
271.5211463711
 21
214.3971872358
  0
LINE
  5
375
100
AcDbEntity
  8
0
100
AcDbLine
 62
7
  6
CONTINUOUS
 10
213.7551963711
 20
214.6087184358
 11
197.8801963711
 21
214.6087184358
  0
LINE
  5
376
100
AcDbEntity
  8
0
100
AcDbLine
 62
7
  6
CONTINUOUS
 10
213.7551963711
 20
214.6956765413
 11
197.8801963711
 21
214.6956765413
  0
LINE
  5
377
100
AcDbEntity
  8
0
100
AcDbLine
 62
7
  6
CONTINUOUS
 10
213.7551963711
 20
214.8439164995
 11
197.8801963711
 21
214.8439164995
  0
LINE
  5
378
100
AcDbEntity
  8
0
100
AcDbLine
 62
7
  6
CONTINUOUS
 10
269.8637963711
 20
214.9940872358
 11
271.5211463711
 21
214.9940872358
  0
LINE
  5
379
100
AcDbEntity
  8
0
100
AcDbLine
 62
7
  6
CONTINUOUS
 10
280.2714463711
 20
214.9940872358
 11
281.9160963711
 21
214.9940872358
  0
LINE
  5
37A
100
AcDbEntity
  8
0
100
AcDbLine
 62
7
  6
CONTINUOUS
 10
171.293968176
 20
198.2665538246
 11
170.3342231961
 21
199.0476455708
  0
LINE
  5
37B
100
AcDbEntity
  8
0
100
AcDbLine
 62
7
  6
CONTINUOUS
 10
162.5283995961
 20
201.987127314
 11
165.4246767215
 21
196.9706270254
  0
LINE
  5
37C
100
AcDbEntity
  8
0
100
AcDbLine
 62
7
  6
CONTINUOUS
 10
149.5249583478
 20
198.2533208259
 11
149.5249583478
 21
196.7293208259
  0
LINE
  5
37D
100
AcDbEntity
  8
0
100
AcDbLine
 62
7
  6
CONTINUOUS
 10
155.1129583478
 20
196.7293208259
 11
155.1129583478
 21
198.2533208259
  0
LINE
  5
37E
100
AcDbEntity
  8
0
100
AcDbLine
 62
7
  6
CONTINUOUS
 10
50.5665583478
 20
194.586385984
 11
51.8364236013
 21
195.31954303
  0
LINE
  5
37F
100
AcDbEntity
  8
0
100
AcDbLine
 62
7
  6
CONTINUOUS
 10
236.1792767402
 20
220.4264389407
 11
226.1073709749
 21
219.7221474498
  0
LINE
  5
380
100
AcDbEntity
  8
0
100
AcDbLine
 62
7
  6
CONTINUOUS
 10
236.2722963711
 20
215.6671872358
 11
232.1193963711
 21
215.6671872358
  0
LINE
  5
381
100
AcDbEntity
  8
0
100
AcDbLine
 62
7
  6
CONTINUOUS
 10
224.1691963711
 20
215.6671872358
 11
216.9682963711
 21
215.6671872358
  0
LINE
  5
382
100
AcDbEntity
  8
0
100
AcDbLine
 62
7
  6
CONTINUOUS
 10
224.1691963711
 20
215.6671872358
 11
232.1193963711
 21
215.6671872358
  0
LINE
  5
383
100
AcDbEntity
  8
0
100
AcDbLine
 62
7
  6
CONTINUOUS
 10
94.3434547601
 20
215.6904208259
 11
89.1491087155
 21
215.6904208259
  0
LINE
  5
384
100
AcDbEntity
  8
0
100
AcDbLine
 62
7
  6
CONTINUOUS
 10
73.1472008048
 20
215.6904208259
 11
56.8149583478
 21
215.6904208259
  0
LINE
  5
385
100
AcDbEntity
  8
0
100
AcDbLine
 62
7
  6
CONTINUOUS
 10
73.1472008048
 20
215.6904208259
 11
89.1491087155
 21
215.6904208259
  0
LINE
  5
386
100
AcDbEntity
  8
0
100
AcDbLine
 62
7
  6
CONTINUOUS
 10
200.8647083479
 20
216.1628100259
 11
210.7707083479
 21
216.1628100259
  0
LINE
  5
387
100
AcDbEntity
  8
0
100
AcDbLine
 62
7
  6
CONTINUOUS
 10
249.5692217711
 20
216.1751872358
 11
246.1529083479
 21
216.1751872358
  0
LINE
  5
388
100
AcDbEntity
  8
0
100
AcDbLine
 62
7
  6
CONTINUOUS
 10
281.9160963711
 20
216.3021872358
 11
269.8637963711
 21
216.3021872358
  0
LINE
  5
389
100
AcDbEntity
  8
0
100
AcDbLine
 62
7
  6
CONTINUOUS
 10
84.4628583478
 20
216.7064208259
 11
77.8334583478
 21
216.7064208259
  0
LINE
  5
38A
100
AcDbEntity
  8
0
100
AcDbLine
 62
7
  6
CONTINUOUS
 10
89.0221583478
 20
216.7064208259
 11
84.4628583478
 21
216.7064208259
  0
LINE
  5
38B
100
AcDbEntity
  8
0
100
AcDbLine
 62
7
  6
CONTINUOUS
 10
77.8334583478
 20
216.7064208259
 11
59.3676583478
 21
216.7064208259
  0
LINE
  5
38C
100
AcDbEntity
  8
0
100
AcDbLine
 62
7
  6
CONTINUOUS
 10
276.6464205684
 20
216.9371872358
 11
275.1461835711
 21
216.9371872358
  0
LINE
  5
38D
100
AcDbEntity
  8
0
100
AcDbLine
 62
7
  6
CONTINUOUS
 10
236.2722963711
 20
217.1149872358
 11
220.0162963711
 21
217.1149872358
  0
LINE
  5
38E
100
AcDbEntity
  8
0
100
AcDbLine
 62
7
  6
CONTINUOUS
 10
200.8647083479
 20
217.1788100259
 11
210.7707083479
 21
217.1788100259
  0
LINE
  5
38F
100
AcDbEntity
  8
0
100
AcDbLine
 62
7
  6
CONTINUOUS
 10
236.2722963711
 20
217.1911872358
 11
220.0162963711
 21
217.1911872358
  0
LINE
  5
390
100
AcDbEntity
  8
0
100
AcDbLine
 62
7
  6
CONTINUOUS
 10
185.4469083479
 20
217.4748158546
 11
183.9228963711
 21
217.4748158546
  0
LINE
  5
391
100
AcDbEntity
  8
0
100
AcDbLine
 62
7
  6
CONTINUOUS
 10
185.4469043556
 20
217.5036605293
 11
181.0018963711
 21
217.5036605293
  0
LINE
  5
392
100
AcDbEntity
  8
0
100
AcDbLine
 62
7
  6
CONTINUOUS
 10
89.0221583478
 20
217.6656409382
 11
73.2741583478
 21
217.6656409382
  0
LINE
  5
393
100
AcDbEntity
  8
0
100
AcDbLine
 62
7
  6
CONTINUOUS
 10
89.0221583478
 20
217.9286010881
 11
73.2741583478
 21
217.9286010881
  0
LINE
  5
394
100
AcDbEntity
  8
0
100
AcDbLine
 62
7
  6
CONTINUOUS
 10
207.9258796317
 20
218.1948100259
 11
206.7828796339
 21
218.1948100259
  0
LINE
  5
395
100
AcDbEntity
  8
0
100
AcDbLine
 62
7
  6
CONTINUOUS
 10
204.8524796377
 20
218.1948100259
 11
203.70947964
 21
218.1948100259
  0
LINE
  5
396
100
AcDbEntity
  8
0
100
AcDbLine
 62
7
  6
CONTINUOUS
 10
206.7828796339
 20
218.1948100259
 11
204.8524796377
 21
218.1948100259
  0
LINE
  5
397
100
AcDbEntity
  8
0
100
AcDbLine
 62
7
  6
CONTINUOUS
 10
280.2714463711
 20
218.2071872358
 11
276.6464205684
 21
218.2071872358
  0
LINE
  5
398
100
AcDbEntity
  8
0
100
AcDbLine
 62
7
  6
CONTINUOUS
 10
275.1461835711
 20
218.2071872358
 11
271.5211463711
 21
218.2071872358
  0
LINE
  5
399
100
AcDbEntity
  8
0
100
AcDbLine
 62
7
  6
CONTINUOUS
 10
187.9869083479
 20
218.4239860695
 11
185.4469083479
 21
218.4239860695
  0
LINE
  5
39A
100
AcDbEntity
  8
0
100
AcDbLine
 62
7
  6
CONTINUOUS
 10
229.9984900601
 20
218.8421872358
 11
226.2901026821
 21
218.8421872358
  0
LINE
  5
39B
100
AcDbEntity
  8
0
100
AcDbLine
 62
7
  6
CONTINUOUS
 10
88.7681583478
 20
219.3353208259
 11
86.1011583478
 21
219.3353208259
  0
LINE
  5
39C
100
AcDbEntity
  8
0
100
AcDbLine
 62
7
  6
CONTINUOUS
 10
76.1951583478
 20
219.3353208259
 11
71.4199583478
 21
219.3353208259
  0
LINE
  5
39D
100
AcDbEntity
  8
0
100
AcDbLine
 62
7
  6
CONTINUOUS
 10
69.7626083478
 20
219.3353208259
 11
61.0123083478
 21
219.3353208259
  0
LINE
  5
39E
100
AcDbEntity
  8
0
100
AcDbLine
 62
7
  6
CONTINUOUS
 10
76.1951583478
 20
219.3353208259
 11
86.1011583478
 21
219.3353208259
  0
LINE
  5
39F
100
AcDbEntity
  8
0
100
AcDbLine
 62
7
  6
CONTINUOUS
 10
224.1691963711
 20
219.6041872358
 11
232.1193963711
 21
219.6041872358
  0
LINE
  5
3A0
100
AcDbEntity
  8
0
100
AcDbLine
 62
7
  6
CONTINUOUS
 10
299.1563463711
 20
219.9343872358
 11
296.9973463711
 21
219.9343872358
  0
LINE
  5
3A1
100
AcDbEntity
  8
0
100
AcDbLine
 62
7
  6
CONTINUOUS
 10
292.0443463711
 20
219.9343872358
 11
248.0769463711
 21
219.9343872358
  0
LINE
  5
3A2
100
AcDbEntity
  8
0
100
AcDbLine
 62
7
  6
CONTINUOUS
 10
207.9259370558
 20
220.2268100259
 11
206.7829370581
 21
220.2268100259
  0
LINE
  5
3A3
100
AcDbEntity
  8
0
100
AcDbLine
 62
7
  6
CONTINUOUS
 10
209.0943083479
 20
220.2268100259
 11
207.9259370558
 21
220.2268100259
  0
LINE
  5
3A4
100
AcDbEntity
  8
0
100
AcDbLine
 62
7
  6
CONTINUOUS
 10
204.8525370619
 20
220.2268100259
 11
203.7095370641
 21
220.2268100259
  0
LINE
  5
3A5
100
AcDbEntity
  8
0
100
AcDbLine
 62
7
  6
CONTINUOUS
 10
206.7829370581
 20
220.2268100259
 11
204.8525370619
 21
220.2268100259
  0
LINE
  5
3A6
100
AcDbEntity
  8
0
100
AcDbLine
 62
7
  6
CONTINUOUS
 10
202.5411083479
 20
220.2268100259
 11
203.7095370641
 21
220.2268100259
  0
LINE
  5
3A7
100
AcDbEntity
  8
0
100
AcDbLine
 62
7
  6
CONTINUOUS
 10
224.8042353027
 20
220.2391872358
 11
231.4843574395
 21
220.2391872358
  0
LINE
  5
3A8
100
AcDbEntity
  8
0
100
AcDbLine
 62
7
  6
CONTINUOUS
 10
76.1951583478
 20
220.3513208259
 11
86.1011583478
 21
220.3513208259
  0
LINE
  5
3A9
100
AcDbEntity
  8
0
100
AcDbLine
 62
7
  6
CONTINUOUS
 10
71.4199583478
 20
220.6434208259
 11
69.7626083478
 21
220.6434208259
  0
LINE
  5
3AA
100
AcDbEntity
  8
0
100
AcDbLine
 62
7
  6
CONTINUOUS
 10
61.0123083478
 20
220.6434208259
 11
59.3676583478
 21
220.6434208259
  0
LINE
  5
3AB
100
AcDbEntity
  8
0
100
AcDbLine
 62
7
  6
CONTINUOUS
 10
209.7164669759
 20
220.7348100259
 11
201.9186669912
 21
220.7348100259
  0
LINE
  5
3AC
100
AcDbEntity
  8
0
100
AcDbLine
 62
7
  6
CONTINUOUS
 10
234.5133583478
 20
221.1193024754
 11
227.629958303
 21
221.1193024754
  0
LINE
  5
3AD
100
AcDbEntity
  8
0
100
AcDbLine
 62
7
  6
CONTINUOUS
 10
161.4375583478
 20
221.1193024754
 11
168.3209583667
 21
221.1193024754
  0
LINE
  5
3AE
100
AcDbEntity
  8
0
100
AcDbLine
 62
7
  6
CONTINUOUS
 10
78.8621583478
 20
221.2530208259
 11
74.0361583478
 21
221.2530208259
  0
LINE
  5
3AF
100
AcDbEntity
  8
0
100
AcDbLine
 62
7
  6
CONTINUOUS
 10
250.7947583478
 20
221.3673208259
 11
227.6299583478
 21
221.3673208259
  0
LINE
  5
3B0
100
AcDbEntity
  8
0
100
AcDbLine
 62
7
  6
CONTINUOUS
 10
83.2025129662
 20
221.3673208259
 11
81.7554458835
 21
221.3673208259
  0
LINE
  5
3B1
100
AcDbEntity
  8
0
100
AcDbLine
 62
7
  6
CONTINUOUS
 10
168.3209582581
 20
221.8813024754
 11
161.4375583478
 21
221.8813024754
  0
LINE
  5
3B2
100
AcDbEntity
  8
0
100
AcDbLine
 62
7
  6
CONTINUOUS
 10
227.6299583478
 20
221.8813024754
 11
234.5133583478
 21
221.8813024754
  0
LINE
  5
3B3
100
AcDbEntity
  8
0
100
AcDbLine
 62
7
  6
CONTINUOUS
 10
234.5133583478
 20
222.1293208259
 11
227.6299583478
 21
222.1293208259
  0
LINE
  5
3B4
100
AcDbEntity
  8
0
100
AcDbLine
 62
7
  6
CONTINUOUS
 10
161.4375583478
 20
222.1293208259
 11
168.3209583246
 21
222.1293208259
  0
LINE
  5
3B5
100
AcDbEntity
  8
0
100
AcDbLine
 62
7
  6
CONTINUOUS
 10
168.3209583478
 20
222.8913208259
 11
161.4375583478
 21
222.8913208259
  0
LINE
  5
3B6
100
AcDbEntity
  8
0
100
AcDbLine
 62
7
  6
CONTINUOUS
 10
227.6299583697
 20
222.8913208259
 11
234.5133583478
 21
222.8913208259
  0
LINE
  5
3B7
100
AcDbEntity
  8
0
100
AcDbLine
 62
7
  6
CONTINUOUS
 10
79.6335443374
 20
223.0945208259
 11
81.1481583478
 21
223.0945208259
  0
LINE
  5
3B8
100
AcDbEntity
  8
0
100
AcDbLine
 62
7
  6
CONTINUOUS
 10
224.8867583478
 20
223.1199208259
 11
263.4947583478
 21
223.1199208259
  0
LINE
  5
3B9
100
AcDbEntity
  8
0
100
AcDbLine
 62
7
  6
CONTINUOUS
 10
83.2025129662
 20
223.3993208259
 11
79.0938037294
 21
223.3993208259
  0
LINE
  5
3BA
100
AcDbEntity
  8
0
100
AcDbLine
 62
7
  6
CONTINUOUS
 10
79.0938037294
 20
223.3993208259
 11
77.8715583478
 21
223.3993208259
  0
LINE
  5
3BB
100
AcDbEntity
  8
0
100
AcDbLine
 62
7
  6
CONTINUOUS
 10
83.2025129662
 20
223.3993208259
 11
84.4247583478
 21
223.3993208259
  0
LINE
  5
3BC
100
AcDbEntity
  8
0
100
AcDbLine
 62
7
  6
CONTINUOUS
 10
76.6460964187
 20
223.9073208259
 11
85.6502202769
 21
223.9073208259
  0
LINE
  5
3BD
100
AcDbEntity
  8
0
100
AcDbLine
 62
7
  6
CONTINUOUS
 10
58.9104547601
 20
223.9962208259
 11
56.8149583478
 21
223.9962208259
  0
LINE
  5
3BE
100
AcDbEntity
  8
0
100
AcDbLine
 62
7
  6
CONTINUOUS
 10
94.3434547601
 20
224.9868208259
 11
96.4389583478
 21
224.9868208259
  0
LINE
  5
3BF
100
AcDbEntity
  8
0
100
AcDbLine
 62
7
  6
CONTINUOUS
 10
287.4407233711
 20
225.1159798647
 11
271.6925963711
 21
225.1159798647
  0
LINE
  5
3C0
100
AcDbEntity
  8
0
100
AcDbLine
 62
7
  6
CONTINUOUS
 10
171.2172329721
 20
207.0036264482
 11
174.1135100975
 21
201.9871261596
  0
LINE
  5
3C1
100
AcDbEntity
  8
0
100
AcDbLine
 62
7
  6
CONTINUOUS
 10
161.4375583478
 20
223.3477007396
 11
161.4375583478
 21
208.4133208259
  0
LINE
  5
3C2
100
AcDbEntity
  8
0
100
AcDbLine
 62
7
  6
CONTINUOUS
 10
161.4375583478
 20
187.9145048259
 11
161.4375583478
 21
180.9051208259
  0
LINE
  5
3C3
100
AcDbEntity
  8
0
100
AcDbLine
 62
7
  6
CONTINUOUS
 10
161.4375583478
 20
250.8829409122
 11
161.4375583478
 21
272.9039208259
  0
LINE
  5
3C4
100
AcDbEntity
  8
0
100
AcDbLine
 62
7
  6
CONTINUOUS
 10
161.4946963711
 20
194.1883048259
 11
161.4946963711
 21
186.6201536358
  0
LINE
  5
3C5
100
AcDbEntity
  8
0
100
AcDbLine
 62
7
  6
CONTINUOUS
 10
162.9615583478
 20
187.9145048259
 11
162.9615583478
 21
185.4761048259
  0
LINE
  5
3C6
100
AcDbEntity
  8
0
100
AcDbLine
 62
7
  6
CONTINUOUS
 10
162.9615583478
 20
183.3435208259
 11
162.9615583478
 21
180.9051208259
  0
LINE
  5
3C7
100
AcDbEntity
  8
0
100
AcDbLine
 62
7
  6
CONTINUOUS
 10
164.4855583478
 20
183.3435208259
 11
164.4855583478
 21
185.7819208259
  0
LINE
  5
3C8
100
AcDbEntity
  8
0
100
AcDbLine
 62
7
  6
CONTINUOUS
 10
165.2094583478
 20
194.1883048259
 11
165.2094583478
 21
195.7123048259
  0
LINE
  5
3C9
100
AcDbEntity
  8
0
100
AcDbLine
 62
7
  6
CONTINUOUS
 10
166.5175583478
 20
183.3435208259
 11
166.5175583478
 21
180.9051208259
  0
LINE
  5
3CA
100
AcDbEntity
  8
0
100
AcDbLine
 62
7
  6
CONTINUOUS
 10
287.4407353479
 20
225.6548025158
 11
271.6926083479
 21
225.6548025158
  0
LINE
  5
3CB
100
AcDbEntity
  8
0
100
AcDbLine
 62
7
  6
CONTINUOUS
 10
208.0147963711
 20
225.7509936801
 11
209.9959963711
 21
225.7509936801
  0
LINE
  5
3CC
100
AcDbEntity
  8
0
100
AcDbLine
 62
7
  6
CONTINUOUS
 10
224.8867583478
 20
225.9393208259
 11
263.4947583478
 21
225.9393208259
  0
LINE
  5
3CD
100
AcDbEntity
  8
0
100
AcDbLine
 62
7
  6
CONTINUOUS
 10
103.5890583478
 20
226.2568208259
 11
96.4389583478
 21
226.2568208259
  0
LINE
  5
3CE
100
AcDbEntity
  8
0
100
AcDbLine
 62
7
  6
CONTINUOUS
 10
297.0227463711
 20
226.4113872358
 11
248.0769463711
 21
226.4113872358
  0
LINE
  5
3CF
100
AcDbEntity
  8
0
100
AcDbLine
 62
7
  6
CONTINUOUS
 10
271.6925963711
 20
226.7683596321
 11
287.4407233711
 21
226.7683596321
  0
LINE
  5
3D0
100
AcDbEntity
  8
0
100
AcDbLine
 62
7
  6
CONTINUOUS
 10
213.7551963711
 20
226.8161011439
 11
209.9959963711
 21
226.8161011439
  0
LINE
  5
3D1
100
AcDbEntity
  8
0
100
AcDbLine
 62
7
  6
CONTINUOUS
 10
208.0147963711
 20
226.8161011439
 11
197.8801963711
 21
226.8161011439
  0
LINE
  5
3D2
100
AcDbEntity
  8
0
100
AcDbLine
 62
7
  6
CONTINUOUS
 10
213.7551963711
 20
226.9848776785
 11
209.9959963711
 21
226.9848776785
  0
LINE
  5
3D3
100
AcDbEntity
  8
0
100
AcDbLine
 62
7
  6
CONTINUOUS
 10
208.0147963711
 20
226.9848776785
 11
197.8801963711
 21
226.9848776785
  0
LINE
  5
3D4
100
AcDbEntity
  8
0
100
AcDbLine
 62
7
  6
CONTINUOUS
 10
196.3435083479
 20
227.0599848707
 11
187.9869083479
 21
227.059982322
  0
LINE
  5
3D5
100
AcDbEntity
  8
0
100
AcDbLine
 62
7
  6
CONTINUOUS
 10
80.7417583478
 20
227.3744208259
 11
78.5573583478
 21
227.3744208259
  0
LINE
  5
3D6
100
AcDbEntity
  8
0
100
AcDbLine
 62
7
  6
CONTINUOUS
 10
185.4469083479
 20
227.415582322
 11
184.6595083479
 21
227.415582322
  0
LINE
  5
3D7
100
AcDbEntity
  8
0
100
AcDbLine
 62
7
  6
CONTINUOUS
 10
263.4947583478
 20
228.2253208259
 11
245.7147583478
 21
228.2253208259
  0
LINE
  5
3D8
100
AcDbEntity
  8
0
100
AcDbLine
 62
7
  6
CONTINUOUS
 10
271.6926083479
 20
228.3204359958
 11
287.4407353479
 21
228.3204359958
  0
LINE
  5
3D9
100
AcDbEntity
  8
0
100
AcDbLine
 62
7
  6
CONTINUOUS
 10
69.7626083478
 20
228.7968208259
 11
61.0123083478
 21
228.7968208259
  0
LINE
  5
3DA
100
AcDbEntity
  8
0
100
AcDbLine
 62
7
  6
CONTINUOUS
 10
261.1833463711
 20
228.8751872358
 11
289.1233463711
 21
228.8751872358
  0
LINE
  5
3DB
100
AcDbEntity
  8
0
100
AcDbLine
 62
7
  6
CONTINUOUS
 10
89.0221583478
 20
229.0318867968
 11
80.7417583478
 21
229.0318867968
  0
LINE
  5
3DC
100
AcDbEntity
  8
0
100
AcDbLine
 62
7
  6
CONTINUOUS
 10
78.5573583478
 20
229.0318867968
 11
73.2741583478
 21
229.0318867968
  0
LINE
  5
3DD
100
AcDbEntity
  8
0
100
AcDbLine
 62
7
  6
CONTINUOUS
 10
89.0221583478
 20
229.2948469466
 11
80.7417583478
 21
229.2948469466
  0
LINE
  5
3DE
100
AcDbEntity
  8
0
100
AcDbLine
 62
7
  6
CONTINUOUS
 10
78.5573583478
 20
229.2948469466
 11
73.2741583478
 21
229.2948469466
  0
LINE
  5
3DF
100
AcDbEntity
  8
0
100
AcDbLine
 62
7
  6
CONTINUOUS
 10
71.4199583478
 20
229.3937208259
 11
69.7626083478
 21
229.3937208259
  0
LINE
  5
3E0
100
AcDbEntity
  8
0
100
AcDbLine
 62
7
  6
CONTINUOUS
 10
61.0123083478
 20
229.3937208259
 11
59.3676583478
 21
229.3937208259
  0
LINE
  5
3E1
100
AcDbEntity
  8
0
100
AcDbLine
 62
7
  6
CONTINUOUS
 10
187.9869083479
 20
229.422182322
 11
184.6595083479
 21
229.422182322
  0
LINE
  5
3E2
100
AcDbEntity
  8
0
100
AcDbLine
 62
7
  6
CONTINUOUS
 10
287.4407353479
 20
229.4339877548
 11
271.6926083479
 21
229.4339877548
  0
LINE
  5
3E3
100
AcDbEntity
  8
0
100
AcDbLine
 62
7
  6
CONTINUOUS
 10
89.0221583478
 20
230.1227869464
 11
80.7417583478
 21
230.1227869464
  0
LINE
  5
3E4
100
AcDbEntity
  8
0
100
AcDbLine
 62
7
  6
CONTINUOUS
 10
78.5573583478
 20
230.1227869464
 11
73.2741583478
 21
230.1227869464
  0
LINE
  5
3E5
100
AcDbEntity
  8
0
100
AcDbLine
 62
7
  6
CONTINUOUS
 10
196.3435083479
 20
230.2349949853
 11
187.9869083479
 21
230.234982322
  0
LINE
  5
3E6
100
AcDbEntity
  8
0
100
AcDbLine
 62
7
  6
CONTINUOUS
 10
71.4199583478
 20
230.7018208259
 11
59.3676583478
 21
230.7018208259
  0
LINE
  5
3E7
100
AcDbEntity
  8
0
100
AcDbLine
 62
7
  6
CONTINUOUS
 10
263.3233217711
 20
230.7801778498
 11
299.4548217711
 21
230.7801778498
  0
LINE
  5
3E8
100
AcDbEntity
  8
0
100
AcDbLine
 62
7
  6
CONTINUOUS
 10
89.0221583478
 20
230.9637467964
 11
80.7417583478
 21
230.9637467964
  0
LINE
  5
3E9
100
AcDbEntity
  8
0
100
AcDbLine
 62
7
  6
CONTINUOUS
 10
78.5573583478
 20
230.9637467964
 11
73.2741583478
 21
230.9637467964
  0
LINE
  5
3EA
100
AcDbEntity
  8
0
100
AcDbLine
 62
7
  6
CONTINUOUS
 10
261.1833463711
 20
231.2119872358
 11
289.1233463711
 21
231.2119872358
  0
LINE
  5
3EB
100
AcDbEntity
  8
0
100
AcDbLine
 62
7
  6
CONTINUOUS
 10
66.1375711478
 20
231.3368208259
 11
64.6373341505
 21
231.3368208259
  0
LINE
  5
3EC
100
AcDbEntity
  8
0
100
AcDbLine
 62
7
  6
CONTINUOUS
 10
292.0443463711
 20
232.3041872358
 11
261.1833463711
 21
232.3041872358
  0
LINE
  5
3ED
100
AcDbEntity
  8
0
100
AcDbLine
 62
7
  6
CONTINUOUS
 10
295.7527463711
 20
232.5327872358
 11
292.0443463711
 21
232.5327872358
  0
LINE
  5
3EE
100
AcDbEntity
  8
0
100
AcDbLine
 62
7
  6
CONTINUOUS
 10
295.7527463711
 20
232.5327872358
 11
311.8563463711
 21
232.5327872358
  0
LINE
  5
3EF
100
AcDbEntity
  8
0
100
AcDbLine
 62
7
  6
CONTINUOUS
 10
69.7626083478
 20
232.6068208259
 11
66.1375711478
 21
232.6068208259
  0
LINE
  5
3F0
100
AcDbEntity
  8
0
100
AcDbLine
 62
7
  6
CONTINUOUS
 10
64.6373341505
 20
232.6068208259
 11
61.0123083478
 21
232.6068208259
  0
LINE
  5
3F1
100
AcDbEntity
  8
0
100
AcDbLine
 62
7
  6
CONTINUOUS
 10
297.0227463711
 20
232.8121872358
 11
278.5823463711
 21
232.8121872358
  0
LINE
  5
3F2
100
AcDbEntity
  8
0
100
AcDbLine
 62
7
  6
CONTINUOUS
 10
196.3435083479
 20
233.5715771654
 11
187.9869083479
 21
233.5715703252
  0
LINE
  5
3F3
100
AcDbEntity
  8
0
100
AcDbLine
 62
7
  6
CONTINUOUS
 10
230.0216081048
 20
233.8768208259
 11
225.2383085908
 21
233.8768208259
  0
LINE
  5
3F4
100
AcDbEntity
  8
0
100
AcDbLine
 62
7
  6
CONTINUOUS
 10
170.7126081048
 20
233.8768208259
 11
165.9293085908
 21
233.8768208259
  0
LINE
  5
3F5
100
AcDbEntity
  8
0
100
AcDbLine
 62
7
  6
CONTINUOUS
 10
295.8543463711
 20
234.2345872358
 11
263.3423463711
 21
234.2345872358
  0
LINE
  5
3F6
100
AcDbEntity
  8
0
100
AcDbLine
 62
7
  6
CONTINUOUS
 10
295.8543463711
 20
234.2345872358
 11
311.8563463711
 21
234.2345872357
  0
LINE
  5
3F7
100
AcDbEntity
  8
0
100
AcDbLine
 62
7
  6
CONTINUOUS
 10
225.6042963711
 20
234.3361872358
 11
228.1442963711
 21
234.3361872358
  0
LINE
  5
3F8
100
AcDbEntity
  8
0
100
AcDbLine
 62
7
  6
CONTINUOUS
 10
185.4469083479
 20
234.6683931998
 11
183.9228963711
 21
234.6790778498
  0
LINE
  5
3F9
100
AcDbEntity
  8
0
100
AcDbLine
 62
7
  6
CONTINUOUS
 10
228.0617583478
 20
234.7658208259
 11
227.1981583478
 21
234.7658208259
  0
LINE
  5
3FA
100
AcDbEntity
  8
0
100
AcDbLine
 62
7
  6
CONTINUOUS
 10
223.9426757569
 20
221.9407522968
 11
221.2875525449
 21
222.1921677489
  0
LINE
  5
3FB
100
AcDbEntity
  8
0
100
AcDbLine
 62
7
  6
CONTINUOUS
 10
218.3743796533
 20
223.3208759269
 11
224.6164168901
 21
221.701056438
  0
LINE
  5
3FC
100
AcDbEntity
  8
0
100
AcDbLine
 62
7
  6
CONTINUOUS
 10
169.955680279
 20
198.8214559143
 11
170.1888114912
 21
197.606192741
  0
LINE
  5
3FD
100
AcDbEntity
  8
0
100
AcDbLine
 62
7
  6
CONTINUOUS
 10
167.7748583478
 20
181.8693048259
 11
167.4319583478
 21
184.9173048259
  0
LINE
  5
3FE
100
AcDbEntity
  8
0
100
AcDbLine
 62
7
  6
CONTINUOUS
 10
167.2286034755
 20
185.7819208259
 11
167.2286034755
 21
183.3435208259
  0
LINE
  5
3FF
100
AcDbEntity
  8
0
100
AcDbLine
 62
7
  6
CONTINUOUS
 10
167.4319583478
 20
194.1883048259
 11
167.4319583478
 21
184.9173048259
  0
LINE
  5
400
100
AcDbEntity
  8
0
100
AcDbLine
 62
7
  6
CONTINUOUS
 10
167.4828684128
 20
195.8520048259
 11
167.4828684128
 21
197.043160263
  0
LINE
  5
401
100
AcDbEntity
  8
0
100
AcDbLine
 62
7
  6
CONTINUOUS
 10
168.1123873449
 20
195.6488048259
 11
168.1123873449
 21
197.4268048259
  0
LINE
  5
402
100
AcDbEntity
  8
0
100
AcDbLine
 62
7
  6
CONTINUOUS
 10
168.2548583275
 20
197.4268048259
 11
168.2548583275
 21
195.6488048259
  0
LINE
  5
403
100
AcDbEntity
  8
0
100
AcDbLine
 62
7
  6
CONTINUOUS
 10
168.3209583391
 20
252.1013208259
 11
168.3209583395
 21
251.3393208259
  0
LINE
  5
404
100
AcDbEntity
  8
0
100
AcDbLine
 62
7
  6
CONTINUOUS
 10
168.3209583366
 20
222.8913208259
 11
168.3209583359
 21
222.1293208259
  0
LINE
  5
405
100
AcDbEntity
  8
0
100
AcDbLine
 62
7
  6
CONTINUOUS
 10
168.3209583017
 20
221.1193024754
 11
168.3209583039
 21
221.8813024754
  0
LINE
  5
406
100
AcDbEntity
  8
0
100
AcDbLine
 62
7
  6
CONTINUOUS
 10
168.3209583385
 20
252.3493391764
 11
168.3209583381
 21
253.1113391764
  0
LINE
  5
407
100
AcDbEntity
  8
0
100
AcDbLine
 62
7
  6
CONTINUOUS
 10
168.5821759788
 20
195.8520048259
 11
168.5821759788
 21
197.043160263
  0
LINE
  5
408
100
AcDbEntity
  8
0
100
AcDbLine
 62
7
  6
CONTINUOUS
 10
168.7885388706
 20
197.4268048259
 11
168.7885388706
 21
195.8520048259
  0
LINE
  5
409
100
AcDbEntity
  8
0
100
AcDbLine
 62
7
  6
CONTINUOUS
 10
168.8320282592
 20
195.6488048259
 11
168.8362018743
 21
197.4268048259
  0
LINE
  5
40A
100
AcDbEntity
  8
0
100
AcDbLine
 62
7
  6
CONTINUOUS
 10
168.9039958854
 20
195.6488048259
 11
168.9071609459
 21
197.4268048259
  0
LINE
  5
40B
100
AcDbEntity
  8
0
100
AcDbLine
 62
7
  6
CONTINUOUS
 10
169.265310616
 20
197.4268048259
 11
169.265310616
 21
195.6488048259
  0
LINE
  5
40C
100
AcDbEntity
  8
0
100
AcDbLine
 62
7
  6
CONTINUOUS
 10
169.8020577316
 20
195.8520048259
 11
169.8020577316
 21
197.4268048259
  0
LINE
  5
40D
100
AcDbEntity
  8
0
100
AcDbLine
 62
7
  6
CONTINUOUS
 10
169.887858964
 20
195.8520048259
 11
169.887858964
 21
197.4268048259
  0
LINE
  5
40E
100
AcDbEntity
  8
0
100
AcDbLine
 62
7
  6
CONTINUOUS
 10
170.4244057647
 20
195.6488048259
 11
170.4244057647
 21
195.8520048259
  0
LINE
  5
40F
100
AcDbEntity
  8
0
100
AcDbLine
 62
7
  6
CONTINUOUS
 10
170.4244057647
 20
195.8520048259
 11
170.4246060796
 21
197.4268048259
  0
LINE
  5
410
100
AcDbEntity
  8
0
100
AcDbLine
 62
7
  6
CONTINUOUS
 10
170.6274341583
 20
197.4268048259
 11
170.6274341583
 21
195.6488048259
  0
LINE
  5
411
100
AcDbEntity
  8
0
100
AcDbLine
 62
7
  6
CONTINUOUS
 10
170.7827557496
 20
195.6488048259
 11
170.7827557496
 21
197.4268048259
  0
LINE
  5
412
100
AcDbEntity
  8
0
100
AcDbLine
 62
7
  6
CONTINUOUS
 10
170.8537148213
 20
195.6488048259
 11
170.8537148213
 21
197.4268048259
  0
LINE
  5
413
100
AcDbEntity
  8
0
100
AcDbLine
 62
7
  6
CONTINUOUS
 10
170.901377825
 20
197.4268048259
 11
170.901377825
 21
195.8520048259
  0
LINE
  5
414
100
AcDbEntity
  8
0
100
AcDbLine
 62
7
  6
CONTINUOUS
 10
171.1077407168
 20
195.8520048259
 11
171.1077407168
 21
197.043160263
  0
LINE
  5
415
100
AcDbEntity
  8
0
100
AcDbLine
 62
7
  6
CONTINUOUS
 10
171.3945132201
 20
185.7819208259
 11
171.3945132201
 21
183.3435208259
  0
LINE
  5
416
100
AcDbEntity
  8
0
100
AcDbLine
 62
7
  6
CONTINUOUS
 10
171.4350583681
 20
197.4268048259
 11
171.4350583681
 21
195.6488048259
  0
LINE
  5
417
100
AcDbEntity
  8
0
100
AcDbLine
 62
7
  6
CONTINUOUS
 10
172.1055583478
 20
183.3435208259
 11
172.1055583478
 21
180.9051208259
  0
LINE
  5
418
100
AcDbEntity
  8
0
100
AcDbLine
 62
7
  6
CONTINUOUS
 10
172.2070482828
 20
197.043160263
 11
172.2070482828
 21
195.8520048259
  0
LINE
  5
419
100
AcDbEntity
  8
0
100
AcDbLine
 62
7
  6
CONTINUOUS
 10
172.2579583478
 20
194.1883048259
 11
172.2579583478
 21
184.9173048259
  0
LINE
  5
41A
100
AcDbEntity
  8
0
100
AcDbLine
 62
7
  6
CONTINUOUS
 10
173.6295583478
 20
187.9145048259
 11
173.6295583478
 21
185.4761048259
  0
LINE
  5
41B
100
AcDbEntity
  8
0
100
AcDbLine
 62
7
  6
CONTINUOUS
 10
174.1375583477
 20
185.7819208259
 11
174.1375583477
 21
183.3435208259
  0
LINE
  5
41C
100
AcDbEntity
  8
0
100
AcDbLine
 62
7
  6
CONTINUOUS
 10
174.4804583478
 20
194.1883048259
 11
174.4804583478
 21
195.7123048259
  0
LINE
  5
41D
100
AcDbEntity
  8
0
100
AcDbLine
 62
7
  6
CONTINUOUS
 10
175.1535583478
 20
187.9145048259
 11
175.1535583478
 21
185.4761048259
  0
LINE
  5
41E
100
AcDbEntity
  8
0
100
AcDbLine
 62
7
  6
CONTINUOUS
 10
175.3503963711
 20
254.0212126358
 11
175.3503963711
 21
186.6201536358
  0
LINE
  5
41F
100
AcDbEntity
  8
0
100
AcDbLine
 62
7
  6
CONTINUOUS
 10
175.6615583478
 20
183.3435208259
 11
175.6615583478
 21
180.9051208259
  0
LINE
  5
420
100
AcDbEntity
  8
0
100
AcDbLine
 62
7
  6
CONTINUOUS
 10
176.3219583479
 20
186.6201536358
 11
176.3219583479
 21
190.4322872358
  0
LINE
  5
421
100
AcDbEntity
  8
0
100
AcDbLine
 62
7
  6
CONTINUOUS
 10
170.0565589733
 20
206.4221063635
 11
169.8599861683
 21
205.2003969566
  0
LINE
  5
422
100
AcDbEntity
  8
0
100
AcDbLine
 62
7
  6
CONTINUOUS
 10
179.1603963711
 20
257.8312126358
 11
175.3503963711
 21
254.0212126358
  0
LINE
  5
423
100
AcDbEntity
  8
0
100
AcDbLine
 62
7
  6
CONTINUOUS
 10
285.7705463711
 20
235.5553872358
 11
248.0769463711
 21
235.5553872358
  0
LINE
  5
424
100
AcDbEntity
  8
0
100
AcDbLine
 62
7
  6
CONTINUOUS
 10
295.8543463711
 20
235.6569872358
 11
263.3423463711
 21
235.6569872358
  0
LINE
  5
425
100
AcDbEntity
  8
0
100
AcDbLine
 62
7
  6
CONTINUOUS
 10
209.9959963711
 20
235.6569936801
 11
208.0147963711
 21
235.6569936801
  0
LINE
  5
426
100
AcDbEntity
  8
0
100
AcDbLine
 62
7
  6
CONTINUOUS
 10
268.0159463711
 20
236.0379872358
 11
278.5823463711
 21
236.0379872358
  0
LINE
  5
427
100
AcDbEntity
  8
0
100
AcDbLine
 62
7
  6
CONTINUOUS
 10
228.1442963711
 20
236.6221872358
 11
225.6042963711
 21
236.6221872358
  0
LINE
  5
428
100
AcDbEntity
  8
0
100
AcDbLine
 62
7
  6
CONTINUOUS
 10
225.2804583478
 20
236.6835208259
 11
226.4361583478
 21
236.6835208259
  0
LINE
  5
429
100
AcDbEntity
  8
0
100
AcDbLine
 62
7
  6
CONTINUOUS
 10
228.8237583478
 20
236.6835208259
 11
229.9794583478
 21
236.6835208259
  0
LINE
  5
42A
100
AcDbEntity
  8
0
100
AcDbLine
 62
7
  6
CONTINUOUS
 10
263.5963463711
 20
236.7745872357
 11
311.8563463711
 21
236.7745872357
  0
LINE
  5
42B
100
AcDbEntity
  8
0
100
AcDbLine
 62
7
  6
CONTINUOUS
 10
229.9794583478
 20
237.5471208259
 11
228.8237583478
 21
237.5471208259
  0
LINE
  5
42C
100
AcDbEntity
  8
0
100
AcDbLine
 62
7
  6
CONTINUOUS
 10
226.4361583478
 20
237.5471208259
 11
225.2804583478
 21
237.5471208259
  0
LINE
  5
42D
100
AcDbEntity
  8
0
100
AcDbLine
 62
7
  6
CONTINUOUS
 10
191.5175083479
 20
237.8901099174
 11
184.6595083479
 21
237.8901099174
  0
LINE
  5
42E
100
AcDbEntity
  8
0
100
AcDbLine
 62
7
  6
CONTINUOUS
 10
295.8543463711
 20
238.6795872358
 11
263.3423463711
 21
238.6795872358
  0
LINE
  5
42F
100
AcDbEntity
  8
0
100
AcDbLine
 62
7
  6
CONTINUOUS
 10
295.8543463711
 20
238.6795872358
 11
311.8563463711
 21
238.6795872357
  0
LINE
  5
430
100
AcDbEntity
  8
0
100
AcDbLine
 62
7
  6
CONTINUOUS
 10
209.9959963711
 20
239.2129936801
 11
208.0147963711
 21
239.2129936801
  0
LINE
  5
431
100
AcDbEntity
  8
0
100
AcDbLine
 62
7
  6
CONTINUOUS
 10
58.9104547601
 20
239.2362208259
 11
50.9475583478
 21
239.2362208259
  0
LINE
  5
432
100
AcDbEntity
  8
0
100
AcDbLine
 62
7
  6
CONTINUOUS
 10
103.5890583478
 20
239.2489208259
 11
110.4597583478
 21
239.2489208259
  0
LINE
  5
433
100
AcDbEntity
  8
0
100
AcDbLine
 62
7
  6
CONTINUOUS
 10
228.0617583478
 20
239.4648208259
 11
227.1981583478
 21
239.4648208259
  0
LINE
  5
434
100
AcDbEntity
  8
0
100
AcDbLine
 62
7
  6
CONTINUOUS
 10
213.7551963711
 20
239.5174316358
 11
209.9959963711
 21
239.5174316358
  0
LINE
  5
435
100
AcDbEntity
  8
0
100
AcDbLine
 62
7
  6
CONTINUOUS
 10
208.0147963711
 20
239.5174316358
 11
197.8801963711
 21
239.5174316358
  0
LINE
  5
436
100
AcDbEntity
  8
0
100
AcDbLine
 62
7
  6
CONTINUOUS
 10
197.8801963711
 20
239.9106358472
 11
212.9042963711
 21
239.9106358472
  0
LINE
  5
437
100
AcDbEntity
  8
0
100
AcDbLine
 62
7
  6
CONTINUOUS
 10
80.7417583478
 20
239.9220208259
 11
78.5573583478
 21
239.9220208259
  0
LINE
  5
438
100
AcDbEntity
  8
0
100
AcDbLine
 62
7
  6
CONTINUOUS
 10
212.9042963711
 20
239.9550609358
 11
197.8801963711
 21
239.9550609358
  0
LINE
  5
439
100
AcDbEntity
  8
0
100
AcDbLine
 62
7
  6
CONTINUOUS
 10
213.7551963711
 20
240.0053342031
 11
209.9959963711
 21
240.0053342031
  0
LINE
  5
43A
100
AcDbEntity
  8
0
100
AcDbLine
 62
7
  6
CONTINUOUS
 10
208.0147963711
 20
240.0053342031
 11
197.8801963711
 21
240.0053342031
  0
LINE
  5
43B
100
AcDbEntity
  8
0
100
AcDbLine
 62
7
  6
CONTINUOUS
 10
295.8543463711
 20
240.1019872358
 11
263.3423463711
 21
240.1019872358
  0
LINE
  5
43C
100
AcDbEntity
  8
0
100
AcDbLine
 62
7
  6
CONTINUOUS
 10
213.7551963711
 20
240.2516677364
 11
209.9959963711
 21
240.2516677364
  0
LINE
  5
43D
100
AcDbEntity
  8
0
100
AcDbLine
 62
7
  6
CONTINUOUS
 10
208.0147963711
 20
240.2516677364
 11
197.8801963711
 21
240.2516677364
  0
LINE
  5
43E
100
AcDbEntity
  8
0
100
AcDbLine
 62
7
  6
CONTINUOUS
 10
165.9293085908
 20
240.3538208259
 11
170.7126081047
 21
240.3538208259
  0
LINE
  5
43F
100
AcDbEntity
  8
0
100
AcDbLine
 62
7
  6
CONTINUOUS
 10
225.2383085908
 20
240.3538208259
 11
230.0216081048
 21
240.3538208259
  0
LINE
  5
440
100
AcDbEntity
  8
0
100
AcDbLine
 62
7
  6
CONTINUOUS
 10
96.4389583478
 20
240.4681208259
 11
94.3434547601
 21
240.4681208259
  0
LINE
  5
441
100
AcDbEntity
  8
0
100
AcDbLine
 62
7
  6
CONTINUOUS
 10
263.5963463711
 20
241.0925872357
 11
311.8563463711
 21
241.0925872357
  0
LINE
  5
442
100
AcDbEntity
  8
0
100
AcDbLine
 62
7
  6
CONTINUOUS
 10
67.1019583478
 20
241.2682208259
 11
86.1519583478
 21
241.2682208259
  0
LINE
  5
443
100
AcDbEntity
  8
0
100
AcDbLine
 62
7
  6
CONTINUOUS
 10
197.8801963711
 20
241.4092104472
 11
212.9042963711
 21
241.4092104472
  0
LINE
  5
444
100
AcDbEntity
  8
0
100
AcDbLine
 62
7
  6
CONTINUOUS
 10
212.9042963711
 20
241.4536355358
 11
197.8801963711
 21
241.4536355358
  0
LINE
  5
445
100
AcDbEntity
  8
0
100
AcDbLine
 62
7
  6
CONTINUOUS
 10
213.7551963711
 20
241.9767358358
 11
209.9959963711
 21
241.9767358358
  0
LINE
  5
446
100
AcDbEntity
  8
0
100
AcDbLine
 62
7
  6
CONTINUOUS
 10
208.0147963711
 20
241.9767358358
 11
197.8801963711
 21
241.9767358358
  0
LINE
  5
447
100
AcDbEntity
  8
0
100
AcDbLine
 62
7
  6
CONTINUOUS
 10
223.3212487454
 20
242.1485668358
 11
232.9673439968
 21
242.1485668358
  0
LINE
  5
448
100
AcDbEntity
  8
0
100
AcDbLine
 62
7
  6
CONTINUOUS
 10
196.3435083479
 20
242.4426922316
 11
191.5175083479
 21
242.4426922316
  0
LINE
  5
449
100
AcDbEntity
  8
0
100
AcDbLine
 62
7
  6
CONTINUOUS
 10
232.4622963711
 20
242.6873718685
 11
223.8262963711
 21
242.6873718685
  0
LINE
  5
44A
100
AcDbEntity
  8
0
100
AcDbLine
 62
7
  6
CONTINUOUS
 10
295.8543463711
 20
242.9975872358
 11
263.3423463711
 21
242.9975872358
  0
LINE
  5
44B
100
AcDbEntity
  8
0
100
AcDbLine
 62
7
  6
CONTINUOUS
 10
295.8543463711
 20
242.9975872358
 11
311.8563463711
 21
242.9975872357
  0
LINE
  5
44C
100
AcDbEntity
  8
0
100
AcDbLine
 62
7
  6
CONTINUOUS
 10
240.8125463711
 20
243.0483872358
 11
244.6225463711
 21
243.0483872358
  0
LINE
  5
44D
100
AcDbEntity
  8
0
100
AcDbLine
 62
7
  6
CONTINUOUS
 10
232.4622963711
 20
243.0610975703
 11
223.8262963711
 21
243.0610975703
  0
LINE
  5
44E
100
AcDbEntity
  8
0
100
AcDbLine
 62
7
  6
CONTINUOUS
 10
223.8262963711
 20
243.8009236276
 11
232.4622963711
 21
243.8009236276
  0
LINE
  5
44F
100
AcDbEntity
  8
0
100
AcDbLine
 62
7
  6
CONTINUOUS
 10
223.8262963711
 20
244.1746135944
 11
232.4622963711
 21
244.1746135944
  0
LINE
  5
450
100
AcDbEntity
  8
0
100
AcDbLine
 62
7
  6
CONTINUOUS
 10
80.7417583478
 20
244.2908208259
 11
78.5573583478
 21
244.2908208259
  0
LINE
  5
451
100
AcDbEntity
  8
0
100
AcDbLine
 62
7
  6
CONTINUOUS
 10
295.8543463711
 20
244.4199872358
 11
263.3423463711
 21
244.4199872358
  0
LINE
  5
452
100
AcDbEntity
  8
0
100
AcDbLine
 62
7
  6
CONTINUOUS
 10
244.7749583479
 20
245.1311872358
 11
240.6601583479
 21
245.1311872358
  0
LINE
  5
453
100
AcDbEntity
  8
0
100
AcDbLine
 62
7
  6
CONTINUOUS
 10
246.1529083479
 20
245.1311872358
 11
244.7749583479
 21
245.1311872358
  0
LINE
  5
454
100
AcDbEntity
  8
0
100
AcDbLine
 62
7
  6
CONTINUOUS
 10
240.6601583479
 20
245.1311872358
 11
238.2725583479
 21
245.1311872358
  0
LINE
  5
455
100
AcDbEntity
  8
0
100
AcDbLine
 62
7
  6
CONTINUOUS
 10
225.216896559
 20
235.3974161623
 11
222.5617733471
 21
235.6488316143
  0
LINE
  5
456
100
AcDbEntity
  8
0
100
AcDbLine
 62
7
  6
CONTINUOUS
 10
254.3284967756
 20
221.2726733877
 11
238.3273824352
 21
225.4249903105
  0
LINE
  5
457
100
AcDbEntity
  8
0
100
AcDbLine
 62
7
  6
CONTINUOUS
 10
224.4239385755
 20
230.1361093638
 11
220.5339330525
 21
231.1455725437
  0
LINE
  5
458
100
AcDbEntity
  8
0
100
AcDbLine
 62
7
  6
CONTINUOUS
 10
255.1259998531
 20
224.3458824338
 11
246.835041736
 21
226.4974004446
  0
LINE
  5
459
100
AcDbEntity
  8
0
100
AcDbLine
 62
7
  6
CONTINUOUS
 10
246.835041736
 20
226.4974004446
 11
240.4654725425
 21
228.1503146974
  0
LINE
  5
45A
100
AcDbEntity
  8
0
100
AcDbLine
 62
7
  6
CONTINUOUS
 10
227.1936342411
 20
231.6324296394
 11
255.1352508888
 21
224.3815316588
  0
LINE
  5
45B
100
AcDbEntity
  8
0
100
AcDbLine
 62
7
  6
CONTINUOUS
 10
226.1063593103
 20
228.0004898703
 11
253.5285662693
 21
220.6527342258
  0
LINE
  5
45C
100
AcDbEntity
  8
0
100
AcDbLine
 62
7
  6
CONTINUOUS
 10
272.7783592528
 20
215.4947695419
 11
284.9891990577
 21
212.2228860193
  0
LINE
  5
45D
100
AcDbEntity
  8
0
100
AcDbLine
 62
7
  6
CONTINUOUS
 10
285.3047511348
 20
213.4005428143
 11
272.0327312157
 21
216.9567685922
  0
LINE
  5
45E
100
AcDbEntity
  8
0
100
AcDbLine
 62
7
  6
CONTINUOUS
 10
254.9052984604
 20
221.5460487654
 11
222.3565782694
 21
230.2674490109
  0
LINE
  5
45F
100
AcDbEntity
  8
0
100
AcDbLine
 62
7
  6
CONTINUOUS
 10
177.1093583478
 20
185.4761048259
 11
177.1093583478
 21
188.6765048259
  0
LINE
  5
460
100
AcDbEntity
  8
0
100
AcDbLine
 62
7
  6
CONTINUOUS
 10
177.1855583477
 20
185.7819208259
 11
177.1855583478
 21
180.9051208259
  0
LINE
  5
461
100
AcDbEntity
  8
0
100
AcDbLine
 62
7
  6
CONTINUOUS
 10
178.7091728519
 20
180.9051208259
 11
178.7091728519
 21
183.3435208259
  0
LINE
  5
462
100
AcDbEntity
  8
0
100
AcDbLine
 62
7
  6
CONTINUOUS
 10
179.2175583478
 20
187.9145048259
 11
179.2175583478
 21
185.4761048259
  0
LINE
  5
463
100
AcDbEntity
  8
0
100
AcDbLine
 62
7
  6
CONTINUOUS
 10
179.2175583478
 20
183.3435208259
 11
179.2175583478
 21
180.9051208259
  0
LINE
  5
464
100
AcDbEntity
  8
0
100
AcDbLine
 62
7
  6
CONTINUOUS
 10
179.5223583478
 20
188.6765048259
 11
179.5223583478
 21
186.2381048259
  0
LINE
  5
465
100
AcDbEntity
  8
0
100
AcDbLine
 62
7
  6
CONTINUOUS
 10
180.2818277694
 20
183.3435208259
 11
180.2818277694
 21
180.9051208259
  0
LINE
  5
466
100
AcDbEntity
  8
0
100
AcDbLine
 62
7
  6
CONTINUOUS
 10
180.6793676728
 20
182.5053208259
 11
180.6793676728
 21
183.7245208259
  0
LINE
  5
467
100
AcDbEntity
  8
0
100
AcDbLine
 62
7
  6
CONTINUOUS
 10
180.7415583478
 20
187.9145048259
 11
180.7415583478
 21
183.251691037
  0
LINE
  5
468
100
AcDbEntity
  8
0
100
AcDbLine
 62
7
  6
CONTINUOUS
 10
181.0018963711
 20
187.9145048259
 11
181.0018963711
 21
217.5105848259
  0
LINE
  5
469
100
AcDbEntity
  8
0
100
AcDbLine
 62
7
  6
CONTINUOUS
 10
181.9353583478
 20
185.4761048259
 11
181.9353583478
 21
188.6765048259
  0
LINE
  5
46A
100
AcDbEntity
  8
0
100
AcDbLine
 62
7
  6
CONTINUOUS
 10
182.7227583479
 20
186.6201536358
 11
182.7227583479
 21
190.4322872358
  0
LINE
  5
46B
100
AcDbEntity
  8
0
100
AcDbLine
 62
7
  6
CONTINUOUS
 10
183.9228963711
 20
187.915557205
 11
183.9228963711
 21
186.6222872358
  0
LINE
  5
46C
100
AcDbEntity
  8
0
100
AcDbLine
 62
7
  6
CONTINUOUS
 10
183.9228963711
 20
187.915557205
 11
183.9228963711
 21
251.5827778498
  0
LINE
  5
46D
100
AcDbEntity
  8
0
100
AcDbLine
 62
7
  6
CONTINUOUS
 10
184.6595083479
 20
237.8901099174
 11
184.6595083479
 21
227.415582322
  0
LINE
  5
46E
100
AcDbEntity
  8
0
100
AcDbLine
 62
7
  6
CONTINUOUS
 10
185.4469083479
 20
196.8190465174
 11
185.4469083479
 21
193.0998158777
  0
LINE
  5
46F
100
AcDbEntity
  8
0
100
AcDbLine
 62
7
  6
CONTINUOUS
 10
185.4469083479
 20
197.4182025945
 11
185.4469083479
 21
213.1950391714
  0
LINE
  5
470
100
AcDbEntity
  8
0
100
AcDbLine
 62
7
  6
CONTINUOUS
 10
185.4469083479
 20
213.1950391714
 11
185.4469083479
 21
234.6790778498
  0
LINE
  5
471
100
AcDbEntity
  8
0
100
AcDbLine
 62
7
  6
CONTINUOUS
 10
185.4469083479
 20
196.8190465174
 11
185.4469083479
 21
197.4182025945
  0
LINE
  5
472
100
AcDbEntity
  8
0
100
AcDbLine
 62
7
  6
CONTINUOUS
 10
171.9150583478
 20
181.8693048259
 11
172.2579583478
 21
184.9173048259
  0
LINE
  5
473
100
AcDbEntity
  8
0
100
AcDbLine
 62
7
  6
CONTINUOUS
 10
213.9045342226
 20
306.8757035807
 11
202.3728590269
 21
286.9022592329
  0
LINE
  5
474
100
AcDbEntity
  8
0
100
AcDbLine
 62
7
  6
CONTINUOUS
 10
206.5523313044
 20
284.4893175663
 11
218.0839728213
 21
304.4627035807
  0
LINE
  5
475
100
AcDbEntity
  8
0
100
AcDbLine
 62
7
  6
CONTINUOUS
 10
165.4246777214
 20
207.0036270254
 11
162.5283995961
 21
201.987127314
  0
LINE
  5
476
100
AcDbEntity
  8
0
100
AcDbLine
 62
7
  6
CONTINUOUS
 10
231.1406522407
 20
275.1527248065
 11
223.3375528799
 21
270.4901613712
  0
LINE
  5
477
100
AcDbEntity
  8
0
100
AcDbLine
 62
7
  6
CONTINUOUS
 10
224.026235062
 20
269.2949025038
 11
231.9194019495
 21
273.8520410177
  0
LINE
  5
478
100
AcDbEntity
  8
0
100
AcDbLine
 62
7
  6
CONTINUOUS
 10
263.5963463711
 20
245.4105872357
 11
311.8563463711
 21
245.4105872357
  0
LINE
  5
479
100
AcDbEntity
  8
0
100
AcDbLine
 62
7
  6
CONTINUOUS
 10
89.0221583478
 20
245.9288308686
 11
80.7417583478
 21
245.9288308686
  0
LINE
  5
47A
100
AcDbEntity
  8
0
100
AcDbLine
 62
7
  6
CONTINUOUS
 10
78.5573583478
 20
245.9288308686
 11
73.2741583478
 21
245.9288308686
  0
LINE
  5
47B
100
AcDbEntity
  8
0
100
AcDbLine
 62
7
  6
CONTINUOUS
 10
78.5573583478
 20
245.9288308686
 11
80.7417583478
 21
245.9288308686
  0
LINE
  5
47C
100
AcDbEntity
  8
0
100
AcDbLine
 62
7
  6
CONTINUOUS
 10
245.7147583478
 20
246.0053208259
 11
263.4947583478
 21
246.0053208259
  0
LINE
  5
47D
100
AcDbEntity
  8
0
100
AcDbLine
 62
7
  6
CONTINUOUS
 10
73.5281442365
 20
246.8949227066
 11
87.9640959478
 21
246.8949227066
  0
LINE
  5
47E
100
AcDbEntity
  8
0
100
AcDbLine
 62
7
  6
CONTINUOUS
 10
89.0221583478
 20
246.9393855927
 11
73.2741583478
 21
246.9393855927
  0
LINE
  5
47F
100
AcDbEntity
  8
0
100
AcDbLine
 62
7
  6
CONTINUOUS
 10
88.5141583478
 20
246.9959208259
 11
73.5281583478
 21
246.9959208259
  0
LINE
  5
480
100
AcDbEntity
  8
0
100
AcDbLine
 62
7
  6
CONTINUOUS
 10
89.0221583478
 20
247.1822941335
 11
80.7417583478
 21
247.1822941335
  0
LINE
  5
481
100
AcDbEntity
  8
0
100
AcDbLine
 62
7
  6
CONTINUOUS
 10
78.5573583478
 20
247.1822941335
 11
73.2741583478
 21
247.1822941335
  0
LINE
  5
482
100
AcDbEntity
  8
0
100
AcDbLine
 62
7
  6
CONTINUOUS
 10
295.8543463711
 20
247.3155872358
 11
263.3423463711
 21
247.3155872358
  0
LINE
  5
483
100
AcDbEntity
  8
0
100
AcDbLine
 62
7
  6
CONTINUOUS
 10
295.8543463711
 20
247.3155872358
 11
311.8563463711
 21
247.3155872357
  0
LINE
  5
484
100
AcDbEntity
  8
0
100
AcDbLine
 62
7
  6
CONTINUOUS
 10
73.2741583478
 20
247.565375592
 11
78.5573583478
 21
247.565375592
  0
LINE
  5
485
100
AcDbEntity
  8
0
100
AcDbLine
 62
7
  6
CONTINUOUS
 10
80.7417583478
 20
247.565375592
 11
89.0221583478
 21
247.565375592
  0
LINE
  5
486
100
AcDbEntity
  8
0
100
AcDbLine
 62
7
  6
CONTINUOUS
 10
224.8867583478
 20
248.2913208259
 11
263.4947583478
 21
248.2913208259
  0
LINE
  5
487
100
AcDbEntity
  8
0
100
AcDbLine
 62
7
  6
CONTINUOUS
 10
295.8543463711
 20
248.7379872358
 11
263.3423463711
 21
248.7379872358
  0
LINE
  5
488
100
AcDbEntity
  8
0
100
AcDbLine
 62
7
  6
CONTINUOUS
 10
73.5281442365
 20
248.7999227066
 11
87.9640959478
 21
248.7999227066
  0
LINE
  5
489
100
AcDbEntity
  8
0
100
AcDbLine
 62
7
  6
CONTINUOUS
 10
88.5141583478
 20
248.9009208259
 11
73.5281583478
 21
248.9009208259
  0
LINE
  5
48A
100
AcDbEntity
  8
0
100
AcDbLine
 62
7
  6
CONTINUOUS
 10
78.5573583478
 20
248.96376324
 11
80.7417583478
 21
248.96376324
  0
LINE
  5
48B
100
AcDbEntity
  8
0
100
AcDbLine
 62
7
  6
CONTINUOUS
 10
89.0221583478
 20
248.9644570506
 11
80.7417583478
 21
248.9644570506
  0
LINE
  5
48C
100
AcDbEntity
  8
0
100
AcDbLine
 62
7
  6
CONTINUOUS
 10
78.5573583478
 20
248.9644570506
 11
73.2741583478
 21
248.9644570506
  0
LINE
  5
48D
100
AcDbEntity
  8
0
100
AcDbLine
 62
7
  6
CONTINUOUS
 10
263.5963463711
 20
249.7285872357
 11
311.8563463711
 21
249.7285872357
  0
LINE
  5
48E
100
AcDbEntity
  8
0
100
AcDbLine
 62
7
  6
CONTINUOUS
 10
89.0221583478
 20
249.9804570506
 11
73.2741583478
 21
249.9804570506
  0
LINE
  5
48F
100
AcDbEntity
  8
0
100
AcDbLine
 62
7
  6
CONTINUOUS
 10
263.4947583478
 20
251.1107208259
 11
224.8867583478
 21
251.1107208259
  0
LINE
  5
490
100
AcDbEntity
  8
0
100
AcDbLine
 62
7
  6
CONTINUOUS
 10
234.5133583478
 20
251.3393208259
 11
227.6299583478
 21
251.3393208259
  0
LINE
  5
491
100
AcDbEntity
  8
0
100
AcDbLine
 62
7
  6
CONTINUOUS
 10
161.4375583478
 20
251.3393208259
 11
168.3209583309
 21
251.3393208259
  0
LINE
  5
492
100
AcDbEntity
  8
0
100
AcDbLine
 62
7
  6
CONTINUOUS
 10
295.8543463711
 20
251.6335872358
 11
263.3423463711
 21
251.6335872358
  0
LINE
  5
493
100
AcDbEntity
  8
0
100
AcDbLine
 62
7
  6
CONTINUOUS
 10
295.8543463711
 20
251.6335872358
 11
311.8563463711
 21
251.6335872356
  0
LINE
  5
494
100
AcDbEntity
  8
0
100
AcDbLine
 62
7
  6
CONTINUOUS
 10
168.3209583478
 20
252.1013208259
 11
161.4375583478
 21
252.1013208259
  0
LINE
  5
495
100
AcDbEntity
  8
0
100
AcDbLine
 62
7
  6
CONTINUOUS
 10
227.6299583656
 20
252.1013208259
 11
234.5133583478
 21
252.1013208259
  0
LINE
  5
496
100
AcDbEntity
  8
0
100
AcDbLine
 62
7
  6
CONTINUOUS
 10
234.5133583478
 20
252.3493391764
 11
227.6299583659
 21
252.3493391764
  0
LINE
  5
497
100
AcDbEntity
  8
0
100
AcDbLine
 62
7
  6
CONTINUOUS
 10
161.4375583478
 20
252.3493391764
 11
168.3209583477
 21
252.3493391764
  0
LINE
  5
498
100
AcDbEntity
  8
0
100
AcDbLine
 62
7
  6
CONTINUOUS
 10
227.6299583478
 20
252.8633208259
 11
250.7947583478
 21
252.8633208259
  0
LINE
  5
499
100
AcDbEntity
  8
0
100
AcDbLine
 62
7
  6
CONTINUOUS
 10
295.8543463711
 20
253.0559872358
 11
263.3423463711
 21
253.0559872358
  0
LINE
  5
49A
100
AcDbEntity
  8
0
100
AcDbLine
 62
7
  6
CONTINUOUS
 10
168.3209583287
 20
253.1113391764
 11
161.4375583478
 21
253.1113391764
  0
LINE
  5
49B
100
AcDbEntity
  8
0
100
AcDbLine
 62
7
  6
CONTINUOUS
 10
227.6299583478
 20
253.1113391764
 11
234.5133583478
 21
253.1113391764
  0
LINE
  5
49C
100
AcDbEntity
  8
0
100
AcDbLine
 62
7
  6
CONTINUOUS
 10
213.4504471711
 20
253.9323126358
 11
186.4628963712
 21
253.9323126358
  0
LINE
  5
49D
100
AcDbEntity
  8
0
100
AcDbLine
 62
7
  6
CONTINUOUS
 10
263.5963463711
 20
254.0465872356
 11
311.8563463711
 21
254.0465872356
  0
LINE
  5
49E
100
AcDbEntity
  8
0
100
AcDbLine
 62
7
  6
CONTINUOUS
 10
213.4504471711
 20
254.1227778498
 11
186.4628963711
 21
254.1227778498
  0
LINE
  5
49F
100
AcDbEntity
  8
0
100
AcDbLine
 62
7
  6
CONTINUOUS
 10
255.5827329285
 20
226.1059210579
 11
227.6411162809
 21
233.3568190385
  0
LINE
  5
4A0
100
AcDbEntity
  8
0
100
AcDbLine
 62
7
  6
CONTINUOUS
 10
225.4766426378
 20
234.1927453048
 11
219.3576317495
 21
235.7806392428
  0
LINE
  5
4A1
100
AcDbEntity
  8
0
100
AcDbLine
 62
7
  6
CONTINUOUS
 10
199.7155541016
 20
241.9729995908
 11
205.9971933919
 21
240.3429033004
  0
LINE
  5
4A2
100
AcDbEntity
  8
0
100
AcDbLine
 62
7
  6
CONTINUOUS
 10
226.3889861584
 20
237.7084964536
 11
220.1905268128
 21
239.3170074041
  0
LINE
  5
4A3
100
AcDbEntity
  8
0
100
AcDbLine
 62
7
  6
CONTINUOUS
 10
227.4416902208
 20
241.7651323945
 11
223.2015097206
 21
242.8654665883
  0
LINE
  5
4A4
100
AcDbEntity
  8
0
100
AcDbLine
 62
7
  6
CONTINUOUS
 10
225.176041149
 20
227.6297415023
 11
227.4802203701
 21
226.2867422033
  0
LINE
  5
4A5
100
AcDbEntity
  8
0
100
AcDbLine
 62
7
  6
CONTINUOUS
 10
187.9869083479
 20
197.1641860695
 11
187.9869083479
 21
193.0998158777
  0
LINE
  5
4A6
100
AcDbEntity
  8
0
100
AcDbLine
 62
7
  6
CONTINUOUS
 10
187.9869083479
 20
197.4182025945
 11
187.9869083479
 21
213.1950391714
  0
LINE
  5
4A7
100
AcDbEntity
  8
0
100
AcDbLine
 62
7
  6
CONTINUOUS
 10
187.9869083479
 20
213.1950391714
 11
187.9869083479
 21
237.8901099174
  0
LINE
  5
4A8
100
AcDbEntity
  8
0
100
AcDbLine
 62
7
  6
CONTINUOUS
 10
187.9869083479
 20
197.1641860695
 11
187.9869083479
 21
197.4182025945
  0
LINE
  5
4A9
100
AcDbEntity
  8
0
100
AcDbLine
 62
7
  6
CONTINUOUS
 10
189.0029217711
 20
187.8922872358
 11
189.0029217711
 21
186.6222872358
  0
LINE
  5
4AA
100
AcDbEntity
  8
0
100
AcDbLine
 62
7
  6
CONTINUOUS
 10
191.5175083479
 20
246.3893950316
 11
191.5175083479
 21
233.5715584817
  0
LINE
  5
4AB
100
AcDbEntity
  8
0
100
AcDbLine
 62
7
  6
CONTINUOUS
 10
194.6162963711
 20
214.0669872358
 11
194.6162963711
 21
212.4921872358
  0
LINE
  5
4AC
100
AcDbEntity
  8
0
100
AcDbLine
 62
7
  6
CONTINUOUS
 10
196.3435083479
 20
246.3893950316
 11
196.3435083479
 21
227.0599823221
  0
LINE
  5
4AD
100
AcDbEntity
  8
0
100
AcDbLine
 62
7
  6
CONTINUOUS
 10
174.1135100975
 20
201.9871261596
 11
171.2172319722
 21
196.9706264482
  0
LINE
  5
4AE
100
AcDbEntity
  8
0
100
AcDbLine
 62
7
  6
CONTINUOUS
 10
230.4900267897
 20
275.9753931411
 11
229.5541436155
 21
275.1658640023
  0
LINE
  5
4AF
100
AcDbEntity
  8
0
100
AcDbLine
 62
7
  6
CONTINUOUS
 10
295.8543463711
 20
255.9515872358
 11
263.3423463711
 21
255.9515872358
  0
LINE
  5
4B0
100
AcDbEntity
  8
0
100
AcDbLine
 62
7
  6
CONTINUOUS
 10
295.8543463711
 20
255.9515872358
 11
311.8563463711
 21
255.9515872356
  0
LINE
  5
4B1
100
AcDbEntity
  8
0
100
AcDbLine
 62
7
  6
CONTINUOUS
 10
96.4389583478
 20
256.7368208259
 11
56.8149583478
 21
256.7368208259
  0
LINE
  5
4B2
100
AcDbEntity
  8
0
100
AcDbLine
 62
7
  6
CONTINUOUS
 10
295.8543463711
 20
257.3739872358
 11
263.3423463711
 21
257.3739872358
  0
LINE
  5
4B3
100
AcDbEntity
  8
0
100
AcDbLine
 62
7
  6
CONTINUOUS
 10
248.0769463711
 20
257.8311872358
 11
246.0195463711
 21
257.8311872358
  0
LINE
  5
4B4
100
AcDbEntity
  8
0
100
AcDbLine
 62
7
  6
CONTINUOUS
 10
299.4548217711
 20
257.8311872358
 11
248.0769463711
 21
257.8311872358
  0
LINE
  5
4B5
100
AcDbEntity
  8
0
100
AcDbLine
 62
7
  6
CONTINUOUS
 10
245.6130923079
 20
257.8311872358
 11
239.8220243879
 21
257.8311872358
  0
LINE
  5
4B6
100
AcDbEntity
  8
0
100
AcDbLine
 62
7
  6
CONTINUOUS
 10
246.0195463711
 20
257.8311872358
 11
245.6130923079
 21
257.8311872358
  0
LINE
  5
4B7
100
AcDbEntity
  8
0
100
AcDbLine
 62
7
  6
CONTINUOUS
 10
239.8220243879
 20
257.8311872358
 11
237.3835463711
 21
257.8311872358
  0
LINE
  5
4B8
100
AcDbEntity
  8
0
100
AcDbLine
 62
7
  6
CONTINUOUS
 10
215.9904471711
 20
257.8312126358
 11
179.1603963711
 21
257.8312126358
  0
LINE
  5
4B9
100
AcDbEntity
  8
0
100
AcDbLine
 62
7
  6
CONTINUOUS
 10
246.0195463711
 20
258.0343872358
 11
295.7527463711
 21
258.0343872358
  0
LINE
  5
4BA
100
AcDbEntity
  8
0
100
AcDbLine
 62
7
  6
CONTINUOUS
 10
263.5963463711
 20
258.3645872356
 11
311.8563463711
 21
258.3645872356
  0
LINE
  5
4BB
100
AcDbEntity
  8
0
100
AcDbLine
 62
7
  6
CONTINUOUS
 10
258.2623463711
 20
259.8631872358
 11
295.7527463711
 21
259.8631872358
  0
LINE
  5
4BC
100
AcDbEntity
  8
0
100
AcDbLine
 62
7
  6
CONTINUOUS
 10
263.5963463711
 20
260.2695872356
 11
311.8563463711
 21
260.2695872356
  0
LINE
  5
4BD
100
AcDbEntity
  8
0
100
AcDbLine
 62
7
  6
CONTINUOUS
 10
238.7170463711
 20
260.5235872358
 11
237.3835463711
 21
260.5235872358
  0
LINE
  5
4BE
100
AcDbEntity
  8
0
100
AcDbLine
 62
7
  6
CONTINUOUS
 10
238.7170463711
 20
260.5235872358
 11
246.7180463711
 21
260.5235872358
  0
LINE
  5
4BF
100
AcDbEntity
  8
0
100
AcDbLine
 62
7
  6
CONTINUOUS
 10
246.7180463711
 20
260.5235872358
 11
299.1563463711
 21
260.5235872358
  0
LINE
  5
4C0
100
AcDbEntity
  8
0
100
AcDbLine
 62
7
  6
CONTINUOUS
 10
234.5133583478
 20
260.8486490259
 11
161.4375583478
 21
260.8486490259
  0
LINE
  5
4C1
100
AcDbEntity
  8
0
100
AcDbLine
 62
7
  6
CONTINUOUS
 10
238.7170463711
 20
261.7427872358
 11
246.7180463711
 21
261.7427872358
  0
LINE
  5
4C2
100
AcDbEntity
  8
0
100
AcDbLine
 62
7
  6
CONTINUOUS
 10
234.5133583478
 20
261.9262797604
 11
161.4375583478
 21
261.9262797604
  0
LINE
  5
4C3
100
AcDbEntity
  8
0
100
AcDbLine
 62
7
  6
CONTINUOUS
 10
110.4597583478
 20
262.5788208259
 11
56.8149583478
 21
262.5788208259
  0
LINE
  5
4C4
100
AcDbEntity
  8
0
100
AcDbLine
 62
7
  6
CONTINUOUS
 10
244.8437861887
 20
263.3175872358
 11
240.5913065535
 21
263.3175872358
  0
LINE
  5
4C5
100
AcDbEntity
  8
0
100
AcDbLine
 62
7
  6
CONTINUOUS
 10
245.1432463711
 20
263.3175872358
 11
244.8437861887
 21
263.3175872358
  0
LINE
  5
4C6
100
AcDbEntity
  8
0
100
AcDbLine
 62
7
  6
CONTINUOUS
 10
240.2918463711
 20
263.3175872358
 11
240.5913065535
 21
263.3175872358
  0
LINE
  5
4C7
100
AcDbEntity
  8
0
100
AcDbLine
 62
7
  6
CONTINUOUS
 10
161.4375583478
 20
263.6213504047
 11
234.5133583478
 21
263.6213504047
  0
LINE
  5
4C8
100
AcDbEntity
  8
0
100
AcDbLine
 62
7
  6
CONTINUOUS
 10
161.4375583478
 20
263.6504889357
 11
234.5133583478
 21
263.6504889357
  0
LINE
  5
4C9
100
AcDbEntity
  8
0
100
AcDbLine
 62
7
  6
CONTINUOUS
 10
258.515783621
 20
237.4085456811
 11
230.5741669733
 21
244.6594436618
  0
LINE
  5
4CA
100
AcDbEntity
  8
0
100
AcDbLine
 62
7
  6
CONTINUOUS
 10
239.2468953462
 20
242.6874854915
 11
230.641910017
 21
244.9204941085
  0
LINE
  5
4CB
100
AcDbEntity
  8
0
100
AcDbLine
 62
7
  6
CONTINUOUS
 10
250.6630565083
 20
241.2488038661
 11
239.7156049281
 21
244.0896865379
  0
LINE
  5
4CC
100
AcDbEntity
  8
0
100
AcDbLine
 62
7
  6
CONTINUOUS
 10
250.6630565083
 20
241.2488038661
 11
258.954014625
 21
239.0972858554
  0
LINE
  5
4CD
100
AcDbEntity
  8
0
100
AcDbLine
 62
7
  6
CONTINUOUS
 10
231.0216490131
 20
246.3838330609
 11
258.9632656607
 21
239.1329350803
  0
LINE
  5
4CE
100
AcDbEntity
  8
0
100
AcDbLine
 62
7
  6
CONTINUOUS
 10
238.7138798382
 20
245.2965111849
 11
239.8475153125
 21
245.0023308132
  0
LINE
  5
4CF
100
AcDbEntity
  8
0
100
AcDbLine
 62
7
  6
CONTINUOUS
 10
259.7515177025
 20
242.1704949015
 11
231.8099010549
 21
249.4213928822
  0
LINE
  5
4D0
100
AcDbEntity
  8
0
100
AcDbLine
 62
7
  6
CONTINUOUS
 10
288.7495279756
 20
226.2566294925
 11
225.8013551102
 21
243.1235356891
  0
LINE
  5
4D1
100
AcDbEntity
  8
0
100
AcDbLine
 62
7
  6
CONTINUOUS
 10
230.1822403052
 20
243.2118901384
 11
289.0650800526
 21
227.4342862874
  0
LINE
  5
4D2
100
AcDbEntity
  8
0
100
AcDbLine
 62
7
  6
CONTINUOUS
 10
231.2995919196
 20
232.839624672
 11
228.9954126985
 21
234.182623971
  0
LINE
  5
4D3
100
AcDbEntity
  8
0
100
AcDbLine
 62
7
  6
CONTINUOUS
 10
251.9885583478
 20
188.5251208259
 11
249.2199583478
 21
191.3191208259
  0
LINE
  5
4D4
100
AcDbEntity
  8
0
100
AcDbLine
 62
7
  6
CONTINUOUS
 10
221.8373996036
 20
202.0633214032
 11
224.733676729
 21
197.0468211145
  0
LINE
  5
4D5
100
AcDbEntity
  8
0
100
AcDbLine
 62
7
  6
CONTINUOUS
 10
197.8801963711
 20
241.4978617084
 11
197.8801963711
 21
239.5174316358
  0
LINE
  5
4D6
100
AcDbEntity
  8
0
100
AcDbLine
 62
7
  6
CONTINUOUS
 10
197.8801963711
 20
214.6956765413
 11
197.8801963711
 21
214.6087184358
  0
LINE
  5
4D7
100
AcDbEntity
  8
0
100
AcDbLine
 62
7
  6
CONTINUOUS
 10
197.8801963711
 20
239.5174316358
 11
197.8801963711
 21
214.6956765413
  0
LINE
  5
4D8
100
AcDbEntity
  8
0
100
AcDbLine
 62
7
  6
CONTINUOUS
 10
197.8801963711
 20
214.6087184358
 11
197.8801963711
 21
214.0669872358
  0
LINE
  5
4D9
100
AcDbEntity
  8
0
100
AcDbLine
 62
7
  6
CONTINUOUS
 10
197.8801963711
 20
241.4978617084
 11
197.8801963711
 21
241.9767358358
  0
LINE
  5
4DA
100
AcDbEntity
  8
0
100
AcDbLine
 62
7
  6
CONTINUOUS
 10
200.7122963711
 20
214.0669872358
 11
200.7122963711
 21
212.4921872358
  0
LINE
  5
4DB
100
AcDbEntity
  8
0
100
AcDbLine
 62
7
  6
CONTINUOUS
 10
200.8647083479
 20
217.1788100259
 11
200.8647083479
 21
216.1628100259
  0
LINE
  5
4DC
100
AcDbEntity
  8
0
100
AcDbLine
 62
7
  6
CONTINUOUS
 10
201.9186669912
 20
220.7348100259
 11
201.9186669912
 21
217.1788100259
  0
LINE
  5
4DD
100
AcDbEntity
  8
0
100
AcDbLine
 62
7
  6
CONTINUOUS
 10
202.5411083479
 20
220.2268100259
 11
202.5411083479
 21
220.7348100259
  0
LINE
  5
4DE
100
AcDbEntity
  8
0
100
AcDbLine
 62
7
  6
CONTINUOUS
 10
203.0745083479
 20
216.1628100259
 11
203.0745083479
 21
202.7338300259
  0
LINE
  5
4DF
100
AcDbEntity
  8
0
100
AcDbLine
 62
7
  6
CONTINUOUS
 10
203.70947964
 20
218.1948100259
 11
203.70947964
 21
220.2268100259
  0
LINE
  5
4E0
100
AcDbEntity
  8
0
100
AcDbLine
 62
7
  6
CONTINUOUS
 10
204.8524796377
 20
220.2268100259
 11
204.8524796377
 21
218.1948100259
  0
LINE
  5
4E1
100
AcDbEntity
  8
0
100
AcDbLine
 62
7
  6
CONTINUOUS
 10
205.3603759542
 20
218.1948100259
 11
205.3603759542
 21
220.2268100259
  0
LINE
  5
4E2
100
AcDbEntity
  8
0
100
AcDbLine
 62
7
  6
CONTINUOUS
 10
205.8174256191
 20
220.7348100259
 11
205.8174256191
 21
217.1788100259
  0
LINE
  5
4E3
100
AcDbEntity
  8
0
100
AcDbLine
 62
7
  6
CONTINUOUS
 10
206.2747759524
 20
218.1948100259
 11
206.2747759524
 21
220.2268100259
  0
LINE
  5
4E4
100
AcDbEntity
  8
0
100
AcDbLine
 62
7
  6
CONTINUOUS
 10
206.7828796339
 20
218.1948100259
 11
206.7828796339
 21
220.2268100259
  0
LINE
  5
4E5
100
AcDbEntity
  8
0
100
AcDbLine
 62
7
  6
CONTINUOUS
 10
224.7336847157
 20
277.1838211145
 11
221.8374065904
 21
272.1673214032
  0
LINE
  5
4E6
100
AcDbEntity
  8
0
100
AcDbLine
 62
7
  6
CONTINUOUS
 10
171.1810267897
 20
205.7951931411
 11
170.2451436155
 21
204.9856640023
  0
LINE
  5
4E7
100
AcDbEntity
  8
0
100
AcDbLine
 62
7
  6
CONTINUOUS
 10
224.0739583478
 20
236.8948347148
 11
222.9111614423
 21
236.4716112527
  0
LINE
  5
4E8
100
AcDbEntity
  8
0
100
AcDbLine
 62
7
  6
CONTINUOUS
 10
234.5133583478
 20
265.34555958
 11
161.4375583478
 21
265.34555958
  0
LINE
  5
4E9
100
AcDbEntity
  8
0
100
AcDbLine
 62
7
  6
CONTINUOUS
 10
234.5133583478
 20
266.4231903145
 11
161.4375583478
 21
266.4231903145
  0
LINE
  5
4EA
100
AcDbEntity
  8
0
100
AcDbLine
 62
7
  6
CONTINUOUS
 10
230.5262389666
 20
267.1508205372
 11
224.7336837158
 21
267.1508211145
  0
LINE
  5
4EB
100
AcDbEntity
  8
0
100
AcDbLine
 62
7
  6
CONTINUOUS
 10
230.5035850004
 20
256.196712295
 11
213.2808797113
 21
260.6660341877
  0
LINE
  5
4EC
100
AcDbEntity
  8
0
100
AcDbLine
 62
7
  6
CONTINUOUS
 10
227.1981583478
 20
235.9215208259
 11
226.4361583478
 21
236.6835208259
  0
LINE
  5
4ED
100
AcDbEntity
  8
0
100
AcDbLine
 62
7
  6
CONTINUOUS
 10
205.9971933919
 20
240.3429033004
 11
218.3743796533
 21
223.3208759268
  0
LINE
  5
4EE
100
AcDbEntity
  8
0
100
AcDbLine
 62
7
  6
CONTINUOUS
 10
230.5262329797
 20
207.0798205372
 11
233.4225101051
 21
202.0633202486
  0
LINE
  5
4EF
100
AcDbEntity
  8
0
100
AcDbLine
 62
7
  6
CONTINUOUS
 10
207.9258796317
 20
218.1948100259
 11
207.9258796317
 21
220.2268100259
  0
LINE
  5
4F0
100
AcDbEntity
  8
0
100
AcDbLine
 62
7
  6
CONTINUOUS
 10
208.0147963711
 20
241.4978617084
 11
208.0147963711
 21
239.5174316358
  0
LINE
  5
4F1
100
AcDbEntity
  8
0
100
AcDbLine
 62
7
  6
CONTINUOUS
 10
208.0147963711
 20
239.5174316358
 11
208.0147963711
 21
239.2129936801
  0
LINE
  5
4F2
100
AcDbEntity
  8
0
100
AcDbLine
 62
7
  6
CONTINUOUS
 10
208.0147963711
 20
235.6569936801
 11
208.0147963711
 21
225.7509936801
  0
LINE
  5
4F3
100
AcDbEntity
  8
0
100
AcDbLine
 62
7
  6
CONTINUOUS
 10
208.0147963711
 20
241.4978617084
 11
208.0147963711
 21
241.9767358358
  0
LINE
  5
4F4
100
AcDbEntity
  8
0
100
AcDbLine
 62
7
  6
CONTINUOUS
 10
208.5609083479
 20
216.1628100259
 11
208.5609083479
 21
202.7338300259
  0
LINE
  5
4F5
100
AcDbEntity
  8
0
100
AcDbLine
 62
7
  6
CONTINUOUS
 10
209.0943083479
 20
220.2268100259
 11
209.0943083479
 21
220.7348100259
  0
LINE
  5
4F6
100
AcDbEntity
  8
0
100
AcDbLine
 62
7
  6
CONTINUOUS
 10
209.7164669758
 20
220.7348100259
 11
209.7164669758
 21
217.1788100259
  0
LINE
  5
4F7
100
AcDbEntity
  8
0
100
AcDbLine
 62
7
  6
CONTINUOUS
 10
209.9959963711
 20
241.4978617084
 11
209.9959963711
 21
239.5174316358
  0
LINE
  5
4F8
100
AcDbEntity
  8
0
100
AcDbLine
 62
7
  6
CONTINUOUS
 10
209.9959963711
 20
239.5174316358
 11
209.9959963711
 21
239.2129936801
  0
LINE
  5
4F9
100
AcDbEntity
  8
0
100
AcDbLine
 62
7
  6
CONTINUOUS
 10
209.9959963711
 20
235.6569936801
 11
209.9959963711
 21
225.7509936801
  0
LINE
  5
4FA
100
AcDbEntity
  8
0
100
AcDbLine
 62
7
  6
CONTINUOUS
 10
209.9959963711
 20
241.4978617084
 11
209.9959963711
 21
241.9767358358
  0
LINE
  5
4FB
100
AcDbEntity
  8
0
100
AcDbLine
 62
7
  6
CONTINUOUS
 10
210.7707083479
 20
217.1788100259
 11
210.7707083479
 21
216.1628100259
  0
LINE
  5
4FC
100
AcDbEntity
  8
0
100
AcDbLine
 62
7
  6
CONTINUOUS
 10
212.9042963711
 20
241.4536355358
 11
212.9042963711
 21
239.9106358472
  0
LINE
  5
4FD
100
AcDbEntity
  8
0
100
AcDbLine
 62
7
  6
CONTINUOUS
 10
213.6663090711
 20
233.2377810894
 11
213.6663090711
 21
239.6332417092
  0
LINE
  5
4FE
100
AcDbEntity
  8
0
100
AcDbLine
 62
7
  6
CONTINUOUS
 10
213.7551963711
 20
241.4978617084
 11
213.7551963711
 21
239.5174316358
  0
LINE
  5
4FF
100
AcDbEntity
  8
0
100
AcDbLine
 62
7
  6
CONTINUOUS
 10
213.7551963711
 20
214.6956765413
 11
213.7551963711
 21
214.6087184358
  0
LINE
  5
500
100
AcDbEntity
  8
0
100
AcDbLine
 62
7
  6
CONTINUOUS
 10
213.7551963711
 20
239.5174316358
 11
213.7551963711
 21
214.6956765413
  0
LINE
  5
501
100
AcDbEntity
  8
0
100
AcDbLine
 62
7
  6
CONTINUOUS
 10
213.7551963711
 20
214.6087184358
 11
213.7551963711
 21
214.0669872358
  0
LINE
  5
502
100
AcDbEntity
  8
0
100
AcDbLine
 62
7
  6
CONTINUOUS
 10
213.7551963711
 20
241.4978617084
 11
213.7551963711
 21
241.9767358358
  0
LINE
  5
503
100
AcDbEntity
  8
0
100
AcDbLine
 62
7
  6
CONTINUOUS
 10
214.1742963711
 20
212.4921872358
 11
214.1742963711
 21
214.0669872358
  0
LINE
  5
504
100
AcDbEntity
  8
0
100
AcDbLine
 62
7
  6
CONTINUOUS
 10
214.4664471711
 20
257.8312041691
 11
214.4664471711
 21
212.4922126358
  0
LINE
  5
505
100
AcDbEntity
  8
0
100
AcDbLine
 62
7
  6
CONTINUOUS
 10
215.1648836711
 20
233.2377810894
 11
215.1648836711
 21
239.6332417092
  0
LINE
  5
506
100
AcDbEntity
  8
0
100
AcDbLine
 62
7
  6
CONTINUOUS
 10
215.9904471711
 20
257.8312126358
 11
215.9904471711
 21
212.4922126358
  0
LINE
  5
507
100
AcDbEntity
  8
0
100
AcDbLine
 62
7
  6
CONTINUOUS
 10
233.4225170919
 20
272.1673202486
 11
230.5262389666
 21
267.1508205372
  0
LINE
  5
508
100
AcDbEntity
  8
0
100
AcDbLine
 62
7
  6
CONTINUOUS
 10
227.1981583478
 20
238.3091208259
 11
226.4361583478
 21
237.5471208259
  0
LINE
  5
509
100
AcDbEntity
  8
0
100
AcDbLine
 62
7
  6
CONTINUOUS
 10
171.8316522407
 20
204.9725248065
 11
164.0285528799
 21
200.3099613712
  0
LINE
  5
50A
100
AcDbEntity
  8
0
100
AcDbLine
 62
7
  6
CONTINUOUS
 10
181.0018963711
 20
202.4179061776
 11
166.7778971532
 21
194.1883048259
  0
LINE
  5
50B
100
AcDbEntity
  8
0
100
AcDbLine
 62
7
  6
CONTINUOUS
 10
164.7172350621
 20
199.1147025038
 11
172.6104019495
 21
203.6718410177
  0
LINE
  5
50C
100
AcDbEntity
  8
0
100
AcDbLine
 62
7
  6
CONTINUOUS
 10
169.8449583478
 20
194.915569984
 11
171.1149583478
 21
195.6488048259
  0
LINE
  5
50D
100
AcDbEntity
  8
0
100
AcDbLine
 62
7
  6
CONTINUOUS
 10
230.5262399665
 20
277.1838205372
 11
224.7336847157
 21
277.1838211145
  0
LINE
  5
50E
100
AcDbEntity
  8
0
100
AcDbLine
 62
7
  6
CONTINUOUS
 10
275.2679890828
 20
278.9385872356
 11
311.8563463711
 21
278.9385872356
  0
LINE
  5
50F
100
AcDbEntity
  8
0
100
AcDbLine
 62
7
  6
CONTINUOUS
 10
228.1633583478
 20
279.2539208259
 11
167.7875583478
 21
279.2539208259
  0
LINE
  5
510
100
AcDbEntity
  8
0
100
AcDbLine
 62
7
  6
CONTINUOUS
 10
269.7939625499
 20
279.2793166237
 11
90.46996255
 21
279.2793344956
  0
LINE
  5
511
100
AcDbEntity
  8
0
100
AcDbLine
 62
7
  6
CONTINUOUS
 10
252.0393451369
 20
280.6403872358
 11
311.8563463711
 21
280.6403872358
  0
LINE
  5
512
100
AcDbEntity
  8
0
100
AcDbLine
 62
7
  6
CONTINUOUS
 10
271.5719627271
 20
281.0573164465
 11
88.6919627271
 21
281.0573346728
  0
LINE
  5
513
100
AcDbEntity
  8
0
100
AcDbLine
 62
7
  6
CONTINUOUS
 10
228.8237583478
 20
237.5471208259
 11
228.0617583478
 21
238.3091208259
  0
LINE
  5
514
100
AcDbEntity
  8
0
100
AcDbLine
 62
7
  6
CONTINUOUS
 10
224.6606150675
 20
239.0842673993
 11
223.8652151389
 21
240.0321881217
  0
LINE
  5
515
100
AcDbEntity
  8
0
100
AcDbLine
 62
7
  6
CONTINUOUS
 10
231.3947015566
 20
234.1984535301
 11
230.599301628
 21
235.1463742524
  0
LINE
  5
516
100
AcDbEntity
  8
0
100
AcDbLine
 62
7
  6
CONTINUOUS
 10
226.1073709749
 20
219.7221474498
 11
226.2934102366
 21
217.0616440401
  0
LINE
  5
517
100
AcDbEntity
  8
0
100
AcDbLine
 62
7
  6
CONTINUOUS
 10
216.9428963711
 20
194.2422872358
 11
216.9428963711
 21
213.2922872358
  0
LINE
  5
518
100
AcDbEntity
  8
0
100
AcDbLine
 62
7
  6
CONTINUOUS
 10
216.9682963711
 20
214.0669872358
 11
216.9682963711
 21
212.4921872358
  0
LINE
  5
519
100
AcDbEntity
  8
0
100
AcDbLine
 62
7
  6
CONTINUOUS
 10
216.9682963711
 20
214.0923872358
 11
216.9682963711
 21
215.6671872358
  0
LINE
  5
51A
100
AcDbEntity
  8
0
100
AcDbLine
 62
7
  6
CONTINUOUS
 10
218.3843583478
 20
187.8696533092
 11
218.3843583478
 21
185.4654258933
  0
LINE
  5
51B
100
AcDbEntity
  8
0
100
AcDbLine
 62
7
  6
CONTINUOUS
 10
218.3843583478
 20
185.4654258933
 11
218.3843583478
 21
181.2184496144
  0
LINE
  5
51C
100
AcDbEntity
  8
0
100
AcDbLine
 62
7
  6
CONTINUOUS
 10
218.4589604402
 20
183.3435208259
 11
218.4589604402
 21
180.9051208259
  0
LINE
  5
51D
100
AcDbEntity
  8
0
100
AcDbLine
 62
7
  6
CONTINUOUS
 10
218.4922963711
 20
212.4921872358
 11
218.4922963711
 21
214.0669872358
  0
LINE
  5
51E
100
AcDbEntity
  8
0
100
AcDbLine
 62
7
  6
CONTINUOUS
 10
218.6026947842
 20
185.4761048259
 11
218.6026947842
 21
187.9145048259
  0
LINE
  5
51F
100
AcDbEntity
  8
0
100
AcDbLine
 62
7
  6
CONTINUOUS
 10
218.7653583477
 20
185.7819208259
 11
218.7653583477
 21
183.3435208259
  0
LINE
  5
520
100
AcDbEntity
  8
0
100
AcDbLine
 62
7
  6
CONTINUOUS
 10
219.1463583478
 20
187.9145048259
 11
219.1463583478
 21
185.4761048259
  0
LINE
  5
521
100
AcDbEntity
  8
0
100
AcDbLine
 62
7
  6
CONTINUOUS
 10
219.1463583478
 20
183.3435208259
 11
219.1463583478
 21
180.9051208259
  0
LINE
  5
522
100
AcDbEntity
  8
0
100
AcDbLine
 62
7
  6
CONTINUOUS
 10
220.0162963711
 20
235.6061975707
 11
220.0162963711
 21
212.4921872358
  0
LINE
  5
523
100
AcDbEntity
  8
0
100
AcDbLine
 62
7
  6
CONTINUOUS
 10
221.8133583477
 20
183.3435208259
 11
221.8133583477
 21
185.7819208259
  0
LINE
  5
524
100
AcDbEntity
  8
0
100
AcDbLine
 62
7
  6
CONTINUOUS
 10
223.8262963711
 20
243.0610975703
 11
223.8262963711
 21
242.4923619603
  0
LINE
  5
525
100
AcDbEntity
  8
0
100
AcDbLine
 62
7
  6
CONTINUOUS
 10
223.8262963711
 20
243.0610975703
 11
223.8262963711
 21
244.1746239293
  0
LINE
  5
526
100
AcDbEntity
  8
0
100
AcDbLine
 62
7
  6
CONTINUOUS
 10
224.1691963711
 20
215.6671872358
 11
224.1691963711
 21
219.6041872358
  0
LINE
  5
527
100
AcDbEntity
  8
0
100
AcDbLine
 62
7
  6
CONTINUOUS
 10
224.5564034755
 20
185.7819208259
 11
224.5564034755
 21
183.3435208259
  0
LINE
  5
528
100
AcDbEntity
  8
0
100
AcDbLine
 62
7
  6
CONTINUOUS
 10
224.8867583478
 20
223.1199208259
 11
224.8867583478
 21
225.9393208259
  0
LINE
  5
529
100
AcDbEntity
  8
0
100
AcDbLine
 62
7
  6
CONTINUOUS
 10
224.8867583478
 20
248.2913208259
 11
224.8867583478
 21
251.1107208259
  0
LINE
  5
52A
100
AcDbEntity
  8
0
100
AcDbLine
 62
7
  6
CONTINUOUS
 10
225.2804583478
 20
237.5471208259
 11
225.2804583478
 21
236.6835208259
  0
LINE
  5
52B
100
AcDbEntity
  8
0
100
AcDbLine
 62
7
  6
CONTINUOUS
 10
225.6042963711
 20
236.6221872358
 11
225.6042963711
 21
234.3361872358
  0
LINE
  5
52C
100
AcDbEntity
  8
0
100
AcDbLine
 62
7
  6
CONTINUOUS
 10
226.2901026821
 20
218.8421872358
 11
226.2901026821
 21
220.2391872358
  0
LINE
  5
52D
100
AcDbEntity
  8
0
100
AcDbLine
 62
7
  6
CONTINUOUS
 10
222.5617733471
 20
235.6488316143
 11
221.2875525449
 21
222.1921677489
  0
LINE
  5
52E
100
AcDbEntity
  8
0
100
AcDbLine
 62
7
  6
CONTINUOUS
 10
225.2168965591
 20
235.3974161623
 11
223.9426757569
 21
221.9407522968
  0
LINE
  5
52F
100
AcDbEntity
  8
0
100
AcDbLine
 62
7
  6
CONTINUOUS
 10
222.8838917331
 20
228.4853323135
 11
226.9970776493
 21
244.3356538016
  0
LINE
  5
530
100
AcDbEntity
  8
0
100
AcDbLine
 62
7
  6
CONTINUOUS
 10
223.3955192191
 20
228.1275946203
 11
227.6180984035
 21
244.3994673109
  0
LINE
  5
531
100
AcDbEntity
  8
0
100
AcDbLine
 62
7
  6
CONTINUOUS
 10
227.4416902208
 20
241.7651323945
 11
226.3889861584
 21
237.7084964536
  0
LINE
  5
532
100
AcDbEntity
  8
0
100
AcDbLine
 62
7
  6
CONTINUOUS
 10
225.4766426378
 20
234.1927453048
 11
224.4239385755
 21
230.1361093638
  0
LINE
  5
533
100
AcDbEntity
  8
0
100
AcDbLine
 62
7
  6
CONTINUOUS
 10
228.273667921
 20
241.8341177314
 11
227.8504444589
 21
240.6713208258
  0
LINE
  5
534
100
AcDbEntity
  8
0
100
AcDbLine
 62
7
  6
CONTINUOUS
 10
225.176041149
 20
227.6297415023
 11
228.9954126985
 21
234.182623971
  0
LINE
  5
535
100
AcDbEntity
  8
0
100
AcDbLine
 62
7
  6
CONTINUOUS
 10
224.6606150675
 20
235.1463742525
 11
223.8652151389
 21
234.1984535301
  0
LINE
  5
536
100
AcDbEntity
  8
0
100
AcDbLine
 62
7
  6
CONTINUOUS
 10
231.3947015566
 20
240.0321881217
 11
230.5993016281
 21
239.0842673992
  0
LINE
  5
537
100
AcDbEntity
  8
0
100
AcDbLine
 62
7
  6
CONTINUOUS
 10
274.7723463711
 20
280.6403872358
 11
255.9763463711
 21
260.5235872358
  0
LINE
  5
538
100
AcDbEntity
  8
0
100
AcDbLine
 62
7
  6
CONTINUOUS
 10
275.2679890828
 20
278.9385872356
 11
263.5963463711
 21
266.446775036
  0
LINE
  5
539
100
AcDbEntity
  8
0
100
AcDbLine
 62
7
  6
CONTINUOUS
 10
228.8237583478
 20
236.6835208259
 11
228.0617583478
 21
235.9215208259
  0
LINE
  5
53A
100
AcDbEntity
  8
0
100
AcDbLine
 62
7
  6
CONTINUOUS
 10
224.0710511489
 20
272.3344425611
 11
222.9020367624
 21
272.7401765955
  0
LINE
  5
53B
100
AcDbEntity
  8
0
100
AcDbLine
 62
7
  6
CONTINUOUS
 10
206.5523728213
 20
284.4893864882
 11
202.3729342226
 21
286.9023864882
  0
LINE
  5
53C
100
AcDbEntity
  8
0
100
AcDbLine
 62
7
  6
CONTINUOUS
 10
227.8504444589
 20
233.5593208259
 11
228.273667921
 21
232.3965239204
  0
LINE
  5
53D
100
AcDbEntity
  8
0
100
AcDbLine
 62
7
  6
CONTINUOUS
 10
226.9862487746
 20
241.8341177314
 11
227.4094722367
 21
240.6713208258
  0
LINE
  5
53E
100
AcDbEntity
  8
0
100
AcDbLine
 62
7
  6
CONTINUOUS
 10
232.8219748184
 20
220.1916751104
 11
233.0080140802
 21
217.5311717006
  0
LINE
  5
53F
100
AcDbEntity
  8
0
100
AcDbLine
 62
7
  6
CONTINUOUS
 10
227.1981583478
 20
239.4648208259
 11
227.1981583478
 21
238.3091208259
  0
LINE
  5
540
100
AcDbEntity
  8
0
100
AcDbLine
 62
7
  6
CONTINUOUS
 10
227.1981583478
 20
235.9215208259
 11
227.1981583478
 21
234.7658208259
  0
LINE
  5
541
100
AcDbEntity
  8
0
100
AcDbLine
 62
7
  6
CONTINUOUS
 10
227.2171995266
 20
218.8421872358
 11
227.2171995266
 21
220.2391872358
  0
LINE
  5
542
100
AcDbEntity
  8
0
100
AcDbLine
 62
7
  6
CONTINUOUS
 10
227.6299583571
 20
253.1113391764
 11
227.6299583566
 21
252.3493391764
  0
LINE
  5
543
100
AcDbEntity
  8
0
100
AcDbLine
 62
7
  6
CONTINUOUS
 10
227.629958326
 20
221.8813024754
 11
227.6299583249
 21
221.1193024754
  0
LINE
  5
544
100
AcDbEntity
  8
0
100
AcDbLine
 62
7
  6
CONTINUOUS
 10
227.6299583591
 20
222.1293208259
 11
227.6299583585
 21
222.8913208259
  0
LINE
  5
545
100
AcDbEntity
  8
0
100
AcDbLine
 62
7
  6
CONTINUOUS
 10
227.6299583564
 20
251.3393208259
 11
227.6299583569
 21
252.1013208259
  0
LINE
  5
546
100
AcDbEntity
  8
0
100
AcDbLine
 62
7
  6
CONTINUOUS
 10
228.0617583478
 20
239.4648208259
 11
228.0617583478
 21
238.3091208259
  0
LINE
  5
547
100
AcDbEntity
  8
0
100
AcDbLine
 62
7
  6
CONTINUOUS
 10
228.0617583478
 20
235.9215208259
 11
228.0617583478
 21
234.7658208259
  0
LINE
  5
548
100
AcDbEntity
  8
0
100
AcDbLine
 62
7
  6
CONTINUOUS
 10
228.1442963711
 20
218.8421872358
 11
228.1442963711
 21
220.2391872358
  0
LINE
  5
549
100
AcDbEntity
  8
0
100
AcDbLine
 62
7
  6
CONTINUOUS
 10
228.1442963711
 20
234.3361872358
 11
228.1442963711
 21
236.6221872358
  0
LINE
  5
54A
100
AcDbEntity
  8
0
100
AcDbLine
 62
7
  6
CONTINUOUS
 10
228.72231322
 20
185.7819208259
 11
228.72231322
 21
183.3435208259
  0
LINE
  5
54B
100
AcDbEntity
  8
0
100
AcDbLine
 62
7
  6
CONTINUOUS
 10
229.0713932156
 20
220.2391872358
 11
229.0713932156
 21
218.8421872358
  0
LINE
  5
54C
100
AcDbEntity
  8
0
100
AcDbLine
 62
7
  6
CONTINUOUS
 10
229.9794583478
 20
236.6835208259
 11
229.9794583478
 21
237.5471208259
  0
LINE
  5
54D
100
AcDbEntity
  8
0
100
AcDbLine
 62
7
  6
CONTINUOUS
 10
229.9984900601
 20
218.8421872358
 11
229.9984900601
 21
220.2391872358
  0
LINE
  5
54E
100
AcDbEntity
  8
0
100
AcDbLine
 62
7
  6
CONTINUOUS
 10
230.1953583478
 20
183.3435208259
 11
230.1953583478
 21
180.9051208259
  0
LINE
  5
54F
100
AcDbEntity
  8
0
100
AcDbLine
 62
7
  6
CONTINUOUS
 10
231.1478583478
 20
251.1107208259
 11
231.1478583478
 21
248.2913208259
  0
LINE
  5
550
100
AcDbEntity
  8
0
100
AcDbLine
 62
7
  6
CONTINUOUS
 10
231.1478583478
 20
225.9393208259
 11
231.1478583478
 21
223.1199208259
  0
LINE
  5
551
100
AcDbEntity
  8
0
100
AcDbLine
 62
7
  6
CONTINUOUS
 10
231.4653583478
 20
185.7819208259
 11
231.4653583478
 21
183.3435208259
  0
LINE
  5
552
100
AcDbEntity
  8
0
100
AcDbLine
 62
7
  6
CONTINUOUS
 10
231.7193583478
 20
183.3435208259
 11
231.7193583478
 21
180.9051208259
  0
LINE
  5
553
100
AcDbEntity
  8
0
100
AcDbLine
 62
7
  6
CONTINUOUS
 10
232.1193963711
 20
215.6671872358
 11
232.1193963711
 21
219.6041872358
  0
LINE
  5
554
100
AcDbEntity
  8
0
100
AcDbLine
 62
7
  6
CONTINUOUS
 10
232.4622963711
 20
242.4923619603
 11
232.4622963711
 21
243.0610975703
  0
LINE
  5
555
100
AcDbEntity
  8
0
100
AcDbLine
 62
7
  6
CONTINUOUS
 10
232.4622963711
 20
243.0610975703
 11
232.4622963711
 21
244.1746239293
  0
LINE
  5
556
100
AcDbEntity
  8
0
100
AcDbLine
 62
7
  6
CONTINUOUS
 10
234.1323583478
 20
183.3435208259
 11
234.1323583478
 21
180.9051208259
  0
LINE
  5
557
100
AcDbEntity
  8
0
100
AcDbLine
 62
7
  6
CONTINUOUS
 10
234.1323583478
 20
185.4761048259
 11
234.1323583478
 21
187.9145048259
  0
LINE
  5
558
100
AcDbEntity
  8
0
100
AcDbLine
 62
7
  6
CONTINUOUS
 10
234.5133583478
 20
221.8813024754
 11
234.5133583478
 21
208.4133208259
  0
LINE
  5
559
100
AcDbEntity
  8
0
100
AcDbLine
 62
7
  6
CONTINUOUS
 10
234.5133583478
 20
187.3059208259
 11
234.5133583478
 21
183.3435208259
  0
LINE
  5
55A
100
AcDbEntity
  8
0
100
AcDbLine
 62
7
  6
CONTINUOUS
 10
234.5133583478
 20
221.8813024754
 11
234.5133583478
 21
223.3477007396
  0
LINE
  5
55B
100
AcDbEntity
  8
0
100
AcDbLine
 62
7
  6
CONTINUOUS
 10
234.5133583478
 20
250.8829409122
 11
234.5133583478
 21
252.3493391764
  0
LINE
  5
55C
100
AcDbEntity
  8
0
100
AcDbLine
 62
7
  6
CONTINUOUS
 10
234.5133583478
 20
252.3493391764
 11
234.5133583478
 21
272.9039208259
  0
LINE
  5
55D
100
AcDbEntity
  8
0
100
AcDbLine
 62
7
  6
CONTINUOUS
 10
234.6760219114
 20
187.9145048259
 11
234.6760219114
 21
185.4761048259
  0
LINE
  5
55E
100
AcDbEntity
  8
0
100
AcDbLine
 62
7
  6
CONTINUOUS
 10
234.8197562554
 20
183.3435208259
 11
234.8197562554
 21
180.9051208259
  0
LINE
  5
55F
100
AcDbEntity
  8
0
100
AcDbLine
 62
7
  6
CONTINUOUS
 10
234.8943583478
 20
185.4654258933
 11
234.8943583478
 21
187.8696533092
  0
LINE
  5
560
100
AcDbEntity
  8
0
100
AcDbLine
 62
7
  6
CONTINUOUS
 10
234.8943583478
 20
181.218449614
 11
234.8943583478
 21
185.4654258933
  0
LINE
  5
561
100
AcDbEntity
  8
0
100
AcDbLine
 62
7
  6
CONTINUOUS
 10
235.0467583478
 20
251.1107208259
 11
235.0467583478
 21
248.2913208259
  0
LINE
  5
562
100
AcDbEntity
  8
0
100
AcDbLine
 62
7
  6
CONTINUOUS
 10
235.0467583478
 20
225.9393208259
 11
235.0467583478
 21
223.1199208259
  0
LINE
  5
563
100
AcDbEntity
  8
0
100
AcDbLine
 62
7
  6
CONTINUOUS
 10
235.2753583478
 20
188.5251208259
 11
235.2753583478
 21
180.9051208259
  0
LINE
  5
564
100
AcDbEntity
  8
0
100
AcDbLine
 62
7
  6
CONTINUOUS
 10
236.2722963711
 20
235.6061975707
 11
236.2722963711
 21
221.0011872358
  0
LINE
  5
565
100
AcDbEntity
  8
0
100
AcDbLine
 62
7
  6
CONTINUOUS
 10
236.2722963711
 20
217.1911872358
 11
236.2722963711
 21
212.4921872358
  0
LINE
  5
566
100
AcDbEntity
  8
0
100
AcDbLine
 62
7
  6
CONTINUOUS
 10
231.0225862717
 20
246.3874448231
 11
230.641910017
 21
244.9204941085
  0
LINE
  5
567
100
AcDbEntity
  8
0
100
AcDbLine
 62
7
  6
CONTINUOUS
 10
224.6164237375
 20
221.7010489878
 11
230.641910017
 21
244.9204941085
  0
LINE
  5
568
100
AcDbEntity
  8
0
100
AcDbLine
 62
7
  6
CONTINUOUS
 10
231.0225862717
 20
246.3874448231
 11
231.8099042553
 21
249.4214052149
  0
LINE
  5
569
100
AcDbEntity
  8
0
100
AcDbLine
 62
7
  6
CONTINUOUS
 10
231.5802223243
 20
221.6434785774
 11
237.9229709374
 21
246.0855064081
  0
LINE
  5
56A
100
AcDbEntity
  8
0
100
AcDbLine
 62
7
  6
CONTINUOUS
 10
228.6780735245
 20
239.6793509002
 11
227.8617831222
 21
237.140343421
  0
LINE
  5
56B
100
AcDbEntity
  8
0
100
AcDbLine
 62
7
  6
CONTINUOUS
 10
227.4094722366
 20
233.5593208259
 11
226.9862487746
 21
232.3965239204
  0
LINE
  5
56C
100
AcDbEntity
  8
0
100
AcDbLine
 62
7
  6
CONTINUOUS
 10
224.7336777289
 20
207.0798211145
 11
221.8373996036
 21
202.0633214032
  0
LINE
  5
56D
100
AcDbEntity
  8
0
100
AcDbLine
 62
7
  6
CONTINUOUS
 10
227.4802203701
 20
226.2867422033
 11
231.2995919196
 21
232.839624672
  0
LINE
  5
56E
100
AcDbEntity
  8
0
100
AcDbLine
 62
7
  6
CONTINUOUS
 10
276.2963463711
 20
280.6403872358
 11
258.2623463711
 21
259.8631872358
  0
LINE
  5
56F
100
AcDbEntity
  8
0
100
AcDbLine
 62
7
  6
CONTINUOUS
 10
209.4733728213
 20
289.5487068971
 11
205.2939342226
 21
291.9617068971
  0
LINE
  5
570
100
AcDbEntity
  8
0
100
AcDbLine
 62
7
  6
CONTINUOUS
 10
221.8374065904
 20
272.1673214032
 11
224.7336837158
 21
267.1508211145
  0
LINE
  5
571
100
AcDbEntity
  8
0
100
AcDbLine
 62
7
  6
CONTINUOUS
 10
230.5035850004
 20
256.196712295
 11
232.2004704227
 21
249.3141286549
  0
LINE
  5
572
100
AcDbEntity
  8
0
100
AcDbLine
 62
7
  6
CONTINUOUS
 10
237.3835463711
 20
257.8311872358
 11
237.3835463711
 21
260.5235872358
  0
LINE
  5
573
100
AcDbEntity
  8
0
100
AcDbLine
 62
7
  6
CONTINUOUS
 10
238.0439583478
 20
197.1865208259
 11
238.0439583478
 21
191.3191208259
  0
LINE
  5
574
100
AcDbEntity
  8
0
100
AcDbLine
 62
7
  6
CONTINUOUS
 10
238.2725583479
 20
191.7911872358
 11
238.2725583479
 21
212.4922126358
  0
LINE
  5
575
100
AcDbEntity
  8
0
100
AcDbLine
 62
7
  6
CONTINUOUS
 10
238.2725583479
 20
245.1311872358
 11
238.2725583479
 21
257.8311872358
  0
LINE
  5
576
100
AcDbEntity
  8
0
100
AcDbLine
 62
7
  6
CONTINUOUS
 10
238.7170463711
 20
260.5235872358
 11
238.7170463711
 21
261.7427872358
  0
LINE
  5
577
100
AcDbEntity
  8
0
100
AcDbLine
 62
7
  6
CONTINUOUS
 10
238.9456583478
 20
251.1107208259
 11
238.9456583478
 21
248.2913208259
  0
LINE
  5
578
100
AcDbEntity
  8
0
100
AcDbLine
 62
7
  6
CONTINUOUS
 10
238.9456583478
 20
225.9393208259
 11
238.9456583478
 21
223.1199208259
  0
LINE
  5
579
100
AcDbEntity
  8
0
100
AcDbLine
 62
7
  6
CONTINUOUS
 10
239.9362583479
 20
187.8922872358
 11
239.9362583479
 21
191.7911872358
  0
LINE
  5
57A
100
AcDbEntity
  8
0
100
AcDbLine
 62
7
  6
CONTINUOUS
 10
240.4358643711
 20
235.5612366047
 11
240.4358643711
 21
255.2911872358
  0
LINE
  5
57B
100
AcDbEntity
  8
0
100
AcDbLine
 62
7
  6
CONTINUOUS
 10
240.5204583478
 20
185.4761048259
 11
240.5204583478
 21
187.9145048259
  0
LINE
  5
57C
100
AcDbEntity
  8
0
100
AcDbLine
 62
7
  6
CONTINUOUS
 10
240.8125463711
 20
243.0483872358
 11
240.8125463711
 21
260.5235872358
  0
LINE
  5
57D
100
AcDbEntity
  8
0
100
AcDbLine
 62
7
  6
CONTINUOUS
 10
240.8379583478
 20
196.7293208259
 11
240.8379583478
 21
198.2533208259
  0
LINE
  5
57E
100
AcDbEntity
  8
0
100
AcDbLine
 62
7
  6
CONTINUOUS
 10
244.1907583478
 20
251.1107208259
 11
244.1907583478
 21
248.2913208259
  0
LINE
  5
57F
100
AcDbEntity
  8
0
100
AcDbLine
 62
7
  6
CONTINUOUS
 10
244.1907583478
 20
225.9393208259
 11
244.1907583478
 21
223.1199208259
  0
LINE
  5
580
100
AcDbEntity
  8
0
100
AcDbLine
 62
7
  6
CONTINUOUS
 10
244.4447583478
 20
223.1199208259
 11
244.4447583478
 21
225.9393208259
  0
LINE
  5
581
100
AcDbEntity
  8
0
100
AcDbLine
 62
7
  6
CONTINUOUS
 10
244.4447583478
 20
248.2913208259
 11
244.4447583478
 21
251.1107208259
  0
LINE
  5
582
100
AcDbEntity
  8
0
100
AcDbLine
 62
7
  6
CONTINUOUS
 10
244.6225463711
 20
243.0483872358
 11
244.6225463711
 21
260.5235872358
  0
LINE
  5
583
100
AcDbEntity
  8
0
100
AcDbLine
 62
7
  6
CONTINUOUS
 10
244.9146583478
 20
185.4761048259
 11
244.9146583478
 21
187.9145048259
  0
LINE
  5
584
100
AcDbEntity
  8
0
100
AcDbLine
 62
7
  6
CONTINUOUS
 10
245.4988583479
 20
187.8922872358
 11
245.4988583479
 21
191.7911872358
  0
LINE
  5
585
100
AcDbEntity
  8
0
100
AcDbLine
 62
7
  6
CONTINUOUS
 10
245.6933045304
 20
274.2943466295
 11
245.6933045304
 21
260.5235872358
  0
LINE
  5
586
100
AcDbEntity
  8
0
100
AcDbLine
 62
7
  6
CONTINUOUS
 10
245.7147583478
 20
251.1107208259
 11
245.7147583478
 21
246.0053208259
  0
LINE
  5
587
100
AcDbEntity
  8
0
100
AcDbLine
 62
7
  6
CONTINUOUS
 10
245.7147583478
 20
228.2253208259
 11
245.7147583478
 21
223.1199208259
  0
LINE
  5
588
100
AcDbEntity
  8
0
100
AcDbLine
 62
7
  6
CONTINUOUS
 10
245.7147583478
 20
228.2253208259
 11
245.7147583478
 21
228.908329324
  0
LINE
  5
589
100
AcDbEntity
  8
0
100
AcDbLine
 62
7
  6
CONTINUOUS
 10
245.7147583478
 20
245.3223123278
 11
245.7147583478
 21
246.0053208259
  0
LINE
  5
58A
100
AcDbEntity
  8
0
100
AcDbLine
 62
7
  6
CONTINUOUS
 10
246.0195463711
 20
260.5235872358
 11
246.0195463711
 21
258.0343872358
  0
LINE
  5
58B
100
AcDbEntity
  8
0
100
AcDbLine
 62
7
  6
CONTINUOUS
 10
246.0195463711
 20
257.8311872358
 11
246.0195463711
 21
258.0343872358
  0
LINE
  5
58C
100
AcDbEntity
  8
0
100
AcDbLine
 62
7
  6
CONTINUOUS
 10
246.1529083479
 20
257.8311872358
 11
246.1529083479
 21
212.4922126358
  0
LINE
  5
58D
100
AcDbEntity
  8
0
100
AcDbLine
 62
7
  6
CONTINUOUS
 10
246.4259583478
 20
198.2533208259
 11
246.4259583478
 21
196.7293208259
  0
LINE
  5
58E
100
AcDbEntity
  8
0
100
AcDbLine
 62
7
  6
CONTINUOUS
 10
246.7180463711
 20
260.5235872358
 11
246.7180463711
 21
261.7427872358
  0
LINE
  5
58F
100
AcDbEntity
  8
0
100
AcDbLine
 62
7
  6
CONTINUOUS
 10
240.4148421773
 20
247.1883957369
 11
239.6377348287
 21
244.1936962494
  0
LINE
  5
590
100
AcDbEntity
  8
0
100
AcDbLine
 62
7
  6
CONTINUOUS
 10
239.6377213044
 20
244.1935484823
 11
239.2468953462
 21
242.6874854915
  0
LINE
  5
591
100
AcDbEntity
  8
0
100
AcDbLine
 62
7
  6
CONTINUOUS
 10
234.5286495777
 20
224.1015548225
 11
239.3040913724
 21
242.5039050289
  0
LINE
  5
592
100
AcDbEntity
  8
0
100
AcDbLine
 62
7
  6
CONTINUOUS
 10
239.7794254737
 20
244.0731249956
 11
239.7659818883
 21
244.0213196176
  0
LINE
  5
593
100
AcDbEntity
  8
0
100
AcDbLine
 62
7
  6
CONTINUOUS
 10
233.4225101051
 20
202.0633202486
 11
230.5262319798
 21
197.0468205372
  0
LINE
  5
594
100
AcDbEntity
  8
0
100
AcDbLine
 62
7
  6
CONTINUOUS
 10
214.0707728213
 20
297.5116372798
 11
209.8913342226
 21
299.9246372798
  0
LINE
  5
595
100
AcDbEntity
  8
0
100
AcDbLine
 62
7
  6
CONTINUOUS
 10
296.4068217711
 20
230.7801778498
 11
263.3233102919
 21
257.8311872358
  0
LINE
  5
596
100
AcDbEntity
  8
0
100
AcDbLine
 62
7
  6
CONTINUOUS
 10
230.5262399665
 20
277.1838205372
 11
233.4225170919
 21
272.1673202486
  0
LINE
  5
597
100
AcDbEntity
  8
0
100
AcDbLine
 62
7
  6
CONTINUOUS
 10
247.1625583479
 20
191.7911872358
 11
247.1625583479
 21
257.8311872358
  0
LINE
  5
598
100
AcDbEntity
  8
0
100
AcDbLine
 62
7
  6
CONTINUOUS
 10
248.0769463711
 20
257.8311872358
 11
248.0769463711
 21
219.9343872358
  0
LINE
  5
599
100
AcDbEntity
  8
0
100
AcDbLine
 62
7
  6
CONTINUOUS
 10
249.2072463711
 20
260.5235872358
 11
249.2072463711
 21
274.2903872357
  0
LINE
  5
59A
100
AcDbEntity
  8
0
100
AcDbLine
 62
7
  6
CONTINUOUS
 10
249.2199583478
 20
197.1865208259
 11
249.2199583478
 21
191.3191208259
  0
LINE
  5
59B
100
AcDbEntity
  8
0
100
AcDbLine
 62
7
  6
CONTINUOUS
 10
249.5692128223
 20
200.7319872358
 11
249.5692128223
 21
257.8311872358
  0
LINE
  5
59C
100
AcDbEntity
  8
0
100
AcDbLine
 62
7
  6
CONTINUOUS
 10
249.9755963711
 20
204.2879872358
 11
249.9755963711
 21
200.7319872358
  0
LINE
  5
59D
100
AcDbEntity
  8
0
100
AcDbLine
 62
7
  6
CONTINUOUS
 10
249.9819583478
 20
200.5393208259
 11
249.9819583478
 21
195.2053208259
  0
LINE
  5
59E
100
AcDbEntity
  8
0
100
AcDbLine
 62
7
  6
CONTINUOUS
 10
251.9885583478
 20
188.5251208259
 11
251.9885583478
 21
180.9051208259
  0
LINE
  5
59F
100
AcDbEntity
  8
0
100
AcDbLine
 62
7
  6
CONTINUOUS
 10
251.9948963711
 20
213.2922872358
 11
251.9948963711
 21
194.2422872358
  0
LINE
  5
5A0
100
AcDbEntity
  8
0
100
AcDbLine
 62
7
  6
CONTINUOUS
 10
252.2615963711
 20
202.3067872358
 11
252.2615963711
 21
200.7319872358
  0
LINE
  5
5A1
100
AcDbEntity
  8
0
100
AcDbLine
 62
7
  6
CONTINUOUS
 10
252.5155963711
 20
204.9356872358
 11
252.5155963711
 21
202.3067872358
  0
LINE
  5
5A2
100
AcDbEntity
  8
0
100
AcDbLine
 62
7
  6
CONTINUOUS
 10
253.2394709711
 20
198.4459872358
 11
253.2394709711
 21
193.5945872358
  0
LINE
  5
5A3
100
AcDbEntity
  8
0
100
AcDbLine
 62
7
  6
CONTINUOUS
 10
255.1635463711
 20
260.5235872358
 11
255.1635463711
 21
257.8311872358
  0
LINE
  5
5A4
100
AcDbEntity
  8
0
100
AcDbLine
 62
7
  6
CONTINUOUS
 10
255.1825963711
 20
205.9516872358
 11
255.1825963711
 21
204.9356872358
  0
LINE
  5
5A5
100
AcDbEntity
  8
0
100
AcDbLine
 62
7
  6
CONTINUOUS
 10
255.4654154655
 20
198.4459872358
 11
255.4654154655
 21
193.5945872358
  0
LINE
  5
5A6
100
AcDbEntity
  8
0
100
AcDbLine
 62
7
  6
CONTINUOUS
 10
255.5445583478
 20
183.3435208259
 11
255.5445583478
 21
180.9051208259
  0
LINE
  5
5A7
100
AcDbEntity
  8
0
100
AcDbLine
 62
7
  6
CONTINUOUS
 10
255.633534442
 20
209.5076872358
 11
255.633534442
 21
205.9516872358
  0
LINE
  5
5A8
100
AcDbEntity
  8
0
100
AcDbLine
 62
7
  6
CONTINUOUS
 10
255.9763463711
 20
260.5235872358
 11
255.9763463711
 21
257.8311872358
  0
LINE
  5
5A9
100
AcDbEntity
  8
0
100
AcDbLine
 62
7
  6
CONTINUOUS
 10
256.8589963711
 20
208.9996872358
 11
256.8589963711
 21
209.5076872358
  0
LINE
  5
5AA
100
AcDbEntity
  8
0
100
AcDbLine
 62
7
  6
CONTINUOUS
 10
251.4605595855
 20
244.3220129123
 11
250.6630565084
 21
241.2488038661
  0
LINE
  5
5AB
100
AcDbEntity
  8
0
100
AcDbLine
 62
7
  6
CONTINUOUS
 10
246.8350417364
 20
226.4974004445
 11
246.0375386589
 21
223.4241913984
  0
LINE
  5
5AC
100
AcDbEntity
  8
0
100
AcDbLine
 62
7
  6
CONTINUOUS
 10
246.8350417364
 20
226.4974004445
 11
250.6630565084
 21
241.2488038661
  0
LINE
  5
5AD
100
AcDbEntity
  8
0
100
AcDbLine
 62
7
  6
CONTINUOUS
 10
238.0439583478
 20
191.3191208259
 11
235.2753583478
 21
188.5251208259
  0
LINE
  5
5AE
100
AcDbEntity
  8
0
100
AcDbLine
 62
7
  6
CONTINUOUS
 10
218.0839728213
 20
304.4627035808
 11
213.9045342226
 21
306.8757035807
  0
LINE
  5
5AF
100
AcDbEntity
  8
0
100
AcDbLine
 62
7
  6
CONTINUOUS
 10
257.0685583478
 20
183.3435208259
 11
257.0685583478
 21
180.9051208259
  0
LINE
  5
5B0
100
AcDbEntity
  8
0
100
AcDbLine
 62
7
  6
CONTINUOUS
 10
257.618967145
 20
198.4459872358
 11
257.618967145
 21
193.5945872358
  0
LINE
  5
5B1
100
AcDbEntity
  8
0
100
AcDbLine
 62
7
  6
CONTINUOUS
 10
257.88456459
 20
209.5076872358
 11
257.88456459
 21
205.9516872358
  0
LINE
  5
5B2
100
AcDbEntity
  8
0
100
AcDbLine
 62
7
  6
CONTINUOUS
 10
258.0812417527
 20
206.9676872358
 11
258.0812417527
 21
208.9996872358
  0
LINE
  5
5B3
100
AcDbEntity
  8
0
100
AcDbLine
 62
7
  6
CONTINUOUS
 10
258.5384419185
 20
208.9996872358
 11
258.5384419185
 21
206.9676872358
  0
LINE
  5
5B4
100
AcDbEntity
  8
0
100
AcDbLine
 62
7
  6
CONTINUOUS
 10
258.685549222
 20
208.9996872358
 11
258.685549222
 21
206.9676872358
  0
LINE
  5
5B5
100
AcDbEntity
  8
0
100
AcDbLine
 62
7
  6
CONTINUOUS
 10
259.0711086695
 20
206.9676872358
 11
259.0711086695
 21
208.9996872358
  0
LINE
  5
5B6
100
AcDbEntity
  8
0
100
AcDbLine
 62
7
  6
CONTINUOUS
 10
259.2570494293
 20
206.9676872358
 11
259.2570494293
 21
208.9996872358
  0
LINE
  5
5B7
100
AcDbEntity
  8
0
100
AcDbLine
 62
7
  6
CONTINUOUS
 10
259.4774427555
 20
206.9676872358
 11
259.4774427555
 21
208.9996872358
  0
LINE
  5
5B8
100
AcDbEntity
  8
0
100
AcDbLine
 62
7
  6
CONTINUOUS
 10
259.5117027982
 20
198.4459872358
 11
259.5117027982
 21
193.5945872358
  0
LINE
  5
5B9
100
AcDbEntity
  8
0
100
AcDbLine
 62
7
  6
CONTINUOUS
 10
259.5283088354
 20
208.9996872358
 11
259.5283088354
 21
206.9676872358
  0
LINE
  5
5BA
100
AcDbEntity
  8
0
100
AcDbLine
 62
7
  6
CONTINUOUS
 10
260.0489429628
 20
206.9676872358
 11
260.0489429628
 21
208.9996872358
  0
LINE
  5
5BB
100
AcDbEntity
  8
0
100
AcDbLine
 62
7
  6
CONTINUOUS
 10
260.2222497795
 20
206.9676872358
 11
260.2222497795
 21
208.9996872358
  0
LINE
  5
5BC
100
AcDbEntity
  8
0
100
AcDbLine
 62
7
  6
CONTINUOUS
 10
260.7428839068
 20
206.9676872358
 11
260.7428839068
 21
208.9996872358
  0
LINE
  5
5BD
100
AcDbEntity
  8
0
100
AcDbLine
 62
7
  6
CONTINUOUS
 10
260.7937499868
 20
206.9676872358
 11
260.7937499868
 21
208.9996872358
  0
LINE
  5
5BE
100
AcDbEntity
  8
0
100
AcDbLine
 62
7
  6
CONTINUOUS
 10
261.0141433129
 20
206.9676872358
 11
261.0141433129
 21
208.9996872358
  0
LINE
  5
5BF
100
AcDbEntity
  8
0
100
AcDbLine
 62
7
  6
CONTINUOUS
 10
261.1833463711
 20
257.8311872358
 11
261.1833463711
 21
219.9343872358
  0
LINE
  5
5C0
100
AcDbEntity
  8
0
100
AcDbLine
 62
7
  6
CONTINUOUS
 10
261.2000840727
 20
206.9676872358
 11
261.2000840727
 21
208.9996872358
  0
LINE
  5
5C1
100
AcDbEntity
  8
0
100
AcDbLine
 62
7
  6
CONTINUOUS
 10
261.2404963711
 20
202.3067872358
 11
261.2404963711
 21
206.2437872358
  0
LINE
  5
5C2
100
AcDbEntity
  8
0
100
AcDbLine
 62
7
  6
CONTINUOUS
 10
261.5856435202
 20
208.9996872358
 11
261.5856435202
 21
206.9676872358
  0
LINE
  5
5C3
100
AcDbEntity
  8
0
100
AcDbLine
 62
7
  6
CONTINUOUS
 10
261.7327508237
 20
208.9996872358
 11
261.7327508237
 21
206.9676872358
  0
LINE
  5
5C4
100
AcDbEntity
  8
0
100
AcDbLine
 62
7
  6
CONTINUOUS
 10
262.1899509895
 20
206.9676872358
 11
262.1899509895
 21
208.9996872358
  0
LINE
  5
5C5
100
AcDbEntity
  8
0
100
AcDbLine
 62
7
  6
CONTINUOUS
 10
262.3615610916
 20
198.4459872358
 11
262.3615610916
 21
193.5945872358
  0
LINE
  5
5C6
100
AcDbEntity
  8
0
100
AcDbLine
 62
7
  6
CONTINUOUS
 10
262.3866265191
 20
209.5076872358
 11
262.3866265191
 21
205.9516872358
  0
LINE
  5
5C7
100
AcDbEntity
  8
0
100
AcDbLine
 62
7
  6
CONTINUOUS
 10
262.4216083479
 20
200.7319872358
 11
262.4216083479
 21
198.4459872358
  0
LINE
  5
5C8
100
AcDbEntity
  8
0
100
AcDbLine
 62
7
  6
CONTINUOUS
 10
262.4216083479
 20
193.5945872358
 11
262.4216083479
 21
187.8922872358
  0
LINE
  5
5C9
100
AcDbEntity
  8
0
100
AcDbLine
 62
7
  6
CONTINUOUS
 10
262.4326108798
 20
198.4459872358
 11
262.4326108798
 21
193.5945872358
  0
LINE
  5
5CA
100
AcDbEntity
  8
0
100
AcDbLine
 62
7
  6
CONTINUOUS
 10
263.0184963711
 20
202.3067872358
 11
263.0184963711
 21
193.9247872358
  0
LINE
  5
5CB
100
AcDbEntity
  8
0
100
AcDbLine
 62
7
  6
CONTINUOUS
 10
263.3233217711
 20
230.7801778498
 11
263.3233217711
 21
257.8311872358
  0
LINE
  5
5CC
100
AcDbEntity
  8
0
100
AcDbLine
 62
7
  6
CONTINUOUS
 10
263.3423463711
 20
257.3739872358
 11
263.3423463711
 21
255.9515872358
  0
LINE
  5
5CD
100
AcDbEntity
  8
0
100
AcDbLine
 62
7
  6
CONTINUOUS
 10
263.3423463711
 20
253.0559872358
 11
263.3423463711
 21
251.6335872358
  0
LINE
  5
5CE
100
AcDbEntity
  8
0
100
AcDbLine
 62
7
  6
CONTINUOUS
 10
263.3423463711
 20
248.7379872358
 11
263.3423463711
 21
247.3155872358
  0
LINE
  5
5CF
100
AcDbEntity
  8
0
100
AcDbLine
 62
7
  6
CONTINUOUS
 10
263.3423463711
 20
244.4199872358
 11
263.3423463711
 21
242.9975872358
  0
LINE
  5
5D0
100
AcDbEntity
  8
0
100
AcDbLine
 62
7
  6
CONTINUOUS
 10
263.3423463711
 20
240.1019872358
 11
263.3423463711
 21
238.6795872358
  0
LINE
  5
5D1
100
AcDbEntity
  8
0
100
AcDbLine
 62
7
  6
CONTINUOUS
 10
263.3423463711
 20
235.6569872358
 11
263.3423463711
 21
234.2345872358
  0
LINE
  5
5D2
100
AcDbEntity
  8
0
100
AcDbLine
 62
7
  6
CONTINUOUS
 10
263.3614026821
 20
205.4817872358
 11
263.3614026821
 21
206.8787872358
  0
LINE
  5
5D3
100
AcDbEntity
  8
0
100
AcDbLine
 62
7
  6
CONTINUOUS
 10
263.4121963711
 20
208.9996872358
 11
263.4121963711
 21
209.5076872358
  0
LINE
  5
5D4
100
AcDbEntity
  8
0
100
AcDbLine
 62
7
  6
CONTINUOUS
 10
263.4947583478
 20
246.0053208259
 11
263.4947583478
 21
228.2253208259
  0
LINE
  5
5D5
100
AcDbEntity
  8
0
100
AcDbLine
 62
7
  6
CONTINUOUS
 10
263.4947583478
 20
251.1107208259
 11
263.4947583478
 21
246.0053208259
  0
LINE
  5
5D6
100
AcDbEntity
  8
0
100
AcDbLine
 62
7
  6
CONTINUOUS
 10
263.4947583478
 20
228.2253208259
 11
263.4947583478
 21
223.1199208259
  0
LINE
  5
5D7
100
AcDbEntity
  8
0
100
AcDbLine
 62
7
  6
CONTINUOUS
 10
263.5963463711
 20
234.2345872357
 11
263.5963463711
 21
268.6790466953
  0
LINE
  5
5D8
100
AcDbEntity
  8
0
100
AcDbLine
 62
7
  6
CONTINUOUS
 10
263.8503463711
 20
257.3739872358
 11
263.8503463711
 21
255.9515872358
  0
LINE
  5
5D9
100
AcDbEntity
  8
0
100
AcDbLine
 62
7
  6
CONTINUOUS
 10
263.8503463711
 20
253.0559872358
 11
263.8503463711
 21
251.6335872358
  0
LINE
  5
5DA
100
AcDbEntity
  8
0
100
AcDbLine
 62
7
  6
CONTINUOUS
 10
263.8503463711
 20
248.7379872358
 11
263.8503463711
 21
247.3155872358
  0
LINE
  5
5DB
100
AcDbEntity
  8
0
100
AcDbLine
 62
7
  6
CONTINUOUS
 10
263.8503463711
 20
244.4199872358
 11
263.8503463711
 21
242.9975872358
  0
LINE
  5
5DC
100
AcDbEntity
  8
0
100
AcDbLine
 62
7
  6
CONTINUOUS
 10
263.8503463711
 20
240.1019872358
 11
263.8503463711
 21
238.6795872358
  0
LINE
  5
5DD
100
AcDbEntity
  8
0
100
AcDbLine
 62
7
  6
CONTINUOUS
 10
263.8503463711
 20
235.6569872358
 11
263.8503463711
 21
234.2345872358
  0
LINE
  5
5DE
100
AcDbEntity
  8
0
100
AcDbLine
 62
7
  6
CONTINUOUS
 10
264.2884995266
 20
206.8787872358
 11
264.2884995266
 21
205.4817872358
  0
LINE
  5
5DF
100
AcDbEntity
  8
0
100
AcDbLine
 62
7
  6
CONTINUOUS
 10
264.6376583002
 20
209.5076872358
 11
264.6376583002
 21
205.9516872358
  0
LINE
  5
5E0
100
AcDbEntity
  8
0
100
AcDbLine
 62
7
  6
CONTINUOUS
 10
264.805817729
 20
198.4459872358
 11
264.805817729
 21
193.5945872358
  0
LINE
  5
5E1
100
AcDbEntity
  8
0
100
AcDbLine
 62
7
  6
CONTINUOUS
 10
265.0885963711
 20
205.9516872358
 11
265.0885963711
 21
204.9356872358
  0
LINE
  5
5E2
100
AcDbEntity
  8
0
100
AcDbLine
 62
7
  6
CONTINUOUS
 10
265.1286526365
 20
198.4459872358
 11
265.1286526365
 21
193.5945872358
  0
LINE
  5
5E3
100
AcDbEntity
  8
0
100
AcDbLine
 62
7
  6
CONTINUOUS
 10
265.2155963711
 20
202.3067872358
 11
265.2155963711
 21
193.9247872358
  0
LINE
  5
5E4
100
AcDbEntity
  8
0
100
AcDbLine
 62
7
  6
CONTINUOUS
 10
265.2155963711
 20
205.4817872358
 11
265.2155963711
 21
206.8787872358
  0
LINE
  5
5E5
100
AcDbEntity
  8
0
100
AcDbLine
 62
7
  6
CONTINUOUS
 10
265.3743463711
 20
234.2345872358
 11
265.3743463711
 21
235.6569872358
  0
LINE
  5
5E6
100
AcDbEntity
  8
0
100
AcDbLine
 62
7
  6
CONTINUOUS
 10
265.3743463711
 20
238.6795872358
 11
265.3743463711
 21
240.1019872358
  0
LINE
  5
5E7
100
AcDbEntity
  8
0
100
AcDbLine
 62
7
  6
CONTINUOUS
 10
265.3743463711
 20
242.9975872358
 11
265.3743463711
 21
244.4199872358
  0
LINE
  5
5E8
100
AcDbEntity
  8
0
100
AcDbLine
 62
7
  6
CONTINUOUS
 10
265.3743463711
 20
247.3155872358
 11
265.3743463711
 21
248.7379872358
  0
LINE
  5
5E9
100
AcDbEntity
  8
0
100
AcDbLine
 62
7
  6
CONTINUOUS
 10
265.3743463711
 20
251.6335872358
 11
265.3743463711
 21
253.0559872358
  0
LINE
  5
5EA
100
AcDbEntity
  8
0
100
AcDbLine
 62
7
  6
CONTINUOUS
 10
265.3743463711
 20
255.9515872358
 11
265.3743463711
 21
257.3739872358
  0
LINE
  5
5EB
100
AcDbEntity
  8
0
100
AcDbLine
 62
7
  6
CONTINUOUS
 10
265.6283463711
 20
257.3739872358
 11
265.6283463711
 21
255.9515872358
  0
LINE
  5
5EC
100
AcDbEntity
  8
0
100
AcDbLine
 62
7
  6
CONTINUOUS
 10
265.6283463711
 20
253.0559872358
 11
265.6283463711
 21
251.6335872358
  0
LINE
  5
5ED
100
AcDbEntity
  8
0
100
AcDbLine
 62
7
  6
CONTINUOUS
 10
265.6283463711
 20
248.7379872358
 11
265.6283463711
 21
247.3155872358
  0
LINE
  5
5EE
100
AcDbEntity
  8
0
100
AcDbLine
 62
7
  6
CONTINUOUS
 10
265.6283463711
 20
244.4199872358
 11
265.6283463711
 21
242.9975872358
  0
LINE
  5
5EF
100
AcDbEntity
  8
0
100
AcDbLine
 62
7
  6
CONTINUOUS
 10
265.6283463711
 20
240.1019872358
 11
265.6283463711
 21
238.6795872358
  0
LINE
  5
5F0
100
AcDbEntity
  8
0
100
AcDbLine
 62
7
  6
CONTINUOUS
 10
265.6283463711
 20
235.6569872358
 11
265.6283463711
 21
234.2345872358
  0
LINE
  5
5F1
100
AcDbEntity
  8
0
100
AcDbLine
 62
7
  6
CONTINUOUS
 10
266.1426932156
 20
206.8787872358
 11
266.1426932156
 21
205.4817872358
  0
LINE
  5
5F2
100
AcDbEntity
  8
0
100
AcDbLine
 62
7
  6
CONTINUOUS
 10
258.9540146251
 20
239.0972858554
 11
255.1259998531
 21
224.3458824338
  0
LINE
  5
5F3
100
AcDbEntity
  8
0
100
AcDbLine
 62
7
  6
CONTINUOUS
 10
255.1259998531
 20
224.3458824338
 11
254.3284967756
 21
221.2726733877
  0
LINE
  5
5F4
100
AcDbEntity
  8
0
100
AcDbLine
 62
7
  6
CONTINUOUS
 10
258.9540146251
 20
239.0972858554
 11
259.7515177025
 21
242.1704949015
  0
LINE
  5
5F5
100
AcDbEntity
  8
0
100
AcDbLine
 62
7
  6
CONTINUOUS
 10
267.0317622234
 20
198.4459872358
 11
267.0317622234
 21
193.5945872358
  0
LINE
  5
5F6
100
AcDbEntity
  8
0
100
AcDbLine
 62
7
  6
CONTINUOUS
 10
267.0697900601
 20
205.4817872358
 11
267.0697900601
 21
206.8787872358
  0
LINE
  5
5F7
100
AcDbEntity
  8
0
100
AcDbLine
 62
7
  6
CONTINUOUS
 10
268.0096083479
 20
187.8922872358
 11
268.0096083479
 21
200.7319872358
  0
LINE
  5
5F8
100
AcDbEntity
  8
0
100
AcDbLine
 62
7
  6
CONTINUOUS
 10
268.0159463711
 20
257.8311872358
 11
268.0159463711
 21
226.4113872358
  0
LINE
  5
5F9
100
AcDbEntity
  8
0
100
AcDbLine
 62
7
  6
CONTINUOUS
 10
268.4731463711
 20
257.8311872358
 11
268.4731463711
 21
235.5553872358
  0
LINE
  5
5FA
100
AcDbEntity
  8
0
100
AcDbLine
 62
7
  6
CONTINUOUS
 10
269.1906963711
 20
202.3067872358
 11
269.1906963711
 21
206.2437872358
  0
LINE
  5
5FB
100
AcDbEntity
  8
0
100
AcDbLine
 62
7
  6
CONTINUOUS
 10
269.5335963711
 20
200.7319872358
 11
269.5335963711
 21
202.3067872358
  0
LINE
  5
5FC
100
AcDbEntity
  8
0
100
AcDbLine
 62
7
  6
CONTINUOUS
 10
269.7939625499
 20
279.2793166237
 11
269.7939541456
 21
194.9513166237
  0
LINE
  5
5FD
100
AcDbEntity
  8
0
100
AcDbLine
 62
7
  6
CONTINUOUS
 10
269.8637963711
 20
216.3021872358
 11
269.8637963711
 21
204.9356872358
  0
LINE
  5
5FE
100
AcDbEntity
  8
0
100
AcDbLine
 62
7
  6
CONTINUOUS
 10
269.9463463711
 20
235.5553872358
 11
269.9463463711
 21
260.5235872358
  0
LINE
  5
5FF
100
AcDbEntity
  8
0
100
AcDbLine
 62
7
  6
CONTINUOUS
 10
271.5211463711
 20
204.9356872358
 11
271.5211463711
 21
206.2437872358
  0
LINE
  5
600
100
AcDbEntity
  8
0
100
AcDbLine
 62
7
  6
CONTINUOUS
 10
271.5211463711
 20
214.3971872358
 11
271.5211463711
 21
214.9940872358
  0
LINE
  5
601
100
AcDbEntity
  8
0
100
AcDbLine
 62
7
  6
CONTINUOUS
 10
271.5211463711
 20
216.3021872358
 11
271.5211463711
 21
218.2071872358
  0
LINE
  5
602
100
AcDbEntity
  8
0
100
AcDbLine
 62
7
  6
CONTINUOUS
 10
271.5719627271
 20
281.0573164465
 11
271.5719539684
 21
193.1733164465
  0
LINE
  5
603
100
AcDbEntity
  8
0
100
AcDbLine
 62
7
  6
CONTINUOUS
 10
271.6925963711
 20
229.4339877548
 11
271.6925963711
 21
228.3204359958
  0
LINE
  5
604
100
AcDbEntity
  8
0
100
AcDbLine
 62
7
  6
CONTINUOUS
 10
271.6925963711
 20
204.7611231958
 11
271.6925963711
 21
200.7319872358
  0
LINE
  5
605
100
AcDbEntity
  8
0
100
AcDbLine
 62
7
  6
CONTINUOUS
 10
271.6925963711
 20
225.1159798647
 11
271.6925963711
 21
226.7683582215
  0
LINE
  5
606
100
AcDbEntity
  8
0
100
AcDbLine
 62
7
  6
CONTINUOUS
 10
271.6925963711
 20
228.3204359958
 11
271.6925963711
 21
226.7683582215
  0
LINE
  5
607
100
AcDbEntity
  8
0
100
AcDbLine
 62
7
  6
CONTINUOUS
 10
271.6925963711
 20
225.1159798647
 11
271.6925963711
 21
204.7611231958
  0
LINE
  5
608
100
AcDbEntity
  8
0
100
AcDbLine
 62
7
  6
CONTINUOUS
 10
273.0896083479
 20
200.7319872358
 11
273.0896083479
 21
230.7801778498
  0
LINE
  5
609
100
AcDbEntity
  8
0
100
AcDbLine
 62
7
  6
CONTINUOUS
 10
273.4197963711
 20
202.3067872358
 11
273.4197963711
 21
200.7319872358
  0
LINE
  5
60A
100
AcDbEntity
  8
0
100
AcDbLine
 62
7
  6
CONTINUOUS
 10
275.1461835711
 20
218.2071872358
 11
275.1461835711
 21
216.9371872358
  0
LINE
  5
60B
100
AcDbEntity
  8
0
100
AcDbLine
 62
7
  6
CONTINUOUS
 10
275.8137463711
 20
260.5235872358
 11
275.8137463711
 21
235.5553872358
  0
LINE
  5
60C
100
AcDbEntity
  8
0
100
AcDbLine
 62
7
  6
CONTINUOUS
 10
276.6464205684
 20
218.2071872358
 11
276.6464205684
 21
216.9371872358
  0
LINE
  5
60D
100
AcDbEntity
  8
0
100
AcDbLine
 62
7
  6
CONTINUOUS
 10
278.5823463711
 20
280.6403872358
 11
278.5823463711
 21
232.8121872358
  0
LINE
  5
60E
100
AcDbEntity
  8
0
100
AcDbLine
 62
7
  6
CONTINUOUS
 10
278.8363463711
 20
235.5553872358
 11
278.8363463711
 21
226.4113872358
  0
LINE
  5
60F
100
AcDbEntity
  8
0
100
AcDbLine
 62
7
  6
CONTINUOUS
 10
279.7697963711
 20
202.3067872358
 11
279.7697963711
 21
200.7319872358
  0
LINE
  5
610
100
AcDbEntity
  8
0
100
AcDbLine
 62
7
  6
CONTINUOUS
 10
280.2714463711
 20
204.9356872358
 11
280.2714463711
 21
206.2437872358
  0
LINE
  5
611
100
AcDbEntity
  8
0
100
AcDbLine
 62
7
  6
CONTINUOUS
 10
280.2714463711
 20
214.3971872358
 11
280.2714463711
 21
214.9940872358
  0
LINE
  5
612
100
AcDbEntity
  8
0
100
AcDbLine
 62
7
  6
CONTINUOUS
 10
280.2714463711
 20
216.3021872358
 11
280.2714463711
 21
218.2071872358
  0
LINE
  5
613
100
AcDbEntity
  8
0
100
AcDbLine
 62
7
  6
CONTINUOUS
 10
280.8175583478
 20
183.3435208259
 11
280.8175583478
 21
180.9051208259
  0
LINE
  5
614
100
AcDbEntity
  8
0
100
AcDbLine
 62
7
  6
CONTINUOUS
 10
281.9160963711
 20
216.3021872358
 11
281.9160963711
 21
202.3067872358
  0
LINE
  5
615
100
AcDbEntity
  8
0
100
AcDbLine
 62
7
  6
CONTINUOUS
 10
284.4497463711
 20
232.8121872358
 11
284.4497463711
 21
280.6403872358
  0
LINE
  5
616
100
AcDbEntity
  8
0
100
AcDbLine
 62
7
  6
CONTINUOUS
 10
285.7705463711
 20
278.9385872358
 11
285.7705463711
 21
234.2345872358
  0
LINE
  5
617
100
AcDbEntity
  8
0
100
AcDbLine
 62
7
  6
CONTINUOUS
 10
286.1515463711
 20
257.3739872358
 11
286.1515463711
 21
255.9515872358
  0
LINE
  5
618
100
AcDbEntity
  8
0
100
AcDbLine
 62
7
  6
CONTINUOUS
 10
286.1515463711
 20
253.0559872358
 11
286.1515463711
 21
251.6335872358
  0
LINE
  5
619
100
AcDbEntity
  8
0
100
AcDbLine
 62
7
  6
CONTINUOUS
 10
286.1515463711
 20
248.7379872358
 11
286.1515463711
 21
247.3155872358
  0
LINE
  5
61A
100
AcDbEntity
  8
0
100
AcDbLine
 62
7
  6
CONTINUOUS
 10
286.1515463711
 20
244.4199872358
 11
286.1515463711
 21
242.9975872358
  0
LINE
  5
61B
100
AcDbEntity
  8
0
100
AcDbLine
 62
7
  6
CONTINUOUS
 10
286.1515463711
 20
240.1019872358
 11
286.1515463711
 21
238.6795872358
  0
LINE
  5
61C
100
AcDbEntity
  8
0
100
AcDbLine
 62
7
  6
CONTINUOUS
 10
286.1515463711
 20
235.6569872358
 11
286.1515463711
 21
234.2345872358
  0
LINE
  5
61D
100
AcDbEntity
  8
0
100
AcDbLine
 62
7
  6
CONTINUOUS
 10
286.4055583478
 20
183.3435208259
 11
286.4055583478
 21
180.9051208259
  0
LINE
  5
61E
100
AcDbEntity
  8
0
100
AcDbLine
 62
7
  6
CONTINUOUS
 10
287.4407233711
 20
226.7683582215
 11
287.4407233711
 21
225.1159798647
  0
LINE
  5
61F
100
AcDbEntity
  8
0
100
AcDbLine
 62
7
  6
CONTINUOUS
 10
287.4407233711
 20
202.5512952712
 11
287.4407233711
 21
200.7319872358
  0
LINE
  5
620
100
AcDbEntity
  8
0
100
AcDbLine
 62
7
  6
CONTINUOUS
 10
287.4407233711
 20
203.0529565397
 11
287.4407233711
 21
203.0688192938
  0
LINE
  5
621
100
AcDbEntity
  8
0
100
AcDbLine
 62
7
  6
CONTINUOUS
 10
287.4407233711
 20
228.3204359958
 11
287.4407233711
 21
229.4339877548
  0
LINE
  5
622
100
AcDbEntity
  8
0
100
AcDbLine
 62
7
  6
CONTINUOUS
 10
287.4407233711
 20
226.7683582215
 11
287.4407233711
 21
228.3204359958
  0
LINE
  5
623
100
AcDbEntity
  8
0
100
AcDbLine
 62
7
  6
CONTINUOUS
 10
287.4407233711
 20
225.1159798647
 11
287.4407233711
 21
203.0688192938
  0
LINE
  5
624
100
AcDbEntity
  8
0
100
AcDbLine
 62
7
  6
CONTINUOUS
 10
287.4407233711
 20
203.0529565397
 11
287.4407233711
 21
202.5512952712
  0
LINE
  5
625
100
AcDbEntity
  8
0
100
AcDbLine
 62
7
  6
CONTINUOUS
 10
289.1233463711
 20
234.2345872357
 11
289.1233463711
 21
219.9343872358
  0
LINE
  5
626
100
AcDbEntity
  8
0
100
AcDbLine
 62
7
  6
CONTINUOUS
 10
289.2503463711
 20
257.3739872358
 11
289.2503463711
 21
255.9515872358
  0
LINE
  5
627
100
AcDbEntity
  8
0
100
AcDbLine
 62
7
  6
CONTINUOUS
 10
289.2503463711
 20
253.0559872358
 11
289.2503463711
 21
251.6335872358
  0
LINE
  5
628
100
AcDbEntity
  8
0
100
AcDbLine
 62
7
  6
CONTINUOUS
 10
289.2503463711
 20
248.7379872358
 11
289.2503463711
 21
247.3155872358
  0
LINE
  5
629
100
AcDbEntity
  8
0
100
AcDbLine
 62
7
  6
CONTINUOUS
 10
289.2503463711
 20
244.4199872358
 11
289.2503463711
 21
242.9975872358
  0
LINE
  5
62A
100
AcDbEntity
  8
0
100
AcDbLine
 62
7
  6
CONTINUOUS
 10
289.2503463711
 20
240.1019872358
 11
289.2503463711
 21
238.6795872358
  0
LINE
  5
62B
100
AcDbEntity
  8
0
100
AcDbLine
 62
7
  6
CONTINUOUS
 10
289.2503463711
 20
235.6569872358
 11
289.2503463711
 21
234.2345872358
  0
LINE
  5
62C
100
AcDbEntity
  8
0
100
AcDbLine
 62
7
  6
CONTINUOUS
 10
289.9615583478
 20
183.3435208259
 11
289.9615583478
 21
180.9051208259
  0
LINE
  5
62D
100
AcDbEntity
  8
0
100
AcDbLine
 62
7
  6
CONTINUOUS
 10
291.4855583478
 20
187.9145048259
 11
291.4855583478
 21
185.4761048259
  0
LINE
  5
62E
100
AcDbEntity
  8
0
100
AcDbLine
 62
7
  6
CONTINUOUS
 10
291.4855583478
 20
185.4761048259
 11
291.4855583478
 21
180.9051208259
  0
LINE
  5
62F
100
AcDbEntity
  8
0
100
AcDbLine
 62
7
  6
CONTINUOUS
 10
292.0443463711
 20
232.5327872358
 11
292.0443463711
 21
219.9343872358
  0
LINE
  5
630
100
AcDbEntity
  8
0
100
AcDbLine
 62
7
  6
CONTINUOUS
 10
292.3237583478
 20
185.4761048259
 11
292.3237583478
 21
187.9145048259
  0
LINE
  5
631
100
AcDbEntity
  8
0
100
AcDbLine
 62
7
  6
CONTINUOUS
 10
293.1048217711
 20
187.8922872358
 11
293.1048217711
 21
186.6222872358
  0
LINE
  5
632
100
AcDbEntity
  8
0
100
AcDbLine
 62
7
  6
CONTINUOUS
 10
293.84051968
 20
186.6222872358
 11
293.84051968
 21
257.8311872358
  0
LINE
  5
633
100
AcDbEntity
  8
0
100
AcDbLine
 62
7
  6
CONTINUOUS
 10
295.7527463711
 20
259.8631872358
 11
295.7527463711
 21
258.0343872358
  0
LINE
  5
634
100
AcDbEntity
  8
0
100
AcDbLine
 62
7
  6
CONTINUOUS
 10
295.7527463711
 20
258.0343872358
 11
295.7527463711
 21
232.5327872358
  0
LINE
  5
635
100
AcDbEntity
  8
0
100
AcDbLine
 62
7
  6
CONTINUOUS
 10
295.8543463711
 20
257.3739872358
 11
295.8543463711
 21
255.9515872358
  0
LINE
  5
636
100
AcDbEntity
  8
0
100
AcDbLine
 62
7
  6
CONTINUOUS
 10
295.8543463711
 20
253.0559872358
 11
295.8543463711
 21
251.6335872358
  0
LINE
  5
637
100
AcDbEntity
  8
0
100
AcDbLine
 62
7
  6
CONTINUOUS
 10
295.8543463711
 20
248.7379872358
 11
295.8543463711
 21
247.3155872358
  0
LINE
  5
638
100
AcDbEntity
  8
0
100
AcDbLine
 62
7
  6
CONTINUOUS
 10
295.8543463711
 20
244.4199872358
 11
295.8543463711
 21
242.9975872358
  0
LINE
  5
639
100
AcDbEntity
  8
0
100
AcDbLine
 62
7
  6
CONTINUOUS
 10
295.8543463711
 20
240.1019872358
 11
295.8543463711
 21
238.6795872358
  0
LINE
  5
63A
100
AcDbEntity
  8
0
100
AcDbLine
 62
7
  6
CONTINUOUS
 10
295.8543463711
 20
235.6569872358
 11
295.8543463711
 21
234.2345872358
  0
LINE
  5
63B
100
AcDbEntity
  8
0
100
AcDbLine
 62
7
  6
CONTINUOUS
 10
296.1265116955
 20
257.8311872358
 11
296.1265116955
 21
186.6222872358
  0
LINE
  5
63C
100
AcDbEntity
  8
0
100
AcDbLine
 62
7
  6
CONTINUOUS
 10
296.4068083479
 20
200.7319872358
 11
296.4068083479
 21
230.7801805937
  0
LINE
  5
63D
100
AcDbEntity
  8
0
100
AcDbLine
 62
7
  6
CONTINUOUS
 10
284.9891990578
 20
212.2228860193
 11
289.0650800526
 21
227.4342862874
  0
LINE
  5
63E
100
AcDbEntity
  8
0
100
AcDbLine
 62
7
  6
CONTINUOUS
 10
296.9973463711
 20
232.8121872358
 11
296.9973463711
 21
219.9343872358
  0
LINE
  5
63F
100
AcDbEntity
  8
0
100
AcDbLine
 62
7
  6
CONTINUOUS
 10
297.0227463711
 20
232.8121872358
 11
297.0227463711
 21
219.9343872358
  0
LINE
  5
640
100
AcDbEntity
  8
0
100
AcDbLine
 62
7
  6
CONTINUOUS
 10
297.1497583478
 20
185.4761048259
 11
297.1497583478
 21
187.9145048259
  0
LINE
  5
641
100
AcDbEntity
  8
0
100
AcDbLine
 62
7
  6
CONTINUOUS
 10
297.6505331033
 20
257.8311872358
 11
297.6505331033
 21
186.6222872358
  0
LINE
  5
642
100
AcDbEntity
  8
0
100
AcDbLine
 62
7
  6
CONTINUOUS
 10
297.9308083479
 20
230.7801778498
 11
297.9308217711
 21
186.6222872358
  0
LINE
  5
643
100
AcDbEntity
  8
0
100
AcDbLine
 62
7
  6
CONTINUOUS
 10
299.1055583478
 20
187.9145048259
 11
299.1055583478
 21
185.4761048259
  0
LINE
  5
644
100
AcDbEntity
  8
0
100
AcDbLine
 62
7
  6
CONTINUOUS
 10
299.1563463711
 20
280.6403872358
 11
299.1563463711
 21
219.9343872358
  0
LINE
  5
645
100
AcDbEntity
  8
0
100
AcDbLine
 62
7
  6
CONTINUOUS
 10
299.4548217711
 20
257.8311872358
 11
299.4548217711
 21
186.6222872358
  0
LINE
  5
646
100
AcDbEntity
  8
0
100
AcDbLine
 62
7
  6
CONTINUOUS
 10
300.6295583478
 20
187.9145048259
 11
300.6295583478
 21
185.4761048259
  0
LINE
  5
647
100
AcDbEntity
  8
0
100
AcDbLine
 62
7
  6
CONTINUOUS
 10
311.8563463711
 20
232.5327872358
 11
311.8563463711
 21
280.6403872358
  0
ARC
  5
648
100
AcDbEntity
  8
0
100
AcDbCircle
 62
7
  6
CONTINUOUS
 10
52.3260406199
 20
192.3903676962
 40
4.3590746744
100
AcDbArc
 50
82.6862158823
 51
97.3137841186
  0
ARC
  5
649
100
AcDbEntity
  8
0
100
AcDbCircle
 62
7
  6
CONTINUOUS
 10
59.3083145212
 20
184.7151208259
 40
2.8702
100
AcDbArc
 50
90.0
 51
149.9999999999
  0
ARC
  5
64A
100
AcDbEntity
  8
0
100
AcDbCircle
 62
7
  6
CONTINUOUS
 10
54.5716174427
 20
183.7753208259
 40
2.8702
100
AcDbArc
 50
270.0
 51
330.0000000002
  0
ARC
  5
64B
100
AcDbEntity
  8
0
100
AcDbCircle
 62
7
  6
CONTINUOUS
 10
77.6388021744
 20
184.7151208259
 40
2.8702
100
AcDbArc
 50
29.9999999996
 51
90.0000000002
  0
ARC
  5
64C
100
AcDbEntity
  8
0
100
AcDbCircle
 62
7
  6
CONTINUOUS
 10
82.3754992529
 20
183.7753208259
 40
2.8702
100
AcDbArc
 50
210.0000000003
 51
269.9999999998
  0
ARC
  5
64D
100
AcDbEntity
  8
0
100
AcDbCircle
 62
7
  6
CONTINUOUS
 10
52.9641292433
 20
194.7797914509
 40
2.317829375
100
AcDbArc
 50
15.0878225691
 51
90.0
  0
ARC
  5
64E
100
AcDbEntity
  8
0
100
AcDbCircle
 62
7
  6
CONTINUOUS
 10
48.1689874523
 20
194.7797914509
 40
2.317829375
100
AcDbArc
 50
90.0
 51
164.9121774309
  0
ARC
  5
64F
100
AcDbEntity
  8
0
100
AcDbCircle
 62
7
  6
CONTINUOUS
 10
54.5716174427
 20
183.7753208259
 40
0.762
100
AcDbArc
 50
269.9999999998
 51
329.9999999989
  0
ARC
  5
650
100
AcDbEntity
  8
0
100
AcDbCircle
 62
7
  6
CONTINUOUS
 10
59.3083145212
 20
184.7151208259
 40
0.762
100
AcDbArc
 50
89.9999999997
 51
149.9999999969
  0
ARC
  5
651
100
AcDbEntity
  8
0
100
AcDbCircle
 62
7
  6
CONTINUOUS
 10
82.3754992529
 20
183.7753208259
 40
0.762
100
AcDbArc
 50
209.9999999974
 51
270.0000000002
  0
ARC
  5
652
100
AcDbEntity
  8
0
100
AcDbCircle
 62
7
  6
CONTINUOUS
 10
77.6388021744
 20
184.7151208259
 40
0.762
100
AcDbArc
 50
29.9999999954
 51
90.0000000003
  0
ARC
  5
653
100
AcDbEntity
  8
0
100
AcDbCircle
 62
7
  6
CONTINUOUS
 10
152.3189583478
 20
195.2053208259
 40
6.35
100
AcDbArc
 50
180.0
 51
270.0
  0
ARC
  5
654
100
AcDbEntity
  8
0
100
AcDbCircle
 62
7
  6
CONTINUOUS
 10
159.9135583478
 20
187.3313208259
 40
1.524
100
AcDbArc
 50
0.0
 51
90.0
  0
ARC
  5
655
100
AcDbEntity
  8
0
100
AcDbCircle
 62
7
  6
CONTINUOUS
 10
152.3189583478
 20
200.5393208259
 40
6.35
100
AcDbArc
 50
90.0
 51
180.0
  0
ARC
  5
656
100
AcDbEntity
  8
0
100
AcDbCircle
 62
7
  6
CONTINUOUS
 10
152.3189583478
 20
196.7293208259
 40
2.794
100
AcDbArc
 50
180.0
 51
360.0
  0
ARC
  5
657
100
AcDbEntity
  8
0
100
AcDbCircle
 62
7
  6
CONTINUOUS
 10
152.3189583478
 20
198.2533208259
 40
2.794
100
AcDbArc
 50
0.0
 51
180.0
  0
ARC
  5
658
100
AcDbEntity
  8
0
100
AcDbCircle
 62
7
  6
CONTINUOUS
 10
159.9135583478
 20
208.4133208259
 40
1.524
100
AcDbArc
 50
270.0
 51
360.0
  0
CIRCLE
  5
659
100
AcDbEntity
  8
0
100
AcDbCircle
 62
7
  6
CONTINUOUS
 10
71.8136583478
 20
234.4089706942
 40
0.9525
  0
ARC
  5
65A
100
AcDbEntity
  8
0
100
AcDbCircle
 62
7
  6
CONTINUOUS
 10
167.4473874523
 20
195.1089754509
 40
2.317829375
100
AcDbArc
 50
90.0
 51
164.9121774309
  0
ARC
  5
65B
100
AcDbEntity
  8
0
100
AcDbCircle
 62
7
  6
CONTINUOUS
 10
168.3209548468
 20
201.9871267367
 40
8.8138
100
AcDbArc
 50
157.4357356113
 51
269.9999942896
  0
ARC
  5
65C
100
AcDbEntity
  8
0
100
AcDbCircle
 62
7
  6
CONTINUOUS
 10
168.3209548468
 20
201.9871267367
 40
7.0358
100
AcDbArc
 50
141.6406054827
 51
269.9999942899
  0
ARC
  5
65D
100
AcDbEntity
  8
0
100
AcDbCircle
 62
7
  6
CONTINUOUS
 10
168.3209583478
 20
201.9871208259
 40
4.7625
100
AcDbArc
 50
98.6274563212
 51
113.0914676789
  0
ARC
  5
65E
100
AcDbEntity
  8
0
100
AcDbCircle
 62
7
  6
CONTINUOUS
 10
168.3209583478
 20
201.9871208259
 40
4.7625
100
AcDbArc
 50
68.6274563211
 51
83.0914676789
  0
ARC
  5
65F
100
AcDbEntity
  8
0
100
AcDbCircle
 62
7
  6
CONTINUOUS
 10
168.3209583478
 20
201.9871208259
 40
4.7625
100
AcDbArc
 50
38.6274563211
 51
53.0914676789
  0
ARC
  5
660
100
AcDbEntity
  8
0
100
AcDbCircle
 62
7
  6
CONTINUOUS
 10
168.3209583478
 20
201.9871208259
 40
4.7625
100
AcDbArc
 50
8.6274563211
 51
23.0914676789
  0
ARC
  5
661
100
AcDbEntity
  8
0
100
AcDbCircle
 62
7
  6
CONTINUOUS
 10
168.3209583478
 20
201.9871208259
 40
4.7625
100
AcDbArc
 50
338.6274563211
 51
353.0914676789
  0
ARC
  5
662
100
AcDbEntity
  8
0
100
AcDbCircle
 62
7
  6
CONTINUOUS
 10
168.3209583478
 20
201.9871208259
 40
4.7625
100
AcDbArc
 50
308.6274563211
 51
323.0914676789
  0
ARC
  5
663
100
AcDbEntity
  8
0
100
AcDbCircle
 62
7
  6
CONTINUOUS
 10
168.3209583478
 20
201.9871208259
 40
4.7625
100
AcDbArc
 50
278.6274563211
 51
293.0914676789
  0
ARC
  5
664
100
AcDbEntity
  8
0
100
AcDbCircle
 62
7
  6
CONTINUOUS
 10
168.3209583478
 20
201.9871208259
 40
4.7625
100
AcDbArc
 50
248.6274563211
 51
263.0914676789
  0
ARC
  5
665
100
AcDbEntity
  8
0
100
AcDbCircle
 62
7
  6
CONTINUOUS
 10
168.3209583478
 20
201.9871208259
 40
4.7625
100
AcDbArc
 50
218.6274563211
 51
233.0914676789
  0
ARC
  5
666
100
AcDbEntity
  8
0
100
AcDbCircle
 62
7
  6
CONTINUOUS
 10
168.3209583478
 20
201.9871208259
 40
4.7625
100
AcDbArc
 50
188.6274563211
 51
203.0914676788
  0
ARC
  5
667
100
AcDbEntity
  8
0
100
AcDbCircle
 62
7
  6
CONTINUOUS
 10
168.3209583478
 20
201.9871208259
 40
4.7625
100
AcDbArc
 50
128.6274563212
 51
143.0914676789
  0
ARC
  5
668
100
AcDbEntity
  8
0
100
AcDbCircle
 62
7
  6
CONTINUOUS
 10
168.3209583478
 20
201.9871208259
 40
4.7625
100
AcDbArc
 50
158.6274563211
 51
173.0914676789
  0
CIRCLE
  5
669
100
AcDbEntity
  8
0
100
AcDbCircle
 62
7
  6
CONTINUOUS
 10
168.3209583478
 20
201.9871208259
 40
4.6736
  0
CIRCLE
  5
66A
100
AcDbEntity
  8
0
100
AcDbCircle
 62
7
  6
CONTINUOUS
 10
168.3209583478
 20
201.9871208259
 40
4.6452725373
  0
ARC
  5
66B
100
AcDbEntity
  8
0
100
AcDbCircle
 62
7
  6
CONTINUOUS
 10
168.3209583478
 20
201.9871208259
 40
4.6084279898
100
AcDbArc
 50
21.44289505
 51
40.3769857976
  0
ARC
  5
66C
100
AcDbEntity
  8
0
100
AcDbCircle
 62
7
  6
CONTINUOUS
 10
168.3209583478
 20
201.9871208259
 40
4.6084279898
100
AcDbArc
 50
201.3419382024
 51
218.5572844627
  0
ARC
  5
66D
100
AcDbEntity
  8
0
100
AcDbCircle
 62
7
  6
CONTINUOUS
 10
168.3209583478
 20
201.9871208259
 40
3.1481021172
100
AcDbArc
 50
44.867064211
 51
196.851859789
  0
ARC
  5
66E
100
AcDbEntity
  8
0
100
AcDbCircle
 62
7
  6
CONTINUOUS
 10
168.3209583478
 20
201.9871208259
 40
3.1481021172
100
AcDbArc
 50
222.5810916499
 51
17.4190878628
  0
CIRCLE
  5
66F
100
AcDbEntity
  8
0
100
AcDbCircle
 62
7
  6
CONTINUOUS
 10
168.3209548468
 20
201.9871267367
 40
2.667
  0
CIRCLE
  5
670
100
AcDbEntity
  8
0
100
AcDbCircle
 62
7
  6
CONTINUOUS
 10
168.3212631478
 20
202.0625080259
 40
1.980311
  0
ARC
  5
671
100
AcDbEntity
  8
0
100
AcDbCircle
 62
7
  6
CONTINUOUS
 10
171.6573944998
 20
192.8015885318
 40
4.2770375299
100
AcDbArc
 50
82.6163426929
 51
97.3836573068
  0
ARC
  5
672
100
AcDbEntity
  8
0
100
AcDbCircle
 62
7
  6
CONTINUOUS
 10
176.2778344247
 20
183.2478510094
 40
4.4637255748
100
AcDbArc
 50
350.4244698461
 51
0.0492900831
  0
ARC
  5
673
100
AcDbEntity
  8
0
100
AcDbCircle
 62
7
  6
CONTINUOUS
 10
176.2778344247
 20
184.4670510094
 40
4.4637255748
100
AcDbArc
 50
350.4244698461
 51
0.0492900831
  0
ARC
  5
674
100
AcDbEntity
  8
0
100
AcDbCircle
 62
7
  6
CONTINUOUS
 10
172.2425292433
 20
195.1089754509
 40
2.317829375
100
AcDbArc
 50
15.0878225691
 51
90.0
  0
CIRCLE
  5
675
100
AcDbEntity
  8
0
100
AcDbCircle
 62
7
  6
CONTINUOUS
 10
195.4988821478
 20
219.3362606259
 40
2.7939365
  0
ARC
  5
676
100
AcDbEntity
  8
0
100
AcDbCircle
 62
7
  6
CONTINUOUS
 10
160.6755583478
 20
223.3477007396
 40
0.762
100
AcDbArc
 50
0.0
 51
60.9558208036
  0
ARC
  5
677
100
AcDbEntity
  8
0
100
AcDbCircle
 62
7
  6
CONTINUOUS
 10
243.6319583478
 20
200.5393208259
 40
6.35
100
AcDbArc
 50
0.0
 51
90.0
  0
ARC
  5
678
100
AcDbEntity
  8
0
100
AcDbCircle
 62
7
  6
CONTINUOUS
 10
243.6319583478
 20
195.2053208259
 40
6.35
100
AcDbArc
 50
270.0
 51
360.0
  0
ARC
  5
679
100
AcDbEntity
  8
0
100
AcDbCircle
 62
7
  6
CONTINUOUS
 10
243.6319583478
 20
197.1865208259
 40
5.588
100
AcDbArc
 50
0.0
 51
180.0
  0
ARC
  5
67A
100
AcDbEntity
  8
0
100
AcDbCircle
 62
7
  6
CONTINUOUS
 10
243.6319583478
 20
198.2533208259
 40
2.794
100
AcDbArc
 50
0.0
 51
180.0
  0
ARC
  5
67B
100
AcDbEntity
  8
0
100
AcDbCircle
 62
7
  6
CONTINUOUS
 10
243.6319583478
 20
196.7293208259
 40
2.794
100
AcDbArc
 50
180.0
 51
360.0
  0
CIRCLE
  5
67C
100
AcDbEntity
  8
0
100
AcDbCircle
 62
7
  6
CONTINUOUS
 10
227.6299548544
 20
202.0633208259
 40
2.667
  0
CIRCLE
  5
67D
100
AcDbEntity
  8
0
100
AcDbCircle
 62
7
  6
CONTINUOUS
 10
243.6319583478
 20
197.1865208259
 40
2.0828
  0
CIRCLE
  5
67E
100
AcDbEntity
  8
0
100
AcDbCircle
 62
7
  6
CONTINUOUS
 10
227.6299837478
 20
202.0627620259
 40
1.9807047
  0
ARC
  5
67F
100
AcDbEntity
  8
0
100
AcDbCircle
 62
7
  6
CONTINUOUS
 10
236.0373583478
 20
187.3313208259
 40
1.524
100
AcDbArc
 50
90.0
 51
180.0
  0
ARC
  5
680
100
AcDbEntity
  8
0
100
AcDbCircle
 62
7
  6
CONTINUOUS
 10
236.0373583478
 20
208.4133208259
 40
1.524
100
AcDbArc
 50
180.0
 51
270.0
  0
ARC
  5
681
100
AcDbEntity
  8
0
100
AcDbCircle
 62
7
  6
CONTINUOUS
 10
227.6299563732
 20
217.3033208259
 40
6.096
100
AcDbArc
 50
269.9999942892
 51
89.9999942839
  0
ARC
  5
682
100
AcDbEntity
  8
0
100
AcDbCircle
 62
7
  6
CONTINUOUS
 10
227.6299563733
 20
217.3033208259
 40
3.81
100
AcDbArc
 50
269.9999942906
 51
89.9999942927
  0
ARC
  5
683
100
AcDbEntity
  8
0
100
AcDbCircle
 62
7
  6
CONTINUOUS
 10
225.9656267755
 20
221.7491976667
 40
4.699
100
AcDbArc
 50
174.5907515919
 51
273.999973
  0
ARC
  5
684
100
AcDbEntity
  8
0
100
AcDbCircle
 62
7
  6
CONTINUOUS
 10
225.9656267755
 20
221.7491976667
 40
2.032
100
AcDbArc
 50
174.5907515919
 51
273.999973
  0
ARC
  5
685
100
AcDbEntity
  8
0
100
AcDbCircle
 62
7
  6
CONTINUOUS
 10
224.8041963711
 20
219.6041872358
 40
0.635
100
AcDbArc
 50
90.0
 51
180.0
  0
ARC
  5
686
100
AcDbEntity
  8
0
100
AcDbCircle
 62
7
  6
CONTINUOUS
 10
231.4843963711
 20
219.6041872358
 40
0.635
100
AcDbArc
 50
0.0
 51
90.0
  0
ARC
  5
687
100
AcDbEntity
  8
0
100
AcDbCircle
 62
7
  6
CONTINUOUS
 10
233.5230111153
 20
227.622987609
 40
6.35
100
AcDbArc
 50
53.1957871323
 51
194.3609976451
  0
ARC
  5
688
100
AcDbEntity
  8
0
100
AcDbCircle
 62
7
  6
CONTINUOUS
 10
231.4554405316
 20
224.8990579
 40
3.175
100
AcDbArc
 50
286.9141154356
 51
345.4525278839
  0
ARC
  5
689
100
AcDbEntity
  8
0
100
AcDbCircle
 62
7
  6
CONTINUOUS
 10
243.1302333023
 20
219.9005180278
 40
6.096
100
AcDbArc
 50
131.9999943181
 51
311.9999942886
  0
ARC
  5
68A
100
AcDbEntity
  8
0
100
AcDbCircle
 62
7
  6
CONTINUOUS
 10
243.1302333023
 20
219.9005180279
 40
3.81
100
AcDbArc
 50
131.9999942897
 51
311.9999942898
  0
ARC
  5
68B
100
AcDbEntity
  8
0
100
AcDbCircle
 62
7
  6
CONTINUOUS
 10
236.2722963711
 20
219.0961872358
 40
1.905
100
AcDbArc
 50
90.0
 51
270.0
  0
CIRCLE
  5
68C
100
AcDbEntity
  8
0
100
AcDbCircle
 62
7
  6
CONTINUOUS
 10
236.2722963711
 20
219.0961872358
 40
1.3335
  0
ARC
  5
68D
100
AcDbEntity
  8
0
100
AcDbCircle
 62
7
  6
CONTINUOUS
 10
235.2753583478
 20
223.3477007396
 40
0.762
100
AcDbArc
 50
119.0441791806
 51
180.0
  0
ARC
  5
68E
100
AcDbEntity
  8
0
100
AcDbCircle
 62
7
  6
CONTINUOUS
 10
261.1154415065
 20
210.46775036
 40
12.7001800071
100
AcDbArc
 50
23.3467360104
 51
126.6532706497
  0
ARC
  5
68F
100
AcDbEntity
  8
0
100
AcDbCircle
 62
7
  6
CONTINUOUS
 10
268.5556963711
 20
206.2437872358
 40
0.635
100
AcDbArc
 50
0.0
 51
90.0
  0
ARC
  5
690
100
AcDbEntity
  8
0
100
AcDbCircle
 62
7
  6
CONTINUOUS
 10
261.8754963711
 20
206.2437872358
 40
0.635
100
AcDbArc
 50
90.0
 51
180.0
  0
ARC
  5
691
100
AcDbEntity
  8
0
100
AcDbCircle
 62
7
  6
CONTINUOUS
 10
168.3209583478
 20
237.1153208259
 40
15.9960183505
100
AcDbArc
 50
270.0000000679
 51
90.0000000682
  0
ARC
  5
692
100
AcDbEntity
  8
0
100
AcDbCircle
 62
7
  6
CONTINUOUS
 10
168.3209583478
 20
237.1153208259
 40
15.2340183505
100
AcDbArc
 50
269.9999996627
 51
90.0000000002
  0
ARC
  5
693
100
AcDbEntity
  8
0
100
AcDbCircle
 62
7
  6
CONTINUOUS
 10
168.3209583478
 20
237.1153208259
 40
14.986
100
AcDbArc
 50
269.9999999116
 51
90.0
  0
ARC
  5
694
100
AcDbEntity
  8
0
100
AcDbCircle
 62
7
  6
CONTINUOUS
 10
168.3209583478
 20
237.1153208259
 40
14.986
100
AcDbArc
 50
119.0441791809
 51
240.9558208201
  0
ARC
  5
695
100
AcDbEntity
  8
0
100
AcDbCircle
 62
7
  6
CONTINUOUS
 10
168.3209583478
 20
237.1153208259
 40
14.224
100
AcDbArc
 50
270.0
 51
90.0000000681
  0
ARC
  5
696
100
AcDbEntity
  8
0
100
AcDbCircle
 62
7
  6
CONTINUOUS
 10
168.3209583478
 20
237.1153208259
 40
4.0259
100
AcDbArc
 50
306.4460681879
 51
53.5539318121
  0
ARC
  5
697
100
AcDbEntity
  8
0
100
AcDbCircle
 62
7
  6
CONTINUOUS
 10
168.3209583478
 20
237.1153208259
 40
4.0259
100
AcDbArc
 50
126.4460681879
 51
233.5539318121
  0
ARC
  5
698
100
AcDbEntity
  8
0
100
AcDbCircle
 62
7
  6
CONTINUOUS
 10
186.4628963711
 20
251.3923126358
 40
2.54
100
AcDbArc
 50
89.9999999978
 51
179.9999999996
  0
ARC
  5
699
100
AcDbEntity
  8
0
100
AcDbCircle
 62
7
  6
CONTINUOUS
 10
186.4628963711
 20
251.5827778498
 40
2.54
100
AcDbArc
 50
90.0000000014
 51
179.9999999996
  0
ARC
  5
69A
100
AcDbEntity
  8
0
100
AcDbCircle
 62
7
  6
CONTINUOUS
 10
160.6755583478
 20
250.8829409122
 40
0.762
100
AcDbArc
 50
299.0441791743
 51
360.0
  0
CIRCLE
  5
69B
100
AcDbEntity
  8
0
100
AcDbCircle
 62
7
  6
CONTINUOUS
 10
214.4155963711
 20
233.2377810894
 40
0.7492873
  0
ARC
  5
69C
100
AcDbEntity
  8
0
100
AcDbCircle
 62
7
  6
CONTINUOUS
 10
209.5307965441
 20
245.1735890023
 40
6.096
100
AcDbArc
 50
335.9999942933
 51
155.9999942902
  0
ARC
  5
69D
100
AcDbEntity
  8
0
100
AcDbCircle
 62
7
  6
CONTINUOUS
 10
209.5307965441
 20
245.1735890023
 40
3.81
100
AcDbArc
 50
335.9999942898
 51
155.9999942897
  0
ARC
  5
69E
100
AcDbEntity
  8
0
100
AcDbCircle
 62
7
  6
CONTINUOUS
 10
213.4504471711
 20
251.3923126358
 40
2.54
100
AcDbArc
 50
0.0
 51
90.0
  0
ARC
  5
69F
100
AcDbEntity
  8
0
100
AcDbCircle
 62
7
  6
CONTINUOUS
 10
213.4504471711
 20
251.5827778498
 40
2.54
100
AcDbArc
 50
0.0
 51
90.0
  0
ARC
  5
6A0
100
AcDbEntity
  8
0
100
AcDbCircle
 62
7
  6
CONTINUOUS
 10
167.7875583478
 20
272.9039208259
 40
6.35
100
AcDbArc
 50
90.0
 51
180.0000000001
  0
CIRCLE
  5
6A1
100
AcDbEntity
  8
0
100
AcDbCircle
 62
7
  6
CONTINUOUS
 10
178.9890599478
 20
254.8976068259
 40
2.7939365
  0
CIRCLE
  5
6A2
100
AcDbEntity
  8
0
100
AcDbCircle
 62
7
  6
CONTINUOUS
 10
168.3212631478
 20
272.1666858259
 40
1.9807047
  0
ARC
  5
6A3
100
AcDbEntity
  8
0
100
AcDbCircle
 62
7
  6
CONTINUOUS
 10
227.6299583478
 20
237.1153208259
 40
29.2608
100
AcDbArc
 50
311.9999942894
 51
47.9999942898
  0
ARC
  5
6A4
100
AcDbEntity
  8
0
100
AcDbCircle
 62
7
  6
CONTINUOUS
 10
228.2131557711
 20
235.5612292358
 40
29.21
100
AcDbArc
 50
120.7440773795
 51
167.3199801452
  0
ARC
  5
6A5
100
AcDbEntity
  8
0
100
AcDbCircle
 62
7
  6
CONTINUOUS
 10
227.6299583478
 20
237.1153208259
 40
26.9748
100
AcDbArc
 50
311.9999942899
 51
47.9999942898
  0
ARC
  5
6A6
100
AcDbEntity
  8
0
100
AcDbCircle
 62
7
  6
CONTINUOUS
 10
227.6299583478
 20
237.1153208259
 40
25.908
100
AcDbArc
 50
155.9999942899
 51
269.9999942896
  0
ARC
  5
6A7
100
AcDbEntity
  8
0
100
AcDbCircle
 62
7
  6
CONTINUOUS
 10
227.6299583478
 20
237.1153208259
 40
23.622
100
AcDbArc
 50
155.9999942897
 51
269.99999429
  0
ARC
  5
6A8
100
AcDbEntity
  8
0
100
AcDbCircle
 62
7
  6
CONTINUOUS
 10
227.6299583478
 20
237.1153208259
 40
19.3548
100
AcDbArc
 50
311.9999942899
 51
47.9999942902
  0
ARC
  5
6A9
100
AcDbEntity
  8
0
100
AcDbCircle
 62
7
  6
CONTINUOUS
 10
227.6299583478
 20
237.1153208259
 40
17.0688
100
AcDbArc
 50
311.9999942897
 51
47.9999942897
  0
ARC
  5
6AA
100
AcDbEntity
  8
0
100
AcDbCircle
 62
7
  6
CONTINUOUS
 10
227.6299583478
 20
237.1153208259
 40
15.9960183505
100
AcDbArc
 50
89.9999999998
 51
270.0000000002
  0
ARC
  5
6AB
100
AcDbEntity
  8
0
100
AcDbCircle
 62
7
  6
CONTINUOUS
 10
227.6299583478
 20
237.1153208259
 40
15.748
100
AcDbArc
 50
89.9999999999
 51
270.0000000001
  0
ARC
  5
6AC
100
AcDbEntity
  8
0
100
AcDbCircle
 62
7
  6
CONTINUOUS
 10
227.6299583478
 20
237.1153208259
 40
15.2340183505
100
AcDbArc
 50
89.9999999667
 51
269.9999999181
  0
ARC
  5
6AD
100
AcDbEntity
  8
0
100
AcDbCircle
 62
7
  6
CONTINUOUS
 10
227.6299583478
 20
237.1153208259
 40
14.986
100
AcDbArc
 50
89.9999999319
 51
270.0
  0
ARC
  5
6AE
100
AcDbEntity
  8
0
100
AcDbCircle
 62
7
  6
CONTINUOUS
 10
227.6299583478
 20
237.1153208259
 40
14.986
100
AcDbArc
 50
299.0441791806
 51
60.9558208194
  0
CIRCLE
  5
6AF
100
AcDbEntity
  8
0
100
AcDbCircle
 62
7
  6
CONTINUOUS
 10
228.2131557711
 20
235.5612292358
 40
14.31925
  0
ARC
  5
6B0
100
AcDbEntity
  8
0
100
AcDbCircle
 62
7
  6
CONTINUOUS
 10
227.6299583478
 20
237.1153208259
 40
14.224
100
AcDbArc
 50
90.0
 51
270.0000000884
  0
ARC
  5
6B1
100
AcDbEntity
  8
0
100
AcDbCircle
 62
7
  6
CONTINUOUS
 10
227.6299583478
 20
237.1153208259
 40
13.716
100
AcDbArc
 50
155.9999942882
 51
269.9999942922
  0
ARC
  5
6B2
100
AcDbEntity
  8
0
100
AcDbCircle
 62
7
  6
CONTINUOUS
 10
228.21312169
 20
235.7517020284
 40
12.2227133421
100
AcDbArc
 50
180.1444107598
 51
0.0007515549
  0
ARC
  5
6B3
100
AcDbEntity
  8
0
100
AcDbCircle
 62
7
  6
CONTINUOUS
 10
228.2131557711
 20
235.5612292358
 40
12.2227086
100
AcDbArc
 50
179.9999748546
 51
0.0001105376
  0
CIRCLE
  5
6B4
100
AcDbEntity
  8
0
100
AcDbCircle
 62
7
  6
CONTINUOUS
 10
227.6299583478
 20
237.1153208259
 40
11.684
  0
ARC
  5
6B5
100
AcDbEntity
  8
0
100
AcDbCircle
 62
7
  6
CONTINUOUS
 10
227.6299583478
 20
237.1153208259
 40
9.779
100
AcDbArc
 50
206.6894402554
 51
322.3413973591
  0
ARC
  5
6B6
100
AcDbEntity
  8
0
100
AcDbCircle
 62
7
  6
CONTINUOUS
 10
227.6299583478
 20
237.1153208259
 40
9.779
100
AcDbArc
 50
26.6894402554
 51
142.3413973592
  0
ARC
  5
6B7
100
AcDbEntity
  8
0
100
AcDbCircle
 62
7
  6
CONTINUOUS
 10
228.2131557711
 20
235.5612292358
 40
9.5504
100
AcDbArc
 50
342.6130894379
 51
84.9436953396
  0
ARC
  5
6B8
100
AcDbEntity
  8
0
100
AcDbCircle
 62
7
  6
CONTINUOUS
 10
228.2131557711
 20
235.5612292358
 40
9.5504
100
AcDbArc
 50
162.6130894379
 51
264.9436953396
  0
CIRCLE
  5
6B9
100
AcDbEntity
  8
0
100
AcDbCircle
 62
7
  6
CONTINUOUS
 10
227.6299583478
 20
237.1153208259
 40
9.525
  0
ARC
  5
6BA
100
AcDbEntity
  8
0
100
AcDbCircle
 62
7
  6
CONTINUOUS
 10
228.2131639964
 20
235.5612271013
 40
8.85825
100
AcDbArc
 50
75.452537044
 51
255.4525187229
  0
ARC
  5
6BB
100
AcDbEntity
  8
0
100
AcDbCircle
 62
7
  6
CONTINUOUS
 10
228.1442963711
 20
235.6061975707
 40
8.128
100
AcDbArc
 50
122.0899512565
 51
126.3977134787
  0
ARC
  5
6BC
100
AcDbEntity
  8
0
100
AcDbCircle
 62
7
  6
CONTINUOUS
 10
228.1442963711
 20
235.6061975707
 40
8.128
100
AcDbArc
 50
53.6022865217
 51
57.9100487439
  0
ARC
  5
6BD
100
AcDbEntity
  8
0
100
AcDbCircle
 62
7
  6
CONTINUOUS
 10
228.1442963711
 20
235.6061975707
 40
8.128
100
AcDbArc
 50
126.3977134787
 51
180.0000000004
  0
ARC
  5
6BE
100
AcDbEntity
  8
0
100
AcDbCircle
 62
7
  6
CONTINUOUS
 10
228.1442963711
 20
235.6061975707
 40
8.128
100
AcDbArc
 50
0.0000000011
 51
53.6022865217
  0
ARC
  5
6BF
100
AcDbEntity
  8
0
100
AcDbCircle
 62
7
  6
CONTINUOUS
 10
228.1442998077
 20
235.6061900043
 40
7.874
100
AcDbArc
 50
75.000005
 51
255.000005
  0
ARC
  5
6C0
100
AcDbEntity
  8
0
100
AcDbCircle
 62
7
  6
CONTINUOUS
 10
218.1232727348
 20
238.0281285479
 40
5.3606192421
100
AcDbArc
 50
278.2541887127
 51
70.7766489019
  0
ARC
  5
6C1
100
AcDbEntity
  8
0
100
AcDbCircle
 62
7
  6
CONTINUOUS
 10
227.6299583478
 20
237.1153208259
 40
4.7625
100
AcDbArc
 50
67.7679943212
 51
82.2320056789
  0
ARC
  5
6C2
100
AcDbEntity
  8
0
100
AcDbCircle
 62
7
  6
CONTINUOUS
 10
227.6299583478
 20
237.1153208259
 40
4.7625
100
AcDbArc
 50
37.7679943212
 51
52.2320056788
  0
ARC
  5
6C3
100
AcDbEntity
  8
0
100
AcDbCircle
 62
7
  6
CONTINUOUS
 10
227.6299583478
 20
237.1153208259
 40
4.7625
100
AcDbArc
 50
7.7679943211
 51
22.232005679
  0
ARC
  5
6C4
100
AcDbEntity
  8
0
100
AcDbCircle
 62
7
  6
CONTINUOUS
 10
227.6299583478
 20
237.1153208259
 40
4.7625
100
AcDbArc
 50
337.767994321
 51
352.2320056789
  0
ARC
  5
6C5
100
AcDbEntity
  8
0
100
AcDbCircle
 62
7
  6
CONTINUOUS
 10
227.6299583478
 20
237.1153208259
 40
4.7625
100
AcDbArc
 50
307.7679943212
 51
322.2320056788
  0
ARC
  5
6C6
100
AcDbEntity
  8
0
100
AcDbCircle
 62
7
  6
CONTINUOUS
 10
227.6299583478
 20
237.1153208259
 40
4.7625
100
AcDbArc
 50
277.7679943211
 51
292.2320056788
  0
ARC
  5
6C7
100
AcDbEntity
  8
0
100
AcDbCircle
 62
7
  6
CONTINUOUS
 10
227.6299583478
 20
237.1153208259
 40
4.7625
100
AcDbArc
 50
247.767994321
 51
262.2320056789
  0
ARC
  5
6C8
100
AcDbEntity
  8
0
100
AcDbCircle
 62
7
  6
CONTINUOUS
 10
227.6299583478
 20
237.1153208259
 40
4.7625
100
AcDbArc
 50
217.7679943212
 51
232.2320056788
  0
ARC
  5
6C9
100
AcDbEntity
  8
0
100
AcDbCircle
 62
7
  6
CONTINUOUS
 10
227.6299583478
 20
237.1153208259
 40
4.7625
100
AcDbArc
 50
187.7679943211
 51
202.232005679
  0
ARC
  5
6CA
100
AcDbEntity
  8
0
100
AcDbCircle
 62
7
  6
CONTINUOUS
 10
227.6299583478
 20
237.1153208259
 40
4.7625
100
AcDbArc
 50
157.767994321
 51
172.2320056789
  0
ARC
  5
6CB
100
AcDbEntity
  8
0
100
AcDbCircle
 62
7
  6
CONTINUOUS
 10
227.6299583478
 20
237.1153208259
 40
4.7625
100
AcDbArc
 50
97.7679943211
 51
112.232005679
  0
ARC
  5
6CC
100
AcDbEntity
  8
0
100
AcDbCircle
 62
7
  6
CONTINUOUS
 10
227.6299583478
 20
237.1153208259
 40
4.7625
100
AcDbArc
 50
127.7679943212
 51
142.2320056788
  0
ARC
  5
6CD
100
AcDbEntity
  8
0
100
AcDbCircle
 62
7
  6
CONTINUOUS
 10
227.2398475777
 20
235.2058615321
 40
4.699
100
AcDbArc
 50
72.177412114
 51
174.5907515919
  0
ARC
  5
6CE
100
AcDbEntity
  8
0
100
AcDbCircle
 62
7
  6
CONTINUOUS
 10
227.2398475777
 20
235.2058615321
 40
4.699
100
AcDbArc
 50
329.764072636
 51
72.177412114
  0
CIRCLE
  5
6CF
100
AcDbEntity
  8
0
100
AcDbCircle
 62
7
  6
CONTINUOUS
 10
227.6299583478
 20
237.1153208259
 40
4.6736
  0
CIRCLE
  5
6D0
100
AcDbEntity
  8
0
100
AcDbCircle
 62
7
  6
CONTINUOUS
 10
227.6299583478
 20
237.1153208259
 40
4.6452725373
  0
CIRCLE
  5
6D1
100
AcDbEntity
  8
0
100
AcDbCircle
 62
7
  6
CONTINUOUS
 10
227.6299583478
 20
237.1153208259
 40
3.1481021173
  0
ARC
  5
6D2
100
AcDbEntity
  8
0
100
AcDbCircle
 62
7
  6
CONTINUOUS
 10
227.2398475777
 20
235.2058615321
 40
2.032
100
AcDbArc
 50
72.177412114
 51
174.5907515919
  0
ARC
  5
6D3
100
AcDbEntity
  8
0
100
AcDbCircle
 62
7
  6
CONTINUOUS
 10
227.2398475777
 20
235.2058615321
 40
2.032
100
AcDbArc
 50
329.764072636
 51
72.177412114
  0
CIRCLE
  5
6D4
100
AcDbEntity
  8
0
100
AcDbCircle
 62
7
  6
CONTINUOUS
 10
240.4115580884
 20
232.3191892021
 40
1.9812
  0
ARC
  5
6D5
100
AcDbEntity
  8
0
100
AcDbCircle
 62
7
  6
CONTINUOUS
 10
237.1366439608
 20
236.2025131039
 40
5.3606192421
100
AcDbArc
 50
98.2541887125
 51
250.7766489021
  0
ARC
  5
6D6
100
AcDbEntity
  8
0
100
AcDbCircle
 62
7
  6
CONTINUOUS
 10
222.9033004269
 20
243.4994708626
 40
6.35
100
AcDbArc
 50
233.1957871323
 51
14.3609976451
  0
ARC
  5
6D7
100
AcDbEntity
  8
0
100
AcDbCircle
 62
7
  6
CONTINUOUS
 10
236.2308823263
 20
243.3014081064
 40
3.175
100
AcDbArc
 50
345.4525278843
 51
43.9909403325
  0
ARC
  5
6D8
100
AcDbEntity
  8
0
100
AcDbCircle
 62
7
  6
CONTINUOUS
 10
235.2753583478
 20
250.8829409122
 40
0.762
100
AcDbArc
 50
180.0
 51
240.9558208192
  0
ARC
  5
6D9
100
AcDbEntity
  8
0
100
AcDbCircle
 62
7
  6
CONTINUOUS
 10
250.7947583478
 20
237.1153208259
 40
15.748
100
AcDbArc
 50
269.9999999999
 51
90.0000000001
  0
ARC
  5
6DA
100
AcDbEntity
  8
0
100
AcDbCircle
 62
7
  6
CONTINUOUS
 10
250.7947583478
 20
237.1153208259
 40
9.6520002855
100
AcDbArc
 50
121.7568628101
 51
238.2431371899
  0
CIRCLE
  5
6DB
100
AcDbEntity
  8
0
100
AcDbCircle
 62
7
  6
CONTINUOUS
 10
250.7947583478
 20
237.1153208259
 40
6.3499238
  0
CIRCLE
  5
6DC
100
AcDbEntity
  8
0
100
AcDbCircle
 62
7
  6
CONTINUOUS
 10
250.7947583478
 20
237.1153208259
 40
5.8116307975
  0
CIRCLE
  5
6DD
100
AcDbEntity
  8
0
100
AcDbCircle
 62
7
  6
CONTINUOUS
 10
250.7947583478
 20
237.1153208259
 40
4.7625
  0
CIRCLE
  5
6DE
100
AcDbEntity
  8
0
100
AcDbCircle
 62
7
  6
CONTINUOUS
 10
250.7947583478
 20
237.1153208259
 40
4.064
  0
CIRCLE
  5
6DF
100
AcDbEntity
  8
0
100
AcDbCircle
 62
7
  6
CONTINUOUS
 10
250.7947583478
 20
237.1153208259
 40
3.175
  0
CIRCLE
  5
6E0
100
AcDbEntity
  8
0
100
AcDbCircle
 62
7
  6
CONTINUOUS
 10
250.7947583478
 20
237.1153208259
 40
2.8157932
  0
CIRCLE
  5
6E1
100
AcDbEntity
  8
0
100
AcDbCircle
 62
7
  6
CONTINUOUS
 10
250.7947583478
 20
237.1153208259
 40
2.2769703
  0
ARC
  5
6E2
100
AcDbEntity
  8
0
100
AcDbCircle
 62
7
  6
CONTINUOUS
 10
272.5435083479
 20
246.3893950316
 40
81.026
100
AcDbArc
 50
150.0000025732
 51
180.0
  0
ARC
  5
6E3
100
AcDbEntity
  8
0
100
AcDbCircle
 62
7
  6
CONTINUOUS
 10
272.5435083479
 20
246.3893950316
 40
76.2
100
AcDbArc
 50
150.0000027362
 51
180.0
  0
ARC
  5
6E4
100
AcDbEntity
  8
0
100
AcDbCircle
 62
7
  6
CONTINUOUS
 10
240.2918463711
 20
261.7427872358
 40
1.5748
100
AcDbArc
 50
90.0
 51
180.0
  0
ARC
  5
6E5
100
AcDbEntity
  8
0
100
AcDbCircle
 62
7
  6
CONTINUOUS
 10
228.1633583478
 20
272.9039208259
 40
6.35
100
AcDbArc
 50
0.0
 51
90.0
  0
ARC
  5
6E6
100
AcDbEntity
  8
0
100
AcDbCircle
 62
7
  6
CONTINUOUS
 10
227.6299583478
 20
272.1673208259
 40
4.7625
100
AcDbArc
 50
98.6274563212
 51
113.091467679
  0
ARC
  5
6E7
100
AcDbEntity
  8
0
100
AcDbCircle
 62
7
  6
CONTINUOUS
 10
227.6299583478
 20
272.1673208259
 40
4.7625
100
AcDbArc
 50
68.6274563211
 51
83.0914676789
  0
ARC
  5
6E8
100
AcDbEntity
  8
0
100
AcDbCircle
 62
7
  6
CONTINUOUS
 10
227.6299583478
 20
272.1673208259
 40
4.7625
100
AcDbArc
 50
38.6274563211
 51
53.0914676788
  0
ARC
  5
6E9
100
AcDbEntity
  8
0
100
AcDbCircle
 62
7
  6
CONTINUOUS
 10
227.6299583478
 20
272.1673208259
 40
4.7625
100
AcDbArc
 50
8.6274563212
 51
23.091467679
  0
ARC
  5
6EA
100
AcDbEntity
  8
0
100
AcDbCircle
 62
7
  6
CONTINUOUS
 10
227.6299583478
 20
272.1673208259
 40
4.7625
100
AcDbArc
 50
338.6274563211
 51
353.0914676789
  0
ARC
  5
6EB
100
AcDbEntity
  8
0
100
AcDbCircle
 62
7
  6
CONTINUOUS
 10
227.6299583478
 20
272.1673208259
 40
4.7625
100
AcDbArc
 50
308.6274563211
 51
323.0914676788
  0
ARC
  5
6EC
100
AcDbEntity
  8
0
100
AcDbCircle
 62
7
  6
CONTINUOUS
 10
227.6299583478
 20
272.1673208259
 40
4.7625
100
AcDbArc
 50
278.6274563212
 51
293.091467679
  0
ARC
  5
6ED
100
AcDbEntity
  8
0
100
AcDbCircle
 62
7
  6
CONTINUOUS
 10
227.6299583478
 20
272.1673208259
 40
4.7625
100
AcDbArc
 50
248.6274563211
 51
263.0914676789
  0
ARC
  5
6EE
100
AcDbEntity
  8
0
100
AcDbCircle
 62
7
  6
CONTINUOUS
 10
227.6299583478
 20
272.1673208259
 40
4.7625
100
AcDbArc
 50
218.6274563211
 51
233.0914676788
  0
ARC
  5
6EF
100
AcDbEntity
  8
0
100
AcDbCircle
 62
7
  6
CONTINUOUS
 10
227.6299583478
 20
272.1673208259
 40
4.7625
100
AcDbArc
 50
188.6274563212
 51
203.091467679
  0
ARC
  5
6F0
100
AcDbEntity
  8
0
100
AcDbCircle
 62
7
  6
CONTINUOUS
 10
227.6299583478
 20
272.1673208259
 40
4.7625
100
AcDbArc
 50
128.6274563211
 51
143.0914676788
  0
ARC
  5
6F1
100
AcDbEntity
  8
0
100
AcDbCircle
 62
7
  6
CONTINUOUS
 10
227.6299583478
 20
272.1673208259
 40
4.7625
100
AcDbArc
 50
158.6274563211
 51
173.0914676789
  0
CIRCLE
  5
6F2
100
AcDbEntity
  8
0
100
AcDbCircle
 62
7
  6
CONTINUOUS
 10
227.6299583478
 20
272.1673208259
 40
4.6736
  0
CIRCLE
  5
6F3
100
AcDbEntity
  8
0
100
AcDbCircle
 62
7
  6
CONTINUOUS
 10
227.6299583478
 20
272.1673208259
 40
4.6452725373
  0
ARC
  5
6F4
100
AcDbEntity
  8
0
100
AcDbCircle
 62
7
  6
CONTINUOUS
 10
227.6299583478
 20
272.1673208259
 40
4.6084279898
100
AcDbArc
 50
21.4428950499
 51
40.3769857976
  0
ARC
  5
6F5
100
AcDbEntity
  8
0
100
AcDbCircle
 62
7
  6
CONTINUOUS
 10
227.6299583478
 20
272.1673208259
 40
4.6084279898
100
AcDbArc
 50
201.3419382024
 51
218.5572844628
  0
ARC
  5
6F6
100
AcDbEntity
  8
0
100
AcDbCircle
 62
7
  6
CONTINUOUS
 10
227.6299583478
 20
272.1673208259
 40
3.1481021172
100
AcDbArc
 50
44.8670642108
 51
196.8518597889
  0
ARC
  5
6F7
100
AcDbEntity
  8
0
100
AcDbCircle
 62
7
  6
CONTINUOUS
 10
227.6299583478
 20
272.1673208259
 40
3.1481021172
100
AcDbArc
 50
222.5810916497
 51
17.4190878628
  0
CIRCLE
  5
6F8
100
AcDbEntity
  8
0
100
AcDbCircle
 62
7
  6
CONTINUOUS
 10
227.6299618411
 20
272.1673208259
 40
2.667
  0
CIRCLE
  5
6F9
100
AcDbEntity
  8
0
100
AcDbCircle
 62
7
  6
CONTINUOUS
 10
227.6305679478
 20
272.1668382259
 40
1.9804634
  0
ARC
  5
6FA
100
AcDbEntity
  8
0
100
AcDbCircle
 62
7
  6
CONTINUOUS
 10
243.1302367336
 20
254.3301205343
 40
6.096
100
AcDbArc
 50
47.99999429
 51
227.9999942898
  0
ARC
  5
6FB
100
AcDbEntity
  8
0
100
AcDbCircle
 62
7
  6
CONTINUOUS
 10
243.1302367336
 20
254.3301205343
 40
3.81
100
AcDbArc
 50
47.9999942895
 51
227.9999942884
  0
ARC
  5
6FC
100
AcDbEntity
  8
0
100
AcDbCircle
 62
7
  6
CONTINUOUS
 10
242.9758643711
 20
255.2911872358
 40
2.54
100
AcDbArc
 50
90.0
 51
180.0
  0
ARC
  5
6FD
100
AcDbEntity
  8
0
100
AcDbCircle
 62
7
  6
CONTINUOUS
 10
245.1432463711
 20
261.7427872358
 40
1.5748
100
AcDbArc
 50
0.0
 51
90.0
  0
ARC
  5
6FE
100
AcDbEntity
  8
0
100
AcDbCircle
 62
7
  6
CONTINUOUS
 10
255.5572463711
 20
274.2903872358
 40
6.35
100
AcDbArc
 50
89.999999999
 51
180.000000001
  0
ARC
  5
6FF
100
AcDbEntity
  8
0
100
AcDbCircle
 62
7
  6
CONTINUOUS
 10
252.0393451367
 20
274.2943466295
 40
6.3460406063
100
AcDbArc
 50
89.9999999983
 51
180.0
  0
SPLINE
  5
700
100
AcDbEntity
  8
0
100
AcDbSpline
 62
7
  6
CONTINUOUS
 70
0
 71
3
 72
16
 73
12
 74
0
 42
0.0000001
 43
0.0000001
 44
0.0000000001
 40
0.0
 40
0.0
 40
0.0
 40
0.0
 40
0.1116238356
 40
0.2225896816
 40
0.3323543352
 40
0.4432294677
 40
0.55420441
 40
0.6650931467
 40
0.775718756
 40
0.8878371126
 40
1.0
 40
1.0
 40
1.0
 40
1.0
 10
243.6294183478
 20
199.2693208259
 30
0.0
 10
243.3872093576
 20
199.266416641
 30
0.0
 10
242.8999189381
 20
199.1846455952
 30
0.0
 10
242.2637945428
 20
198.8140307047
 30
0.0
 10
241.7912889065
 20
198.2527032137
 30
0.0
 10
241.5377643488
 20
197.5634073515
 30
0.0
 10
241.5347682743
 20
196.8266514737
 30
0.0
 10
241.7833282839
 20
196.1335191838
 30
0.0
 10
242.255044442
 20
195.5653166771
 30
0.0
 10
242.8950189695
 20
195.189637715
 30
0.0
 10
243.3860354493
 20
195.1062612054
 30
0.0
 10
243.6294183478
 20
195.1037208259
 30
0.0
  0
SPLINE
  5
701
100
AcDbEntity
  8
0
100
AcDbSpline
 62
7
  6
CONTINUOUS
 70
0
 71
3
 72
16
 73
12
 74
0
 42
0.0000001
 43
0.0000001
 44
0.0000000001
 40
0.0
 40
0.0
 40
0.0
 40
0.0
 40
0.1116238356
 40
0.2225896816
 40
0.3323543352
 40
0.4432294677
 40
0.55420441
 40
0.6650931467
 40
0.775718756
 40
0.8878371126
 40
1.0
 40
1.0
 40
1.0
 40
1.0
 10
243.6294183478
 20
195.1037208259
 30
0.0
 10
243.871627338
 20
195.1066250108
 30
0.0
 10
244.3589177575
 20
195.1883960566
 30
0.0
 10
244.9950421528
 20
195.559010947
 30
0.0
 10
245.4675477891
 20
196.120338438
 30
0.0
 10
245.7210723469
 20
196.8096343003
 30
0.0
 10
245.7240684213
 20
197.5463901781
 30
0.0
 10
245.4755084117
 20
198.2395224679
 30
0.0
 10
245.0037922536
 20
198.8077249747
 30
0.0
 10
244.3638177261
 20
199.1834039367
 30
0.0
 10
243.8728012463
 20
199.2667804464
 30
0.0
 10
243.6294183478
 20
199.2693208259
 30
0.0
  0
SPLINE
  5
702
100
AcDbEntity
  8
0
100
AcDbSpline
 62
7
  6
CONTINUOUS
 70
0
 71
3
 72
10
 73
6
 74
0
 42
0.0000001
 43
0.0000001
 44
0.0000000001
 40
0.0
 40
0.0
 40
0.0
 40
0.0
 40
0.1602516999
 40
0.4805159258
 40
1.0
 40
1.0
 40
1.0
 40
1.0
 10
234.8943583478
 20
187.8696533092
 30
0.0
 10
234.8937057711
 20
187.8819928658
 30
0.0
 10
234.856212275
 20
187.9079622272
 30
0.0
 10
234.7817481453
 20
187.9109942336
 30
0.0
 10
234.7160786531
 20
187.9145048259
 30
0.0
 10
234.6760219114
 20
187.9145048259
 30
0.0
  0
SPLINE
  5
703
100
AcDbEntity
  8
0
100
AcDbSpline
 62
7
  6
CONTINUOUS
 70
0
 71
3
 72
12
 73
8
 74
0
 42
0.0000001
 43
0.0000001
 44
0.0000000001
 40
0.0
 40
0.0
 40
0.0
 40
0.0
 40
0.1837151581
 40
0.3496413251
 40
0.5429466985
 40
0.7601616579
 40
1.0
 40
1.0
 40
1.0
 40
1.0
 10
234.8943583478
 20
185.4654258933
 30
0.0
 10
234.8943583478
 20
185.4788428102
 30
0.0
 10
234.8508286083
 20
185.4698632896
 30
0.0
 10
234.8181087803
 20
185.4757756618
 30
0.0
 10
234.7738905867
 20
185.4753003505
 30
0.0
 10
234.7270905191
 20
185.476147946
 30
0.0
 10
234.6935375651
 20
185.4761048259
 30
0.0
 10
234.6760219114
 20
185.4761048259
 30
0.0
  0
SPLINE
  5
704
100
AcDbEntity
  8
0
100
AcDbSpline
 62
7
  6
CONTINUOUS
 70
0
 71
3
 72
10
 73
6
 74
0
 42
0.0000001
 43
0.0000001
 44
0.0000000001
 40
0.0
 40
0.0
 40
0.0
 40
0.0
 40
0.3539440169
 40
0.6414303755
 40
1.0
 40
1.0
 40
1.0
 40
1.0
 10
234.8943583478
 20
183.4181229183
 30
0.0
 10
234.8943583478
 20
183.4038962992
 30
0.0
 10
234.8921460731
 20
183.376738573
 30
0.0
 10
234.8616068422
 20
183.3457892541
 30
0.0
 10
234.8341687987
 20
183.3435208259
 30
0.0
 10
234.8197562554
 20
183.3435208259
 30
0.0
  0
SPLINE
  5
705
100
AcDbEntity
  8
0
100
AcDbSpline
 62
7
  6
CONTINUOUS
 70
0
 71
3
 72
10
 73
6
 74
0
 42
0.0000001
 43
0.0000001
 44
0.0000000001
 40
0.0
 40
0.0
 40
0.0
 40
0.0
 40
0.1665682403
 40
0.4874644149
 40
1.0
 40
1.0
 40
1.0
 40
1.0
 10
234.8197562554
 20
180.9051208259
 30
0.0
 10
234.8384538396
 20
180.9051208259
 30
0.0
 10
234.8814261732
 20
180.9566946629
 30
0.0
 10
234.8883350936
 20
181.0667202745
 30
0.0
 10
234.8943583478
 20
181.1609165737
 30
0.0
 10
234.8943583478
 20
181.218449614
 30
0.0
  0
SPLINE
  5
706
100
AcDbEntity
  8
0
100
AcDbSpline
 62
7
  6
CONTINUOUS
 70
0
 71
3
 72
12
 73
8
 74
0
 42
0.0000001
 43
0.0000001
 44
0.0000000001
 40
0.0
 40
0.0
 40
0.0
 40
0.0
 40
0.223937849
 40
0.4146536232
 40
0.5890408901
 40
0.7728927885
 40
1.0
 40
1.0
 40
1.0
 40
1.0
 10
180.6793676728
 20
183.7245208259
 30
0.0
 10
180.6716709084
 20
183.6792971483
 30
0.0
 10
180.6530386686
 20
183.5960815896
 30
0.0
 10
180.6037059865
 20
183.4845953302
 30
0.0
 10
180.5259528982
 20
183.3995307136
 30
0.0
 10
180.4133504615
 20
183.3502699069
 30
0.0
 10
180.3283509884
 20
183.3435208259
 30
0.0
 10
180.2818277694
 20
183.3435208259
 30
0.0
  0
SPLINE
  5
707
100
AcDbEntity
  8
0
100
AcDbSpline
 62
7
  6
CONTINUOUS
 70
0
 71
3
 72
10
 73
6
 74
0
 42
0.0000001
 43
0.0000001
 44
0.0000000001
 40
0.0
 40
0.0
 40
0.0
 40
0.0
 40
0.3620898576
 40
0.6496433685
 40
1.0
 40
1.0
 40
1.0
 40
1.0
 10
218.4589604402
 20
183.3435208259
 30
0.0
 10
218.4444060402
 20
183.3435208259
 30
0.0
 10
218.4167548406
 20
183.345842836
 30
0.0
 10
218.3865124835
 20
183.3770877307
 30
0.0
 10
218.3843583478
 20
183.4040401417
 30
0.0
 10
218.3843583478
 20
183.4181229183
 30
0.0
  0
SPLINE
  5
708
100
AcDbEntity
  8
0
100
AcDbSpline
 62
7
  6
CONTINUOUS
 70
0
 71
3
 72
12
 73
8
 74
0
 42
0.0000001
 43
0.0000001
 44
0.0000000001
 40
0.0
 40
0.0
 40
0.0
 40
0.0
 40
0.2398086026
 40
0.457071172
 40
0.6504646541
 40
0.8165251151
 40
1.0
 40
1.0
 40
1.0
 40
1.0
 10
218.6026947842
 20
185.4761048259
 30
0.0
 10
218.5851812715
 20
185.4761048259
 30
0.0
 10
218.5516268601
 20
185.4761479606
 30
0.0
 10
218.5048195832
 20
185.4753001538
 30
0.0
 10
218.460578856
 20
185.4757760476
 30
0.0
 10
218.4278669598
 20
185.4698604534
 30
0.0
 10
218.3843583478
 20
185.4788252864
 30
0.0
 10
218.3843583478
 20
185.4654258933
 30
0.0
  0
SPLINE
  5
709
100
AcDbEntity
  8
0
100
AcDbSpline
 62
7
  6
CONTINUOUS
 70
0
 71
3
 72
10
 73
6
 74
0
 42
0.0000001
 43
0.0000001
 44
0.0000000001
 40
0.0
 40
0.0
 40
0.0
 40
0.0
 40
0.5195061031
 40
0.8397612235
 40
1.0
 40
1.0
 40
1.0
 40
1.0
 10
218.6026947842
 20
187.9145048259
 30
0.0
 10
218.5626362895
 20
187.9145048259
 30
0.0
 10
218.4969654528
 20
187.910993877
 30
0.0
 10
218.4225018038
 20
187.9079616554
 30
0.0
 10
218.3850096635
 20
187.8819919513
 30
0.0
 10
218.3843583478
 20
187.8696533092
 30
0.0
  0
SPLINE
  5
70A
100
AcDbEntity
  8
0
100
AcDbSpline
 62
7
  6
CONTINUOUS
 70
0
 71
3
 72
11
 73
7
 74
0
 42
0.0000001
 43
0.0000001
 44
0.0000000001
 40
0.0
 40
0.0
 40
0.0
 40
0.0
 40
0.2241535724
 40
0.4067436841
 40
0.6611183968
 40
1.0
 40
1.0
 40
1.0
 40
1.0
 10
218.3843583478
 20
185.4654258933
 30
0.0
 10
218.3980078248
 20
185.4744550946
 30
0.0
 10
218.4305299304
 20
185.4724716158
 30
0.0
 10
218.4777207114
 20
185.4756156901
 30
0.0
 10
218.5347595627
 20
185.4758104944
 30
0.0
 10
218.5779527304
 20
185.4761048259
 30
0.0
 10
218.6026947842
 20
185.4761048259
 30
0.0
  0
SPLINE
  5
70B
100
AcDbEntity
  8
0
100
AcDbSpline
 62
7
  6
CONTINUOUS
 70
0
 71
3
 72
10
 73
6
 74
0
 42
0.0000001
 43
0.0000001
 44
0.0000000001
 40
0.0
 40
0.0
 40
0.0
 40
0.0
 40
0.1667847426
 40
0.4877395694
 40
1.0
 40
1.0
 40
1.0
 40
1.0
 10
218.4589604402
 20
180.9051208259
 30
0.0
 10
218.440238886
 20
180.9051208259
 30
0.0
 10
218.3972720545
 20
180.9567701972
 30
0.0
 10
218.3903825834
 20
181.0667694029
 30
0.0
 10
218.3843583478
 20
181.1609484823
 30
0.0
 10
218.3843583478
 20
181.218449614
 30
0.0
  0
SPLINE
  5
70C
100
AcDbEntity
  8
0
100
AcDbSpline
 62
7
  6
CONTINUOUS
 70
0
 71
3
 72
11
 73
7
 74
0
 42
0.0000001
 43
0.0000001
 44
0.0000000001
 40
0.0
 40
0.0
 40
0.0
 40
0.0
 40
0.3824944931
 40
0.6830342196
 40
0.8823579857
 40
1.0
 40
1.0
 40
1.0
 40
1.0
 10
180.6793676728
 20
182.5053208259
 30
0.0
 10
180.6704931558
 20
182.286317001
 30
0.0
 10
180.6542909718
 20
181.894444395
 30
0.0
 10
180.5804963464
 20
181.394616584
 30
0.0
 10
180.5108031917
 20
181.0454560495
 30
0.0
 10
180.3492410153
 20
180.9051208259
 30
0.0
 10
180.2818277694
 20
180.9051208259
 30
0.0
  0
SPLINE
  5
70D
100
AcDbEntity
  8
0
100
AcDbSpline
 62
7
  6
CONTINUOUS
 70
0
 71
3
 72
11
 73
7
 74
0
 42
0.0000001
 43
0.0000001
 44
0.0000000001
 40
0.0
 40
0.0
 40
0.0
 40
0.0
 40
0.3378156036
 40
0.591685805
 40
0.7748276898
 40
1.0
 40
1.0
 40
1.0
 40
1.0
 10
234.6760219114
 20
185.4761048259
 30
0.0
 10
234.7006859802
 20
185.4761048259
 30
0.0
 10
234.743769287
 20
185.4758212232
 30
0.0
 10
234.8007176102
 20
185.4756032022
 30
0.0
 10
234.8480224004
 20
185.4725188719
 30
0.0
 10
234.8805675809
 20
185.4743749768
 30
0.0
 10
234.8943583478
 20
185.4654258933
 30
0.0
  0
LINE
  5
70E
100
AcDbEntity
  8
0
100
AcDbLine
 62
7
  6
CONTINUOUS
 10
183.9228963711
 20
217.4911384487
 11
185.4469083479
 21
217.4910630998
  0
SPLINE
  5
70F
100
AcDbEntity
  8
0
100
AcDbSpline
 62
7
  6
CONTINUOUS
 70
0
 71
3
 72
9
 73
5
 74
0
 42
0.0000001
 43
0.0000001
 44
0.0000000001
 40
0.0
 40
0.0
 40
0.0
 40
0.0
 40
0.5
 40
1.0
 40
1.0
 40
1.0
 40
1.0
 10
185.4469003634
 20
217.5129028608
 30
0.0
 10
185.1928994054
 20
217.5129028608
 30
0.0
 10
184.6848983672
 20
217.5117463274
 30
0.0
 10
184.176897329
 20
217.5105897939
 30
0.0
 10
183.9228963711
 20
217.5105897939
 30
0.0
  0
SPLINE
  5
710
100
AcDbEntity
  8
0
100
AcDbSpline
 62
7
  6
CONTINUOUS
 70
0
 71
3
 72
9
 73
5
 74
0
 42
0.0000001
 43
0.0000001
 44
0.0000000001
 40
0.0
 40
0.0
 40
0.0
 40
0.0
 40
0.5
 40
1.0
 40
1.0
 40
1.0
 40
1.0
 10
183.9228963711
 20
217.5059686282
 30
0.0
 10
184.1768973278
 20
217.5059686282
 30
0.0
 10
184.6848983672
 20
217.5048145788
 30
0.0
 10
185.1928994067
 20
217.5036605293
 30
0.0
 10
185.4469003634
 20
217.5036605293
 30
0.0
  0
SPLINE
  5
711
100
AcDbEntity
  8
0
100
AcDbSpline
 62
7
  6
CONTINUOUS
 70
0
 71
3
 72
16
 73
12
 74
0
 42
0.0000001
 43
0.0000001
 44
0.0000000001
 40
0.0
 40
0.0
 40
0.0
 40
0.0
 40
0.1116238356
 40
0.2225896816
 40
0.3323543352
 40
0.4432294677
 40
0.55420441
 40
0.6650931467
 40
0.775718756
 40
0.8878371126
 40
1.0
 40
1.0
 40
1.0
 40
1.0
 10
230.3667963711
 20
235.6061872358
 30
0.0
 10
230.3636973933
 20
235.864641951
 30
0.0
 10
230.2764417042
 20
236.3846164839
 30
0.0
 10
229.880968498
 20
237.0634077594
 30
0.0
 10
229.2819909923
 20
237.567605847
 30
0.0
 10
228.546461871
 20
237.8381351006
 30
0.0
 10
227.7602894404
 20
237.8413321313
 30
0.0
 10
227.0206665701
 20
237.5761004137
 30
0.0
 10
226.4143529197
 20
237.0727447572
 30
0.0
 10
226.0134759784
 20
236.389845109
 30
0.0
 10
225.9245071419
 20
235.865894597
 30
0.0
 10
225.9217963711
 20
235.6061872358
 30
0.0
  0
SPLINE
  5
712
100
AcDbEntity
  8
0
100
AcDbSpline
 62
7
  6
CONTINUOUS
 70
0
 71
3
 72
16
 73
12
 74
0
 42
0.0000001
 43
0.0000001
 44
0.0000000001
 40
0.0
 40
0.0
 40
0.0
 40
0.0
 40
0.1116238356
 40
0.2225896816
 40
0.3323543352
 40
0.4432294677
 40
0.55420441
 40
0.6650931467
 40
0.775718756
 40
0.8878371126
 40
1.0
 40
1.0
 40
1.0
 40
1.0
 10
225.9217963711
 20
235.6061872358
 30
0.0
 10
225.9248953489
 20
235.3477325206
 30
0.0
 10
226.012151038
 20
234.8277579877
 30
0.0
 10
226.4076242443
 20
234.1489667122
 30
0.0
 10
227.00660175
 20
233.6447686246
 30
0.0
 10
227.7421308712
 20
233.374239371
 30
0.0
 10
228.5283033018
 20
233.3710423403
 30
0.0
 10
229.2679261721
 20
233.6362740579
 30
0.0
 10
229.8742398226
 20
234.1396297144
 30
0.0
 10
230.2751167638
 20
234.8225293626
 30
0.0
 10
230.3640856003
 20
235.3464798746
 30
0.0
 10
230.3667963711
 20
235.6061872358
 30
0.0
  0
LINE
  5
713
100
AcDbEntity
  8
0
100
AcDbLine
 62
7
  6
CONTINUOUS
 10
272.1180135374
 20
214.3971872358
 11
271.5211463711
 21
214.9940872358
  0
LINE
  5
714
100
AcDbEntity
  8
0
100
AcDbLine
 62
7
  6
CONTINUOUS
 10
271.5211463711
 20
206.2437872358
 11
275.8962963711
 21
210.6189372358
  0
SPLINE
  5
715
100
AcDbEntity
  8
0
100
AcDbSpline
 62
7
  6
CONTINUOUS
 70
0
 71
3
 72
14
 73
10
 74
0
 42
0.0000001
 43
0.0000001
 44
0.0000000001
 40
0.0
 40
0.0
 40
0.0
 40
0.0
 40
0.0203518212
 40
0.0950681697
 40
0.1975921238
 40
0.3412138569
 40
0.5196558022
 40
0.7337059944
 40
1.0
 40
1.0
 40
1.0
 40
1.0
 10
280.2714463711
 20
206.2437872358
 30
0.0
 10
280.2418803574
 20
206.2735824549
 30
0.0
 10
280.1035906368
 20
206.4125834761
 30
0.0
 10
279.8148579612
 20
206.7001818114
 30
0.0
 10
279.3469124501
 20
207.1681156014
 30
0.0
 10
278.7278841473
 20
207.787510684
 30
0.0
 10
277.9456909759
 20
208.5690367282
 30
0.0
 10
276.9858157761
 20
209.5306870048
 30
0.0
 10
276.2846551562
 20
210.2305784507
 30
0.0
 10
275.8962963711
 20
210.6189372358
 30
0.0
  0
SPLINE
  5
716
100
AcDbEntity
  8
0
100
AcDbSpline
 62
7
  6
CONTINUOUS
 70
0
 71
3
 72
13
 73
9
 74
0
 42
0.0000001
 43
0.0000001
 44
0.0000000001
 40
0.0
 40
0.0
 40
0.0
 40
0.0
 40
0.0293538994
 40
0.119323271
 40
0.2550481339
 40
0.4585345176
 40
0.6922285651
 40
1.0
 40
1.0
 40
1.0
 40
1.0
 10
271.5211463711
 20
206.2437872358
 30
0.0
 10
271.563949802
 20
206.2866022812
 30
0.0
 10
271.7379580792
 20
206.4606321471
 30
0.0
 10
272.1099702426
 20
206.8325358866
 30
0.0
 10
272.735885286
 20
207.4584405796
 30
0.0
 10
273.5714165821
 20
208.2939403836
 30
0.0
 10
274.6573063101
 20
209.3809013681
 30
0.0
 10
275.4474476339
 20
210.1700884986
 30
0.0
 10
275.8962963711
 20
210.6189372358
 30
0.0
  0
LINE
  5
717
100
AcDbEntity
  8
0
100
AcDbLine
 62
7
  6
CONTINUOUS
 10
280.2714463711
 20
206.2437872358
 11
275.8962963711
 21
210.6189372358
  0
LINE
  5
718
100
AcDbEntity
  8
0
100
AcDbLine
 62
7
  6
CONTINUOUS
 10
279.6745389635
 20
214.3971872358
 11
280.2714463711
 21
214.9940872358
  0
LINE
  5
719
100
AcDbEntity
  8
0
100
AcDbLine
 62
7
  6
CONTINUOUS
 10
280.2714463711
 20
214.9940872358
 11
279.6745795537
 21
214.3971872358
  0
SPLINE
  5
71A
100
AcDbEntity
  8
0
100
AcDbSpline
 62
7
  6
CONTINUOUS
 70
0
 71
3
 72
14
 73
10
 74
0
 42
0.0000001
 43
0.0000001
 44
0.0000000001
 40
0.0
 40
0.0
 40
0.0
 40
0.0
 40
0.0825901075
 40
0.1864450646
 40
0.3122141061
 40
0.4598352877
 40
0.6275334275
 40
0.8095899414
 40
1.0
 40
1.0
 40
1.0
 40
1.0
 10
279.6747031218
 20
214.3971872358
 30
0.0
 10
279.570703158
 20
214.293152171
 30
0.0
 10
279.3357342256
 20
214.0584873434
 30
0.0
 10
278.9425947725
 20
213.6651951703
 30
0.0
 10
278.4674488595
 20
213.1901036397
 30
0.0
 10
277.9119325404
 20
212.6345688357
 30
0.0
 10
277.2855131353
 20
212.0081554169
 30
0.0
 10
276.6052075084
 20
211.3278479335
 30
0.0
 10
276.1361069475
 20
210.8587478122
 30
0.0
 10
275.8962963711
 20
210.6189372358
 30
0.0
  0
SPLINE
  5
71B
100
AcDbEntity
  8
0
100
AcDbSpline
 62
7
  6
CONTINUOUS
 70
0
 71
3
 72
14
 73
10
 74
0
 42
0.0000001
 43
0.0000001
 44
0.0000000001
 40
0.0
 40
0.0
 40
0.0
 40
0.0
 40
0.0825899846
 40
0.1864452498
 40
0.312215565
 40
0.4598394795
 40
0.6275387511
 40
0.8095935254
 40
1.0
 40
1.0
 40
1.0
 40
1.0
 10
272.1178862636
 20
214.3971872358
 30
0.0
 10
272.2218857484
 20
214.2931519093
 30
0.0
 10
272.4568582656
 20
214.0584899924
 30
0.0
 10
272.8499980996
 20
213.6651941755
 30
0.0
 10
273.325150239
 20
213.1900975809
 30
0.0
 10
273.8806730787
 20
212.634555861
 30
0.0
 10
274.5070955026
 20
212.0081395515
 30
0.0
 10
275.1873961326
 20
211.3278370253
 30
0.0
 10
275.6564902019
 20
210.858743405
 30
0.0
 10
275.8962963711
 20
210.6189372358
 30
0.0
  0
SPLINE
  5
71C
100
AcDbEntity
  8
0
100
AcDbSpline
 62
7
  6
CONTINUOUS
 70
0
 71
3
 72
15
 73
11
 74
0
 42
0.0000001
 43
0.0000001
 44
0.0000000001
 40
0.0
 40
0.0
 40
0.0
 40
0.0
 40
0.1255128032
 40
0.2499853236
 40
0.373843185
 40
0.4987358798
 40
0.623545967
 40
0.7480494975
 40
0.8738162317
 40
1.0
 40
1.0
 40
1.0
 40
1.0
 10
238.4978657967
 20
232.8319613272
 30
0.0
 10
238.4351803513
 20
232.5809400932
 30
0.0
 10
238.3942093357
 20
232.052468116
 30
0.0
 10
238.6516491269
 20
231.304407369
 30
0.0
 10
239.1700034051
 20
230.7101333189
 30
0.0
 10
239.8774369448
 20
230.3580460805
 30
0.0
 10
240.6670016394
 20
230.3027200583
 30
0.0
 10
241.4188809462
 20
230.5540055024
 30
0.0
 10
242.0223550835
 20
231.0745944284
 30
0.0
 10
242.2540069957
 20
231.5562508831
 30
0.0
 10
242.3252503803
 20
231.8064170769
 30
0.0
  0
SPLINE
  5
71D
100
AcDbEntity
  8
0
100
AcDbSpline
 62
7
  6
CONTINUOUS
 70
0
 71
3
 72
15
 73
11
 74
0
 42
0.0000001
 43
0.0000001
 44
0.0000000001
 40
0.0
 40
0.0
 40
0.0
 40
0.0
 40
0.1255128032
 40
0.2499853236
 40
0.373843185
 40
0.4987358798
 40
0.623545967
 40
0.7480494975
 40
0.8738162317
 40
1.0
 40
1.0
 40
1.0
 40
1.0
 10
242.3252503803
 20
231.8064170769
 30
0.0
 10
242.3879358257
 20
232.0574383109
 30
0.0
 10
242.4289068412
 20
232.5859102881
 30
0.0
 10
242.17146705
 20
233.3339710351
 30
0.0
 10
241.6531127719
 20
233.9282450852
 30
0.0
 10
240.9456792322
 20
234.2803323236
 30
0.0
 10
240.1561145376
 20
234.3356583458
 30
0.0
 10
239.4042352308
 20
234.0843729017
 30
0.0
 10
238.8007610934
 20
233.5637839757
 30
0.0
 10
238.5691091813
 20
233.082127521
 30
0.0
 10
238.4978657967
 20
232.8319613272
 30
0.0
  0
SPLINE
  5
71E
100
AcDbEntity
  8
0
100
AcDbSpline
 62
7
  6
CONTINUOUS
 70
0
 71
3
 72
9
 73
5
 74
0
 42
0.0000001
 43
0.0000001
 44
0.0000000001
 40
0.0
 40
0.0
 40
0.0
 40
0.0
 40
0.5
 40
1.0
 40
1.0
 40
1.0
 40
1.0
 10
231.0225862717
 20
246.3874448231
 30
0.0
 10
232.4574868183
 20
246.0150856426
 30
0.0
 10
235.3296654555
 20
245.2795696736
 30
0.0
 10
238.2018440926
 20
244.5440537046
 30
0.0
 10
239.6367446393
 20
244.1716945241
 30
0.0
  0
SPLINE
  5
71F
100
AcDbEntity
  8
0
100
AcDbSpline
 62
7
  6
CONTINUOUS
 70
0
 71
3
 72
10
 73
6
 74
0
 42
0.0000001
 43
0.0000001
 44
0.0000000001
 40
0.0
 40
0.0
 40
0.0
 40
0.0
 40
0.3390136509
 40
0.6706484533
 40
1.0
 40
1.0
 40
1.0
 40
1.0
 10
239.8475153125
 20
245.0023308132
 30
0.0
 10
239.8583734683
 20
244.897102765
 30
0.0
 10
239.867893779
 20
244.6874705469
 30
0.0
 10
239.8450194908
 20
244.3755962201
 30
0.0
 10
239.8052399034
 20
244.1726019018
 30
0.0
 10
239.7794254737
 20
244.0731249956
 30
0.0
  0
SPLINE
  5
720
100
AcDbEntity
  8
0
100
AcDbSpline
 62
7
  6
CONTINUOUS
 70
0
 71
3
 72
14
 73
10
 74
0
 42
0.0000001
 43
0.0000001
 44
0.0000000001
 40
0.0
 40
0.0
 40
0.0
 40
0.0
 40
0.1435567806
 40
0.2864145665
 40
0.4288516657
 40
0.5711483343
 40
0.7135854335
 40
0.8564432194
 40
1.0
 40
1.0
 40
1.0
 40
1.0
 10
224.6164251169
 20
221.7010543032
 30
0.0
 10
223.5778365672
 20
221.9748256547
 30
0.0
 10
221.5556053413
 20
222.7445994925
 30
0.0
 10
218.8717786642
 20
224.5510963562
 30
0.0
 10
216.6603275608
 20
226.8996854775
 30
0.0
 10
215.026912904
 20
229.6779326272
 30
0.0
 10
214.0500147657
 20
232.7523523888
 30
0.0
 10
213.77650149
 20
235.9759446458
 30
0.0
 10
214.0871868619
 20
238.1173099794
 30
0.0
 10
214.3529829729
 20
239.1579681153
 30
0.0
  0
SPLINE
  5
721
100
AcDbEntity
  8
0
100
AcDbSpline
 62
7
  6
CONTINUOUS
 70
0
 71
3
 72
14
 73
10
 74
0
 42
0.0000001
 43
0.0000001
 44
0.0000000001
 40
0.0
 40
0.0
 40
0.0
 40
0.0
 40
0.1432103965
 40
0.2860793123
 40
0.4285453718
 40
0.5708894439
 40
0.7133929801
 40
0.8563357572
 40
1.0
 40
1.0
 40
1.0
 40
1.0
 10
231.8099054573
 20
249.4213992296
 30
0.0
 10
230.7719039277
 20
249.6871274619
 30
0.0
 10
228.6330277131
 20
249.9971854773
 30
0.0
 10
225.4116521883
 20
249.7259485492
 30
0.0
 10
222.3360752459
 20
248.7503196522
 30
0.0
 10
219.5561548568
 20
247.1176140561
 30
0.0
 10
217.2056721853
 20
244.9059411366
 30
0.0
 10
215.3974125557
 20
242.2208982403
 30
0.0
 10
214.6269998404
 20
240.1973244317
 30
0.0
 10
214.3529829729
 20
239.1579681153
 30
0.0
  0
SPLINE
  5
722
100
AcDbEntity
  8
0
100
AcDbSpline
 62
7
  6
CONTINUOUS
 70
0
 71
3
 72
10
 73
6
 74
0
 42
0.0000001
 43
0.0000001
 44
0.0000000001
 40
0.0
 40
0.0
 40
0.0
 40
0.0
 40
0.2989513266
 40
0.6478559132
 40
1.0
 40
1.0
 40
1.0
 40
1.0
 10
239.6418294781
 20
244.1887058657
 30
0.0
 10
239.6492737526
 20
244.1789080822
 30
0.0
 10
239.665296813
 20
244.1575921146
 30
0.0
 10
239.6897689696
 20
244.1244965016
 30
0.0
 10
239.7069720707
 20
244.1013297194
 30
0.0
 10
239.7156049296
 20
244.0896865375
 30
0.0
  0
LINE
  5
723
100
AcDbEntity
  8
0
100
AcDbLine
 62
7
  6
CONTINUOUS
 10
278.8363463711
 20
235.5553872358
 11
278.7093905573
 21
235.5553872358
  0
LINE
  5
724
100
AcDbEntity
  8
0
100
AcDbLine
 62
7
  6
CONTINUOUS
 10
278.7093905573
 20
235.5553872358
 11
278.5823463711
 21
235.5553872358
  0
SPLINE
  5
725
100
AcDbEntity
  8
0
100
AcDbSpline
 62
7
  6
CONTINUOUS
 70
0
 71
3
 72
10
 73
6
 74
0
 42
0.0000001
 43
0.0000001
 44
0.0000000001
 40
0.0
 40
0.0
 40
0.0
 40
0.0
 40
0.3333330664
 40
0.6666669336
 40
1.0
 40
1.0
 40
1.0
 40
1.0
 10
278.8363463711
 20
235.5553872358
 30
0.0
 10
278.8361049623
 20
235.2505870353
 30
0.0
 10
278.8354020028
 20
234.6409857452
 30
0.0
 10
278.832366323
 20
233.7265887264
 30
0.0
 10
278.8316633635
 20
233.1169874363
 30
0.0
 10
278.8314219548
 20
232.8121872358
 30
0.0
  0
SPLINE
  5
726
100
AcDbEntity
  8
0
100
AcDbSpline
 62
7
  6
CONTINUOUS
 70
0
 71
3
 72
10
 73
6
 74
0
 42
0.0000001
 43
0.0000001
 44
0.0000000001
 40
0.0
 40
0.0
 40
0.0
 40
0.0
 40
0.3694499083
 40
0.6992670651
 40
1.0
 40
1.0
 40
1.0
 40
1.0
 10
172.2070482828
 20
197.043160263
 30
0.0
 10
172.148187635
 20
197.1196128335
 30
0.0
 10
172.02258713
 20
197.2547263061
 30
0.0
 10
171.7968628999
 20
197.3940111063
 30
0.0
 10
171.6308437027
 20
197.4268048259
 30
0.0
 10
171.5523038155
 20
197.4268048259
 30
0.0
  0
SPLINE
  5
727
100
AcDbEntity
  8
0
100
AcDbSpline
 62
7
  6
CONTINUOUS
 70
0
 71
3
 72
10
 73
6
 74
0
 42
0.0000001
 43
0.0000001
 44
0.0000000001
 40
0.0
 40
0.0
 40
0.0
 40
0.0
 40
0.3017025796
 40
0.6280703082
 40
1.0
 40
1.0
 40
1.0
 40
1.0
 10
170.4529962495
 20
197.4268048259
 30
0.0
 10
170.5317897039
 20
197.4268048259
 30
0.0
 10
170.6971659294
 20
197.3940218602
 30
0.0
 10
170.9229343992
 20
197.2550134231
 30
0.0
 10
171.0484847399
 20
197.1201263161
 30
0.0
 10
171.1077407168
 20
197.043160263
 30
0.0
  0
SPLINE
  5
728
100
AcDbEntity
  8
0
100
AcDbSpline
 62
7
  6
CONTINUOUS
 70
0
 71
3
 72
10
 73
6
 74
0
 42
0.0000001
 43
0.0000001
 44
0.0000000001
 40
0.0
 40
0.0
 40
0.0
 40
0.0
 40
0.3017025796
 40
0.6280703082
 40
1.0
 40
1.0
 40
1.0
 40
1.0
 10
169.2369204461
 20
197.4268048259
 30
0.0
 10
169.1581269917
 20
197.4268048259
 30
0.0
 10
168.9927507662
 20
197.3940218602
 30
0.0
 10
168.7669822964
 20
197.2550134231
 30
0.0
 10
168.6414319556
 20
197.1201263161
 30
0.0
 10
168.5821759788
 20
197.043160263
 30
0.0
  0
SPLINE
  5
729
100
AcDbEntity
  8
0
100
AcDbSpline
 62
7
  6
CONTINUOUS
 70
0
 71
3
 72
10
 73
6
 74
0
 42
0.0000001
 43
0.0000001
 44
0.0000000001
 40
0.0
 40
0.0
 40
0.0
 40
0.0
 40
0.3334405066
 40
0.6665596211
 40
1.0
 40
1.0
 40
1.0
 40
1.0
 10
168.5821759788
 20
197.043160263
 30
0.0
 10
168.4607408135
 20
197.0591681978
 30
0.0
 10
168.216374082
 20
197.0798514346
 30
0.0
 10
167.8486702154
 20
197.0798514308
 30
0.0
 10
167.6043035315
 20
197.0591681917
 30
0.0
 10
167.4828684128
 20
197.043160263
 30
0.0
  0
SPLINE
  5
72A
100
AcDbEntity
  8
0
100
AcDbSpline
 62
7
  6
CONTINUOUS
 70
0
 71
3
 72
10
 73
6
 74
0
 42
0.0000001
 43
0.0000001
 44
0.0000000001
 40
0.0
 40
0.0
 40
0.0
 40
0.0
 40
0.3694499083
 40
0.6992670651
 40
1.0
 40
1.0
 40
1.0
 40
1.0
 10
167.4828684128
 20
197.043160263
 30
0.0
 10
167.5417290606
 20
197.1196128335
 30
0.0
 10
167.6673295656
 20
197.2547263061
 30
0.0
 10
167.8930537957
 20
197.3940111063
 30
0.0
 10
168.0590729929
 20
197.4268048259
 30
0.0
 10
168.1376128801
 20
197.4268048259
 30
0.0
  0
SPLINE
  5
72B
100
AcDbEntity
  8
0
100
AcDbSpline
 62
7
  6
CONTINUOUS
 70
0
 71
3
 72
13
 73
9
 74
0
 42
0.0000001
 43
0.0000001
 44
0.0000000001
 40
0.0
 40
0.0
 40
0.0
 40
0.0
 40
0.1673011533
 40
0.3338459491
 40
0.4999843932
 40
0.6661263201
 40
0.8326815408
 40
1.0
 40
1.0
 40
1.0
 40
1.0
 10
225.2383085908
 20
233.8768208259
 30
0.0
 10
224.9042033937
 20
234.1280177153
 30
0.0
 10
224.3038424332
 20
234.7290406418
 30
0.0
 10
223.7352301325
 20
235.8641586814
 30
0.0
 10
223.5386298469
 20
237.115209319
 30
0.0
 10
223.7351652187
 20
238.366296991
 30
0.0
 10
224.3037637746
 20
239.5015150694
 30
0.0
 10
224.9041723001
 20
240.1025933416
 30
0.0
 10
225.2383085908
 20
240.3538208259
 30
0.0
  0
SPLINE
  5
72C
100
AcDbEntity
  8
0
100
AcDbSpline
 62
7
  6
CONTINUOUS
 70
0
 71
3
 72
13
 73
9
 74
0
 42
0.0000001
 43
0.0000001
 44
0.0000000001
 40
0.0
 40
0.0
 40
0.0
 40
0.0
 40
0.1673011533
 40
0.3338459491
 40
0.4999843932
 40
0.6661263201
 40
0.8326815408
 40
1.0
 40
1.0
 40
1.0
 40
1.0
 10
230.0216081048
 20
240.3538208259
 30
0.0
 10
230.3557133018
 20
240.1026239365
 30
0.0
 10
230.9560742623
 20
239.50160101
 30
0.0
 10
231.5246865631
 20
238.3664829703
 30
0.0
 10
231.7212868486
 20
237.1154323327
 30
0.0
 10
231.5247514769
 20
235.8643446608
 30
0.0
 10
230.9561529209
 20
234.7291265823
 30
0.0
 10
230.3557443955
 20
234.1280483102
 30
0.0
 10
230.0216081048
 20
233.8768208259
 30
0.0
  0
SPLINE
  5
72D
100
AcDbEntity
  8
0
100
AcDbSpline
 62
7
  6
CONTINUOUS
 70
0
 71
3
 72
9
 73
5
 74
0
 42
0.0000001
 43
0.0000001
 44
0.0000000001
 40
0.0
 40
0.0
 40
0.0
 40
0.0
 40
0.7911313011
 40
1.0
 40
1.0
 40
1.0
 40
1.0
 10
247.5562583478
 20
237.1153208259
 30
0.0
 10
247.5595788182
 20
236.7745740475
 30
0.0
 10
247.6256407996
 20
236.3407311571
 30
0.0
 10
247.7771979293
 20
235.9352096372
 30
0.0
 10
247.8124011092
 20
235.8520112731
 30
0.0
  0
SPLINE
  5
72E
100
AcDbEntity
  8
0
100
AcDbSpline
 62
7
  6
CONTINUOUS
 70
0
 71
3
 72
9
 73
5
 74
0
 42
0.0000001
 43
0.0000001
 44
0.0000000001
 40
0.0
 40
0.0
 40
0.0
 40
0.0
 40
0.7911313011
 40
1.0
 40
1.0
 40
1.0
 40
1.0
 10
254.0332583478
 20
237.1153208259
 30
0.0
 10
254.0299378773
 20
237.4560676042
 30
0.0
 10
253.963875896
 20
237.8899104946
 30
0.0
 10
253.8123187663
 20
238.2954320146
 30
0.0
 10
253.7771155864
 20
238.3786303787
 30
0.0
  0
SPLINE
  5
72F
100
AcDbEntity
  8
0
100
AcDbSpline
 62
7
  6
CONTINUOUS
 70
0
 71
3
 72
19
 73
15
 74
0
 42
0.0000001
 43
0.0000001
 44
0.0000000001
 40
0.0
 40
0.0
 40
0.0
 40
0.0
 40
0.083548913
 40
0.1670341158
 40
0.2502152999
 40
0.3328725034
 40
0.4158723479
 40
0.4987550297
 40
0.5815709743
 40
0.6646127849
 40
0.7478374389
 40
0.8318708028
 40
0.9161467844
 40
1.0
 40
1.0
 40
1.0
 40
1.0
 10
219.6035583478
 20
237.1153208259
 30
0.0
 10
219.6067505417
 20
236.4150868565
 30
0.0
 10
219.7874001961
 20
235.008216166
 30
0.0
 10
220.6028756409
 20
233.0503252497
 30
0.0
 10
221.8906013117
 20
231.3744091405
 30
0.0
 10
223.563496451
 20
230.0899127044
 30
0.0
 10
225.5083128218
 20
229.2797785551
 30
0.0
 10
227.5974651026
 20
228.9979073693
 30
0.0
 10
229.6891019593
 20
229.2631577289
 30
0.0
 10
231.644630025
 20
230.0594116033
 30
0.0
 10
233.3366596391
 20
231.3397508177
 30
0.0
 10
234.6443828638
 20
233.0246572701
 30
0.0
 10
235.470178875
 20
234.9964144989
 30
0.0
 10
235.6541250384
 20
236.4125327039
 30
0.0
 10
235.6563583478
 20
237.1153208259
 30
0.0
  0
SPLINE
  5
730
100
AcDbEntity
  8
0
100
AcDbSpline
 62
7
  6
CONTINUOUS
 70
0
 71
3
 72
19
 73
15
 74
0
 42
0.0000001
 43
0.0000001
 44
0.0000000001
 40
0.0
 40
0.0
 40
0.0
 40
0.0
 40
0.083548913
 40
0.1670341158
 40
0.2502152999
 40
0.3328725034
 40
0.4158723479
 40
0.4987550297
 40
0.5815709743
 40
0.6646127849
 40
0.7478374389
 40
0.8318708028
 40
0.9161467844
 40
1.0
 40
1.0
 40
1.0
 40
1.0
 10
235.6563583478
 20
237.1153208259
 30
0.0
 10
235.6531661539
 20
237.8155547953
 30
0.0
 10
235.4725164995
 20
239.2224254858
 30
0.0
 10
234.6570410547
 20
241.1803164021
 30
0.0
 10
233.3693153839
 20
242.8562325113
 30
0.0
 10
231.6964202446
 20
244.1407289474
 30
0.0
 10
229.7516038737
 20
244.9508630966
 30
0.0
 10
227.662451593
 20
245.2327342825
 30
0.0
 10
225.5708147362
 20
244.9674839229
 30
0.0
 10
223.6152866705
 20
244.1712300485
 30
0.0
 10
221.9232570565
 20
242.8908908341
 30
0.0
 10
220.6155338318
 20
241.2059843817
 30
0.0
 10
219.7897378206
 20
239.2342271529
 30
0.0
 10
219.6057916572
 20
237.8181089478
 30
0.0
 10
219.6035583478
 20
237.1153208259
 30
0.0
  0
SPLINE
  5
731
100
AcDbEntity
  8
0
100
AcDbSpline
 62
7
  6
CONTINUOUS
 70
0
 71
3
 72
18
 73
14
 74
0
 42
0.0000001
 43
0.0000001
 44
0.0000000001
 40
0.0
 40
0.0
 40
0.0
 40
0.0
 40
0.0912294701
 40
0.1820722478
 40
0.2722845281
 40
0.3625575027
 40
0.4534038637
 40
0.5440478634
 40
0.6348243336
 40
0.7255322164
 40
0.81663329
 40
0.9083829328
 40
1.0
 40
1.0
 40
1.0
 40
1.0
 10
255.6842583478
 20
237.1153208259
 30
0.0
 10
255.6811059156
 20
237.58084171
 30
0.0
 10
255.5511899033
 20
238.5154163446
 30
0.0
 10
254.9630772386
 20
239.7950943137
 30
0.0
 10
254.0449758852
 20
240.8560645984
 30
0.0
 10
252.866202245
 20
241.6174932634
 30
0.0
 10
251.5188284852
 20
242.0182891265
 30
0.0
 10
250.1105959923
 20
242.0239599822
 30
0.0
 10
248.7582139413
 20
241.6336799776
 30
0.0
 10
247.568079826
 20
240.877660058
 30
0.0
 10
246.6361978376
 20
239.8127942168
 30
0.0
 10
246.0401606012
 20
238.5240671646
 30
0.0
 10
245.9077572168
 20
237.5828235605
 30
0.0
 10
245.9052583478
 20
237.1153208259
 30
0.0
  0
SPLINE
  5
732
100
AcDbEntity
  8
0
100
AcDbSpline
 62
7
  6
CONTINUOUS
 70
0
 71
3
 72
18
 73
14
 74
0
 42
0.0000001
 43
0.0000001
 44
0.0000000001
 40
0.0
 40
0.0
 40
0.0
 40
0.0
 40
0.0912294701
 40
0.1820722478
 40
0.2722845281
 40
0.3625575027
 40
0.4534038637
 40
0.5440478634
 40
0.6348243336
 40
0.7255322164
 40
0.81663329
 40
0.9083829328
 40
1.0
 40
1.0
 40
1.0
 40
1.0
 10
245.9052583478
 20
237.1153208259
 30
0.0
 10
245.9084107799
 20
236.6497999418
 30
0.0
 10
246.0383267922
 20
235.7152253071
 30
0.0
 10
246.626439457
 20
234.435547338
 30
0.0
 10
247.5445408104
 20
233.3745770534
 30
0.0
 10
248.7233144505
 20
232.6131483883
 30
0.0
 10
250.0706882103
 20
232.2123525253
 30
0.0
 10
251.4789207033
 20
232.2066816696
 30
0.0
 10
252.8313027542
 20
232.5969616741
 30
0.0
 10
254.0214368696
 20
233.3529815938
 30
0.0
 10
254.9533188579
 20
234.417847435
 30
0.0
 10
255.5493560944
 20
235.7065744872
 30
0.0
 10
255.6817594788
 20
236.6478180912
 30
0.0
 10
255.6842583478
 20
237.1153208259
 30
0.0
  0
SPLINE
  5
733
100
AcDbEntity
  8
0
100
AcDbSpline
 62
7
  6
CONTINUOUS
 70
0
 71
3
 72
17
 73
13
 74
0
 42
0.0000001
 43
0.0000001
 44
0.0000000001
 40
0.0
 40
0.0
 40
0.0
 40
0.0
 40
0.1011648069
 40
0.2015556771
 40
0.3013627085
 40
0.4007791723
 40
0.5
 40
0.5992208277
 40
0.6986372915
 40
0.7984443229
 40
0.8988351931
 40
1.0
 40
1.0
 40
1.0
 40
1.0
 10
253.7767568
 20
238.3784785678
 30
0.0
 10
253.6404015295
 20
238.6917644164
 30
0.0
 10
253.2765756619
 20
239.2823146573
 30
0.0
 10
252.4799926502
 20
239.9431005696
 30
0.0
 10
251.5251610615
 20
240.3251250923
 30
0.0
 10
250.502888499
 20
240.3937649324
 30
0.0
 10
249.5109943861
 20
240.1459653922
 30
0.0
 10
248.6429077141
 20
239.6058875522
 30
0.0
 10
247.9809849078
 20
238.8238320438
 30
0.0
 10
247.5910877998
 20
237.8721880222
 30
0.0
 10
247.5115240885
 20
236.8402712947
 30
0.0
 10
247.6825926031
 20
236.1680701253
 30
0.0
 10
247.8127598956
 20
235.852163084
 30
0.0
  0
SPLINE
  5
734
100
AcDbEntity
  8
0
100
AcDbSpline
 62
7
  6
CONTINUOUS
 70
0
 71
3
 72
17
 73
13
 74
0
 42
0.0000001
 43
0.0000001
 44
0.0000000001
 40
0.0
 40
0.0
 40
0.0
 40
0.0
 40
0.1011648069
 40
0.2015556771
 40
0.3013627085
 40
0.4007791723
 40
0.5
 40
0.5992208277
 40
0.6986372915
 40
0.7984443229
 40
0.8988351931
 40
1.0
 40
1.0
 40
1.0
 40
1.0
 10
247.8127598956
 20
235.852163084
 30
0.0
 10
247.9491151661
 20
235.5388772353
 30
0.0
 10
248.3129410336
 20
234.9483269945
 30
0.0
 10
249.1095240454
 20
234.2875410822
 30
0.0
 10
250.0643556341
 20
233.9055165594
 30
0.0
 10
251.0866281965
 20
233.8368767194
 30
0.0
 10
252.0785223095
 20
234.0846762595
 30
0.0
 10
252.9466089815
 20
234.6247540996
 30
0.0
 10
253.6085317877
 20
235.4068096079
 30
0.0
 10
253.9984288958
 20
236.3584536296
 30
0.0
 10
254.0779926071
 20
237.390370357
 30
0.0
 10
253.9069240924
 20
238.0625715264
 30
0.0
 10
253.7767568
 20
238.3784785678
 30
0.0
  0
SPLINE
  5
735
100
AcDbEntity
  8
0
100
AcDbSpline
 62
7
  6
CONTINUOUS
 70
0
 71
3
 72
15
 73
11
 74
0
 42
0.0000001
 43
0.0000001
 44
0.0000000001
 40
0.0
 40
0.0
 40
0.0
 40
0.0
 40
0.1255128032
 40
0.2499853236
 40
0.373843185
 40
0.4987358798
 40
0.623545967
 40
0.7480494975
 40
0.8738162317
 40
1.0
 40
1.0
 40
1.0
 40
1.0
 10
227.6299583478
 20
239.0965208259
 30
0.0
 10
227.3712662674
 20
239.092101263
 30
0.0
 10
226.8501974485
 20
238.9948976581
 30
0.0
 10
226.1942565357
 20
238.552617604
 30
0.0
 10
225.754391785
 20
237.8981164158
 30
0.0
 10
225.597398834
 20
237.1236612203
 30
0.0
 10
225.7483123128
 20
236.3466808489
 30
0.0
 10
226.1856360395
 20
235.6854586287
 30
0.0
 10
226.8446768888
 20
235.2372856451
 30
0.0
 10
227.3698772159
 20
235.1381888983
 30
0.0
 10
227.6299583478
 20
235.1341208259
 30
0.0
  0
SPLINE
  5
736
100
AcDbEntity
  8
0
100
AcDbSpline
 62
7
  6
CONTINUOUS
 70
0
 71
3
 72
15
 73
11
 74
0
 42
0.0000001
 43
0.0000001
 44
0.0000000001
 40
0.0
 40
0.0
 40
0.0
 40
0.0
 40
0.1255128032
 40
0.2499853236
 40
0.373843185
 40
0.4987358798
 40
0.623545967
 40
0.7480494975
 40
0.8738162317
 40
1.0
 40
1.0
 40
1.0
 40
1.0
 10
227.6299583478
 20
235.1341208259
 30
0.0
 10
227.8886504282
 20
235.1385403887
 30
0.0
 10
228.409719247
 20
235.2357439937
 30
0.0
 10
229.0656601598
 20
235.6780240478
 30
0.0
 10
229.5055249105
 20
236.332525236
 30
0.0
 10
229.6625178616
 20
237.1069804315
 30
0.0
 10
229.5116043828
 20
237.8839608029
 30
0.0
 10
229.0742806561
 20
238.5451830231
 30
0.0
 10
228.4152398067
 20
238.9933560067
 30
0.0
 10
227.8900394797
 20
239.0924527535
 30
0.0
 10
227.6299583478
 20
239.0965208259
 30
0.0
  0
SPLINE
  5
737
100
AcDbEntity
  8
0
100
AcDbSpline
 62
7
  6
CONTINUOUS
 70
0
 71
3
 72
16
 73
12
 74
0
 42
0.0000001
 43
0.0000001
 44
0.0000000001
 40
0.0
 40
0.0
 40
0.0
 40
0.0
 40
0.1116238356
 40
0.2225896816
 40
0.3323543352
 40
0.4432294677
 40
0.55420441
 40
0.6650931467
 40
0.775718756
 40
0.8878371126
 40
1.0
 40
1.0
 40
1.0
 40
1.0
 10
229.7013451901
 20
203.3010306261
 30
0.0
 10
229.8423902978
 20
203.0584230529
 30
0.0
 10
230.0506410466
 20
202.5252101722
 30
0.0
 10
230.0600757453
 20
201.672332611
 30
0.0
 10
229.7826119839
 20
200.8688457208
 30
0.0
 10
229.2477509556
 20
200.2070943875
 30
0.0
 10
228.5168127183
 20
199.7662954632
 30
0.0
 10
227.6797711085
 20
199.6015976071
 30
0.0
 10
226.8343635283
 20
199.7330729442
 30
0.0
 10
226.0804365053
 20
200.1462923039
 30
0.0
 10
225.7057289413
 20
200.5850714246
 30
0.0
 10
225.5585715055
 20
200.8256110256
 30
0.0
  0
SPLINE
  5
738
100
AcDbEntity
  8
0
100
AcDbSpline
 62
7
  6
CONTINUOUS
 70
0
 71
3
 72
16
 73
12
 74
0
 42
0.0000001
 43
0.0000001
 44
0.0000000001
 40
0.0
 40
0.0
 40
0.0
 40
0.0
 40
0.1116238356
 40
0.2225896816
 40
0.3323543352
 40
0.4432294677
 40
0.55420441
 40
0.6650931467
 40
0.775718756
 40
0.8878371126
 40
1.0
 40
1.0
 40
1.0
 40
1.0
 10
225.5585715055
 20
200.8256110256
 30
0.0
 10
225.4175263977
 20
201.0682185989
 30
0.0
 10
225.209275649
 20
201.6014314796
 30
0.0
 10
225.1998409502
 20
202.4543090408
 30
0.0
 10
225.4773047117
 20
203.257795931
 30
0.0
 10
226.01216574
 20
203.9195472643
 30
0.0
 10
226.7431039772
 20
204.3603461886
 30
0.0
 10
227.5801455871
 20
204.5250440446
 30
0.0
 10
228.4255531673
 20
204.3935687076
 30
0.0
 10
229.1794801903
 20
203.9803493478
 30
0.0
 10
229.5541877542
 20
203.5415702272
 30
0.0
 10
229.7013451901
 20
203.3010306261
 30
0.0
  0
SPLINE
  5
739
100
AcDbEntity
  8
0
100
AcDbSpline
 62
7
  6
CONTINUOUS
 70
0
 71
3
 72
14
 73
10
 74
0
 42
0.0000001
 43
0.0000001
 44
0.0000000001
 40
0.0
 40
0.0
 40
0.0
 40
0.0
 40
0.1205012243
 40
0.2589674021
 40
0.4169998424
 40
0.5830001576
 40
0.7410325979
 40
0.8794987757
 40
1.0
 40
1.0
 40
1.0
 40
1.0
 10
213.6663090711
 20
239.5937343747
 30
0.0
 10
213.6663090711
 20
239.5130460806
 30
0.0
 10
213.7281347156
 20
239.3377410728
 30
0.0
 10
213.9516344682
 20
239.1552688
 30
0.0
 10
214.2515595638
 20
239.058146818
 30
0.0
 10
214.5796331784
 20
239.058146818
 30
0.0
 10
214.879558274
 20
239.1552688
 30
0.0
 10
215.1030580266
 20
239.3377410728
 30
0.0
 10
215.1648836711
 20
239.5130460806
 30
0.0
 10
215.1648836711
 20
239.5937343747
 30
0.0
  0
SPLINE
  5
73A
100
AcDbEntity
  8
0
100
AcDbSpline
 62
7
  6
CONTINUOUS
 70
0
 71
3
 72
14
 73
10
 74
0
 42
0.0000001
 43
0.0000001
 44
0.0000000001
 40
0.0
 40
0.0
 40
0.0
 40
0.0
 40
0.1205012243
 40
0.2589674021
 40
0.4169998424
 40
0.5830001576
 40
0.7410325979
 40
0.8794987757
 40
1.0
 40
1.0
 40
1.0
 40
1.0
 10
215.1648836711
 20
239.5937343747
 30
0.0
 10
215.1648836711
 20
239.6744226687
 30
0.0
 10
215.1030580266
 20
239.8497276766
 30
0.0
 10
214.879558274
 20
240.0321999493
 30
0.0
 10
214.5796331784
 20
240.1293219313
 30
0.0
 10
214.2515595638
 20
240.1293219313
 30
0.0
 10
213.9516344682
 20
240.0321999493
 30
0.0
 10
213.7281347156
 20
239.8497276766
 30
0.0
 10
213.6663090711
 20
239.6744226687
 30
0.0
 10
213.6663090711
 20
239.5937343747
 30
0.0
  0
SPLINE
  5
73B
100
AcDbEntity
  8
0
100
AcDbSpline
 62
7
  6
CONTINUOUS
 70
0
 71
3
 72
11
 73
7
 74
0
 42
0.0000001
 43
0.0000001
 44
0.0000000001
 40
0.0
 40
0.0
 40
0.0
 40
0.0
 40
0.2877360201
 40
0.5549935666
 40
0.7902667347
 40
1.0
 40
1.0
 40
1.0
 40
1.0
 10
214.4155963711
 20
234.2603612985
 30
0.0
 10
214.3190713157
 20
234.2603612985
 30
0.0
 10
214.1317148166
 20
234.2856648041
 30
0.0
 10
213.8864150311
 20
234.396846417
 30
0.0
 10
213.7118475755
 20
234.5699881119
 30
0.0
 10
213.6663090711
 20
234.7210471684
 30
0.0
 10
213.6663090711
 20
234.7914051133
 30
0.0
  0
SPLINE
  5
73C
100
AcDbEntity
  8
0
100
AcDbSpline
 62
7
  6
CONTINUOUS
 70
0
 71
3
 72
11
 73
7
 74
0
 42
0.0000001
 43
0.0000001
 44
0.0000000001
 40
0.0
 40
0.0
 40
0.0
 40
0.0
 40
0.2097332653
 40
0.4450064334
 40
0.7122639799
 40
1.0
 40
1.0
 40
1.0
 40
1.0
 10
213.6663090711
 20
234.7914051133
 30
0.0
 10
213.6663090711
 20
234.8617630583
 30
0.0
 10
213.7118475755
 20
235.0128221148
 30
0.0
 10
213.8864150311
 20
235.1859638097
 30
0.0
 10
214.1317148166
 20
235.2971454226
 30
0.0
 10
214.3190713157
 20
235.3224489281
 30
0.0
 10
214.4155963711
 20
235.3224489281
 30
0.0
  0
SPLINE
  5
73D
100
AcDbEntity
  8
0
100
AcDbSpline
 62
7
  6
CONTINUOUS
 70
0
 71
3
 72
14
 73
10
 74
0
 42
0.0000001
 43
0.0000001
 44
0.0000000001
 40
0.0
 40
0.0
 40
0.0
 40
0.0
 40
0.164204418
 40
0.3133741179
 40
0.4413446828
 40
0.5586553172
 40
0.6866258821
 40
0.835795582
 40
1.0
 40
1.0
 40
1.0
 40
1.0
 10
214.4155963711
 20
235.3373675341
 30
0.0
 10
214.3058326393
 20
235.3373675341
 30
0.0
 10
214.0946102027
 20
235.3050482984
 30
0.0
 10
213.8279930359
 20
235.1647458769
 30
0.0
 10
213.6613991876
 20
234.9427421105
 30
0.0
 10
213.6613991876
 20
234.6747816737
 30
0.0
 10
213.8279930359
 20
234.4527779073
 30
0.0
 10
214.0946102027
 20
234.3124754859
 30
0.0
 10
214.3058326393
 20
234.2801562502
 30
0.0
 10
214.4155963711
 20
234.2801562502
 30
0.0
  0
SPLINE
  5
73E
100
AcDbEntity
  8
0
100
AcDbSpline
 62
7
  6
CONTINUOUS
 70
0
 71
3
 72
11
 73
7
 74
0
 42
0.0000001
 43
0.0000001
 44
0.0000000001
 40
0.0
 40
0.0
 40
0.0
 40
0.0
 40
0.2877360201
 40
0.5549935666
 40
0.7902667347
 40
1.0
 40
1.0
 40
1.0
 40
1.0
 10
214.4155963711
 20
235.3224489281
 30
0.0
 10
214.5121214265
 20
235.3224489281
 30
0.0
 10
214.6994779256
 20
235.2971454226
 30
0.0
 10
214.944777711
 20
235.1859638097
 30
0.0
 10
215.1193451667
 20
235.0128221148
 30
0.0
 10
215.1648836711
 20
234.8617630583
 30
0.0
 10
215.1648836711
 20
234.7914051133
 30
0.0
  0
SPLINE
  5
73F
100
AcDbEntity
  8
0
100
AcDbSpline
 62
7
  6
CONTINUOUS
 70
0
 71
3
 72
11
 73
7
 74
0
 42
0.0000001
 43
0.0000001
 44
0.0000000001
 40
0.0
 40
0.0
 40
0.0
 40
0.0
 40
0.2097332653
 40
0.4450064334
 40
0.7122639799
 40
1.0
 40
1.0
 40
1.0
 40
1.0
 10
215.1648836711
 20
234.7914051133
 30
0.0
 10
215.1648836711
 20
234.7210471684
 30
0.0
 10
215.1193451667
 20
234.5699881119
 30
0.0
 10
214.944777711
 20
234.396846417
 30
0.0
 10
214.6994779256
 20
234.2856648041
 30
0.0
 10
214.5121214265
 20
234.2603612985
 30
0.0
 10
214.4155963711
 20
234.2603612985
 30
0.0
  0
SPLINE
  5
740
100
AcDbEntity
  8
0
100
AcDbSpline
 62
7
  6
CONTINUOUS
 70
0
 71
3
 72
14
 73
10
 74
0
 42
0.0000001
 43
0.0000001
 44
0.0000000001
 40
0.0
 40
0.0
 40
0.0
 40
0.0
 40
0.164204418
 40
0.3133741179
 40
0.4413446828
 40
0.5586553172
 40
0.6866258821
 40
0.835795582
 40
1.0
 40
1.0
 40
1.0
 40
1.0
 10
214.4155963711
 20
234.2801562502
 30
0.0
 10
214.5253601029
 20
234.2801562502
 30
0.0
 10
214.7365825395
 20
234.3124754859
 30
0.0
 10
215.0031997063
 20
234.4527779073
 30
0.0
 10
215.1697935546
 20
234.6747816737
 30
0.0
 10
215.1697935546
 20
234.9427421105
 30
0.0
 10
215.0031997063
 20
235.1647458769
 30
0.0
 10
214.7365825395
 20
235.3050482984
 30
0.0
 10
214.5253601029
 20
235.3373675341
 30
0.0
 10
214.4155963711
 20
235.3373675341
 30
0.0
  0
SPLINE
  5
741
100
AcDbEntity
  8
0
100
AcDbSpline
 62
7
  6
CONTINUOUS
 70
0
 71
3
 72
11
 73
7
 74
0
 42
0.0000001
 43
0.0000001
 44
0.0000000001
 40
0.0
 40
0.0
 40
0.0
 40
0.0
 40
0.2091993063
 40
0.4443041234
 40
0.7117957447
 40
1.0
 40
1.0
 40
1.0
 40
1.0
 10
213.6663090711
 20
239.6332417092
 30
0.0
 10
213.6663090711
 20
239.7033002586
 30
0.0
 10
213.7119615809
 20
239.8538484431
 30
0.0
 10
213.8865950867
 20
240.0260927934
 30
0.0
 10
214.1318159096
 20
240.1366813014
 30
0.0
 10
214.3190799323
 20
240.1618473512
 30
0.0
 10
214.4155963711
 20
240.1618473512
 30
0.0
  0
SPLINE
  5
742
100
AcDbEntity
  8
0
100
AcDbSpline
 62
7
  6
CONTINUOUS
 70
0
 71
3
 72
11
 73
7
 74
0
 42
0.0000001
 43
0.0000001
 44
0.0000000001
 40
0.0
 40
0.0
 40
0.0
 40
0.0
 40
0.2882042553
 40
0.5556958766
 40
0.7908006937
 40
1.0
 40
1.0
 40
1.0
 40
1.0
 10
214.4155963711
 20
240.1618473512
 30
0.0
 10
214.5121128099
 20
240.1618473512
 30
0.0
 10
214.6993768326
 20
240.1366813014
 30
0.0
 10
214.9445976554
 20
240.0260927934
 30
0.0
 10
215.1192311613
 20
239.8538484431
 30
0.0
 10
215.1648836711
 20
239.7033002586
 30
0.0
 10
215.1648836711
 20
239.6332417092
 30
0.0
  0
SPLINE
  5
743
100
AcDbEntity
  8
0
100
AcDbSpline
 62
7
  6
CONTINUOUS
 70
0
 71
3
 72
11
 73
7
 74
0
 42
0.0000001
 43
0.0000001
 44
0.0000000001
 40
0.0
 40
0.0
 40
0.0
 40
0.0
 40
0.2091993063
 40
0.4443041234
 40
0.7117957447
 40
1.0
 40
1.0
 40
1.0
 40
1.0
 10
215.1648836711
 20
239.6332417092
 30
0.0
 10
215.1648836711
 20
239.5631831599
 30
0.0
 10
215.1192311613
 20
239.4126349753
 30
0.0
 10
214.9445976555
 20
239.240390625
 30
0.0
 10
214.6993768326
 20
239.1298021171
 30
0.0
 10
214.5121128099
 20
239.1046360673
 30
0.0
 10
214.4155963711
 20
239.1046360673
 30
0.0
  0
SPLINE
  5
744
100
AcDbEntity
  8
0
100
AcDbSpline
 62
7
  6
CONTINUOUS
 70
0
 71
3
 72
11
 73
7
 74
0
 42
0.0000001
 43
0.0000001
 44
0.0000000001
 40
0.0
 40
0.0
 40
0.0
 40
0.0
 40
0.2882042553
 40
0.5556958766
 40
0.7908006937
 40
1.0
 40
1.0
 40
1.0
 40
1.0
 10
214.4155963711
 20
239.1046360673
 30
0.0
 10
214.3190799323
 20
239.1046360673
 30
0.0
 10
214.1318159095
 20
239.1298021171
 30
0.0
 10
213.8865950867
 20
239.240390625
 30
0.0
 10
213.7119615809
 20
239.4126349753
 30
0.0
 10
213.6663090711
 20
239.5631831599
 30
0.0
 10
213.6663090711
 20
239.6332417092
 30
0.0
  0
SPLINE
  5
745
100
AcDbEntity
  8
0
100
AcDbSpline
 62
7
  6
CONTINUOUS
 70
0
 71
3
 72
11
 73
7
 74
0
 42
0.0000001
 43
0.0000001
 44
0.0000000001
 40
0.0
 40
0.0
 40
0.0
 40
0.0
 40
0.4278419881
 40
0.7655972609
 40
0.9590615249
 40
1.0
 40
1.0
 40
1.0
 40
1.0
 10
212.9042963711
 20
239.9106358472
 30
0.0
 10
213.0267697985
 20
239.9106358472
 30
0.0
 10
213.2488174596
 20
239.8825109482
 30
0.0
 10
213.5003841025
 20
239.7733195732
 30
0.0
 10
213.6354398126
 20
239.6664301323
 30
0.0
 10
213.6625909906
 20
239.605054763
 30
0.0
 10
213.6663090711
 20
239.5937343747
 30
0.0
  0
SPLINE
  5
746
100
AcDbEntity
  8
0
100
AcDbSpline
 62
7
  6
CONTINUOUS
 70
0
 71
3
 72
12
 73
8
 74
0
 42
0.0000001
 43
0.0000001
 44
0.0000000001
 40
0.0
 40
0.0
 40
0.0
 40
0.0
 40
0.2247584082
 40
0.4417384625
 40
0.6433847651
 40
0.826561197
 40
1.0
 40
1.0
 40
1.0
 40
1.0
 10
212.9042963711
 20
241.4092104472
 30
0.0
 10
213.1442894764
 20
241.4092104472
 30
0.0
 10
213.6182525932
 20
241.3505710873
 30
0.0
 10
214.2632407646
 20
241.0906495153
 30
0.0
 10
214.7720826279
 20
240.680126694
 30
0.0
 10
215.0921468996
 20
240.1631538677
 30
0.0
 10
215.1648836711
 20
239.7789293012
 30
0.0
 10
215.1648836711
 20
239.5937343747
 30
0.0
  0
SPLINE
  5
747
100
AcDbEntity
  8
0
100
AcDbSpline
 62
7
  6
CONTINUOUS
 70
0
 71
3
 72
11
 73
7
 74
0
 42
0.0000001
 43
0.0000001
 44
0.0000000001
 40
0.0
 40
0.0
 40
0.0
 40
0.0
 40
0.2172254404
 40
0.457351074
 40
0.7231810148
 40
1.0
 40
1.0
 40
1.0
 40
1.0
 10
215.1648836711
 20
239.6332417092
 30
0.0
 10
215.1648836711
 20
239.8649073623
 30
0.0
 10
215.0468610979
 20
240.359030589
 30
0.0
 10
214.5387154081
 20
240.9704177844
 30
0.0
 10
213.7825723681
 20
241.3650637426
 30
0.0
 10
213.1995170913
 20
241.4536355358
 30
0.0
 10
212.9042963711
 20
241.4536355358
 30
0.0
  0
SPLINE
  5
748
100
AcDbEntity
  8
0
100
AcDbSpline
 62
7
  6
CONTINUOUS
 70
0
 71
3
 72
11
 73
7
 74
0
 42
0.0000001
 43
0.0000001
 44
0.0000000001
 40
0.0
 40
0.0
 40
0.0
 40
0.0
 40
0.0464289572
 40
0.2458838427
 40
0.5804025948
 40
1.0
 40
1.0
 40
1.0
 40
1.0
 10
213.6663090711
 20
239.6332417092
 30
0.0
 10
213.6623208236
 20
239.6462550692
 30
0.0
 10
213.6342092843
 20
239.7111079095
 30
0.0
 10
213.4957166608
 20
239.8192910702
 30
0.0
 10
213.2444959827
 20
239.9274678954
 30
0.0
 10
213.0248899608
 20
239.9550609358
 30
0.0
 10
212.9042963711
 20
239.9550609358
 30
0.0
  0
SPLINE
  5
749
100
AcDbEntity
  8
0
100
AcDbSpline
 62
7
  6
CONTINUOUS
 70
0
 71
3
 72
14
 73
10
 74
0
 42
0.0000001
 43
0.0000001
 44
0.0000000001
 40
0.0
 40
0.0
 40
0.0
 40
0.0
 40
0.1153447592
 40
0.2531161642
 40
0.4145457088
 40
0.5854542912
 40
0.7468838358
 40
0.8846552408
 40
1.0
 40
1.0
 40
1.0
 40
1.0
 10
72.7661583478
 20
246.6507263491
 30
0.0
 10
72.7661583478
 20
246.555363637
 30
0.0
 10
72.6834113399
 20
246.3448687201
 30
0.0
 10
72.3987394645
 20
246.1351233532
 30
0.0
 10
72.0206791372
 20
246.0228477504
 30
0.0
 10
71.6066375584
 20
246.0228477504
 30
0.0
 10
71.2285772311
 20
246.1351233532
 30
0.0
 10
70.9439053557
 20
246.3448687201
 30
0.0
 10
70.8611583478
 20
246.555363637
 30
0.0
 10
70.8611583478
 20
246.6507263491
 30
0.0
  0
SPLINE
  5
74A
100
AcDbEntity
  8
0
100
AcDbSpline
 62
7
  6
CONTINUOUS
 70
0
 71
3
 72
14
 73
10
 74
0
 42
0.0000001
 43
0.0000001
 44
0.0000000001
 40
0.0
 40
0.0
 40
0.0
 40
0.0
 40
0.1153447592
 40
0.2531161642
 40
0.4145457088
 40
0.5854542912
 40
0.7468838358
 40
0.8846552408
 40
1.0
 40
1.0
 40
1.0
 40
1.0
 10
70.8611583478
 20
246.6507263491
 30
0.0
 10
70.8611583478
 20
246.7460890612
 30
0.0
 10
70.9439053557
 20
246.9565839781
 30
0.0
 10
71.2285772311
 20
247.1663293451
 30
0.0
 10
71.6066375584
 20
247.2786049478
 30
0.0
 10
72.0206791372
 20
247.2786049478
 30
0.0
 10
72.3987394645
 20
247.1663293451
 30
0.0
 10
72.6834113399
 20
246.9565839781
 30
0.0
 10
72.7661583478
 20
246.7460890612
 30
0.0
 10
72.7661583478
 20
246.6507263491
 30
0.0
  0
SPLINE
  5
74B
100
AcDbEntity
  8
0
100
AcDbSpline
 62
7
  6
CONTINUOUS
 70
0
 71
3
 72
11
 73
7
 74
0
 42
0.0000001
 43
0.0000001
 44
0.0000000001
 40
0.0
 40
0.0
 40
0.0
 40
0.0
 40
0.2003939735
 40
0.4328273312
 40
0.7041885339
 40
1.0
 40
1.0
 40
1.0
 40
1.0
 10
70.8611583478
 20
236.3230008245
 30
0.0
 10
70.8611583478
 20
236.239998169
 30
0.0
 10
70.9217291347
 20
236.0590119621
 30
0.0
 10
71.1448823756
 20
235.8584672704
 30
0.0
 10
71.4548880417
 20
235.7297486337
 30
0.0
 10
71.6911340184
 20
235.7005060194
 30
0.0
 10
71.8136583478
 20
235.7005060194
 30
0.0
  0
SPLINE
  5
74C
100
AcDbEntity
  8
0
100
AcDbSpline
 62
7
  6
CONTINUOUS
 70
0
 71
3
 72
11
 73
7
 74
0
 42
0.0000001
 43
0.0000001
 44
0.0000000001
 40
0.0
 40
0.0
 40
0.0
 40
0.0
 40
0.2958114661
 40
0.5671726688
 40
0.7996060265
 40
1.0
 40
1.0
 40
1.0
 40
1.0
 10
71.8136583478
 20
235.7005060194
 30
0.0
 10
71.9361826771
 20
235.7005060194
 30
0.0
 10
72.1724286538
 20
235.7297486337
 30
0.0
 10
72.48243432
 20
235.8584672704
 30
0.0
 10
72.7055875608
 20
236.0590119621
 30
0.0
 10
72.7661583478
 20
236.239998169
 30
0.0
 10
72.7661583478
 20
236.3230008245
 30
0.0
  0
SPLINE
  5
74D
100
AcDbEntity
  8
0
100
AcDbSpline
 62
7
  6
CONTINUOUS
 70
0
 71
3
 72
11
 73
7
 74
0
 42
0.0000001
 43
0.0000001
 44
0.0000000001
 40
0.0
 40
0.0
 40
0.0
 40
0.0
 40
0.2018141516
 40
0.4346649596
 40
0.7054010179
 40
1.0
 40
1.0
 40
1.0
 40
1.0
 10
72.7661583478
 20
236.2778822005
 30
0.0
 10
72.7661583478
 20
236.193929737
 30
0.0
 10
72.7060158493
 20
236.0113052742
 30
0.0
 10
72.4830194505
 20
235.8078396055
 30
0.0
 10
72.1727292268
 20
235.677278492
 30
0.0
 10
71.9362082784
 20
235.6476083222
 30
0.0
 10
71.8136583478
 20
235.6476083222
 30
0.0
  0
SPLINE
  5
74E
100
AcDbEntity
  8
0
100
AcDbSpline
 62
7
  6
CONTINUOUS
 70
0
 71
3
 72
11
 73
7
 74
0
 42
0.0000001
 43
0.0000001
 44
0.0000000001
 40
0.0
 40
0.0
 40
0.0
 40
0.0
 40
0.2945989821
 40
0.5653350404
 40
0.7981858484
 40
1.0
 40
1.0
 40
1.0
 40
1.0
 10
71.8136583478
 20
235.6476083222
 30
0.0
 10
71.6911084172
 20
235.6476083222
 30
0.0
 10
71.4545874688
 20
235.677278492
 30
0.0
 10
71.144297245
 20
235.8078396055
 30
0.0
 10
70.9213008462
 20
236.0113052742
 30
0.0
 10
70.8611583478
 20
236.193929737
 30
0.0
 10
70.8611583478
 20
236.2778822005
 30
0.0
  0
SPLINE
  5
74F
100
AcDbEntity
  8
0
100
AcDbSpline
 62
7
  6
CONTINUOUS
 70
0
 71
3
 72
11
 73
7
 74
0
 42
0.0000001
 43
0.0000001
 44
0.0000000001
 40
0.0
 40
0.0
 40
0.0
 40
0.0
 40
0.2003939735
 40
0.4328273312
 40
0.7041885339
 40
1.0
 40
1.0
 40
1.0
 40
1.0
 10
72.7661583478
 20
236.3230008245
 30
0.0
 10
72.7661583478
 20
236.40600348
 30
0.0
 10
72.7055875608
 20
236.5869896868
 30
0.0
 10
72.48243432
 20
236.7875343786
 30
0.0
 10
72.1724286538
 20
236.9162530153
 30
0.0
 10
71.9361826771
 20
236.9454956296
 30
0.0
 10
71.8136583478
 20
236.9454956296
 30
0.0
  0
SPLINE
  5
750
100
AcDbEntity
  8
0
100
AcDbSpline
 62
7
  6
CONTINUOUS
 70
0
 71
3
 72
11
 73
7
 74
0
 42
0.0000001
 43
0.0000001
 44
0.0000000001
 40
0.0
 40
0.0
 40
0.0
 40
0.0
 40
0.2958114661
 40
0.5671726688
 40
0.7996060265
 40
1.0
 40
1.0
 40
1.0
 40
1.0
 10
71.8136583478
 20
236.9454956296
 30
0.0
 10
71.6911340184
 20
236.9454956296
 30
0.0
 10
71.4548880417
 20
236.9162530153
 30
0.0
 10
71.1448823756
 20
236.7875343786
 30
0.0
 10
70.9217291347
 20
236.5869896868
 30
0.0
 10
70.8611583478
 20
236.40600348
 30
0.0
 10
70.8611583478
 20
236.3230008245
 30
0.0
  0
SPLINE
  5
751
100
AcDbEntity
  8
0
100
AcDbSpline
 62
7
  6
CONTINUOUS
 70
0
 71
3
 72
11
 73
7
 74
0
 42
0.0000001
 43
0.0000001
 44
0.0000000001
 40
0.0
 40
0.0
 40
0.0
 40
0.0
 40
0.2018141516
 40
0.4346649596
 40
0.7054010179
 40
1.0
 40
1.0
 40
1.0
 40
1.0
 10
70.8611583478
 20
236.2778822005
 30
0.0
 10
70.8611583478
 20
236.3618346639
 30
0.0
 10
70.9213008462
 20
236.5444591267
 30
0.0
 10
71.144297245
 20
236.7479247954
 30
0.0
 10
71.4545874688
 20
236.8784859089
 30
0.0
 10
71.6911084172
 20
236.9081560787
 30
0.0
 10
71.8136583478
 20
236.9081560787
 30
0.0
  0
SPLINE
  5
752
100
AcDbEntity
  8
0
100
AcDbSpline
 62
7
  6
CONTINUOUS
 70
0
 71
3
 72
11
 73
7
 74
0
 42
0.0000001
 43
0.0000001
 44
0.0000000001
 40
0.0
 40
0.0
 40
0.0
 40
0.0
 40
0.2945989821
 40
0.5653350404
 40
0.7981858484
 40
1.0
 40
1.0
 40
1.0
 40
1.0
 10
71.8136583478
 20
236.9081560787
 30
0.0
 10
71.9362082784
 20
236.9081560787
 30
0.0
 10
72.1727292268
 20
236.8784859089
 30
0.0
 10
72.4830194505
 20
236.7479247954
 30
0.0
 10
72.7060158493
 20
236.5444591267
 30
0.0
 10
72.7661583478
 20
236.3618346639
 30
0.0
 10
72.7661583478
 20
236.2778822005
 30
0.0
  0
SPLINE
  5
753
100
AcDbEntity
  8
0
100
AcDbSpline
 62
7
  6
CONTINUOUS
 70
0
 71
3
 72
11
 73
7
 74
0
 42
0.0000001
 43
0.0000001
 44
0.0000000001
 40
0.0
 40
0.0
 40
0.0
 40
0.0
 40
0.2018141516
 40
0.4346649596
 40
0.7054010179
 40
1.0
 40
1.0
 40
1.0
 40
1.0
 10
70.8611583478
 20
246.5619706595
 30
0.0
 10
70.8611583478
 20
246.4780181961
 30
0.0
 10
70.9213008462
 20
246.2953937333
 30
0.0
 10
71.144297245
 20
246.0919280646
 30
0.0
 10
71.4545874688
 20
245.9613669511
 30
0.0
 10
71.6911084172
 20
245.9316967813
 30
0.0
 10
71.8136583478
 20
245.9316967813
 30
0.0
  0
SPLINE
  5
754
100
AcDbEntity
  8
0
100
AcDbSpline
 62
7
  6
CONTINUOUS
 70
0
 71
3
 72
11
 73
7
 74
0
 42
0.0000001
 43
0.0000001
 44
0.0000000001
 40
0.0
 40
0.0
 40
0.0
 40
0.0
 40
0.2945989821
 40
0.5653350404
 40
0.7981858484
 40
1.0
 40
1.0
 40
1.0
 40
1.0
 10
71.8136583478
 20
245.9316967813
 30
0.0
 10
71.9362082784
 20
245.9316967813
 30
0.0
 10
72.1727292268
 20
245.9613669511
 30
0.0
 10
72.4830194506
 20
246.0919280646
 30
0.0
 10
72.7060158493
 20
246.2953937333
 30
0.0
 10
72.7661583478
 20
246.4780181961
 30
0.0
 10
72.7661583478
 20
246.5619706595
 30
0.0
  0
SPLINE
  5
755
100
AcDbEntity
  8
0
100
AcDbSpline
 62
7
  6
CONTINUOUS
 70
0
 71
3
 72
11
 73
7
 74
0
 42
0.0000001
 43
0.0000001
 44
0.0000000001
 40
0.0
 40
0.0
 40
0.0
 40
0.0
 40
0.2018141516
 40
0.4346649596
 40
0.7054010179
 40
1.0
 40
1.0
 40
1.0
 40
1.0
 10
72.7661583478
 20
246.5619706595
 30
0.0
 10
72.7661583478
 20
246.645923123
 30
0.0
 10
72.7060158493
 20
246.8285475858
 30
0.0
 10
72.4830194505
 20
247.0320132545
 30
0.0
 10
72.1727292268
 20
247.1625743679
 30
0.0
 10
71.9362082784
 20
247.1922445378
 30
0.0
 10
71.8136583478
 20
247.1922445378
 30
0.0
  0
SPLINE
  5
756
100
AcDbEntity
  8
0
100
AcDbSpline
 62
7
  6
CONTINUOUS
 70
0
 71
3
 72
11
 73
7
 74
0
 42
0.0000001
 43
0.0000001
 44
0.0000000001
 40
0.0
 40
0.0
 40
0.0
 40
0.0
 40
0.2945989821
 40
0.5653350404
 40
0.7981858484
 40
1.0
 40
1.0
 40
1.0
 40
1.0
 10
71.8136583478
 20
247.1922445378
 30
0.0
 10
71.6911084172
 20
247.1922445378
 30
0.0
 10
71.4545874688
 20
247.1625743679
 30
0.0
 10
71.144297245
 20
247.0320132545
 30
0.0
 10
70.9213008462
 20
246.8285475858
 30
0.0
 10
70.8611583478
 20
246.645923123
 30
0.0
 10
70.8611583478
 20
246.5619706595
 30
0.0
  0
SPLINE
  5
757
100
AcDbEntity
  8
0
100
AcDbSpline
 62
7
  6
CONTINUOUS
 70
0
 71
3
 72
11
 73
7
 74
0
 42
0.0000001
 43
0.0000001
 44
0.0000000001
 40
0.0
 40
0.0
 40
0.0
 40
0.0
 40
0.415307748
 40
0.7483870522
 40
0.9462109397
 40
1.0
 40
1.0
 40
1.0
 40
1.0
 10
73.5281583478
 20
246.9959208259
 30
0.0
 10
73.4067890051
 20
246.9959208259
 30
0.0
 10
73.185068002
 20
246.9662021033
 30
0.0
 10
72.9336983507
 20
246.8511920511
 30
0.0
 10
72.79589252
 20
246.7352029251
 30
0.0
 10
72.7698395836
 20
246.6664148884
 30
0.0
 10
72.7661583478
 20
246.6507263491
 30
0.0
  0
SPLINE
  5
758
100
AcDbEntity
  8
0
100
AcDbSpline
 62
7
  6
CONTINUOUS
 70
0
 71
3
 72
12
 73
8
 74
0
 42
0.0000001
 43
0.0000001
 44
0.0000000001
 40
0.0
 40
0.0
 40
0.0
 40
0.0
 40
0.2206711671
 40
0.4341717664
 40
0.6349731376
 40
0.8212036713
 40
1.0
 40
1.0
 40
1.0
 40
1.0
 10
73.5281583478
 20
248.9009208259
 30
0.0
 10
73.2444137724
 20
248.9009208259
 30
0.0
 10
72.6831259214
 20
248.8269034737
 30
0.0
 10
71.9227583058
 20
248.5012448671
 30
0.0
 10
71.324635874
 20
247.9920244934
 30
0.0
 10
70.9472414502
 20
247.3539963325
 30
0.0
 10
70.8611583478
 20
246.8806271968
 30
0.0
 10
70.8611583478
 20
246.6507263491
 30
0.0
  0
SPLINE
  5
759
100
AcDbEntity
  8
0
100
AcDbSpline
 62
7
  6
CONTINUOUS
 70
0
 71
3
 72
11
 73
7
 74
0
 42
0.0000001
 43
0.0000001
 44
0.0000000001
 40
0.0
 40
0.0
 40
0.0
 40
0.0
 40
0.0446196934
 40
0.2424629052
 40
0.5797044536
 40
1.0
 40
1.0
 40
1.0
 40
1.0
 10
72.7661583478
 20
246.5619706595
 30
0.0
 10
72.7697776531
 20
246.5746165869
 30
0.0
 10
72.7962143256
 20
246.6396173136
 30
0.0
 10
72.9325564383
 20
246.751999802
 30
0.0
 10
73.1843442575
 20
246.8656290632
 30
0.0
 10
73.4065244239
 20
246.8949227372
 30
0.0
 10
73.5281329478
 20
246.8949227068
 30
0.0
  0
SPLINE
  5
75A
100
AcDbEntity
  8
0
100
AcDbSpline
 62
7
  6
CONTINUOUS
 70
0
 71
3
 72
12
 73
8
 74
0
 42
0.0000001
 43
0.0000001
 44
0.0000000001
 40
0.0
 40
0.0
 40
0.0
 40
0.0
 40
0.1770302995
 40
0.3643935431
 40
0.567187673
 40
0.7812642867
 40
1.0
 40
1.0
 40
1.0
 40
1.0
 10
70.8611583478
 20
246.5619706595
 30
0.0
 10
70.8611583478
 20
246.7890762056
 30
0.0
 10
70.9466405897
 20
247.2604924762
 30
0.0
 10
71.3251349894
 20
247.8983898175
 30
0.0
 10
71.9283231043
 20
248.406687879
 30
0.0
 10
72.6894094227
 20
248.7276446819
 30
0.0
 10
73.2475249629
 20
248.7999227013
 30
0.0
 10
73.5281329478
 20
248.7999227068
 30
0.0
  0
LINE
  5
75B
100
AcDbEntity
  8
0
100
AcDbLine
 62
7
  6
CONTINUOUS
 10
69.1657411814
 20
228.7968208259
 11
69.7626083478
 21
229.3937208259
  0
LINE
  5
75C
100
AcDbEntity
  8
0
100
AcDbLine
 62
7
  6
CONTINUOUS
 10
69.7626083478
 20
220.6434208259
 11
65.3874583478
 21
225.0185708259
  0
SPLINE
  5
75D
100
AcDbEntity
  8
0
100
AcDbSpline
 62
7
  6
CONTINUOUS
 70
0
 71
3
 72
14
 73
10
 74
0
 42
0.0000001
 43
0.0000001
 44
0.0000000001
 40
0.0
 40
0.0
 40
0.0
 40
0.0
 40
0.0203518212
 40
0.0950681697
 40
0.1975921238
 40
0.3412138569
 40
0.5196558022
 40
0.7337059944
 40
1.0
 40
1.0
 40
1.0
 40
1.0
 10
61.0123083478
 20
220.6434208259
 30
0.0
 10
61.0418743615
 20
220.673216045
 30
0.0
 10
61.1801640821
 20
220.8122170663
 30
0.0
 10
61.4688967578
 20
221.0998154015
 30
0.0
 10
61.9368422689
 20
221.5677491916
 30
0.0
 10
62.5558705717
 20
222.1871442742
 30
0.0
 10
63.3380637431
 20
222.9686703184
 30
0.0
 10
64.2979389428
 20
223.9303205949
 30
0.0
 10
64.9990995627
 20
224.6302120407
 30
0.0
 10
65.3874583478
 20
225.0185708259
 30
0.0
  0
SPLINE
  5
75E
100
AcDbEntity
  8
0
100
AcDbSpline
 62
7
  6
CONTINUOUS
 70
0
 71
3
 72
13
 73
9
 74
0
 42
0.0000001
 43
0.0000001
 44
0.0000000001
 40
0.0
 40
0.0
 40
0.0
 40
0.0
 40
0.0293538994
 40
0.119323271
 40
0.2550481339
 40
0.4585345176
 40
0.6922285651
 40
1.0
 40
1.0
 40
1.0
 40
1.0
 10
69.7626083478
 20
220.6434208259
 30
0.0
 10
69.7198049169
 20
220.6862358712
 30
0.0
 10
69.5457966396
 20
220.8602657372
 30
0.0
 10
69.1737844761
 20
221.2321694768
 30
0.0
 10
68.5478694328
 20
221.8580741698
 30
0.0
 10
67.7123381366
 20
222.6935739737
 30
0.0
 10
66.6264484088
 20
223.7805349581
 30
0.0
 10
65.836307085
 20
224.5697220887
 30
0.0
 10
65.3874583478
 20
225.0185708259
 30
0.0
  0
LINE
  5
75F
100
AcDbEntity
  8
0
100
AcDbLine
 62
7
  6
CONTINUOUS
 10
61.0123083478
 20
220.6434208259
 11
65.3874583478
 21
225.0185708259
  0
LINE
  5
760
100
AcDbEntity
  8
0
100
AcDbLine
 62
7
  6
CONTINUOUS
 10
61.6092157554
 20
228.7968208259
 11
61.0123083478
 21
229.3937208259
  0
LINE
  5
761
100
AcDbEntity
  8
0
100
AcDbLine
 62
7
  6
CONTINUOUS
 10
61.0123083478
 20
229.3937208259
 11
61.6091751652
 21
228.7968208259
  0
SPLINE
  5
762
100
AcDbEntity
  8
0
100
AcDbSpline
 62
7
  6
CONTINUOUS
 70
0
 71
3
 72
14
 73
10
 74
0
 42
0.0000001
 43
0.0000001
 44
0.0000000001
 40
0.0
 40
0.0
 40
0.0
 40
0.0
 40
0.0825901075
 40
0.1864450646
 40
0.3122141061
 40
0.4598352877
 40
0.6275334276
 40
0.8095899414
 40
1.0
 40
1.0
 40
1.0
 40
1.0
 10
61.609051597
 20
228.7968208259
 30
0.0
 10
61.7130515609
 20
228.6927857611
 30
0.0
 10
61.9480204933
 20
228.4581209335
 30
0.0
 10
62.3411599464
 20
228.0648287604
 30
0.0
 10
62.8163058594
 20
227.5897372297
 30
0.0
 10
63.3718221785
 20
227.0342024257
 30
0.0
 10
63.9982415836
 20
226.407789007
 30
0.0
 10
64.6785472105
 20
225.7274815236
 30
0.0
 10
65.1476477713
 20
225.2583814023
 30
0.0
 10
65.3874583478
 20
225.0185708259
 30
0.0
  0
SPLINE
  5
763
100
AcDbEntity
  8
0
100
AcDbSpline
 62
7
  6
CONTINUOUS
 70
0
 71
3
 72
14
 73
10
 74
0
 42
0.0000001
 43
0.0000001
 44
0.0000000001
 40
0.0
 40
0.0
 40
0.0
 40
0.0
 40
0.0825899846
 40
0.1864452498
 40
0.312215565
 40
0.4598394795
 40
0.6275387511
 40
0.8095935254
 40
1.0
 40
1.0
 40
1.0
 40
1.0
 10
69.1658684553
 20
228.7968208259
 30
0.0
 10
69.0618689704
 20
228.6927854994
 30
0.0
 10
68.8268964533
 20
228.4581235825
 30
0.0
 10
68.4337566193
 20
228.0648277656
 30
0.0
 10
67.9586044799
 20
227.589731171
 30
0.0
 10
67.4030816401
 20
227.0341894511
 30
0.0
 10
66.7766592163
 20
226.4077731416
 30
0.0
 10
66.0963585863
 20
225.7274706154
 30
0.0
 10
65.627264517
 20
225.2583769951
 30
0.0
 10
65.3874583478
 20
225.0185708259
 30
0.0
  0
SPLINE
  5
764
100
AcDbEntity
  8
0
100
AcDbSpline
 62
7
  6
CONTINUOUS
 70
0
 71
3
 72
10
 73
6
 74
0
 42
0.0000001
 43
0.0000001
 44
0.0000000001
 40
0.0
 40
0.0
 40
0.0
 40
0.0
 40
0.3334327773
 40
0.6665673494
 40
1.0
 40
1.0
 40
1.0
 40
1.0
 10
51.7711163202
 20
196.713976263
 30
0.0
 10
51.8937271695
 20
196.729985669
 30
0.0
 10
52.1404379689
 20
196.7506674241
 30
0.0
 10
52.5116433649
 20
196.7506674204
 30
0.0
 10
52.7583541167
 20
196.7299856629
 30
0.0
 10
52.8809649194
 20
196.713976263
 30
0.0
  0
SPLINE
  5
765
100
AcDbEntity
  8
0
100
AcDbSpline
 62
7
  6
CONTINUOUS
 70
0
 71
3
 72
10
 73
6
 74
0
 42
0.0000001
 43
0.0000001
 44
0.0000000001
 40
0.0
 40
0.0
 40
0.0
 40
0.0
 40
0.3720255718
 40
0.7015532977
 40
1.0
 40
1.0
 40
1.0
 40
1.0
 10
48.2521517761
 20
196.713976263
 30
0.0
 10
48.3091108015
 20
196.7901854668
 30
0.0
 10
48.430411259
 20
196.9248118088
 30
0.0
 10
48.6495013881
 20
197.0645248336
 30
0.0
 10
48.8114409644
 20
197.0976208259
 30
0.0
 10
48.8877665986
 20
197.0976208259
 30
0.0
  0
SPLINE
  5
766
100
AcDbEntity
  8
0
100
AcDbSpline
 62
7
  6
CONTINUOUS
 70
0
 71
3
 72
10
 73
6
 74
0
 42
0.0000001
 43
0.0000001
 44
0.0000000001
 40
0.0
 40
0.0
 40
0.0
 40
0.0
 40
0.2994108843
 40
0.6254868413
 40
1.0
 40
1.0
 40
1.0
 40
1.0
 10
49.9976151978
 20
197.0976208259
 30
0.0
 10
49.9210426439
 20
197.0976208259
 30
0.0
 10
49.7597351546
 20
197.064536653
 30
0.0
 10
49.5405954052
 20
196.9251031839
 30
0.0
 10
49.4193405153
 20
196.7906953849
 30
0.0
 10
49.3620003753
 20
196.713976263
 30
0.0
  0
SPLINE
  5
767
100
AcDbEntity
  8
0
100
AcDbSpline
 62
7
  6
CONTINUOUS
 70
0
 71
3
 72
10
 73
6
 74
0
 42
0.0000001
 43
0.0000001
 44
0.0000000001
 40
0.0
 40
0.0
 40
0.0
 40
0.0
 40
0.3334327773
 40
0.6665673494
 40
1.0
 40
1.0
 40
1.0
 40
1.0
 10
49.3620003753
 20
196.713976263
 30
0.0
 10
49.239389526
 20
196.729985669
 30
0.0
 10
48.9926787266
 20
196.7506674241
 30
0.0
 10
48.6214733306
 20
196.7506674204
 30
0.0
 10
48.3747625788
 20
196.7299856629
 30
0.0
 10
48.2521517761
 20
196.713976263
 30
0.0
  0
SPLINE
  5
768
100
AcDbEntity
  8
0
100
AcDbSpline
 62
7
  6
CONTINUOUS
 70
0
 71
3
 72
10
 73
6
 74
0
 42
0.0000001
 43
0.0000001
 44
0.0000000001
 40
0.0
 40
0.0
 40
0.0
 40
0.0
 40
0.2994108843
 40
0.6254868413
 40
1.0
 40
1.0
 40
1.0
 40
1.0
 10
51.1355014978
 20
197.0976208259
 30
0.0
 10
51.2120740516
 20
197.0976208259
 30
0.0
 10
51.373381541
 20
197.064536653
 30
0.0
 10
51.5925212903
 20
196.9251031839
 30
0.0
 10
51.7137761803
 20
196.7906953849
 30
0.0
 10
51.7711163202
 20
196.713976263
 30
0.0
  0
SPLINE
  5
769
100
AcDbEntity
  8
0
100
AcDbSpline
 62
7
  6
CONTINUOUS
 70
0
 71
3
 72
10
 73
6
 74
0
 42
0.0000001
 43
0.0000001
 44
0.0000000001
 40
0.0
 40
0.0
 40
0.0
 40
0.0
 40
0.3720255718
 40
0.7015532977
 40
1.0
 40
1.0
 40
1.0
 40
1.0
 10
52.8809649194
 20
196.713976263
 30
0.0
 10
52.8240058941
 20
196.7901854668
 30
0.0
 10
52.7027054366
 20
196.9248118088
 30
0.0
 10
52.4836153075
 20
197.0645248336
 30
0.0
 10
52.3216757312
 20
197.0976208259
 30
0.0
 10
52.245350097
 20
197.0976208259
 30
0.0
  0
SPLINE
  5
76A
100
AcDbEntity
  8
0
100
AcDbSpline
 62
7
  6
CONTINUOUS
 70
0
 71
3
 72
15
 73
11
 74
0
 42
0.0000001
 43
0.0000001
 44
0.0000000001
 40
0.0
 40
0.0
 40
0.0
 40
0.0
 40
0.1255128032
 40
0.2499853236
 40
0.373843185
 40
0.4987358798
 40
0.623545967
 40
0.7480494975
 40
0.8738162317
 40
1.0
 40
1.0
 40
1.0
 40
1.0
 10
226.230607516
 20
236.1189621295
 30
0.0
 10
226.1679220705
 20
235.8679408955
 30
0.0
 10
226.126951055
 20
235.3394689183
 30
0.0
 10
226.3843908462
 20
234.5914081713
 30
0.0
 10
226.9027451243
 20
233.9971341212
 30
0.0
 10
227.610178664
 20
233.6450468828
 30
0.0
 10
228.3997433586
 20
233.5897208606
 30
0.0
 10
229.1516226654
 20
233.8410063047
 30
0.0
 10
229.7550968028
 20
234.3615952306
 30
0.0
 10
229.9867487149
 20
234.8432516854
 30
0.0
 10
230.0579920995
 20
235.0934178792
 30
0.0
  0
SPLINE
  5
76B
100
AcDbEntity
  8
0
100
AcDbSpline
 62
7
  6
CONTINUOUS
 70
0
 71
3
 72
15
 73
11
 74
0
 42
0.0000001
 43
0.0000001
 44
0.0000000001
 40
0.0
 40
0.0
 40
0.0
 40
0.0
 40
0.1255128032
 40
0.2499853236
 40
0.373843185
 40
0.4987358798
 40
0.623545967
 40
0.7480494975
 40
0.8738162317
 40
1.0
 40
1.0
 40
1.0
 40
1.0
 10
230.0579920995
 20
235.0934178792
 30
0.0
 10
230.1206775449
 20
235.3444391132
 30
0.0
 10
230.1616485605
 20
235.8729110904
 30
0.0
 10
229.9042087693
 20
236.6209718374
 30
0.0
 10
229.3858544911
 20
237.2152458875
 30
0.0
 10
228.6784209514
 20
237.5673331259
 30
0.0
 10
227.8888562569
 20
237.6226591481
 30
0.0
 10
227.1369769501
 20
237.371373704
 30
0.0
 10
226.5335028127
 20
236.850784778
 30
0.0
 10
226.3018509005
 20
236.3691283233
 30
0.0
 10
226.230607516
 20
236.1189621295
 30
0.0
  0
SPLINE
  5
76C
100
AcDbEntity
  8
0
100
AcDbSpline
 62
7
  6
CONTINUOUS
 70
0
 71
3
 72
20
 73
16
 74
0
 42
0.0000001
 43
0.0000001
 44
0.0000000001
 40
0.0
 40
0.0
 40
0.0
 40
0.0
 40
0.0770818179
 40
0.154086324
 40
0.2309400537
 40
0.3072172906
 40
0.3839265424
 40
0.4606804982
 40
0.5372381653
 40
0.6138672116
 40
0.6906399002
 40
0.7674161635
 40
0.8449733752
 40
0.9226312934
 40
1.0
 40
1.0
 40
1.0
 40
1.0
 10
219.5988330983
 20
245.7756180626
 30
0.0
 10
218.9038602435
 20
245.1263634381
 30
0.0
 10
217.6581726754
 20
243.6618984958
 30
0.0
 10
216.3833038077
 20
241.0830049372
 30
0.0
 10
215.7618093991
 20
238.283939185
 30
0.0
 10
215.825709867
 20
235.4215503603
 30
0.0
 10
216.5685565405
 20
232.6574368938
 30
0.0
 10
217.951572698
 20
230.1475232869
 30
0.0
 10
219.8924742471
 20
228.0407340546
 30
0.0
 10
222.2797584646
 20
226.4569778698
 30
0.0
 10
224.9786942227
 20
225.4877616115
 30
0.0
 10
227.8424586143
 20
225.1898745406
 30
0.0
 10
230.7055388692
 20
225.5904639568
 30
0.0
 10
233.3942344868
 20
226.6706510591
 30
0.0
 10
234.9594262348
 20
227.8077668252
 30
0.0
 10
235.6610835972
 20
228.4550235892
 30
0.0
  0
SPLINE
  5
76D
100
AcDbEntity
  8
0
100
AcDbSpline
 62
7
  6
CONTINUOUS
 70
0
 71
3
 72
20
 73
16
 74
0
 42
0.0000001
 43
0.0000001
 44
0.0000000001
 40
0.0
 40
0.0
 40
0.0
 40
0.0
 40
0.0770818179
 40
0.154086324
 40
0.2309400537
 40
0.3072172906
 40
0.3839265424
 40
0.4606804982
 40
0.5372381653
 40
0.6138672116
 40
0.6906399002
 40
0.7674161635
 40
0.8449733752
 40
0.9226312934
 40
1.0
 40
1.0
 40
1.0
 40
1.0
 10
235.6610835972
 20
228.4550235892
 30
0.0
 10
236.356056452
 20
229.1042782136
 30
0.0
 10
237.6017440202
 20
230.5687431559
 30
0.0
 10
238.8766128878
 20
233.1476367145
 30
0.0
 10
239.4981072965
 20
235.9467024667
 30
0.0
 10
239.4342068286
 20
238.8090912914
 30
0.0
 10
238.6913601551
 20
241.573204758
 30
0.0
 10
237.3083439976
 20
244.0831183648
 30
0.0
 10
235.3674424485
 20
246.1899075971
 30
0.0
 10
232.980158231
 20
247.773663782
 30
0.0
 10
230.2812224729
 20
248.7428800403
 30
0.0
 10
227.4174580813
 20
249.0407671111
 30
0.0
 10
224.5543778264
 20
248.640177695
 30
0.0
 10
221.8656822088
 20
247.5599905927
 30
0.0
 10
220.3004904607
 20
246.4228748265
 30
0.0
 10
219.5988330983
 20
245.7756180626
 30
0.0
  0
SPLINE
  5
76E
100
AcDbEntity
  8
0
100
AcDbSpline
 62
7
  6
CONTINUOUS
 70
0
 71
3
 72
16
 73
12
 74
0
 42
0.0000001
 43
0.0000001
 44
0.0000000001
 40
0.0
 40
0.0
 40
0.0
 40
0.0
 40
0.1116238356
 40
0.2225896816
 40
0.3323543352
 40
0.4432294677
 40
0.55420441
 40
0.6650931467
 40
0.775718756
 40
0.8878371126
 40
1.0
 40
1.0
 40
1.0
 40
1.0
 10
230.0429583478
 20
237.1153208259
 30
0.0
 10
230.0395937433
 20
236.8347128494
 30
0.0
 10
229.9448589952
 20
236.2701690708
 30
0.0
 10
229.5154880855
 20
235.533195686
 30
0.0
 10
228.8651696508
 20
234.9857806195
 30
0.0
 10
228.0665951762
 20
234.692063144
 30
0.0
 10
227.2130365373
 20
234.6885920822
 30
0.0
 10
226.410017421
 20
234.976557947
 30
0.0
 10
225.7517340291
 20
235.523058374
 30
0.0
 10
225.3164962072
 20
236.2644922778
 30
0.0
 10
225.2199014704
 20
236.8333528337
 30
0.0
 10
225.2169583478
 20
237.1153208259
 30
0.0
  0
SPLINE
  5
76F
100
AcDbEntity
  8
0
100
AcDbSpline
 62
7
  6
CONTINUOUS
 70
0
 71
3
 72
16
 73
12
 74
0
 42
0.0000001
 43
0.0000001
 44
0.0000000001
 40
0.0
 40
0.0
 40
0.0
 40
0.0
 40
0.1116238356
 40
0.2225896816
 40
0.3323543352
 40
0.4432294677
 40
0.55420441
 40
0.6650931467
 40
0.775718756
 40
0.8878371126
 40
1.0
 40
1.0
 40
1.0
 40
1.0
 10
225.2169583478
 20
237.1153208259
 30
0.0
 10
225.2203229523
 20
237.3959288024
 30
0.0
 10
225.3150577004
 20
237.960472581
 30
0.0
 10
225.7444286101
 20
238.6974459658
 30
0.0
 10
226.3947470448
 20
239.2448610323
 30
0.0
 10
227.1933215193
 20
239.5385785077
 30
0.0
 10
228.0468801583
 20
239.5420495696
 30
0.0
 10
228.8498992746
 20
239.2540837047
 30
0.0
 10
229.5081826665
 20
238.7075832777
 30
0.0
 10
229.9434204884
 20
237.9661493739
 30
0.0
 10
230.0400152252
 20
237.3972888181
 30
0.0
 10
230.0429583478
 20
237.1153208259
 30
0.0
  0
LINE
  5
770
100
AcDbEntity
  8
0
100
AcDbLine
 62
7
  6
CONTINUOUS
 10
229.9794583478
 20
237.5471208259
 11
229.9794583478
 21
236.6835208259
  0
SPLINE
  5
771
100
AcDbEntity
  8
0
100
AcDbSpline
 62
7
  6
CONTINUOUS
 70
0
 71
3
 72
10
 73
6
 74
0
 42
0.0000001
 43
0.0000001
 44
0.0000000001
 40
0.0
 40
0.0
 40
0.0
 40
0.0
 40
0.333094752
 40
0.6664277021
 40
1.0
 40
1.0
 40
1.0
 40
1.0
 10
229.9794583478
 20
236.6835208259
 30
0.0
 10
229.8511544688
 20
236.6855024157
 30
0.0
 10
229.5943953794
 20
236.6821248011
 30
0.0
 10
229.2092006612
 20
236.6854452547
 30
0.0
 10
228.9522127021
 20
236.6799730465
 30
0.0
 10
228.8237585385
 20
236.6835208112
 30
0.0
  0
SPLINE
  5
772
100
AcDbEntity
  8
0
100
AcDbSpline
 62
7
  6
CONTINUOUS
 70
0
 71
3
 72
10
 73
6
 74
0
 42
0.0000001
 43
0.0000001
 44
0.0000000001
 40
0.0
 40
0.0
 40
0.0
 40
0.0
 40
0.3335907083
 40
0.6669236439
 40
1.0
 40
1.0
 40
1.0
 40
1.0
 10
228.8237585385
 20
237.5471208406
 30
0.0
 10
228.9522197703
 20
237.5506695779
 30
0.0
 10
229.2092148515
 20
237.5451954769
 30
0.0
 10
229.5944095521
 20
237.5485170256
 30
0.0
 10
229.8511615631
 20
237.5451387947
 30
0.0
 10
229.9794583478
 20
237.5471208259
 30
0.0
  0
SPLINE
  5
773
100
AcDbEntity
  8
0
100
AcDbSpline
 62
7
  6
CONTINUOUS
 70
0
 71
3
 72
10
 73
6
 74
0
 42
0.0000001
 43
0.0000001
 44
0.0000000001
 40
0.0
 40
0.0
 40
0.0
 40
0.0
 40
0.3335907083
 40
0.6669236439
 40
1.0
 40
1.0
 40
1.0
 40
1.0
 10
226.4361581571
 20
236.6835208112
 30
0.0
 10
226.3076969253
 20
236.6799720738
 30
0.0
 10
226.0507018441
 20
236.6854461748
 30
0.0
 10
225.6655071435
 20
236.6821246262
 30
0.0
 10
225.4087551324
 20
236.6855028571
 30
0.0
 10
225.2804583478
 20
236.6835208259
 30
0.0
  0
LINE
  5
774
100
AcDbEntity
  8
0
100
AcDbLine
 62
7
  6
CONTINUOUS
 10
225.2804583478
 20
236.6835208259
 11
225.2804583478
 21
237.5471208259
  0
SPLINE
  5
775
100
AcDbEntity
  8
0
100
AcDbSpline
 62
7
  6
CONTINUOUS
 70
0
 71
3
 72
10
 73
6
 74
0
 42
0.0000001
 43
0.0000001
 44
0.0000000001
 40
0.0
 40
0.0
 40
0.0
 40
0.0
 40
0.333094752
 40
0.6664277021
 40
1.0
 40
1.0
 40
1.0
 40
1.0
 10
225.2804583478
 20
237.5471208259
 30
0.0
 10
225.4087622268
 20
237.5451392361
 30
0.0
 10
225.6655213162
 20
237.5485168506
 30
0.0
 10
226.0507160344
 20
237.5451963971
 30
0.0
 10
226.3077039934
 20
237.5506686053
 30
0.0
 10
226.4361581571
 20
237.5471208406
 30
0.0
  0
SPLINE
  5
776
100
AcDbEntity
  8
0
100
AcDbSpline
 62
7
  6
CONTINUOUS
 70
0
 71
3
 72
16
 73
12
 74
0
 42
0.0000001
 43
0.0000001
 44
0.0000000001
 40
0.0
 40
0.0
 40
0.0
 40
0.0
 40
0.1116238356
 40
0.2225896816
 40
0.3323543352
 40
0.4432294677
 40
0.55420441
 40
0.6650931467
 40
0.775718756
 40
0.8878371126
 40
1.0
 40
1.0
 40
1.0
 40
1.0
 10
229.7013451901
 20
273.4050306261
 30
0.0
 10
229.8423902978
 20
273.1624230529
 30
0.0
 10
230.0506410466
 20
272.6292101722
 30
0.0
 10
230.0600757453
 20
271.776332611
 30
0.0
 10
229.7826119839
 20
270.9728457208
 30
0.0
 10
229.2477509556
 20
270.3110943875
 30
0.0
 10
228.5168127183
 20
269.8702954632
 30
0.0
 10
227.6797711084
 20
269.7055976071
 30
0.0
 10
226.8343635283
 20
269.8370729442
 30
0.0
 10
226.0804365053
 20
270.2502923039
 30
0.0
 10
225.7057289413
 20
270.6890714246
 30
0.0
 10
225.5585715055
 20
270.9296110256
 30
0.0
  0
SPLINE
  5
777
100
AcDbEntity
  8
0
100
AcDbSpline
 62
7
  6
CONTINUOUS
 70
0
 71
3
 72
16
 73
12
 74
0
 42
0.0000001
 43
0.0000001
 44
0.0000000001
 40
0.0
 40
0.0
 40
0.0
 40
0.0
 40
0.1116238356
 40
0.2225896816
 40
0.3323543352
 40
0.4432294677
 40
0.55420441
 40
0.6650931467
 40
0.775718756
 40
0.8878371126
 40
1.0
 40
1.0
 40
1.0
 40
1.0
 10
225.5585715055
 20
270.9296110256
 30
0.0
 10
225.4175263977
 20
271.1722185989
 30
0.0
 10
225.209275649
 20
271.7054314796
 30
0.0
 10
225.1998409502
 20
272.5583090408
 30
0.0
 10
225.4773047117
 20
273.361795931
 30
0.0
 10
226.01216574
 20
274.0235472643
 30
0.0
 10
226.7431039772
 20
274.4643461886
 30
0.0
 10
227.5801455871
 20
274.6290440446
 30
0.0
 10
228.4255531673
 20
274.4975687076
 30
0.0
 10
229.1794801903
 20
274.0843493478
 30
0.0
 10
229.5541877542
 20
273.6455702272
 30
0.0
 10
229.7013451901
 20
273.4050306261
 30
0.0
  0
SPLINE
  5
778
100
AcDbEntity
  8
0
100
AcDbSpline
 62
7
  6
CONTINUOUS
 70
0
 71
3
 72
16
 73
12
 74
0
 42
0.0000001
 43
0.0000001
 44
0.0000000001
 40
0.0
 40
0.0
 40
0.0
 40
0.0
 40
0.1116238356
 40
0.2225896816
 40
0.3323543352
 40
0.4432294677
 40
0.55420441
 40
0.6650931467
 40
0.775718756
 40
0.8878371126
 40
1.0
 40
1.0
 40
1.0
 40
1.0
 10
170.3923451901
 20
203.2248306261
 30
0.0
 10
170.5333902978
 20
202.9822230529
 30
0.0
 10
170.7416410466
 20
202.4490101722
 30
0.0
 10
170.7510757453
 20
201.596132611
 30
0.0
 10
170.4736119839
 20
200.7926457208
 30
0.0
 10
169.9387509556
 20
200.1308943875
 30
0.0
 10
169.2078127183
 20
199.6900954632
 30
0.0
 10
168.3707711085
 20
199.5253976071
 30
0.0
 10
167.5253635283
 20
199.6568729442
 30
0.0
 10
166.7714365053
 20
200.0700923039
 30
0.0
 10
166.3967289413
 20
200.5088714246
 30
0.0
 10
166.2495715055
 20
200.7494110256
 30
0.0
  0
SPLINE
  5
779
100
AcDbEntity
  8
0
100
AcDbSpline
 62
7
  6
CONTINUOUS
 70
0
 71
3
 72
16
 73
12
 74
0
 42
0.0000001
 43
0.0000001
 44
0.0000000001
 40
0.0
 40
0.0
 40
0.0
 40
0.0
 40
0.1116238356
 40
0.2225896816
 40
0.3323543352
 40
0.4432294677
 40
0.55420441
 40
0.6650931467
 40
0.775718756
 40
0.8878371126
 40
1.0
 40
1.0
 40
1.0
 40
1.0
 10
166.2495715055
 20
200.7494110256
 30
0.0
 10
166.1085263977
 20
200.9920185989
 30
0.0
 10
165.900275649
 20
201.5252314796
 30
0.0
 10
165.8908409502
 20
202.3781090408
 30
0.0
 10
166.1683047117
 20
203.181595931
 30
0.0
 10
166.70316574
 20
203.8433472643
 30
0.0
 10
167.4341039772
 20
204.2841461886
 30
0.0
 10
168.2711455871
 20
204.4488440446
 30
0.0
 10
169.1165531673
 20
204.3173687076
 30
0.0
 10
169.8704801903
 20
203.9041493478
 30
0.0
 10
170.2451877542
 20
203.4653702272
 30
0.0
 10
170.3923451901
 20
203.2248306261
 30
0.0
  0
ENDSEC
  0
SECTION
  2
OBJECTS
  0
DICTIONARY
  5
C
100
AcDbDictionary
280
0
281
1
  3
ACAD_GROUP
350
D
  3
ACAD_MLINESTYLE
350
17
  3
ACAD_LAYOUT
350
1A
  3
ACAD_PLOTSETTINGS
350
19
  3
ACAD_PLOTSTYLENAME
350
E
  0
DICTIONARY
  5
D
102
{ACAD_REACTORS
330
C
102
}
100
AcDbDictionary
280
0
281
1
  0
ACDBDICTIONARYWDFLT
  5
E
102
{ACAD_REACTORS
330
C
102
}
100
AcDbDictionary
281
1
  3
Normal
350
F
100
AcDbDictionaryWithDefault
340
F
  0
DICTIONARY
  5
17
102
{ACAD_REACTORS
330
C
102
}
100
AcDbDictionary
280
0
281
1
  3
Standard
350
18
  0
DICTIONARY
  5
19
102
{ACAD_REACTORS
330
C
102
}
100
AcDbDictionary
281
1
  0
DICTIONARY
  5
1A
102
{ACAD_REACTORS
330
C
102
}
100
AcDbDictionary
281
1
  3
Model
350
77A
  3
Layout1
350
77B
  0
ACDBPLACEHOLDER
  5
F
102
{ACAD_REACTORS
330
E
102
}
  0
MLINESTYLE
  5
18
102
{ACAD_REACTORS
330
17
102
}
100
AcDbMlineStyle
  2
STANDARD
 70
0
  3

 62
256
 51
90.0
 52
90.0
 71
2
 49
0.5
 62
256
  6
BYLAYER
 49
-0.5
 62
256
  6
BYLAYER
  0
LAYOUT
  5
77A
102
{ACAD_REACTORS
330
1A
102
}
100
AcDbPlotSettings
  1

  2
none_device
  4

  6

 40
0.0
 41
0.0
 42
0.0
 43
0.0
 44
210.0
 45
297.0
 46
0.0
 47
0.0
 48
0.0
 49
0.0
140
0.0
141
0.0
142
1.0
143
1.0
 70
1024
 72
1
 73
0
 74
0
  7

 75
0
147
1.0
148
0.0
149
0.0
100
AcDbLayout
  1
Model
 70
0
 71
0
 10
0.0
 20
0.0
 11
210.0
 21
297.0
 12
0.0
 22
0.0
 32
0.0
 14
0.0
 24
0.0
 34
0.0
 15
0.0
 25
0.0
 35
0.0
146
0.0
 13
0.0
 23
0.0
 33
0.0
 16
1.0
 26
0.0
 36
0.0
 17
0.0
 27
1.0
 37
0.0
 76
0
330
210
345
0
346
0
  0
LAYOUT
  5
77B
102
{ACAD_REACTORS
330
1A
102
}
100
AcDbPlotSettings
  1

  2
none_device
  4

  6

 40
0.0
 41
0.0
 42
0.0
 43
0.0
 44
210.0
 45
297.0
 46
0.0
 47
0.0
 48
0.0
 49
0.0
140
0.0
141
0.0
142
1.0
143
1.0
 70
0
 72
1
 73
0
 74
0
  7

 75
0
147
1.0
148
0.0
149
0.0
100
AcDbLayout
  1
Layout1
 70
0
 71
1
 10
0.0
 20
0.0
 11
210.0
 21
297.0
 12
0.0
 22
0.0
 32
0.0
 14
0.0
 24
0.0
 34
0.0
 15
0.0
 25
0.0
 35
0.0
146
0.0
 13
0.0
 23
0.0
 33
0.0
 16
1.0
 26
0.0
 36
0.0
 17
0.0
 27
1.0
 37
0.0
 76
0
330
211
345
0
346
0
  0
ENDSEC
  0
EOF
