999
DXF file: C:\Gen2D\CAD\LRD325_3D-CAD\drw0001_1.dxf
999
Pro/ENGINEER 2019471 by Parametric Technology Corporation
  0
SECTION
  2
HEADER
  9
$ACADVER
  1
AC1024
  9
$DWGCODEPAGE
  3
ANSI_1252
  9
$EXTMAX
 10
143.0453492385
 20
202.306993923
 30
0.0
  9
$EXTMIN
 10
0.0
 20
0.0
 30
0.0
  9
$LIMMIN
 10
0.0
 20
0.0
  9
$LIMMAX
 10
143.0453492385
 20
202.306993923
  9
$VIEWCTR
 10
71.5226746193
 20
101.1534969615
  9
$VIEWSIZE
 40
202.306993923
  9
$CLAYER
  8
0
  9
$LTSCALE
 40
13.1874188631
  9
$CELTYPE
  6
BYLAYER
  9
$DIMSCALE
 40
1.0
  9
$DIMASZ
 40
1.7029208243
  9
$DIMEXO
 40
1.0
  9
$DIMDLI
 40
9.1113075782
  9
$DIMEXE
 40
1.0
  9
$DIMCEN
 40
2.1579412685
  9
$DIMLFAC
 40
1.0
  9
$DIMBLK
  1
_FILLED
  9
$DIMALT
 70
0
  9
$DIMALTF
 40
0.0393700787
  9
$DIMTXT
 40
2.384089154
  9
$DIMTOL
 70
1
  9
$DIMLIM
 70
0
  9
$DIMTFAC
 40
1.0
  9
$DIMTP
 40
0.01
  9
$DIMTM
 40
0.01
  9
$DIMGAP
 40
0.625
  9
$DIMDSEP
 70
46
  9
$AUNITS
 70
0
  9
$PDMODE
 70
3
  9
$PDSIZE
 40
0.3125
  9
$HANDSEED
  5
454
  9
$TILEMODE
 70
1
  9
$MEASUREMENT
 70
1
  9
$INSUNITS
 70
4
  0
ENDSEC
  0
SECTION
  2
CLASSES
  0
CLASS
  1
ACDBDICTIONARYWDFLT
  2
AcDbDictionaryWithDefault
  3
AutoCAD 2000
 90
0
 91
1
280
0
281
0
  0
CLASS
  1
ACDBPLACEHOLDER
  2
AcDbPlaceHolder
  3
AutoCAD 2000
 90
0
 91
1
280
0
281
0
  0
CLASS
  1
LAYOUT
  2
AcDbLayout
  3
AutoCAD 2000
 90
0
 91
0
280
0
281
0
  0
ENDSEC
  0
SECTION
  2
TABLES
  0
TABLE
  2
VPORT
  5
8
100
AcDbSymbolTable
 70
2
  0
VPORT
  5
1F4
100
AcDbSymbolTableRecord
100
AcDbViewportTableRecord
  2
*ACTIVE
 70
0
 10
0.0
 20
0.0
 11
1.0
 21
1.0
 12
71.5226746193
 22
101.1534969615
 13
0.0
 23
0.0
 14
1.0
 24
1.0
 15
0.0
 25
0.0
 16
0.0
 26
0.0
 36
1.0
 17
0.0
 27
0.0
 37
0.0
 40
202.306993923
 41
0.7070707071
 42
50.0
 43
0.0
 44
0.0
 50
0.0
 51
0.0
 71
0
 72
100
 73
1
 74
1
 75
0
 76
0
 77
0
 78
0
  0
ENDTAB
  0
TABLE
  2
LTYPE
  5
5
100
AcDbSymbolTable
 70
6
  0
LTYPE
  5
14
100
AcDbSymbolTableRecord
100
AcDbLinetypeTableRecord
  2
BYBLOCK
 70
0
  3

 72
65
 73
0
 40
0.0
  0
LTYPE
  5
15
100
AcDbSymbolTableRecord
100
AcDbLinetypeTableRecord
  2
BYLAYER
 70
0
  3

 72
65
 73
0
 40
0.0
  0
LTYPE
  5
16
100
AcDbSymbolTableRecord
100
AcDbLinetypeTableRecord
  2
CONTINUOUS
 70
64
  3
Solid line
 72
65
 73
0
 40
0.0
  0
LTYPE
  5
1F5
100
AcDbSymbolTableRecord
100
AcDbLinetypeTableRecord
  2
CENTER
 70
64
  3
____ _ ____ _ ____ _ ____ _ ____ _ ____ _ ____
 72
65
 73
4
 40
0.6
 49
0.375
 74
0
 49
-0.075
 74
0
 49
0.075
 74
0
 49
-0.075
 74
0
  0
LTYPE
  5
1F6
100
AcDbSymbolTableRecord
100
AcDbLinetypeTableRecord
  2
HIDDEN
 70
64
  3
- - - - - - - - - - - - - - - - - - - -
 72
65
 73
2
 40
0.2
 49
0.1
 74
0
 49
-0.1
 74
0
  0
LTYPE
  5
1F7
100
AcDbSymbolTableRecord
100
AcDbLinetypeTableRecord
  2
PHANTOM
 70
64
  3
_____ _ _ _____ _ _ _____ _ _ _____
 72
65
 73
6
 40
0.8
 49
0.45
 74
0
 49
-0.05
 74
0
 49
0.1
 74
0
 49
-0.05
 74
0
 49
0.1
 74
0
 49
-0.05
 74
0
  0
LTYPE
  5
1F8
100
AcDbSymbolTableRecord
100
AcDbLinetypeTableRecord
  2
DOT
 70
64
  3
. . . . . . . . . . . . . . . . . . . .
 72
65
 73
2
 40
0.2
 49
0.1
 74
0
 49
-0.1
 74
0
  0
LTYPE
  5
1F9
100
AcDbSymbolTableRecord
100
AcDbLinetypeTableRecord
  2
DASHED
 70
64
  3
- - - - - - - - - - - - - - - - - - - -
 72
65
 73
2
 40
0.2
 49
0.1
 74
0
 49
-0.1
 74
0
  0
ENDTAB
  0
TABLE
  2
LAYER
  5
2
100
AcDbSymbolTable
 70
36
  0
LAYER
  5
10
100
AcDbSymbolTableRecord
100
AcDbLayerTableRecord
  2
0
 70
0
 62
7
  6
CONTINUOUS
370
-3
390
F
  0
LAYER
  5
1FA
100
AcDbSymbolTableRecord
100
AcDbLayerTableRecord
  2
DEFAULT_1
 70
0
 62
7
  6
CENTER
370
-3
390
F
  0
LAYER
  5
1FB
100
AcDbSymbolTableRecord
100
AcDbLayerTableRecord
  2
DEFAULT_2
 70
0
 62
8
  6
HIDDEN
370
-3
390
F
  0
LAYER
  5
1FC
100
AcDbSymbolTableRecord
100
AcDbLayerTableRecord
  2
DEFAULT_3
 70
0
 62
7
  6
PHANTOM
370
-3
390
F
  0
LAYER
  5
1FD
100
AcDbSymbolTableRecord
100
AcDbLayerTableRecord
  2
00_COMPONENTS
 70
0
 62
7
  6
CONTINUOUS
370
-3
390
F
  0
LAYER
  5
1FE
100
AcDbSymbolTableRecord
100
AcDbLayerTableRecord
  2
01_1_DEFAULT_DATUMS
 70
0
 62
7
  6
CONTINUOUS
370
-3
390
F
  0
LAYER
  5
1FF
100
AcDbSymbolTableRecord
100
AcDbLayerTableRecord
  2
01_PLANES
 70
0
 62
7
  6
CONTINUOUS
370
-3
390
F
  0
LAYER
  5
200
100
AcDbSymbolTableRecord
100
AcDbLayerTableRecord
  2
02_COORD_SYS
 70
0
 62
7
  6
CONTINUOUS
370
-3
390
F
  0
LAYER
  5
201
100
AcDbSymbolTableRecord
100
AcDbLayerTableRecord
  2
03_AXES
 70
0
 62
7
  6
CONTINUOUS
370
-3
390
F
  0
LAYER
  5
202
100
AcDbSymbolTableRecord
100
AcDbLayerTableRecord
  2
04_POINTS
 70
0
 62
7
  6
CONTINUOUS
370
-3
390
F
  0
LAYER
  5
203
100
AcDbSymbolTableRecord
100
AcDbLayerTableRecord
  2
05_CURVES
 70
0
 62
7
  6
CONTINUOUS
370
-3
390
F
  0
LAYER
  5
204
100
AcDbSymbolTableRecord
100
AcDbLayerTableRecord
  2
06_SURFS
 70
0
 62
7
  6
CONTINUOUS
370
-3
390
F
  0
LAYER
  5
205
100
AcDbSymbolTableRecord
100
AcDbLayerTableRecord
  2
07_COSMETICS
 70
0
 62
7
  6
CONTINUOUS
370
-3
390
F
  0
LAYER
  5
206
100
AcDbSymbolTableRecord
100
AcDbLayerTableRecord
  2
10_NOTES
 70
0
 62
7
  6
CONTINUOUS
370
-3
390
F
  0
LAYER
  5
207
100
AcDbSymbolTableRecord
100
AcDbLayerTableRecord
  2
11_NOTES_PUB
 70
0
 62
7
  6
CONTINUOUS
370
-3
390
F
  0
LAYER
  5
208
100
AcDbSymbolTableRecord
100
AcDbLayerTableRecord
  2
13_REF_GTOL
 70
0
 62
7
  6
CONTINUOUS
370
-3
390
F
  0
LAYER
  5
209
100
AcDbSymbolTableRecord
100
AcDbLayerTableRecord
  2
16_MISC
 70
0
 62
7
  6
CONTINUOUS
370
-3
390
F
  0
LAYER
  5
20A
100
AcDbSymbolTableRecord
100
AcDbLayerTableRecord
  2
17_NO_PRINT
 70
0
 62
7
  6
CONTINUOUS
370
-3
390
F
  0
LAYER
  5
20B
100
AcDbSymbolTableRecord
100
AcDbLayerTableRecord
  2
18_DATUM_CAMS_JOINTS
 70
0
 62
7
  6
CONTINUOUS
370
-3
390
F
  0
LAYER
  5
20C
100
AcDbSymbolTableRecord
100
AcDbLayerTableRecord
  2
19_DATUM_FUNCTIONAL
 70
0
 62
7
  6
CONTINUOUS
370
-3
390
F
  0
LAYER
  5
20D
100
AcDbSymbolTableRecord
100
AcDbLayerTableRecord
  2
20_DATUM_KINEMATIC_SCHEME
 70
0
 62
7
  6
CONTINUOUS
370
-3
390
F
  0
LAYER
  5
20E
100
AcDbSymbolTableRecord
100
AcDbLayerTableRecord
  2
INTFCLR_65
 70
0
 62
7
  6
CONTINUOUS
370
-3
390
F
  0
LAYER
  5
20F
100
AcDbSymbolTableRecord
100
AcDbLayerTableRecord
  2
INTFCLR_75
 70
0
 62
7
  6
CONTINUOUS
370
-3
390
F
  0
LAYER
  5
210
100
AcDbSymbolTableRecord
100
AcDbLayerTableRecord
  2
INTFCLR_76
 70
0
 62
7
  6
CONTINUOUS
370
-3
390
F
  0
ENDTAB
  0
TABLE
  2
STYLE
  5
3
100
AcDbSymbolTable
 70
1
  0
STYLE
  5
11
100
AcDbSymbolTableRecord
100
AcDbTextStyleTableRecord
  2
STANDARD
 70
0
 40
0.0
 41
0.8
 50
0.0
 71
0
 42
0.2
  3
txt
  4

  0
STYLE
  5
211
100
AcDbSymbolTableRecord
100
AcDbTextStyleTableRecord
  2
TEXTSTYLE_1
 70
0
 40
0.0
 41
0.8
 50
0.0
 71
0
 42
0.2
  3
gdt
  4

  0
ENDTAB
  0
TABLE
  2
VIEW
  5
6
100
AcDbSymbolTable
 70
0
  0
ENDTAB
  0
TABLE
  2
UCS
  5
7
100
AcDbSymbolTable
 70
0
  0
ENDTAB
  0
TABLE
  2
APPID
  5
9
100
AcDbSymbolTable
 70
1
  0
APPID
  5
212
100
AcDbSymbolTableRecord
100
AcDbRegAppTableRecord
  2
ACAD
 70
0
  0
ENDTAB
  0
TABLE
  2
BLOCK_RECORD
  5
1
100
AcDbSymbolTable
 70
0
  0
BLOCK_RECORD
  5
213
100
AcDbSymbolTableRecord
100
AcDbBlockTableRecord
  2
*Model_Space
  0
BLOCK_RECORD
  5
214
100
AcDbSymbolTableRecord
100
AcDbBlockTableRecord
  2
*Paper_Space
  0
BLOCK_RECORD
  5
215
100
AcDbSymbolTableRecord
100
AcDbBlockTableRecord
  2
_FILLED
  0
ENDTAB
  0
TABLE
  2
DIMSTYLE
  5
A
100
AcDbSymbolTable
 70
1
100
AcDbDimStyleTable
 71
0
  0
DIMSTYLE
105
216
100
AcDbSymbolTableRecord
100
AcDbDimStyleTableRecord
  2
STANDARD
 70
0
  3

  4

 40
1.0
 41
1.7029208243
 42
1.0
 43
0.38
 44
1.0
 45
0.0
 46
0.0
 47
0.01
 48
0.01
140
2.384089154
141
0.09
142
0.0
143
25.4
144
1.0
145
0.0
146
1.0
147
0.625
 71
1
 72
0
 73
0
 74
0
 75
0
 76
0
 77
1
 78
8
 79
2
170
0
171
1
172
0
173
0
174
0
175
0
176
0
177
0
178
0
270
2
179
2
271
2
272
2
273
2
274
2
275
0
280
0
281
0
282
0
283
1
284
8
285
0
286
0
287
3
288
0
340
11
278
46
341
215
342
215
343
215
344
215
  0
ENDTAB
  0
ENDSEC
  0
SECTION
  2
BLOCKS
  0
BLOCK
  5
20
100
AcDbEntity
  8
0
100
AcDbBlockBegin
  2
*Model_Space
 70
0
 10
0.0
 20
0.0
 30
0.0
  3
*Model_Space
  1

  0
ENDBLK
  5
21
100
AcDbEntity
  8
0
100
AcDbBlockEnd
  0
BLOCK
  5
1C
100
AcDbEntity
  8
0
100
AcDbBlockBegin
  2
*Paper_Space
 70
0
 10
0.0
 20
0.0
 30
0.0
  3
*Paper_Space
  1

  0
ENDBLK
  5
1D
100
AcDbEntity
  8
0
100
AcDbBlockEnd
  0
BLOCK
  5
217
100
AcDbEntity
  8
0
100
AcDbBlockBegin
  2
_FILLED
 70
64
 10
0.0
 20
0.0
  3
_FILLED
  1

  0
SOLID
  5
218
100
AcDbEntity
  8
0
  6
BYBLOCK
 62
0
100
AcDbTrace
 10
0.0
 20
0.0
 11
-1.0
 21
0.25
 12
-1.0
 22
-0.25
 13
-1.0
 23
-0.25
  0
ENDBLK
  5
219
100
AcDbEntity
  8
0
  6
BYBLOCK
 62
0
100
AcDbBlockEnd
  0
ENDSEC
  0
SECTION
  2
ENTITIES
  0
LINE
  5
21A
100
AcDbEntity
  8
INTFCLR_75
100
AcDbLine
 62
7
420
48875
  6
CONTINUOUS
 10
10.0062473438
 20
49.4711896159
 11
10.0062495189
 21
106.05481026
  0
LINE
  5
21B
100
AcDbEntity
  8
0
100
AcDbLine
 62
7
  6
CONTINUOUS
 10
16.5995506019
 20
78.0392299441
 11
16.5949062875
 21
98.8369469489
  0
LINE
  5
21C
100
AcDbEntity
  8
0
100
AcDbLine
 62
7
  6
CONTINUOUS
 10
52.2348458432
 20
48.0922290526
 11
52.3639596642
 21
48.0214136827
  0
LINE
  5
21D
100
AcDbEntity
  8
0
100
AcDbLine
 62
7
  6
CONTINUOUS
 10
52.2358592817
 20
48.0928446591
 11
52.3639596642
 21
48.0214136827
  0
LINE
  5
21E
100
AcDbEntity
  8
0
100
AcDbLine
 62
7
  6
CONTINUOUS
 10
17.8423342798
 20
91.7985319612
 11
17.8447134085
 21
81.1445493542
  0
LINE
  5
21F
100
AcDbEntity
  8
0
100
AcDbLine
 62
7
  6
CONTINUOUS
 10
17.974259424
 20
81.2193809023
 11
17.9719197252
 21
91.6967923462
  0
LINE
  5
220
100
AcDbEntity
  8
0
100
AcDbLine
 62
7
  6
CONTINUOUS
 10
18.1458160434
 20
100.5230040032
 11
18.1443666891
 21
107.0133612235
  0
LINE
  5
221
100
AcDbEntity
  8
0
100
AcDbLine
 62
7
  6
CONTINUOUS
 10
18.6887892915
 20
107.7215900022
 11
18.6888772072
 21
107.3278947493
  0
LINE
  5
222
100
AcDbEntity
  8
0
100
AcDbLine
 62
7
  6
CONTINUOUS
 10
18.6904670184
 20
100.2085567299
 11
18.6905029934
 21
100.0474569366
  0
LINE
  5
223
100
AcDbEntity
  8
0
100
AcDbLine
 62
7
  6
CONTINUOUS
 10
19.8251695982
 20
71.5537536411
 11
19.8242333258
 21
75.7464776837
  0
LINE
  5
224
100
AcDbEntity
  8
0
100
AcDbLine
 62
7
  6
CONTINUOUS
 10
20.8907817918
 20
76.4853735464
 11
20.8910443163
 21
75.3097616725
  0
LINE
  5
225
100
AcDbEntity
  8
0
100
AcDbLine
 62
7
  6
CONTINUOUS
 10
20.9515340105
 20
107.7872658373
 11
20.9515303625
 21
107.8036017833
  0
LINE
  5
226
100
AcDbEntity
  8
0
100
AcDbLine
 62
7
  6
CONTINUOUS
 10
21.0194297483
 20
75.5472233046
 11
21.0192036855
 21
76.5595557516
  0
LINE
  5
227
100
AcDbEntity
  8
0
100
AcDbLine
 62
7
  6
CONTINUOUS
 10
49.5269841991
 20
54.6545036104
 11
41.0133831083
 21
59.5697222948
  0
LINE
  5
228
100
AcDbEntity
  8
0
100
AcDbLine
 62
7
  6
CONTINUOUS
 10
61.589421058
 20
47.7791212197
 11
59.9559975929
 21
48.7221573626
  0
LINE
  5
229
100
AcDbEntity
  8
0
100
AcDbLine
 62
7
  6
CONTINUOUS
 10
52.1423124409
 20
53.634912595
 11
52.7044014684
 21
53.3103976852
  0
LINE
  5
22A
100
AcDbEntity
  8
0
100
AcDbLine
 62
7
  6
CONTINUOUS
 10
39.914958411
 20
62.2465798547
 11
37.2279414554
 21
63.7978947218
  0
LINE
  5
22B
100
AcDbEntity
  8
0
100
AcDbLine
 62
7
  6
CONTINUOUS
 10
61.843467438
 20
49.6741807826
 11
61.7237571272
 21
49.7432939993
  0
LINE
  5
22C
100
AcDbEntity
  8
0
100
AcDbLine
 62
7
  6
CONTINUOUS
 10
16.599550602
 20
78.0392299441
 11
30.7958667567
 21
67.9456366388
  0
LINE
  5
22D
100
AcDbEntity
  8
0
100
AcDbLine
 62
7
  6
CONTINUOUS
 10
23.8526089405
 20
82.6959750511
 11
23.8523391237
 21
83.9042428103
  0
LINE
  5
22E
100
AcDbEntity
  8
0
100
AcDbLine
 62
7
  6
CONTINUOUS
 10
24.9816899589
 20
85.1424609517
 11
24.9817246019
 21
84.9873258607
  0
LINE
  5
22F
100
AcDbEntity
  8
0
100
AcDbLine
 62
7
  6
CONTINUOUS
 10
25.0866512987
 20
84.2312373699
 11
25.0867971989
 21
83.5778810741
  0
LINE
  5
230
100
AcDbEntity
  8
0
100
AcDbLine
 62
7
  6
CONTINUOUS
 10
26.925136584
 20
83.1698114081
 11
26.9254064009
 21
81.9615436489
  0
LINE
  5
231
100
AcDbEntity
  8
0
100
AcDbLine
 62
7
  6
CONTINUOUS
 10
27.4659195951
 20
82.2247681767
 11
27.4656315474
 21
83.5146756494
  0
LINE
  5
232
100
AcDbEntity
  8
0
100
AcDbLine
 62
7
  6
CONTINUOUS
 10
28.1797133286
 20
105.5288474413
 11
28.1782569922
 21
116.5517710923
  0
LINE
  5
233
100
AcDbEntity
  8
0
100
AcDbLine
 62
7
  6
CONTINUOUS
 10
28.4663880102
 20
61.3593426793
 11
28.4655231338
 21
65.2323483069
  0
LINE
  5
234
100
AcDbEntity
  8
INTFCLR_75
100
AcDbLine
 62
7
420
48875
  6
CONTINUOUS
 10
86.8825877382
 20
163.8107760118
 11
89.9226273837
 21
165.5659332426
  0
LINE
  5
235
100
AcDbEntity
  8
0
100
AcDbLine
 62
7
  6
CONTINUOUS
 10
88.1553847134
 20
162.0578198037
 11
91.1954248889
 21
163.8129773405
  0
LINE
  5
236
100
AcDbEntity
  8
0
100
AcDbLine
 62
7
  6
CONTINUOUS
 10
30.7958667567
 20
67.9456366388
 11
37.2276886036
 21
64.9301909081
  0
LINE
  5
237
100
AcDbEntity
  8
0
100
AcDbLine
 62
7
  6
CONTINUOUS
 10
41.2754588844
 20
63.0324655199
 11
48.2774670883
 21
59.7496980168
  0
LINE
  5
238
100
AcDbEntity
  8
0
100
AcDbLine
 62
7
  6
CONTINUOUS
 10
58.234889179
 20
55.6885512506
 11
62.9273731708
 21
53.2497289328
  0
LINE
  5
239
100
AcDbEntity
  8
0
100
AcDbLine
 62
7
  6
CONTINUOUS
 10
54.8235328655
 20
54.4557511853
 11
55.4622886506
 21
54.0869737037
  0
LINE
  5
23A
100
AcDbEntity
  8
0
100
AcDbLine
 62
7
  6
CONTINUOUS
 10
37.2270663736
 20
67.7166009681
 11
39.9140833291
 21
66.1652861009
  0
LINE
  5
23B
100
AcDbEntity
  8
0
100
AcDbLine
 62
7
  6
CONTINUOUS
 10
61.4209991356
 20
56.7070431562
 11
60.4129302442
 21
57.2890388356
  0
LINE
  5
23C
100
AcDbEntity
  8
0
100
AcDbLine
 62
7
  6
CONTINUOUS
 10
24.8523564536
 20
83.9044661232
 11
25.0866560278
 21
83.5778810426
  0
LINE
  5
23D
100
AcDbEntity
  8
0
100
AcDbLine
 62
7
  6
CONTINUOUS
 10
30.8369862555
 20
99.6854396799
 11
30.8384356098
 21
93.1950824595
  0
LINE
  5
23E
100
AcDbEntity
  8
0
100
AcDbLine
 62
7
  6
CONTINUOUS
 10
31.1788595395
 20
107.2612878639
 11
31.1773099154
 21
114.2006635083
  0
LINE
  5
23F
100
AcDbEntity
  8
0
100
AcDbLine
 62
7
  6
CONTINUOUS
 10
31.5440900692
 20
100.0938943345
 11
31.5455394235
 21
93.6035371142
  0
LINE
  5
240
100
AcDbEntity
  8
0
100
AcDbLine
 62
7
  6
CONTINUOUS
 10
31.6996082342
 20
100.209960119
 11
31.7013219361
 21
92.5358270534
  0
LINE
  5
241
100
AcDbEntity
  8
0
100
AcDbLine
 62
7
  6
CONTINUOUS
 10
32.5836996616
 20
67.7308957895
 11
32.5805639518
 21
81.7729265052
  0
LINE
  5
242
100
AcDbEntity
  8
0
100
AcDbLine
 62
7
  6
CONTINUOUS
 10
32.9019399497
 20
99.7613770434
 11
32.9016847175
 21
100.9043330319
  0
LINE
  5
243
100
AcDbEntity
  8
0
100
AcDbLine
 62
7
  6
CONTINUOUS
 10
32.9433096857
 20
80.2858210189
 11
32.9447681554
 21
73.7546439419
  0
LINE
  5
244
100
AcDbEntity
  8
0
100
AcDbLine
 62
7
  6
CONTINUOUS
 10
33.1059157825
 20
73.8477299882
 11
33.1044967494
 21
80.2023059981
  0
LINE
  5
245
100
AcDbEntity
  8
0
100
AcDbLine
 62
7
  6
CONTINUOUS
 10
64.0878415757
 20
145.1728952923
 11
65.5020492031
 21
145.9898046017
  0
LINE
  5
246
100
AcDbEntity
  8
0
100
AcDbLine
 62
7
  6
CONTINUOUS
 10
86.8825839562
 20
156.5464077933
 11
88.1553822266
 21
157.2812538309
  0
LINE
  5
247
100
AcDbEntity
  8
0
100
AcDbLine
 62
7
  6
CONTINUOUS
 10
86.8825838486
 20
156.3397508434
 11
70.8596109207
 21
147.1337109308
  0
LINE
  5
248
100
AcDbEntity
  8
INTFCLR_75
100
AcDbLine
 62
7
420
48875
  6
CONTINUOUS
 10
70.8596109207
 20
147.1337109308
 11
86.8825838486
 21
156.3397508434
  0
LINE
  5
249
100
AcDbEntity
  8
0
100
AcDbLine
 62
7
  6
CONTINUOUS
 10
72.9809400961
 20
145.9089886672
 11
88.9808192682
 21
155.1017600036
  0
LINE
  5
24A
100
AcDbEntity
  8
0
100
AcDbLine
 62
7
  6
CONTINUOUS
 10
39.2760582338
 20
73.1044312667
 11
36.5890412783
 21
74.6557461339
  0
LINE
  5
24B
100
AcDbEntity
  8
0
100
AcDbLine
 62
7
  6
CONTINUOUS
 10
36.5884396595
 20
77.3498566782
 11
39.2754566151
 21
75.798541811
  0
LINE
  5
24C
100
AcDbEntity
  8
0
100
AcDbLine
 62
7
  6
CONTINUOUS
 10
24.9816899589
 20
85.1424609517
 11
25.1236095682
 21
85.0472731491
  0
LINE
  5
24D
100
AcDbEntity
  8
0
100
AcDbLine
 62
7
  6
CONTINUOUS
 10
24.9816899589
 20
85.1424609517
 11
25.0412616585
 21
85.1020720435
  0
LINE
  5
24E
100
AcDbEntity
  8
0
100
AcDbLine
 62
7
  6
CONTINUOUS
 10
42.4917772905
 20
51.6976741541
 11
42.416011012
 21
52.6566066835
  0
LINE
  5
24F
100
AcDbEntity
  8
0
100
AcDbLine
 62
7
  6
CONTINUOUS
 10
36.5890412783
 20
74.6557461339
 11
36.5884396595
 21
77.3498566782
  0
LINE
  5
250
100
AcDbEntity
  8
0
100
AcDbLine
 62
7
  6
CONTINUOUS
 10
37.2279414554
 20
63.7978947218
 11
37.2270663736
 21
67.7166009681
  0
LINE
  5
251
100
AcDbEntity
  8
0
100
AcDbLine
 62
7
  6
CONTINUOUS
 10
37.3863018251
 20
62.4631488387
 11
37.3868869796
 21
59.8427669308
  0
LINE
  5
252
100
AcDbEntity
  8
0
100
AcDbLine
 62
7
  6
CONTINUOUS
 10
37.8748115349
 20
89.2012758399
 11
37.874373994
 21
91.160628963
  0
LINE
  5
253
100
AcDbEntity
  8
0
100
AcDbLine
 62
7
  6
CONTINUOUS
 10
39.1654135908
 20
108.7695524188
 11
39.1658828691
 21
106.668075668
  0
LINE
  5
254
100
AcDbEntity
  8
0
100
AcDbLine
 62
7
  6
CONTINUOUS
 10
39.2183200127
 20
88.4256184063
 11
39.2178824718
 21
90.3849715294
  0
LINE
  5
255
100
AcDbEntity
  8
0
100
AcDbLine
 62
7
  6
CONTINUOUS
 10
39.2754566151
 20
75.798541811
 11
39.2760582338
 21
73.1044312667
  0
LINE
  5
256
100
AcDbEntity
  8
0
100
AcDbLine
 62
7
  6
CONTINUOUS
 10
39.7840030637
 20
88.75238213
 11
39.7835655227
 21
90.7117352531
  0
LINE
  5
257
100
AcDbEntity
  8
0
100
AcDbLine
 62
7
  6
CONTINUOUS
 10
71.5831928394
 20
142.4789341128
 11
70.168985212
 21
141.6620248035
  0
LINE
  5
258
100
AcDbEntity
  8
0
100
AcDbLine
 62
7
  6
CONTINUOUS
 10
73.164098208
 20
142.5375964855
 11
71.5833836409
 21
141.6245053522
  0
LINE
  5
259
100
AcDbEntity
  8
0
100
AcDbLine
 62
7
  6
CONTINUOUS
 10
64.0896006092
 20
137.2957625271
 11
28.1782569922
 21
116.5517710923
  0
LINE
  5
25A
100
AcDbEntity
  8
INTFCLR_75
100
AcDbLine
 62
7
420
48875
  6
CONTINUOUS
 10
10.0062495189
 20
106.05481026
 11
64.0896006092
 21
137.2957625271
  0
LINE
  5
25B
100
AcDbEntity
  8
INTFCLR_75
100
AcDbLine
 62
7
420
48875
  6
CONTINUOUS
 10
71.5833836409
 20
141.6245053522
 11
73.164098208
 21
142.5375964855
  0
LINE
  5
25C
100
AcDbEntity
  8
0
100
AcDbLine
 62
7
  6
CONTINUOUS
 10
47.453911092
 20
127.1145581917
 11
54.1006869409
 21
130.9540319454
  0
LINE
  5
25D
100
AcDbEntity
  8
0
100
AcDbLine
 62
7
  6
CONTINUOUS
 10
54.5956637485
 20
130.6682634172
 11
57.2826582406
 21
132.2203911049
  0
LINE
  5
25E
100
AcDbEntity
  8
0
100
AcDbLine
 62
7
  6
CONTINUOUS
 10
29.7126811351
 20
116.2130745791
 11
44.1800251636
 21
124.5700568133
  0
LINE
  5
25F
100
AcDbEntity
  8
0
100
AcDbLine
 62
7
  6
CONTINUOUS
 10
44.5335800262
 20
124.365936436
 11
48.3731537347
 21
126.5838452108
  0
LINE
  5
260
100
AcDbEntity
  8
0
100
AcDbLine
 62
7
  6
CONTINUOUS
 10
57.7069240757
 20
131.9754466522
 11
64.0899653144
 21
135.6625755493
  0
LINE
  5
261
100
AcDbEntity
  8
0
100
AcDbLine
 62
7
  6
CONTINUOUS
 10
71.583748346
 20
139.9913183744
 11
72.2520495237
 21
140.3773588984
  0
LINE
  5
262
100
AcDbEntity
  8
0
100
AcDbLine
 62
7
  6
CONTINUOUS
 10
48.3731901394
 20
126.4208210444
 11
54.1009604039
 21
129.7294362434
  0
LINE
  5
263
100
AcDbEntity
  8
0
100
AcDbLine
 62
7
  6
CONTINUOUS
 10
54.5959372116
 20
129.4436677153
 11
57.2829317037
 21
130.9957954029
  0
LINE
  5
264
100
AcDbEntity
  8
0
100
AcDbLine
 62
7
  6
CONTINUOUS
 10
42.8580144951
 20
122.5816509071
 11
44.1802986267
 21
123.3454611113
  0
LINE
  5
265
100
AcDbEntity
  8
0
100
AcDbLine
 62
7
  6
CONTINUOUS
 10
72.9591592489
 20
139.9691181439
 11
75.2854273835
 21
141.312874222
  0
LINE
  5
266
100
AcDbEntity
  8
0
100
AcDbLine
 62
7
  6
CONTINUOUS
 10
44.5338534893
 20
123.1413407341
 11
48.3734271978
 21
125.3592495088
  0
LINE
  5
267
100
AcDbEntity
  8
0
100
AcDbLine
 62
7
  6
CONTINUOUS
 10
57.7071975387
 20
130.7508509502
 11
64.0902387774
 21
134.4379798473
  0
LINE
  5
268
100
AcDbEntity
  8
0
100
AcDbLine
 62
7
  6
CONTINUOUS
 10
71.5840218091
 20
138.7667226725
 11
72.2523229868
 21
139.1527631964
  0
LINE
  5
269
100
AcDbEntity
  8
0
100
AcDbLine
 62
7
  6
CONTINUOUS
 10
100.0443590014
 20
159.7222809696
 11
97.0043193559
 21
157.9671237388
  0
LINE
  5
26A
100
AcDbEntity
  8
0
100
AcDbLine
 62
7
  6
CONTINUOUS
 10
88.9812744892
 20
153.0632335343
 11
75.4331645179
 21
145.2412752862
  0
LINE
  5
26B
100
AcDbEntity
  8
0
100
AcDbLine
 62
7
  6
CONTINUOUS
 10
101.1656720135
 20
159.0749052457
 11
98.125632368
 21
157.3197480149
  0
LINE
  5
26C
100
AcDbEntity
  8
0
100
AcDbLine
 62
7
  6
CONTINUOUS
 10
98.1256308815
 20
154.4644941742
 11
101.1656720135
 21
156.2196522632
  0
LINE
  5
26D
100
AcDbEntity
  8
0
100
AcDbLine
 62
7
  6
CONTINUOUS
 10
72.9809452445
 20
142.7654573337
 11
75.3143811187
 21
144.1056126687
  0
LINE
  5
26E
100
AcDbEntity
  8
0
100
AcDbLine
 62
7
  6
CONTINUOUS
 10
72.7619950753
 20
62.8498562759
 11
76.297543701
 21
60.8086525033
  0
LINE
  5
26F
100
AcDbEntity
  8
0
100
AcDbLine
 62
7
  6
CONTINUOUS
 10
32.9019399497
 20
99.7613770435
 11
36.1693282124
 21
95.1167464675
  0
LINE
  5
270
100
AcDbEntity
  8
0
100
AcDbLine
 62
7
  6
CONTINUOUS
 10
43.6963075672
 20
57.4964140167
 11
43.696334423
 21
57.4782928813
  0
LINE
  5
271
100
AcDbEntity
  8
0
100
AcDbLine
 62
7
  6
CONTINUOUS
 10
39.8698041082
 20
107.9516860862
 11
39.8695306451
 21
109.1762817882
  0
LINE
  5
272
100
AcDbEntity
  8
0
100
AcDbLine
 62
7
  6
CONTINUOUS
 10
39.9140833291
 20
66.1652861009
 11
39.914958411
 21
62.2465798547
  0
LINE
  5
273
100
AcDbEntity
  8
0
100
AcDbLine
 62
7
  6
CONTINUOUS
 10
40.2619565958
 20
54.9019271077
 11
40.2619144301
 21
55.0907494315
  0
LINE
  5
274
100
AcDbEntity
  8
0
100
AcDbLine
 62
7
  6
CONTINUOUS
 10
40.2964478367
 20
79.8429124886
 11
40.2965262404
 21
79.4918126321
  0
LINE
  5
275
100
AcDbEntity
  8
0
100
AcDbLine
 62
7
  6
CONTINUOUS
 10
40.2986920569
 20
69.7930637612
 11
40.2987595221
 21
69.4909477328
  0
LINE
  5
276
100
AcDbEntity
  8
0
100
AcDbLine
 62
7
  6
CONTINUOUS
 10
40.6678902201
 20
88.2420811869
 11
40.6674526792
 21
90.20143431
  0
LINE
  5
277
100
AcDbEntity
  8
0
100
AcDbLine
 62
7
  6
CONTINUOUS
 10
41.0127400192
 20
62.4495412309
 11
41.0133831083
 21
59.5697222948
  0
LINE
  5
278
100
AcDbEntity
  8
0
100
AcDbLine
 62
7
  6
CONTINUOUS
 10
41.1277374999
 20
105.3866353995
 11
41.1272578908
 21
107.5343744707
  0
LINE
  5
279
100
AcDbEntity
  8
0
100
AcDbLine
 62
7
  6
CONTINUOUS
 10
41.3749940338
 20
88.6505358415
 11
41.3745564929
 21
90.6098889647
  0
LINE
  5
27A
100
AcDbEntity
  8
0
100
AcDbLine
 62
7
  6
CONTINUOUS
 10
42.3065669211
 20
109.3592688116
 11
42.3067627364
 21
108.4823877628
  0
LINE
  5
27B
100
AcDbEntity
  8
0
100
AcDbLine
 62
7
  6
CONTINUOUS
 10
42.8592906561
 20
116.8668709647
 11
42.8580144951
 21
122.5816509071
  0
LINE
  5
27C
100
AcDbEntity
  8
0
100
AcDbLine
 62
7
  6
CONTINUOUS
 10
44.00361488
 20
64.0122151321
 11
44.0026851056
 21
68.1758405187
  0
LINE
  5
27D
100
AcDbEntity
  8
0
100
AcDbLine
 62
7
  6
CONTINUOUS
 10
44.0011063122
 20
75.2458397047
 11
44.0004408854
 21
78.2256892461
  0
LINE
  5
27E
100
AcDbEntity
  8
0
100
AcDbLine
 62
7
  6
CONTINUOUS
 10
44.0613771888
 20
116.172861682
 11
44.0601010278
 21
121.8876416244
  0
LINE
  5
27F
100
AcDbEntity
  8
0
100
AcDbLine
 62
7
  6
CONTINUOUS
 10
44.1802986267
 20
123.3454611113
 11
44.1800251637
 21
124.5700568133
  0
LINE
  5
280
100
AcDbEntity
  8
0
100
AcDbLine
 62
7
  6
CONTINUOUS
 10
44.5338534893
 20
123.1413407341
 11
44.5335800262
 21
124.365936436
  0
LINE
  5
281
100
AcDbEntity
  8
0
100
AcDbLine
 62
7
  6
CONTINUOUS
 10
38.3838154024
 20
55.2112898867
 11
38.3110502069
 21
54.3464634676
  0
LINE
  5
282
100
AcDbEntity
  8
0
100
AcDbLine
 62
7
  6
CONTINUOUS
 10
25.0866512987
 20
84.2312373699
 11
24.8523564536
 21
83.9044661232
  0
LINE
  5
283
100
AcDbEntity
  8
0
100
AcDbLine
 62
7
  6
CONTINUOUS
 10
19.8908657748
 20
108.4159629151
 11
18.6887892915
 21
107.7215900022
  0
LINE
  5
284
100
AcDbEntity
  8
0
100
AcDbLine
 62
7
  6
CONTINUOUS
 10
72.9594327119
 20
138.7445224419
 11
75.4342960599
 21
140.1741137332
  0
LINE
  5
285
100
AcDbEntity
  8
0
100
AcDbLine
 62
7
  6
CONTINUOUS
 10
18.1443666892
 20
107.0133612235
 11
18.8514705028
 21
107.4218158782
  0
LINE
  5
286
100
AcDbEntity
  8
0
100
AcDbLine
 62
7
  6
CONTINUOUS
 10
44.0601010278
 20
121.8876416244
 11
64.0904576005
 21
133.4580676606
  0
LINE
  5
287
100
AcDbEntity
  8
0
100
AcDbLine
 62
7
  6
CONTINUOUS
 10
31.2471171009
 20
114.2409872476
 11
31.1773099154
 21
114.2006635083
  0
LINE
  5
288
100
AcDbEntity
  8
0
100
AcDbLine
 62
7
  6
CONTINUOUS
 10
20.9373882863
 20
107.7954326902
 11
20.9515303625
 21
107.8036017833
  0
LINE
  5
289
100
AcDbEntity
  8
0
100
AcDbLine
 62
7
  6
CONTINUOUS
 10
76.4622617658
 20
138.0286820882
 11
77.8764693932
 21
138.8455913975
  0
LINE
  5
28A
100
AcDbEntity
  8
0
100
AcDbLine
 62
7
  6
CONTINUOUS
 10
35.0756728694
 20
112.3707066769
 11
42.8592906561
 21
116.8668709647
  0
LINE
  5
28B
100
AcDbEntity
  8
0
100
AcDbLine
 62
7
  6
CONTINUOUS
 10
96.4766375758
 20
148.7358815364
 11
99.5393196457
 21
150.504111299
  0
LINE
  5
28C
100
AcDbEntity
  8
0
100
AcDbLine
 62
7
  6
CONTINUOUS
 10
83.4942153846
 20
140.5873306846
 11
100.1050074258
 21
150.1775186954
  0
LINE
  5
28D
100
AcDbEntity
  8
0
100
AcDbLine
 62
7
  6
CONTINUOUS
 10
96.4761823547
 20
150.7744080057
 11
96.4992761106
 21
150.7876765819
  0
LINE
  5
28E
100
AcDbEntity
  8
0
100
AcDbLine
 62
7
  6
CONTINUOUS
 10
35.6187128282
 20
89.8576586147
 11
50.008395735
 21
81.5499592602
  0
LINE
  5
28F
100
AcDbEntity
  8
0
100
AcDbLine
 62
7
  6
CONTINUOUS
 10
31.7013219361
 20
92.5358270534
 11
18.6905029934
 21
100.0474569366
  0
LINE
  5
290
100
AcDbEntity
  8
0
100
AcDbLine
 62
7
  6
CONTINUOUS
 10
30.8384356098
 20
93.1950824595
 11
18.1458160434
 21
100.5230040032
  0
LINE
  5
291
100
AcDbEntity
  8
0
100
AcDbLine
 62
7
  6
CONTINUOUS
 10
37.8748115349
 20
89.2012758399
 11
39.2183200127
 21
88.4256184063
  0
LINE
  5
292
100
AcDbEntity
  8
0
100
AcDbLine
 62
7
  6
CONTINUOUS
 10
39.7840030637
 20
88.75238213
 11
40.6678902201
 21
88.2420811869
  0
LINE
  5
293
100
AcDbEntity
  8
0
100
AcDbLine
 62
7
  6
CONTINUOUS
 10
51.8402238774
 20
81.7918772655
 11
52.8301774926
 21
81.2203402091
  0
LINE
  5
294
100
AcDbEntity
  8
0
100
AcDbLine
 62
7
  6
CONTINUOUS
 10
59.1393448419
 20
50.8258017474
 11
59.9559975929
 21
48.7221573626
  0
LINE
  5
295
100
AcDbEntity
  8
0
100
AcDbLine
 62
7
  6
CONTINUOUS
 10
61.7237571272
 20
49.7432939993
 11
61.6192571549
 21
50.0124791328
  0
LINE
  5
296
100
AcDbEntity
  8
0
100
AcDbLine
 62
7
  6
CONTINUOUS
 10
55.0724185138
 20
44.6696894564
 11
54.9942765993
 21
45.5648215
  0
LINE
  5
297
100
AcDbEntity
  8
0
100
AcDbLine
 62
7
  6
CONTINUOUS
 10
46.4527960013
 20
67.4694277125
 11
46.4513375316
 21
74.0006047896
  0
LINE
  5
298
100
AcDbEntity
  8
0
100
AcDbLine
 62
7
  6
CONTINUOUS
 10
48.2728227738
 20
80.5474150216
 11
48.2774670882
 21
59.7496980168
  0
LINE
  5
299
100
AcDbEntity
  8
0
100
AcDbLine
 62
7
  6
CONTINUOUS
 10
48.3734271977
 20
125.3592495088
 11
48.3731537347
 21
126.5838452108
  0
LINE
  5
29A
100
AcDbEntity
  8
0
100
AcDbLine
 62
7
  6
CONTINUOUS
 10
49.5269841991
 20
54.6545036104
 11
49.5261363165
 21
58.4514088426
  0
LINE
  5
29B
100
AcDbEntity
  8
0
100
AcDbLine
 62
7
  6
CONTINUOUS
 10
50.008395735
 20
81.5499592602
 11
50.0088332759
 21
79.5906061371
  0
LINE
  5
29C
100
AcDbEntity
  8
0
100
AcDbLine
 62
7
  6
CONTINUOUS
 10
50.1043147736
 20
60.0916357991
 11
50.104155501
 21
60.8048745981
  0
LINE
  5
29D
100
AcDbEntity
  8
0
100
AcDbLine
 62
7
  6
CONTINUOUS
 10
50.2456111423
 20
60.8865856765
 11
50.2471991839
 21
53.7751725411
  0
LINE
  5
29E
100
AcDbEntity
  8
0
100
AcDbLine
 62
7
  6
CONTINUOUS
 10
49.2117331787
 20
54.2940479462
 11
49.2117529379
 21
54.3121421697
  0
LINE
  5
29F
100
AcDbEntity
  8
0
100
AcDbLine
 62
7
  6
CONTINUOUS
 10
44.0613771888
 20
116.172861682
 11
64.0917337615
 21
127.7432877182
  0
LINE
  5
2A0
100
AcDbEntity
  8
0
100
AcDbLine
 62
7
  6
CONTINUOUS
 10
16.5949062875
 20
98.8369469489
 11
18.6905029934
 21
100.0474569366
  0
LINE
  5
2A1
100
AcDbEntity
  8
0
100
AcDbLine
 62
7
  6
CONTINUOUS
 10
26.5219568487
 20
104.5712534681
 11
31.1788595395
 21
107.2612878639
  0
LINE
  5
2A2
100
AcDbEntity
  8
0
100
AcDbLine
 62
7
  6
CONTINUOUS
 10
63.506745071
 20
125.6086347847
 11
64.0921349371
 21
125.9467820425
  0
LINE
  5
2A3
100
AcDbEntity
  8
0
100
AcDbLine
 62
7
  6
CONTINUOUS
 10
83.5658547062
 20
135.5608975653
 11
96.2161016673
 21
142.8682436064
  0
LINE
  5
2A4
100
AcDbEntity
  8
0
100
AcDbLine
 62
7
  6
CONTINUOUS
 10
83.9576130295
 20
135.3347209087
 11
82.543405402
 21
134.5178115994
  0
LINE
  5
2A5
100
AcDbEntity
  8
0
100
AcDbLine
 62
7
  6
CONTINUOUS
 10
55.2324119261
 20
118.5817150283
 11
39.4391552946
 21
109.4588266233
  0
LINE
  5
2A6
100
AcDbEntity
  8
0
100
AcDbLine
 62
7
  6
CONTINUOUS
 10
39.8695306451
 20
109.1762817882
 11
39.1654135908
 21
108.7695524188
  0
LINE
  5
2A7
100
AcDbEntity
  8
0
100
AcDbLine
 62
7
  6
CONTINUOUS
 10
76.4596772809
 20
129.6184806472
 11
66.2066719821
 21
123.6958881548
  0
LINE
  5
2A8
100
AcDbEntity
  8
0
100
AcDbLine
 62
7
  6
CONTINUOUS
 10
42.3065669211
 20
109.3592688116
 11
39.8698041081
 21
107.9516860862
  0
LINE
  5
2A9
100
AcDbEntity
  8
0
100
AcDbLine
 62
7
  6
CONTINUOUS
 10
41.3749940338
 20
88.6505358415
 11
51.8400414793
 21
82.6086745669
  0
LINE
  5
2AA
100
AcDbEntity
  8
0
100
AcDbLine
 62
7
  6
CONTINUOUS
 10
37.874373994
 20
91.160628963
 11
39.2178824718
 21
90.3849715294
  0
LINE
  5
2AB
100
AcDbEntity
  8
0
100
AcDbLine
 62
7
  6
CONTINUOUS
 10
39.7835655227
 20
90.7117352531
 11
40.6674526792
 21
90.20143431
  0
LINE
  5
2AC
100
AcDbEntity
  8
0
100
AcDbLine
 62
7
  6
CONTINUOUS
 10
51.8397863365
 20
83.7512303886
 11
52.8297399517
 21
83.1796933323
  0
LINE
  5
2AD
100
AcDbEntity
  8
0
100
AcDbLine
 62
7
  6
CONTINUOUS
 10
41.3745564929
 20
90.6098889647
 11
52.5468901502
 21
84.1596850432
  0
LINE
  5
2AE
100
AcDbEntity
  8
0
100
AcDbLine
 62
7
  6
CONTINUOUS
 10
18.1443666891
 20
107.0133612235
 11
30.8369862555
 21
99.6854396799
  0
LINE
  5
2AF
100
AcDbEntity
  8
0
100
AcDbLine
 62
7
  6
CONTINUOUS
 10
18.8514705028
 20
107.4218158782
 11
31.5440900692
 21
100.0938943345
  0
LINE
  5
2B0
100
AcDbEntity
  8
0
100
AcDbLine
 62
7
  6
CONTINUOUS
 10
56.3892401173
 20
50.5361877375
 11
56.3892691382
 21
50.5180678525
  0
LINE
  5
2B1
100
AcDbEntity
  8
0
100
AcDbLine
 62
7
  6
CONTINUOUS
 10
51.3096379329
 20
101.6557076056
 11
51.3101175421
 21
99.5079685344
  0
LINE
  5
2B2
100
AcDbEntity
  8
0
100
AcDbLine
 62
7
  6
CONTINUOUS
 10
51.5018211782
 20
61.6122285403
 11
51.5036852848
 21
53.2645678386
  0
LINE
  5
2B3
100
AcDbEntity
  8
0
100
AcDbLine
 62
7
  6
CONTINUOUS
 10
51.8402238774
 20
81.7918772654
 11
51.8397863365
 21
83.7512303886
  0
LINE
  5
2B4
100
AcDbEntity
  8
0
100
AcDbLine
 62
7
  6
CONTINUOUS
 10
52.0136286316
 20
100.83761032
 11
52.0133551686
 21
102.0622060219
  0
LINE
  5
2B5
100
AcDbEntity
  8
0
100
AcDbLine
 62
7
  6
CONTINUOUS
 10
52.3640508185
 20
47.6132151153
 11
52.3639596642
 21
48.0214136827
  0
LINE
  5
2B6
100
AcDbEntity
  8
0
100
AcDbLine
 62
7
  6
CONTINUOUS
 10
52.7091155332
 20
53.3076760802
 11
52.7089696863
 21
53.9607937879
  0
LINE
  5
2B7
100
AcDbEntity
  8
0
100
AcDbLine
 62
7
  6
CONTINUOUS
 10
52.8297399517
 20
83.1796933323
 11
52.8301774926
 21
81.2203402091
  0
LINE
  5
2B8
100
AcDbEntity
  8
0
100
AcDbLine
 62
7
  6
CONTINUOUS
 10
53.4494993171
 20
98.4216124267
 11
53.4490300387
 21
100.5230891775
  0
LINE
  5
2B9
100
AcDbEntity
  8
0
100
AcDbLine
 62
7
  6
CONTINUOUS
 10
54.1009604039
 20
129.7294362434
 11
54.1006869409
 21
130.9540319454
  0
LINE
  5
2BA
100
AcDbEntity
  8
0
100
AcDbLine
 62
7
  6
CONTINUOUS
 10
54.5395651661
 20
102.2967037584
 11
54.5397713122
 21
101.3735603891
  0
LINE
  5
2BB
100
AcDbEntity
  8
0
100
AcDbLine
 62
7
  6
CONTINUOUS
 10
54.5959372116
 20
129.4436677153
 11
54.5956637485
 21
130.6682634172
  0
LINE
  5
2BC
100
AcDbEntity
  8
0
100
AcDbLine
 62
7
  6
CONTINUOUS
 10
54.8235328655
 20
54.4557511853
 11
54.8235157802
 21
54.5322611339
  0
LINE
  5
2BD
100
AcDbEntity
  8
0
100
AcDbLine
 62
7
  6
CONTINUOUS
 10
55.4670027154
 20
54.0842520987
 11
55.4668204067
 21
54.9006492333
  0
LINE
  5
2BE
100
AcDbEntity
  8
0
100
AcDbLine
 62
7
  6
CONTINUOUS
 10
50.5691949912
 20
47.9823715217
 11
50.4863220864
 21
47.0822340571
  0
LINE
  5
2BF
100
AcDbEntity
  8
0
100
AcDbLine
 62
7
  6
CONTINUOUS
 10
67.1966255973
 20
123.1243510984
 11
57.283030129
 21
117.3978168402
  0
LINE
  5
2C0
100
AcDbEntity
  8
0
100
AcDbLine
 62
7
  6
CONTINUOUS
 10
38.8544033074
 20
106.7421603824
 11
38.2629778392
 21
106.4005266921
  0
LINE
  5
2C1
100
AcDbEntity
  8
0
100
AcDbLine
 62
7
  6
CONTINUOUS
 10
39.1658828691
 20
106.668075668
 11
42.3067627364
 21
108.4823877628
  0
LINE
  5
2C2
100
AcDbEntity
  8
0
100
AcDbLine
 62
7
  6
CONTINUOUS
 10
41.8309358968
 20
107.9408502262
 11
41.1272578908
 21
107.5343744707
  0
LINE
  5
2C3
100
AcDbEntity
  8
0
100
AcDbLine
 62
7
  6
CONTINUOUS
 10
58.1457751494
 20
116.8997220389
 11
68.0593706177
 21
122.6262562971
  0
LINE
  5
2C4
100
AcDbEntity
  8
0
100
AcDbLine
 62
7
  6
CONTINUOUS
 10
31.8268780535
 20
101.5085250706
 11
31.8410201298
 21
101.5166941637
  0
LINE
  5
2C5
100
AcDbEntity
  8
0
100
AcDbLine
 62
7
  6
CONTINUOUS
 10
44.357185124
 20
108.1753706235
 11
42.8593602924
 21
107.310160293
  0
LINE
  5
2C6
100
AcDbEntity
  8
0
100
AcDbLine
 62
7
  6
CONTINUOUS
 10
69.0493242329
 20
122.0547192408
 11
76.4648723383
 21
126.3382700882
  0
LINE
  5
2C7
100
AcDbEntity
  8
0
100
AcDbLine
 62
7
  6
CONTINUOUS
 10
32.9016847175
 20
100.9043330319
 11
31.6996082342
 21
100.209960119
  0
LINE
  5
2C8
100
AcDbEntity
  8
0
100
AcDbLine
 62
7
  6
CONTINUOUS
 10
30.8369862555
 20
99.6854396799
 11
31.5440900692
 21
100.0938943345
  0
LINE
  5
2C9
100
AcDbEntity
  8
0
100
AcDbLine
 62
7
  6
CONTINUOUS
 10
44.2195544043
 20
106.4868901236
 11
60.1963933524
 21
115.7158238508
  0
LINE
  5
2CA
100
AcDbEntity
  8
0
100
AcDbLine
 62
7
  6
CONTINUOUS
 10
88.8366819559
 20
130.8844688841
 11
90.2508895833
 21
131.7013781934
  0
LINE
  5
2CB
100
AcDbEntity
  8
0
100
AcDbLine
 62
7
  6
CONTINUOUS
 10
117.4291956919
 20
149.6853678918
 11
114.3891560464
 21
147.930210661
  0
LINE
  5
2CC
100
AcDbEntity
  8
0
100
AcDbLine
 62
7
  6
CONTINUOUS
 10
115.5104690586
 20
147.2828349371
 11
118.5505087041
 21
149.0379921679
  0
LINE
  5
2CD
100
AcDbEntity
  8
0
100
AcDbLine
 62
7
  6
CONTINUOUS
 10
31.6996082342
 20
100.209960119
 11
18.6887892915
 21
107.7215900021
  0
LINE
  5
2CE
100
AcDbEntity
  8
0
100
AcDbLine
 62
7
  6
CONTINUOUS
 10
31.8268780535
 20
101.5085250706
 11
20.9373882863
 21
107.7954326902
  0
LINE
  5
2CF
100
AcDbEntity
  8
0
100
AcDbLine
 62
7
  6
CONTINUOUS
 10
32.9016847175
 20
100.9043330319
 11
31.8410201298
 21
101.5166941637
  0
LINE
  5
2D0
100
AcDbEntity
  8
0
100
AcDbLine
 62
7
  6
CONTINUOUS
 10
20.9515303625
 20
107.8036017833
 11
19.8908657748
 21
108.415962915
  0
LINE
  5
2D1
100
AcDbEntity
  8
0
100
AcDbLine
 62
7
  6
CONTINUOUS
 10
57.2829317037
 20
130.9957954029
 11
57.2826582406
 21
132.2203911049
  0
LINE
  5
2D2
100
AcDbEntity
  8
0
100
AcDbLine
 62
7
  6
CONTINUOUS
 10
57.7071975387
 20
130.7508509502
 11
57.7069240757
 21
131.9754466522
  0
LINE
  5
2D3
100
AcDbEntity
  8
0
100
AcDbLine
 62
7
  6
CONTINUOUS
 10
60.1976695134
 20
110.0010439083
 11
60.1963933524
 21
115.7158238508
  0
LINE
  5
2D4
100
AcDbEntity
  8
0
100
AcDbLine
 62
7
  6
CONTINUOUS
 10
61.4209991356
 20
56.7070431562
 11
61.4206345181
 21
58.3398374255
  0
LINE
  5
2D5
100
AcDbEntity
  8
0
100
AcDbLine
 62
7
  6
CONTINUOUS
 10
60.4120153466
 20
56.9461562863
 11
60.4141900703
 21
57.7611926184
  0
LINE
  5
2D6
100
AcDbEntity
  8
0
100
AcDbLine
 62
7
  6
CONTINUOUS
 10
52.8952912729
 20
47.7957135048
 11
52.8538529187
 21
47.3456166079
  0
LINE
  5
2D7
100
AcDbEntity
  8
0
100
AcDbLine
 62
7
  6
CONTINUOUS
 10
50.0229670762
 20
80.742148803
 11
50.1390538526
 21
81.1043889615
  0
LINE
  5
2D8
100
AcDbEntity
  8
0
100
AcDbLine
 62
7
  6
CONTINUOUS
 10
60.1971406909
 20
112.3691650262
 11
68.0606467787
 21
116.9114763546
  0
LINE
  5
2D9
100
AcDbEntity
  8
0
100
AcDbLine
 62
7
  6
CONTINUOUS
 10
69.0506003939
 20
116.3399392983
 11
76.4661484993
 21
120.6234901458
  0
LINE
  5
2DA
100
AcDbEntity
  8
0
100
AcDbLine
 62
7
  6
CONTINUOUS
 10
30.8384356098
 20
93.1950824595
 11
31.5455394235
 21
93.6035371142
  0
LINE
  5
2DB
100
AcDbEntity
  8
0
100
AcDbLine
 62
7
  6
CONTINUOUS
 10
49.1622383431
 20
103.6264873861
 11
60.1976695134
 21
110.0010439083
  0
LINE
  5
2DC
100
AcDbEntity
  8
0
100
AcDbLine
 62
7
  6
CONTINUOUS
 10
75.8811652611
 20
118.4644215806
 11
76.4665551272
 21
118.8025688384
  0
LINE
  5
2DD
100
AcDbEntity
  8
0
100
AcDbLine
 62
7
  6
CONTINUOUS
 10
31.7013219361
 20
92.5358270534
 11
36.1693282124
 21
95.1167464675
  0
LINE
  5
2DE
100
AcDbEntity
  8
0
100
AcDbLine
 62
7
  6
CONTINUOUS
 10
96.3320332195
 20
128.1905077046
 11
94.9178255921
 21
127.3735983953
  0
LINE
  5
2DF
100
AcDbEntity
  8
0
100
AcDbLine
 62
7
  6
CONTINUOUS
 10
67.6210454664
 20
111.4292959283
 11
51.6999353165
 21
102.2325536369
  0
LINE
  5
2E0
100
AcDbEntity
  8
0
100
AcDbLine
 62
7
  6
CONTINUOUS
 10
52.0133551686
 20
102.0622060219
 11
51.3096379329
 21
101.6557076056
  0
LINE
  5
2E1
100
AcDbEntity
  8
0
100
AcDbLine
 62
7
  6
CONTINUOUS
 10
101.8786130026
 20
132.0494546796
 11
104.232261565
 21
133.4017494568
  0
LINE
  5
2E2
100
AcDbEntity
  8
0
100
AcDbLine
 62
7
  6
CONTINUOUS
 10
115.9924107688
 20
139.5069631809
 11
116.0155045247
 21
139.5202317572
  0
LINE
  5
2E3
100
AcDbEntity
  8
0
100
AcDbLine
 62
7
  6
CONTINUOUS
 10
31.2471171009
 20
114.2409872476
 11
31.2211153604
 21
114.2600411453
  0
LINE
  5
2E4
100
AcDbEntity
  8
0
100
AcDbLine
 62
7
  6
CONTINUOUS
 10
62.855825602
 20
95.9114777058
 11
62.8573752261
 21
88.9721020614
  0
LINE
  5
2E5
100
AcDbEntity
  8
0
100
AcDbLine
 62
7
  6
CONTINUOUS
 10
62.9264069347
 20
57.5766337464
 11
62.9273731708
 21
53.2497289328
  0
LINE
  5
2E6
100
AcDbEntity
  8
0
100
AcDbLine
 62
7
  6
CONTINUOUS
 10
62.9415262642
 20
53.2579043899
 11
62.9406511824
 21
57.1766106361
  0
LINE
  5
2E7
100
AcDbEntity
  8
0
100
AcDbLine
 62
7
  6
CONTINUOUS
 10
64.0007040474
 20
95.3480568182
 11
64.0004305843
 21
96.5726525202
  0
LINE
  5
2E8
100
AcDbEntity
  8
0
100
AcDbLine
 62
7
  6
CONTINUOUS
 10
64.0878415757
 20
145.1728952923
 11
64.092285939
 21
125.2705802548
  0
LINE
  5
2E9
100
AcDbEntity
  8
0
100
AcDbLine
 62
7
  6
CONTINUOUS
 10
66.2069272757
 20
122.5526572703
 11
66.2066719821
 21
123.6958881548
  0
LINE
  5
2EA
100
AcDbEntity
  8
0
100
AcDbLine
 62
7
  6
CONTINUOUS
 10
66.9452101129
 20
51.4871163712
 11
66.9443350311
 21
55.4058226174
  0
LINE
  5
2EB
100
AcDbEntity
  8
0
100
AcDbLine
 62
7
  6
CONTINUOUS
 10
67.2160009483
 20
38.9877493315
 11
67.2131751632
 21
51.6419049184
  0
LINE
  5
2EC
100
AcDbEntity
  8
0
100
AcDbLine
 62
7
  6
CONTINUOUS
 10
62.4185136128
 20
47.6306430881
 11
62.4185355561
 21
47.6487385688
  0
LINE
  5
2ED
100
AcDbEntity
  8
0
100
AcDbLine
 62
7
  6
CONTINUOUS
 10
88.8483108212
 20
122.4660615472
 11
78.5953055224
 21
116.5434690547
  0
LINE
  5
2EE
100
AcDbEntity
  8
0
100
AcDbLine
 62
7
  6
CONTINUOUS
 10
17.8447134085
 20
81.1445493542
 11
17.974259424
 21
81.2193809023
  0
LINE
  5
2EF
100
AcDbEntity
  8
0
100
AcDbLine
 62
7
  6
CONTINUOUS
 10
54.5395651661
 20
102.2967037584
 11
52.0136286316
 21
100.83761032
  0
LINE
  5
2F0
100
AcDbEntity
  8
0
100
AcDbLine
 62
7
  6
CONTINUOUS
 10
24.3795415735
 20
84.6394781244
 11
25.1059770171
 21
85.0590995895
  0
LINE
  5
2F1
100
AcDbEntity
  8
0
100
AcDbLine
 62
7
  6
CONTINUOUS
 10
79.5852591376
 20
115.9719319984
 11
69.6716636693
 21
110.2453977402
  0
LINE
  5
2F2
100
AcDbEntity
  8
0
100
AcDbLine
 62
7
  6
CONTINUOUS
 10
51.3101175421
 20
99.5079685344
 11
54.5397713122
 21
101.3735603891
  0
LINE
  5
2F3
100
AcDbEntity
  8
0
100
AcDbLine
 62
7
  6
CONTINUOUS
 10
25.0866512987
 20
84.2312373699
 11
25.7601939439
 21
84.6203055989
  0
LINE
  5
2F4
100
AcDbEntity
  8
0
100
AcDbLine
 62
7
  6
CONTINUOUS
 10
54.1532021585
 20
100.9298503551
 11
53.4490300387
 21
100.5230891775
  0
LINE
  5
2F5
100
AcDbEntity
  8
0
100
AcDbLine
 62
7
  6
CONTINUOUS
 10
35.6187128282
 20
89.8576586147
 11
37.874373994
 21
91.160628963
  0
LINE
  5
2F6
100
AcDbEntity
  8
0
100
AcDbLine
 62
7
  6
CONTINUOUS
 10
70.5344086897
 20
109.7473029388
 11
80.448004158
 21
115.473837197
  0
LINE
  5
2F7
100
AcDbEntity
  8
0
100
AcDbLine
 62
7
  6
CONTINUOUS
 10
25.8428498982
 20
83.4596277419
 11
26.7411951534
 21
83.9785519703
  0
LINE
  5
2F8
100
AcDbEntity
  8
0
100
AcDbLine
 62
7
  6
CONTINUOUS
 10
19.4961808858
 20
79.7872528479
 11
19.625065324
 21
79.8617022395
  0
LINE
  5
2F9
100
AcDbEntity
  8
0
100
AcDbLine
 62
7
  6
CONTINUOUS
 10
26.2180268589
 20
83.5780521627
 11
26.8218985873
 21
83.9268753672
  0
LINE
  5
2FA
100
AcDbEntity
  8
0
100
AcDbLine
 62
7
  6
CONTINUOUS
 10
56.590183369
 20
101.1128055703
 11
55.2749172373
 21
100.3530492754
  0
LINE
  5
2FB
100
AcDbEntity
  8
0
100
AcDbLine
 62
7
  6
CONTINUOUS
 10
81.4379577732
 20
114.9023001407
 11
88.8392961938
 21
119.1776428414
  0
LINE
  5
2FC
100
AcDbEntity
  8
0
100
AcDbLine
 62
7
  6
CONTINUOUS
 10
39.2178824718
 20
90.3849715294
 11
39.7835655227
 21
90.7117352531
  0
LINE
  5
2FD
100
AcDbEntity
  8
0
100
AcDbLine
 62
7
  6
CONTINUOUS
 10
26.925136584
 20
83.1698114081
 11
27.4656388375
 21
83.4820295818
  0
LINE
  5
2FE
100
AcDbEntity
  8
0
100
AcDbLine
 62
7
  6
CONTINUOUS
 10
37.3153681006
 20
88.8781163966
 11
37.8748115349
 21
89.2012758399
  0
LINE
  5
2FF
100
AcDbEntity
  8
0
100
AcDbLine
 62
7
  6
CONTINUOUS
 10
40.6674526792
 20
90.20143431
 11
41.3745564929
 21
90.6098889647
  0
LINE
  5
300
100
AcDbEntity
  8
0
100
AcDbLine
 62
7
  6
CONTINUOUS
 10
56.9222770603
 20
99.5159028852
 11
72.5850268927
 21
108.5634047507
  0
LINE
  5
301
100
AcDbEntity
  8
0
100
AcDbLine
 62
7
  6
CONTINUOUS
 10
26.9254064009
 20
81.9615436489
 11
27.4321952052
 21
82.2542874328
  0
LINE
  5
302
100
AcDbEntity
  8
0
100
AcDbLine
 62
7
  6
CONTINUOUS
 10
27.4321970283
 20
82.2461234615
 11
27.4659104775
 21
82.2655978512
  0
LINE
  5
303
100
AcDbEntity
  8
0
100
AcDbLine
 62
7
  6
CONTINUOUS
 10
39.2183200127
 20
88.4256184063
 11
39.7840030637
 21
88.75238213
  0
LINE
  5
304
100
AcDbEntity
  8
0
100
AcDbLine
 62
7
  6
CONTINUOUS
 10
121.3746008266
 20
141.5146196025
 11
119.9046097784
 21
140.6659249412
  0
LINE
  5
305
100
AcDbEntity
  8
0
100
AcDbLine
 62
7
  6
CONTINUOUS
 10
115.9927201454
 20
138.121543155
 11
106.0250201408
 21
132.3667232259
  0
LINE
  5
306
100
AcDbEntity
  8
0
100
AcDbLine
 62
7
  6
CONTINUOUS
 10
119.9046089282
 20
139.0329196161
 11
122.3933384955
 21
140.4697797248
  0
LINE
  5
307
100
AcDbEntity
  8
0
100
AcDbLine
 62
7
  6
CONTINUOUS
 10
127.3994428165
 20
142.9110507091
 11
124.3594026409
 21
141.1558931722
  0
LINE
  5
308
100
AcDbEntity
  8
0
100
AcDbLine
 62
7
  6
CONTINUOUS
 10
125.8443186648
 20
91.509113697
 11
128.6722403217
 21
91.2965601402
  0
LINE
  5
309
100
AcDbEntity
  8
0
100
AcDbLine
 62
7
  6
CONTINUOUS
 10
51.3096379329
 20
101.6557076056
 11
50.9351211087
 21
101.8574070744
  0
LINE
  5
30A
100
AcDbEntity
  8
0
100
AcDbLine
 62
7
  6
CONTINUOUS
 10
64.0004305843
 20
96.5726525202
 11
61.1719916837
 21
98.2056155382
  0
LINE
  5
30B
100
AcDbEntity
  8
0
100
AcDbLine
 62
7
  6
CONTINUOUS
 10
42.3065669211
 20
109.3592688116
 11
44.357185124
 21
108.1753706235
  0
LINE
  5
30C
100
AcDbEntity
  8
0
100
AcDbLine
 62
7
  6
CONTINUOUS
 10
54.5395651661
 20
102.2967037584
 11
56.590183369
 21
101.1128055703
  0
LINE
  5
30D
100
AcDbEntity
  8
0
100
AcDbLine
 62
7
  6
CONTINUOUS
 10
68.0606467787
 20
116.9114763546
 11
68.0593706177
 21
122.6262562971
  0
LINE
  5
30E
100
AcDbEntity
  8
0
100
AcDbLine
 62
7
  6
CONTINUOUS
 10
69.0506003939
 20
116.3399392983
 11
69.0493242329
 21
122.0547192408
  0
LINE
  5
30F
100
AcDbEntity
  8
0
100
AcDbLine
 62
7
  6
CONTINUOUS
 10
70.168985212
 20
141.6620248035
 11
70.1724856467
 21
125.9867187505
  0
LINE
  5
310
100
AcDbEntity
  8
0
100
AcDbLine
 62
7
  6
CONTINUOUS
 10
71.5831928394
 20
142.4789341128
 11
71.5866932741
 21
126.8036280598
  0
LINE
  5
311
100
AcDbEntity
  8
0
100
AcDbLine
 62
7
  6
CONTINUOUS
 10
72.2523229868
 20
139.1527631964
 11
72.2520495237
 21
140.3773588984
  0
LINE
  5
312
100
AcDbEntity
  8
0
100
AcDbLine
 62
7
  6
CONTINUOUS
 10
72.5863030537
 20
102.8486248083
 11
72.5850268927
 21
108.5634047507
  0
LINE
  5
313
100
AcDbEntity
  8
0
100
AcDbLine
 62
7
  6
CONTINUOUS
 10
72.7619950753
 20
62.8498562759
 11
72.7536088746
 21
100.4041244692
  0
LINE
  5
314
100
AcDbEntity
  8
0
100
AcDbLine
 62
7
  6
CONTINUOUS
 10
72.9594327119
 20
138.7445224419
 11
72.9591592489
 21
139.9691181439
  0
LINE
  5
315
100
AcDbEntity
  8
0
100
AcDbLine
 62
7
  6
CONTINUOUS
 10
70.8596109207
 20
147.1337109308
 11
70.859616069
 21
143.9901795972
  0
LINE
  5
316
100
AcDbEntity
  8
INTFCLR_75
100
AcDbLine
 62
7
420
48875
  6
CONTINUOUS
 10
70.859616069
 20
143.9901795972
 11
70.8596109207
 21
147.1337109308
  0
LINE
  5
317
100
AcDbEntity
  8
0
100
AcDbLine
 62
7
  6
CONTINUOUS
 10
72.9809400961
 20
145.9089886672
 11
72.9809452445
 21
142.7654573337
  0
LINE
  5
318
100
AcDbEntity
  8
0
100
AcDbLine
 62
7
  6
CONTINUOUS
 10
73.1675717948
 20
142.8726420092
 11
73.164098208
 21
142.5375964855
  0
LINE
  5
319
100
AcDbEntity
  8
INTFCLR_75
100
AcDbLine
 62
7
420
48875
  6
CONTINUOUS
 10
73.164098208
 20
142.5375964855
 11
73.1675717948
 21
142.8726420092
  0
LINE
  5
31A
100
AcDbEntity
  8
0
100
AcDbLine
 62
7
  6
CONTINUOUS
 10
40.6678902201
 20
88.2420811869
 11
41.3749940338
 21
88.6505358415
  0
LINE
  5
31B
100
AcDbEntity
  8
0
100
AcDbLine
 62
7
  6
CONTINUOUS
 10
21.0192036855
 20
76.5595557516
 11
20.8907817918
 21
76.4853735464
  0
LINE
  5
31C
100
AcDbEntity
  8
0
100
AcDbLine
 62
7
  6
CONTINUOUS
 10
72.5857742312
 20
105.2167459261
 11
80.449280319
 21
109.7590572546
  0
LINE
  5
31D
100
AcDbEntity
  8
0
100
AcDbLine
 62
7
  6
CONTINUOUS
 10
20.8910443163
 20
75.3097616725
 11
21.1449633214
 21
75.4564365985
  0
LINE
  5
31E
100
AcDbEntity
  8
0
100
AcDbLine
 62
7
  6
CONTINUOUS
 10
61.1719916837
 20
98.2056155382
 11
60.4436747556
 21
97.7849072439
  0
LINE
  5
31F
100
AcDbEntity
  8
0
100
AcDbLine
 62
7
  6
CONTINUOUS
 10
81.4392339342
 20
109.1875201983
 11
88.8405723548
 21
113.4628628989
  0
LINE
  5
320
100
AcDbEntity
  8
0
100
AcDbLine
 62
7
  6
CONTINUOUS
 10
62.8606809975
 20
97.2306723645
 11
72.5863030537
 21
102.8486248083
  0
LINE
  5
321
100
AcDbEntity
  8
0
100
AcDbLine
 62
7
  6
CONTINUOUS
 10
88.2555854512
 20
111.3202083765
 11
88.8409753173
 21
111.6583556343
  0
LINE
  5
322
100
AcDbEntity
  8
0
100
AcDbLine
 62
7
  6
CONTINUOUS
 10
64.0004305843
 20
96.5726525202
 11
62.855825602
 21
95.9114777058
  0
LINE
  5
323
100
AcDbEntity
  8
0
100
AcDbLine
 62
7
  6
CONTINUOUS
 10
74.1407093725
 20
101.989241997
 11
64.0005290256
 21
96.1318222217
  0
LINE
  5
324
100
AcDbEntity
  8
0
100
AcDbLine
 62
7
  6
CONTINUOUS
 10
124.359399389
 20
134.9096478037
 11
127.3994428165
 21
136.664807218
  0
LINE
  5
325
100
AcDbEntity
  8
0
100
AcDbLine
 62
7
  6
CONTINUOUS
 10
125.6321968943
 20
134.1748144456
 11
128.6722403217
 21
135.9299738599
  0
LINE
  5
326
100
AcDbEntity
  8
0
100
AcDbLine
 62
7
  6
CONTINUOUS
 10
123.4877738553
 20
135.179611183
 11
112.2933124321
 21
128.7478048555
  0
LINE
  5
327
100
AcDbEntity
  8
0
100
AcDbLine
 62
7
  6
CONTINUOUS
 10
109.6092238587
 20
124.7621175831
 11
125.6321967867
 21
133.9681574957
  0
LINE
  5
328
100
AcDbEntity
  8
0
100
AcDbLine
 62
7
  6
CONTINUOUS
 10
109.9396562427
 20
127.391866958
 11
107.4878946833
 21
125.9868398466
  0
LINE
  5
329
100
AcDbEntity
  8
0
100
AcDbLine
 62
7
  6
CONTINUOUS
 10
42.8592906561
 20
116.8668709647
 11
44.0613771888
 21
116.172861682
  0
LINE
  5
32A
100
AcDbEntity
  8
0
100
AcDbLine
 62
7
  6
CONTINUOUS
 10
75.0658576758
 20
99.0691772019
 11
72.7536088746
 21
100.4041244692
  0
LINE
  5
32B
100
AcDbEntity
  8
0
100
AcDbLine
 62
7
  6
CONTINUOUS
 10
75.0655842127
 20
100.2937729038
 11
76.2888840372
 21
99.5875163985
  0
LINE
  5
32C
100
AcDbEntity
  8
0
100
AcDbLine
 62
7
  6
CONTINUOUS
 10
75.0658576758
 20
99.0691772019
 11
75.0655842127
 21
100.2937729038
  0
LINE
  5
32D
100
AcDbEntity
  8
0
100
AcDbLine
 62
7
  6
CONTINUOUS
 10
75.4342960599
 20
140.1741137332
 11
75.4331645179
 21
145.2412752862
  0
LINE
  5
32E
100
AcDbEntity
  8
0
100
AcDbLine
 62
7
  6
CONTINUOUS
 10
76.2888840372
 20
99.5875163985
 11
76.297543701
 21
60.8086525033
  0
LINE
  5
32F
100
AcDbEntity
  8
0
100
AcDbLine
 62
7
  6
CONTINUOUS
 10
76.4622617658
 20
138.0286820882
 11
76.466706129
 21
118.1263670507
  0
LINE
  5
330
100
AcDbEntity
  8
0
100
AcDbLine
 62
7
  6
CONTINUOUS
 10
78.595560816
 20
115.4002381702
 11
78.5953055224
 21
116.5434690547
  0
LINE
  5
331
100
AcDbEntity
  8
0
100
AcDbLine
 62
7
  6
CONTINUOUS
 10
75.2854273835
 20
141.312874222
 11
75.3143811187
 21
144.1056126687
  0
LINE
  5
332
100
AcDbEntity
  8
0
100
AcDbLine
 62
7
  6
CONTINUOUS
 10
64.0007040474
 20
95.3480568182
 11
72.7536088746
 21
100.4041244692
  0
LINE
  5
333
100
AcDbEntity
  8
0
100
AcDbLine
 62
7
  6
CONTINUOUS
 10
107.4661138361
 20
120.0469693233
 11
109.7923819707
 21
121.3907254014
  0
LINE
  5
334
100
AcDbEntity
  8
0
100
AcDbLine
 62
7
  6
CONTINUOUS
 10
100.9682426659
 20
115.4687739339
 11
75.8872703936
 21
100.9808873334
  0
LINE
  5
335
100
AcDbEntity
  8
0
100
AcDbLine
 62
7
  6
CONTINUOUS
 10
106.9287220314
 20
118.7565092947
 11
93.8048752489
 21
111.1755909044
  0
LINE
  5
336
100
AcDbEntity
  8
0
100
AcDbLine
 62
7
  6
CONTINUOUS
 10
87.4904386062
 20
107.4709221597
 11
75.0655842127
 21
100.2937729038
  0
LINE
  5
337
100
AcDbEntity
  8
0
100
AcDbLine
 62
7
  6
CONTINUOUS
 10
40.6382693429
 20
79.6892186681
 11
36.5884396595
 21
77.3498566782
  0
LINE
  5
338
100
AcDbEntity
  8
0
100
AcDbLine
 62
7
  6
CONTINUOUS
 10
109.0924662039
 20
119.1080155879
 11
107.706542729
 21
118.3074444647
  0
LINE
  5
339
100
AcDbEntity
  8
0
100
AcDbLine
 62
7
  6
CONTINUOUS
 10
94.5826959465
 20
110.7265260744
 11
88.2187616231
 21
107.0504341825
  0
LINE
  5
33A
100
AcDbEntity
  8
0
100
AcDbLine
 62
7
  6
CONTINUOUS
 10
111.9137111461
 20
120.1660031378
 11
76.2888840372
 21
99.5875163985
  0
LINE
  5
33B
100
AcDbEntity
  8
0
100
AcDbLine
 62
7
  6
CONTINUOUS
 10
33.1059157825
 20
73.8477299882
 11
32.9447681554
 21
73.7546439419
  0
LINE
  5
33C
100
AcDbEntity
  8
0
100
AcDbLine
 62
7
  6
CONTINUOUS
 10
52.5468901502
 20
84.1596850432
 11
51.8397863365
 21
83.7512303886
  0
LINE
  5
33D
100
AcDbEntity
  8
0
100
AcDbLine
 62
7
  6
CONTINUOUS
 10
39.2754566151
 20
75.798541811
 11
43.6986860441
 21
78.3535961239
  0
LINE
  5
33E
100
AcDbEntity
  8
0
100
AcDbLine
 62
7
  6
CONTINUOUS
 10
62.8573752261
 20
88.9721020614
 11
52.8297399517
 21
83.1796933322
  0
LINE
  5
33F
100
AcDbEntity
  8
0
100
AcDbLine
 62
7
  6
CONTINUOUS
 10
50.008395735
 20
81.5499592602
 11
48.2728227738
 21
80.5474150217
  0
LINE
  5
340
100
AcDbEntity
  8
0
100
AcDbLine
 62
7
  6
CONTINUOUS
 10
109.6092290071
 20
121.6185862495
 11
111.9426648813
 21
122.9587415846
  0
LINE
  5
341
100
AcDbEntity
  8
0
100
AcDbLine
 62
7
  6
CONTINUOUS
 10
75.8872703936
 20
100.9808873334
 11
74.1407093725
 21
101.989241997
  0
LINE
  5
342
100
AcDbEntity
  8
0
100
AcDbLine
 62
7
  6
CONTINUOUS
 10
42.8580144951
 20
122.5816509071
 11
44.0601010278
 21
121.8876416244
  0
LINE
  5
343
100
AcDbEntity
  8
0
100
AcDbLine
 62
7
  6
CONTINUOUS
 10
44.1802986267
 20
123.3454611113
 11
44.5338534893
 21
123.1413407341
  0
LINE
  5
344
100
AcDbEntity
  8
0
100
AcDbLine
 62
7
  6
CONTINUOUS
 10
44.1800251637
 20
124.5700568133
 11
44.5335800262
 21
124.365936436
  0
LINE
  5
345
100
AcDbEntity
  8
0
100
AcDbLine
 62
7
  6
CONTINUOUS
 10
72.5850268927
 20
108.5634047507
 11
70.5344086897
 21
109.7473029388
  0
LINE
  5
346
100
AcDbEntity
  8
0
100
AcDbLine
 62
7
  6
CONTINUOUS
 10
69.6716636693
 20
110.2453977402
 11
67.6210454664
 21
111.4292959283
  0
LINE
  5
347
100
AcDbEntity
  8
0
100
AcDbLine
 62
7
  6
CONTINUOUS
 10
60.1963933524
 20
115.7158238508
 11
58.1457751494
 21
116.8997220389
  0
LINE
  5
348
100
AcDbEntity
  8
0
100
AcDbLine
 62
7
  6
CONTINUOUS
 10
57.283030129
 20
117.3978168402
 11
55.2324119261
 21
118.5817150283
  0
LINE
  5
349
100
AcDbEntity
  8
0
100
AcDbLine
 62
7
  6
CONTINUOUS
 10
80.449280319
 20
109.7590572546
 11
80.448004158
 21
115.473837197
  0
LINE
  5
34A
100
AcDbEntity
  8
0
100
AcDbLine
 62
7
  6
CONTINUOUS
 10
81.4392339342
 20
109.1875201983
 11
81.4379577732
 21
114.9023001407
  0
LINE
  5
34B
100
AcDbEntity
  8
0
100
AcDbLine
 62
7
  6
CONTINUOUS
 10
82.543405402
 20
134.5178115994
 11
82.5469095021
 21
118.8260915036
  0
LINE
  5
34C
100
AcDbEntity
  8
0
100
AcDbLine
 62
7
  6
CONTINUOUS
 10
83.4953287391
 20
135.6016148302
 11
83.4942153846
 21
140.5873306846
  0
LINE
  5
34D
100
AcDbEntity
  8
0
100
AcDbLine
 62
7
  6
CONTINUOUS
 10
83.9576130295
 20
135.3347209087
 11
83.9611171296
 21
119.6430008129
  0
LINE
  5
34E
100
AcDbEntity
  8
0
100
AcDbLine
 62
7
  6
CONTINUOUS
 10
52.8301774926
 20
81.2203402091
 11
50.0088332759
 21
79.5906061371
  0
LINE
  5
34F
100
AcDbEntity
  8
0
100
AcDbLine
 62
7
  6
CONTINUOUS
 10
39.2760582338
 20
73.1044312667
 11
44.0009750258
 21
75.8337536365
  0
LINE
  5
350
100
AcDbEntity
  8
0
100
AcDbLine
 62
7
  6
CONTINUOUS
 10
37.2270663736
 20
67.7166009681
 11
40.5928242076
 21
69.6608125917
  0
LINE
  5
351
100
AcDbEntity
  8
0
100
AcDbLine
 62
7
  6
CONTINUOUS
 10
124.7836653073
 20
119.8853103491
 11
125.5632549813
 21
120.3332248233
  0
LINE
  5
352
100
AcDbEntity
  8
0
100
AcDbLine
 62
7
  6
CONTINUOUS
 10
126.2016142927
 20
119.0669855516
 11
126.913842918
 21
119.4761976293
  0
LINE
  5
353
100
AcDbEntity
  8
0
100
AcDbLine
 62
7
  6
CONTINUOUS
 10
48.3731537347
 20
126.5838452108
 11
47.453911092
 21
127.1145581917
  0
LINE
  5
354
100
AcDbEntity
  8
0
100
AcDbLine
 62
7
  6
CONTINUOUS
 10
68.0606467787
 20
116.9114763546
 11
69.0506003939
 21
116.3399392983
  0
LINE
  5
355
100
AcDbEntity
  8
0
100
AcDbLine
 62
7
  6
CONTINUOUS
 10
80.449280319
 20
109.7590572546
 11
81.4392339342
 21
109.1875201983
  0
LINE
  5
356
100
AcDbEntity
  8
0
100
AcDbLine
 62
7
  6
CONTINUOUS
 10
88.8366819559
 20
130.8844688841
 11
88.8411263191
 21
110.9821538466
  0
LINE
  5
357
100
AcDbEntity
  8
0
100
AcDbLine
 62
7
  6
CONTINUOUS
 10
88.9812744892
 20
153.0632335343
 11
88.9808192682
 21
155.1017600036
  0
LINE
  5
358
100
AcDbEntity
  8
0
100
AcDbLine
 62
7
  6
CONTINUOUS
 10
86.8825839562
 20
156.5464077933
 11
86.8825838486
 21
156.3397508434
  0
LINE
  5
359
100
AcDbEntity
  8
INTFCLR_75
100
AcDbLine
 62
7
420
48875
  6
CONTINUOUS
 10
86.8825838486
 20
156.3397508434
 11
86.8825877382
 21
163.8107760118
  0
LINE
  5
35A
100
AcDbEntity
  8
0
100
AcDbLine
 62
7
  6
CONTINUOUS
 10
88.1553814615
 20
155.8115744352
 11
88.1553847134
 21
162.0578198037
  0
LINE
  5
35B
100
AcDbEntity
  8
INTFCLR_75
100
AcDbLine
 62
7
420
48875
  6
CONTINUOUS
 10
89.9226273837
 20
165.5659332426
 11
89.9226273837
 21
163.0781317447
  0
LINE
  5
35C
100
AcDbEntity
  8
0
100
AcDbLine
 62
7
  6
CONTINUOUS
 10
49.1465632202
 20
58.0883030488
 11
49.5261363165
 21
58.4514088426
  0
LINE
  5
35D
100
AcDbEntity
  8
INTFCLR_75
100
AcDbLine
 62
7
420
48875
  6
CONTINUOUS
 10
29.3860998718
 20
60.6658555448
 11
10.0062473438
 21
49.4711896159
  0
LINE
  5
35E
100
AcDbEntity
  8
0
100
AcDbLine
 62
7
  6
CONTINUOUS
 10
39.9140833291
 20
66.1652861009
 11
43.6520145352
 21
68.3244816395
  0
LINE
  5
35F
100
AcDbEntity
  8
0
100
AcDbLine
 62
7
  6
CONTINUOUS
 10
88.2187616231
 20
107.0504341825
 11
87.4904386062
 21
107.4709221597
  0
LINE
  5
360
100
AcDbEntity
  8
0
100
AcDbLine
 62
7
  6
CONTINUOUS
 10
54.1009604039
 20
129.7294362434
 11
54.5959372116
 21
129.4436677153
  0
LINE
  5
361
100
AcDbEntity
  8
0
100
AcDbLine
 62
7
  6
CONTINUOUS
 10
66.2066719821
 20
123.6958881548
 11
67.1966255973
 21
123.1243510984
  0
LINE
  5
362
100
AcDbEntity
  8
0
100
AcDbLine
 62
7
  6
CONTINUOUS
 10
68.0593706177
 20
122.6262562971
 11
69.0493242329
 21
122.0547192408
  0
LINE
  5
363
100
AcDbEntity
  8
0
100
AcDbLine
 62
7
  6
CONTINUOUS
 10
78.5953055224
 20
116.5434690547
 11
79.5852591376
 21
115.9719319984
  0
LINE
  5
364
100
AcDbEntity
  8
0
100
AcDbLine
 62
7
  6
CONTINUOUS
 10
80.448004158
 20
115.473837197
 11
81.4379577732
 21
114.9023001407
  0
LINE
  5
365
100
AcDbEntity
  8
0
100
AcDbLine
 62
7
  6
CONTINUOUS
 10
54.1006869409
 20
130.9540319454
 11
54.5956637485
 21
130.6682634172
  0
LINE
  5
366
100
AcDbEntity
  8
0
100
AcDbLine
 62
7
  6
CONTINUOUS
 10
91.0217169862
 20
109.7232177189
 11
88.2555854512
 21
111.3202083765
  0
LINE
  5
367
100
AcDbEntity
  8
0
100
AcDbLine
 62
7
  6
CONTINUOUS
 10
78.9017851415
 20
116.7205053322
 11
75.8811652611
 21
118.4644215806
  0
LINE
  5
368
100
AcDbEntity
  8
0
100
AcDbLine
 62
7
  6
CONTINUOUS
 10
66.5131516012
 20
123.8729244323
 11
63.506745071
 21
125.6086347847
  0
LINE
  5
369
100
AcDbEntity
  8
0
100
AcDbLine
 62
7
  6
CONTINUOUS
 10
93.8050758367
 20
110.2773380666
 11
93.8048752489
 21
111.1755909044
  0
LINE
  5
36A
100
AcDbEntity
  8
0
100
AcDbLine
 62
7
  6
CONTINUOUS
 10
94.9178255921
 20
127.3735983953
 11
94.9212640636
 21
111.9757697826
  0
LINE
  5
36B
100
AcDbEntity
  8
0
100
AcDbLine
 62
7
  6
CONTINUOUS
 10
59.8783683403
 20
51.8774664402
 11
59.1393448419
 21
50.8258017474
  0
LINE
  5
36C
100
AcDbEntity
  8
0
100
AcDbLine
 62
7
  6
CONTINUOUS
 10
61.589421058
 20
47.7791212197
 11
62.1914307992
 21
48.6358089854
  0
LINE
  5
36D
100
AcDbEntity
  8
0
100
AcDbLine
 62
7
  6
CONTINUOUS
 10
39.9149584109
 20
62.2465798546
 11
44.0034817705
 21
64.6082930352
  0
LINE
  5
36E
100
AcDbEntity
  8
0
100
AcDbLine
 62
7
  6
CONTINUOUS
 10
39.0183487383
 20
55.5778246013
 11
38.3838154024
 21
55.2112898867
  0
LINE
  5
36F
100
AcDbEntity
  8
0
100
AcDbLine
 62
7
  6
CONTINUOUS
 10
57.2829317037
 20
130.9957954029
 11
57.7071975387
 21
130.7508509502
  0
LINE
  5
370
100
AcDbEntity
  8
0
100
AcDbLine
 62
7
  6
CONTINUOUS
 10
125.8443186648
 20
91.509113697
 11
124.7836655285
 21
92.1214682175
  0
LINE
  5
371
100
AcDbEntity
  8
0
100
AcDbLine
 62
7
  6
CONTINUOUS
 10
57.2826582406
 20
132.2203911049
 11
57.7069240757
 21
131.9754466522
  0
LINE
  5
372
100
AcDbEntity
  8
0
100
AcDbLine
 62
7
  6
CONTINUOUS
 10
93.8048752489
 20
111.1755909044
 11
94.5826959465
 21
110.7265260744
  0
LINE
  5
373
100
AcDbEntity
  8
0
100
AcDbLine
 62
7
  6
CONTINUOUS
 10
128.6722403217
 20
91.2965601402
 11
124.7836655172
 21
93.5415790613
  0
LINE
  5
374
100
AcDbEntity
  8
0
100
AcDbLine
 62
7
  6
CONTINUOUS
 10
96.3320332195
 20
128.1905077046
 11
96.3354716911
 21
112.7926790919
  0
LINE
  5
375
100
AcDbEntity
  8
0
100
AcDbLine
 62
7
  6
CONTINUOUS
 10
96.4761823547
 20
150.7744080057
 11
96.4766375758
 21
148.7358815364
  0
LINE
  5
376
100
AcDbEntity
  8
0
100
AcDbLine
 62
7
  6
CONTINUOUS
 10
96.4992785137
 20
155.4034479096
 11
96.4992761106
 21
150.7876765819
  0
LINE
  5
377
100
AcDbEntity
  8
INTFCLR_76
100
AcDbLine
 62
7
420
3604575
  6
CONTINUOUS
 10
96.838264241
 20
131.7940456023
 11
96.838264241
 21
152.2066060306
  0
LINE
  5
378
100
AcDbEntity
  8
0
100
AcDbLine
 62
7
  6
CONTINUOUS
 10
98.1256308815
 20
154.4644941742
 11
98.125632368
 21
157.3197480149
  0
LINE
  5
379
100
AcDbEntity
  8
0
100
AcDbLine
 62
7
  6
CONTINUOUS
 10
99.5393196457
 20
155.2806828908
 11
99.5393196457
 21
150.504111299
  0
LINE
  5
37A
100
AcDbEntity
  8
0
100
AcDbLine
 62
7
  6
CONTINUOUS
 10
100.1050074258
 20
140.6230336133
 11
100.1050074258
 21
150.1775186954
  0
LINE
  5
37B
100
AcDbEntity
  8
0
100
AcDbLine
 62
7
  6
CONTINUOUS
 10
101.1656720135
 20
156.2196522632
 11
101.1656720135
 21
159.0749052457
  0
LINE
  5
37C
100
AcDbEntity
  8
0
100
AcDbLine
 62
7
  6
CONTINUOUS
 10
39.9295914156
 20
55.2814049538
 11
38.3110502069
 21
54.3464634676
  0
LINE
  5
37D
100
AcDbEntity
  8
0
100
AcDbLine
 62
7
  6
CONTINUOUS
 10
48.2774670883
 20
59.7496980168
 11
51.5018211783
 21
61.6122285403
  0
LINE
  5
37E
100
AcDbEntity
  8
0
100
AcDbLine
 62
7
  6
CONTINUOUS
 10
49.7024380181
 20
60.5489015318
 11
49.664654908
 21
60.5270763247
  0
LINE
  5
37F
100
AcDbEntity
  8
0
100
AcDbLine
 62
7
  6
CONTINUOUS
 10
40.8405028439
 20
54.7034829869
 11
40.6923651483
 21
54.6179120565
  0
LINE
  5
380
100
AcDbEntity
  8
0
100
AcDbLine
 62
7
  6
CONTINUOUS
 10
41.0127400192
 20
62.4495412309
 11
41.3683269882
 21
62.5790020295
  0
LINE
  5
381
100
AcDbEntity
  8
0
100
AcDbLine
 62
7
  6
CONTINUOUS
 10
71.5854362834
 20
132.4325613362
 11
76.4596772809
 21
129.6184806472
  0
LINE
  5
382
100
AcDbEntity
  8
0
100
AcDbLine
 62
7
  6
CONTINUOUS
 10
83.9598564735
 20
125.2883481321
 11
88.8483108212
 21
122.4660615472
  0
LINE
  5
383
100
AcDbEntity
  8
0
100
AcDbLine
 62
7
  6
CONTINUOUS
 10
96.3342766636
 20
118.144134928
 11
100.9682426659
 21
115.4687739339
  0
LINE
  5
384
100
AcDbEntity
  8
0
100
AcDbLine
 62
7
  6
CONTINUOUS
 10
101.8801997804
 20
124.9059095141
 11
101.8790682384
 21
129.9730710671
  0
LINE
  5
385
100
AcDbEntity
  8
0
100
AcDbLine
 62
7
  6
CONTINUOUS
 10
51.5036852848
 20
53.2645678386
 11
52.7066126539
 21
53.9621545904
  0
LINE
  5
386
100
AcDbEntity
  8
0
100
AcDbLine
 62
7
  6
CONTINUOUS
 10
60.4141900703
 20
57.7611926184
 11
61.4182774857
 21
58.341198228
  0
LINE
  5
387
100
AcDbEntity
  8
0
100
AcDbLine
 62
7
  6
CONTINUOUS
 10
55.4622886506
 20
54.0869737037
 11
60.4120153466
 21
56.9461562863
  0
LINE
  5
388
100
AcDbEntity
  8
0
100
AcDbLine
 62
7
  6
CONTINUOUS
 10
62.9264069347
 20
57.5766337464
 11
61.4209991356
 21
56.7070431562
  0
LINE
  5
389
100
AcDbEntity
  8
0
100
AcDbLine
 62
7
  6
CONTINUOUS
 10
62.9406511823
 20
57.1766106361
 11
72.7619950753
 21
62.8498562759
  0
LINE
  5
38A
100
AcDbEntity
  8
0
100
AcDbLine
 62
7
  6
CONTINUOUS
 10
52.7044014684
 20
53.3103976852
 11
55.4644633743
 21
54.9020100359
  0
LINE
  5
38B
100
AcDbEntity
  8
0
100
AcDbLine
 62
7
  6
CONTINUOUS
 10
107.706542729
 20
118.3074444647
 11
106.9287220314
 21
118.7565092947
  0
LINE
  5
38C
100
AcDbEntity
  8
0
100
AcDbLine
 62
7
  6
CONTINUOUS
 10
72.2523229868
 20
139.1527631964
 11
72.9594327119
 21
138.7445224419
  0
LINE
  5
38D
100
AcDbEntity
  8
0
100
AcDbLine
 62
7
  6
CONTINUOUS
 10
107.4663872991
 20
118.8223736213
 11
108.0323301217
 21
118.4956337722
  0
LINE
  5
38E
100
AcDbEntity
  8
0
100
AcDbLine
 62
7
  6
CONTINUOUS
 10
72.2520495237
 20
140.3773588984
 11
72.9591592489
 21
139.9691181439
  0
LINE
  5
38F
100
AcDbEntity
  8
0
100
AcDbLine
 62
7
  6
CONTINUOUS
 10
107.4661138361
 20
120.0469693233
 11
109.0924662039
 21
119.1080155879
  0
LINE
  5
390
100
AcDbEntity
  8
0
100
AcDbLine
 62
7
  6
CONTINUOUS
 10
94.9178255921
 20
127.3735983953
 11
88.8366819559
 21
130.8844688841
  0
LINE
  5
391
100
AcDbEntity
  8
0
100
AcDbLine
 62
7
  6
CONTINUOUS
 10
82.543405402
 20
134.5178115994
 11
76.4622617658
 21
138.0286820882
  0
LINE
  5
392
100
AcDbEntity
  8
0
100
AcDbLine
 62
7
  6
CONTINUOUS
 10
70.168985212
 20
141.6620248035
 11
64.0878415757
 21
145.1728952923
  0
LINE
  5
393
100
AcDbEntity
  8
0
100
AcDbLine
 62
7
  6
CONTINUOUS
 10
107.4663872991
 20
118.8223736213
 11
107.4661138361
 21
120.0469693233
  0
LINE
  5
394
100
AcDbEntity
  8
0
100
AcDbLine
 62
7
  6
CONTINUOUS
 10
107.4878946833
 20
125.9868398466
 11
107.4878998316
 21
122.8433085131
  0
LINE
  5
395
100
AcDbEntity
  8
0
100
AcDbLine
 62
7
  6
CONTINUOUS
 10
109.6092238587
 20
124.7621175831
 11
109.6092290071
 21
121.6185862495
  0
LINE
  5
396
100
AcDbEntity
  8
0
100
AcDbLine
 62
7
  6
CONTINUOUS
 10
109.6375481435
 20
70.8391119153
 11
109.6375056625
 21
63.4922997552
  0
LINE
  5
397
100
AcDbEntity
  8
0
100
AcDbLine
 62
7
  6
CONTINUOUS
 10
111.4069750382
 20
74.3124536561
 11
111.4053077365
 21
71.8597086708
  0
LINE
  5
398
100
AcDbEntity
  8
0
100
AcDbLine
 62
7
  6
CONTINUOUS
 10
109.7958555574
 20
121.7257709251
 11
109.7923819707
 21
121.3907254014
  0
LINE
  5
399
100
AcDbEntity
  8
0
100
AcDbLine
 62
7
  6
CONTINUOUS
 10
111.9137111461
 20
120.1660031378
 11
111.9426648813
 21
122.9587415846
  0
LINE
  5
39A
100
AcDbEntity
  8
0
100
AcDbLine
 62
7
  6
CONTINUOUS
 10
128.6722403217
 20
122.527183163
 11
126.913842918
 21
119.4761976293
  0
LINE
  5
39B
100
AcDbEntity
  8
0
100
AcDbLine
 62
7
  6
CONTINUOUS
 10
51.2100495924
 20
48.3525576806
 11
50.5691949912
 21
47.9823715217
  0
LINE
  5
39C
100
AcDbEntity
  8
0
100
AcDbLine
 62
7
  6
CONTINUOUS
 10
52.2587279597
 20
48.1060546261
 11
50.4863220864
 21
47.0822340571
  0
LINE
  5
39D
100
AcDbEntity
  8
0
100
AcDbLine
 62
7
  6
CONTINUOUS
 10
62.9415262642
 20
53.2579043899
 11
62.9273731708
 21
53.2497289328
  0
LINE
  5
39E
100
AcDbEntity
  8
0
100
AcDbLine
 62
7
  6
CONTINUOUS
 10
53.2692645519
 20
47.5855768682
 11
52.8538529187
 21
47.3456166079
  0
LINE
  5
39F
100
AcDbEntity
  8
0
100
AcDbLine
 62
7
  6
CONTINUOUS
 10
76.297543701
 20
60.8086525033
 11
66.9443350311
 21
55.4058226174
  0
LINE
  5
3A0
100
AcDbEntity
  8
0
100
AcDbLine
 62
7
  6
CONTINUOUS
 10
60.3475625935
 20
51.5237221303
 11
59.1393448419
 21
50.8258017474
  0
LINE
  5
3A1
100
AcDbEntity
  8
0
100
AcDbLine
 62
7
  6
CONTINUOUS
 10
61.7237571272
 20
49.7432939993
 11
59.9559975929
 21
48.7221573626
  0
LINE
  5
3A2
100
AcDbEntity
  8
0
100
AcDbLine
 62
7
  6
CONTINUOUS
 10
125.8443186648
 20
91.509113697
 11
124.7836655383
 21
90.8967489842
  0
LINE
  5
3A3
100
AcDbEntity
  8
0
100
AcDbLine
 62
7
  6
CONTINUOUS
 10
75.4342960599
 20
140.1741137332
 11
77.8059616136
 21
138.8048629639
  0
LINE
  5
3A4
100
AcDbEntity
  8
0
100
AcDbLine
 62
7
  6
CONTINUOUS
 10
101.8801997804
 20
124.9059095141
 11
108.8808411019
 21
120.8641787988
  0
LINE
  5
3A5
100
AcDbEntity
  8
0
100
AcDbLine
 62
7
  6
CONTINUOUS
 10
65.5020492031
 20
145.9898046017
 11
71.5831928394
 21
142.4789341128
  0
LINE
  5
3A6
100
AcDbEntity
  8
0
100
AcDbLine
 62
7
  6
CONTINUOUS
 10
77.8764693932
 20
138.8455913975
 11
83.9576130295
 21
135.3347209087
  0
LINE
  5
3A7
100
AcDbEntity
  8
0
100
AcDbLine
 62
7
  6
CONTINUOUS
 10
90.2508895833
 20
131.7013781934
 11
96.3320332195
 21
128.1905077046
  0
LINE
  5
3A8
100
AcDbEntity
  8
0
100
AcDbLine
 62
7
  6
CONTINUOUS
 10
111.9137111461
 20
120.1660031378
 11
109.7923819707
 21
121.3907254014
  0
LINE
  5
3A9
100
AcDbEntity
  8
0
100
AcDbLine
 62
7
  6
CONTINUOUS
 10
75.2854273835
 20
141.312874222
 11
73.164098208
 21
142.5375964855
  0
LINE
  5
3AA
100
AcDbEntity
  8
0
100
AcDbLine
 62
7
  6
CONTINUOUS
 10
109.6092290071
 20
121.6185862495
 11
107.4878998316
 21
122.8433085131
  0
LINE
  5
3AB
100
AcDbEntity
  8
0
100
AcDbLine
 62
7
  6
CONTINUOUS
 10
72.9809452445
 20
142.7654573337
 11
70.859616069
 21
143.9901795972
  0
LINE
  5
3AC
100
AcDbEntity
  8
0
100
AcDbLine
 62
7
  6
CONTINUOUS
 10
109.6092238587
 20
124.7621175831
 11
107.4878946833
 21
125.9868398466
  0
LINE
  5
3AD
100
AcDbEntity
  8
0
100
AcDbLine
 62
7
  6
CONTINUOUS
 10
72.9809400961
 20
145.9089886672
 11
70.8596109207
 21
147.1337109308
  0
LINE
  5
3AE
100
AcDbEntity
  8
0
100
AcDbLine
 62
7
  6
CONTINUOUS
 10
75.4331645179
 20
145.2412752862
 11
83.4942153846
 21
140.5873306846
  0
LINE
  5
3AF
100
AcDbEntity
  8
0
100
AcDbLine
 62
7
  6
CONTINUOUS
 10
101.8790682384
 20
129.9730710671
 11
108.1381410008
 21
126.3594754733
  0
LINE
  5
3B0
100
AcDbEntity
  8
0
100
AcDbLine
 62
7
  6
CONTINUOUS
 10
115.9924107688
 20
139.5069631809
 11
115.9928659898
 21
137.4684367117
  0
LINE
  5
3B1
100
AcDbEntity
  8
0
100
AcDbLine
 62
7
  6
CONTINUOUS
 10
114.3891545599
 20
145.0749568202
 11
114.3891560464
 21
147.930210661
  0
LINE
  5
3B2
100
AcDbEntity
  8
0
100
AcDbLine
 62
7
  6
CONTINUOUS
 10
116.0155069277
 20
144.1360030848
 11
116.0155045247
 21
139.5202317572
  0
LINE
  5
3B3
100
AcDbEntity
  8
0
100
AcDbLine
 62
7
  6
CONTINUOUS
 10
66.9452101129
 20
51.4871163711
 11
67.2131751632
 21
51.6419049184
  0
LINE
  5
3B4
100
AcDbEntity
  8
0
100
AcDbLine
 62
7
  6
CONTINUOUS
 10
111.4069750383
 20
74.3124534037
 11
124.8427740613
 21
82.0735693013
  0
LINE
  5
3B5
100
AcDbEntity
  8
0
100
AcDbLine
 62
7
  6
CONTINUOUS
 10
111.4053077365
 20
71.8597086708
 11
109.6375481435
 21
70.8391119153
  0
LINE
  5
3B6
100
AcDbEntity
  8
0
100
AcDbLine
 62
7
  6
CONTINUOUS
 10
126.2016142927
 20
119.0669855516
 11
124.7837995012
 21
119.8855427849
  0
LINE
  5
3B7
100
AcDbEntity
  8
0
100
AcDbLine
 62
7
  6
CONTINUOUS
 10
104.232261565
 20
133.4017494568
 11
112.2933124317
 21
128.7478048553
  0
LINE
  5
3B8
100
AcDbEntity
  8
0
100
AcDbLine
 62
7
  6
CONTINUOUS
 10
119.9046097784
 20
140.6659249412
 11
119.9046089282
 21
139.0329196161
  0
LINE
  5
3B9
100
AcDbEntity
  8
0
100
AcDbLine
 62
7
  6
CONTINUOUS
 10
122.8744697739
 20
137.3183084471
 11
122.874470624
 21
138.9513137722
  0
LINE
  5
3BA
100
AcDbEntity
  8
0
100
AcDbLine
 62
7
  6
CONTINUOUS
 10
124.8447790784
 20
73.0948967994
 11
128.6722403217
 21
75.304669388
  0
LINE
  5
3BB
100
AcDbEntity
  8
0
100
AcDbLine
 62
7
  6
CONTINUOUS
 10
96.2161016673
 20
142.8682436064
 11
110.2153151869
 21
134.7859767577
  0
LINE
  5
3BC
100
AcDbEntity
  8
0
100
AcDbLine
 62
7
  6
CONTINUOUS
 10
124.8447790784
 20
73.0948967994
 11
124.8427740613
 21
82.0735693013
  0
LINE
  5
3BD
100
AcDbEntity
  8
0
100
AcDbLine
 62
7
  6
CONTINUOUS
 10
124.3594026409
 20
141.1558931723
 11
124.359399389
 21
134.9096478037
  0
LINE
  5
3BE
100
AcDbEntity
  8
0
100
AcDbLine
 62
7
  6
CONTINUOUS
 10
124.7836655383
 20
90.8967489842
 11
124.7836653073
 21
119.8853103491
  0
LINE
  5
3BF
100
AcDbEntity
  8
0
100
AcDbLine
 62
7
  6
CONTINUOUS
 10
125.6321968943
 20
134.1748144456
 11
125.6321967867
 21
133.9681574957
  0
LINE
  5
3C0
100
AcDbEntity
  8
0
100
AcDbLine
 62
7
  6
CONTINUOUS
 10
127.3994428165
 20
142.9110507091
 11
127.3994428165
 21
136.664807218
  0
LINE
  5
3C1
100
AcDbEntity
  8
0
100
AcDbLine
 62
7
  6
CONTINUOUS
 10
128.6722403217
 20
75.304669388
 11
128.6722403217
 21
91.2965601402
  0
LINE
  5
3C2
100
AcDbEntity
  8
0
100
AcDbLine
 62
7
  6
CONTINUOUS
 10
128.6722403217
 20
122.527183163
 11
128.6722403217
 21
135.9299738599
  0
LINE
  5
3C3
100
AcDbEntity
  8
0
100
AcDbLine
 62
7
  6
CONTINUOUS
 10
109.6375056625
 20
63.4922997552
 11
67.2160009483
 21
38.9877493315
  0
LINE
  5
3C4
100
AcDbEntity
  8
0
100
AcDbLine
 62
7
  6
CONTINUOUS
 10
121.7182784297
 20
134.1629430786
 11
115.9928659898
 21
137.4684367117
  0
LINE
  5
3C5
100
AcDbEntity
  8
0
100
AcDbLine
 62
7
  6
CONTINUOUS
 10
96.4766375758
 20
148.7358815364
 11
88.9812744892
 21
153.0632335343
  0
LINE
  5
3C6
100
AcDbEntity
  8
0
100
AcDbLine
 62
7
  6
CONTINUOUS
 10
123.4877738553
 20
135.179611183
 11
115.9924107688
 21
139.5069631809
  0
LINE
  5
3C7
100
AcDbEntity
  8
0
100
AcDbLine
 62
7
  6
CONTINUOUS
 10
96.4761823547
 20
150.7744080057
 11
88.9808192682
 21
155.1017600036
  0
LINE
  5
3C8
100
AcDbEntity
  8
0
100
AcDbLine
 62
7
  6
CONTINUOUS
 10
125.6321967867
 20
133.9681574957
 11
116.0155045247
 21
139.5202317572
  0
LINE
  5
3C9
100
AcDbEntity
  8
0
100
AcDbLine
 62
7
  6
CONTINUOUS
 10
96.4992761106
 20
150.7876765819
 11
86.8825838486
 21
156.3397508434
  0
LINE
  5
3CA
100
AcDbEntity
  8
0
100
AcDbLine
 62
7
  6
CONTINUOUS
 10
88.1553814615
 20
155.8115744352
 11
86.8825839562
 21
156.5464077933
  0
LINE
  5
3CB
100
AcDbEntity
  8
0
100
AcDbLine
 62
7
  6
CONTINUOUS
 10
124.359399389
 20
134.9096478037
 11
125.6321968943
 21
134.1748144456
  0
LINE
  5
3CC
100
AcDbEntity
  8
0
100
AcDbLine
 62
7
  6
CONTINUOUS
 10
99.5393196457
 20
150.504111299
 11
100.1050074258
 21
150.1775186954
  0
LINE
  5
3CD
100
AcDbEntity
  8
0
100
AcDbLine
 62
7
  6
CONTINUOUS
 10
126.2016142927
 20
119.0669855516
 11
125.5632549813
 21
120.3332248233
  0
LINE
  5
3CE
100
AcDbEntity
  8
0
100
AcDbLine
 62
7
  6
CONTINUOUS
 10
127.3994428165
 20
136.664807218
 11
128.6722403217
 21
135.9299738599
  0
LINE
  5
3CF
100
AcDbEntity
  8
0
100
AcDbLine
 62
7
  6
CONTINUOUS
 10
116.0155069277
 20
144.1360030848
 11
114.3891545599
 21
145.0749568202
  0
LINE
  5
3D0
100
AcDbEntity
  8
0
100
AcDbLine
 62
7
  6
CONTINUOUS
 10
98.1256308815
 20
154.4644941742
 11
96.4992785137
 21
155.4034479096
  0
LINE
  5
3D1
100
AcDbEntity
  8
0
100
AcDbLine
 62
7
  6
CONTINUOUS
 10
115.5104690586
 20
147.2828349371
 11
114.3891560464
 21
147.930210661
  0
LINE
  5
3D2
100
AcDbEntity
  8
0
100
AcDbLine
 62
7
  6
CONTINUOUS
 10
98.125632368
 20
157.3197480149
 11
97.0043193559
 21
157.9671237388
  0
LINE
  5
3D3
100
AcDbEntity
  8
0
100
AcDbLine
 62
7
  6
CONTINUOUS
 10
118.5505087044
 20
149.0379921677
 11
117.4291956919
 21
149.6853678918
  0
LINE
  5
3D4
100
AcDbEntity
  8
0
100
AcDbLine
 62
7
  6
CONTINUOUS
 10
101.1656720135
 20
159.0749052457
 11
100.044359001
 21
159.7222809698
  0
ARC
  5
3D5
100
AcDbEntity
  8
0
100
AcDbCircle
 62
7
  6
CONTINUOUS
 10
23.4909241269
 20
10.8818936224
 40
164.4332210853
100
AcDbArc
 50
63.4440554121
 51
63.8909268877
  0
ARC
  5
3D6
100
AcDbEntity
  8
0
100
AcDbCircle
 62
7
  6
CONTINUOUS
 10
27.5369598456
 20
19.3539595968
 40
155.0451068283
100
AcDbArc
 50
63.8557358228
 51
66.9849544548
  0
ARC
  5
3D7
100
AcDbEntity
  8
0
100
AcDbCircle
 62
7
  6
CONTINUOUS
 10
68.2939269467
 20
140.8444275503
 40
78.1613625985
100
AcDbArc
 50
229.800613111
 51
231.3676639083
  0
ARC
  5
3D8
100
AcDbEntity
  8
0
100
AcDbCircle
 62
7
  6
CONTINUOUS
 10
67.957330079
 20
140.3115095471
 40
77.3962984895
100
AcDbArc
 50
229.7737921096
 51
231.3561355506
  0
ARC
  5
3D9
100
AcDbEntity
  8
0
100
AcDbCircle
 62
7
  6
CONTINUOUS
 10
46.0087327462
 20
59.6255248593
 40
3.8073722059
100
AcDbArc
 50
14.035518678
 51
14.3516625247
  0
ARC
  5
3DA
100
AcDbEntity
  8
0
100
AcDbCircle
 62
7
  6
CONTINUOUS
 10
48.5082504347
 20
58.8286510681
 40
2.0547310427
100
AcDbArc
 50
55.2717756614
 51
55.7502794132
  0
ARC
  5
3DB
100
AcDbEntity
  8
0
100
AcDbCircle
 62
7
  6
CONTINUOUS
 10
86.0856784426
 20
177.5726308493
 40
110.8550166842
100
AcDbArc
 50
241.3546764631
 51
244.0360704545
  0
ARC
  5
3DC
100
AcDbEntity
  8
0
100
AcDbCircle
 62
7
  6
CONTINUOUS
 10
82.2703896938
 20
171.9239013478
 40
102.9382195656
100
AcDbArc
 50
239.20811785
 51
241.1371244497
  0
ARC
  5
3DD
100
AcDbEntity
  8
0
100
AcDbCircle
 62
7
  6
CONTINUOUS
 10
80.6547844176
 20
169.198976797
 40
99.7703587159
100
AcDbArc
 50
238.730088809
 51
239.2040466889
  0
ARC
  5
3DE
100
AcDbEntity
  8
0
100
AcDbCircle
 62
7
  6
CONTINUOUS
 10
79.5908095142
 20
167.452307079
 40
97.7251472662
100
AcDbArc
 50
237.9737582087
 51
238.731711962
  0
ARC
  5
3DF
100
AcDbEntity
  8
0
100
AcDbCircle
 62
7
  6
CONTINUOUS
 10
78.3065336183
 20
163.8372837282
 40
95.0606053629
100
AcDbArc
 50
237.2068250134
 51
237.6678746949
  0
ARC
  5
3E0
100
AcDbEntity
  8
0
100
AcDbCircle
 62
7
  6
CONTINUOUS
 10
76.835129615
 20
161.5695126702
 40
92.3573225374
100
AcDbArc
 50
235.9500389119
 51
237.2122004492
  0
ARC
  5
3E1
100
AcDbEntity
  8
0
100
AcDbCircle
 62
7
  6
CONTINUOUS
 10
154.528910446
 20
295.0545005157
 40
219.230239745
100
AcDbArc
 50
244.6858917835
 51
245.2815918185
  0
ARC
  5
3E2
100
AcDbEntity
  8
0
100
AcDbCircle
 62
7
  6
CONTINUOUS
 10
152.2095345064
 20
253.5986529122
 40
215.755769846
100
AcDbArc
 50
245.5593967168
 51
246.7219799462
  0
ARC
  5
3E3
100
AcDbEntity
  8
0
100
AcDbCircle
 62
7
  6
CONTINUOUS
 10
151.7170387082
 20
248.5644540135
 40
214.5361040375
100
AcDbArc
 50
245.5560918836
 51
246.7252847794
  0
ARC
  5
3E4
100
AcDbEntity
  8
0
100
AcDbCircle
 62
7
  6
CONTINUOUS
 10
151.9807769508
 20
289.6768203326
 40
213.2794069054
100
AcDbArc
 50
243.293930187
 51
244.6869834936
  0
ARC
  5
3E5
100
AcDbEntity
  8
0
100
AcDbCircle
 62
7
  6
CONTINUOUS
 10
149.8543541932
 20
284.4864673267
 40
207.0066234081
100
AcDbArc
 50
242.4637566593
 51
244.4104137882
  0
ARC
  5
3E6
100
AcDbEntity
  8
0
100
AcDbCircle
 62
7
  6
CONTINUOUS
 10
148.7177884846
 20
283.1393313809
 40
205.9728823227
100
AcDbArc
 50
242.449477319
 51
243.2874956654
  0
ARC
  5
3E7
100
AcDbEntity
  8
0
100
AcDbCircle
 62
7
  6
CONTINUOUS
 10
143.5372624156
 20
273.3751659593
 40
194.9192093856
100
AcDbArc
 50
240.3674583677
 51
241.6354666705
  0
ARC
  5
3E8
100
AcDbEntity
  8
0
100
AcDbCircle
 62
7
  6
CONTINUOUS
 10
142.7269306733
 20
271.0782455189
 40
191.8212042192
100
AcDbArc
 50
240.0045332384
 51
241.7768427265
  0
ARC
  5
3E9
100
AcDbEntity
  8
0
100
AcDbCircle
 62
7
  6
CONTINUOUS
 10
140.9838627905
 20
268.8463683285
 40
189.7202232369
100
AcDbArc
 50
240.0010553554
 51
240.361494582
  0
ARC
  5
3EA
100
AcDbEntity
  8
0
100
AcDbCircle
 62
7
  6
CONTINUOUS
 10
139.2708723978
 20
265.8832819747
 40
186.297620032
100
AcDbArc
 50
239.059438935
 51
240.0016744721
  0
ARC
  5
3EB
100
AcDbEntity
  8
0
100
AcDbCircle
 62
7
  6
CONTINUOUS
 10
139.7781824286
 20
207.1445837965
 40
181.9106593865
100
AcDbArc
 50
241.2797607584
 51
241.455220688
  0
ARC
  5
3EC
100
AcDbEntity
  8
0
100
AcDbCircle
 62
7
  6
CONTINUOUS
 10
137.6237873291
 20
262.2922552889
 40
181.660745981
100
AcDbArc
 50
238.1756268318
 51
240.0131312146
  0
ARC
  5
3ED
100
AcDbEntity
  8
0
100
AcDbCircle
 62
7
  6
CONTINUOUS
 10
136.6640523999
 20
261.5196985599
 40
181.2146769441
100
AcDbArc
 50
238.1833803164
 51
239.0570177602
  0
ARC
  5
3EE
100
AcDbEntity
  8
0
100
AcDbCircle
 62
7
  6
CONTINUOUS
 10
134.7095321397
 20
202.2007432831
 40
176.5086063813
100
AcDbArc
 50
238.5029461106
 51
241.4997148088
  0
ARC
  5
3EF
100
AcDbEntity
  8
0
100
AcDbCircle
 62
7
  6
CONTINUOUS
 10
132.8272397805
 20
255.3804641632
 40
173.9749899489
100
AcDbArc
 50
237.2538073744
 51
237.4276791679
  0
ARC
  5
3F0
100
AcDbEntity
  8
0
100
AcDbCircle
 62
7
  6
CONTINUOUS
 10
129.8892948881
 20
250.8485963795
 40
168.5741615971
100
AcDbArc
 50
234.9268700979
 51
237.2604896388
  0
ARC
  5
3F1
100
AcDbEntity
  8
0
100
AcDbCircle
 62
7
  6
CONTINUOUS
 10
125.1110972253
 20
243.9464442561
 40
160.1796616934
100
AcDbArc
 50
234.0960868194
 51
234.9069979302
  0
ARC
  5
3F2
100
AcDbEntity
  8
0
100
AcDbCircle
 62
7
  6
CONTINUOUS
 10
127.2043154025
 20
186.1899578302
 40
157.4659352554
100
AcDbArc
 50
236.4864350781
 51
236.674067767
  0
ARC
  5
3F3
100
AcDbEntity
  8
0
100
AcDbCircle
 62
7
  6
CONTINUOUS
 10
107.4872909311
 20
192.8292041746
 40
150.3743722073
100
AcDbArc
 50
247.6260132046
 51
248.142783047
  0
ARC
  5
3F4
100
AcDbEntity
  8
0
100
AcDbCircle
 62
7
  6
CONTINUOUS
 10
117.4688645672
 20
231.941966267
 40
145.903083393
100
AcDbArc
 50
232.2667756417
 51
233.7627335253
  0
ARC
  5
3F5
100
AcDbEntity
  8
0
100
AcDbCircle
 62
7
  6
CONTINUOUS
 10
94.2894468698
 20
188.9107536953
 40
130.5233343995
100
AcDbArc
 50
247.3819655355
 51
248.5001468732
  0
ARC
  5
3F6
100
AcDbEntity
  8
0
100
AcDbCircle
 62
7
  6
CONTINUOUS
 10
93.9925653527
 20
187.9711405459
 40
129.3918990697
100
AcDbArc
 50
247.3432425558
 51
248.442664147
  0
ARC
  5
3F7
100
AcDbEntity
  8
0
100
AcDbCircle
 62
7
  6
CONTINUOUS
 10
93.6763452383
 20
193.93321496
 40
128.8954317855
100
AcDbArc
 50
246.9287219244
 51
248.5073219993
  0
ARC
  5
3F8
100
AcDbEntity
  8
0
100
AcDbCircle
 62
7
  6
CONTINUOUS
 10
93.1054161059
 20
192.8321112764
 40
127.4274872328
100
AcDbArc
 50
247.0473052913
 51
247.3344674238
  0
ARC
  5
3F9
100
AcDbEntity
  8
0
100
AcDbCircle
 62
7
  6
CONTINUOUS
 10
93.1051076207
 20
181.5917727615
 40
127.4202062535
100
AcDbArc
 50
247.0433120427
 51
247.3344729402
  0
ARC
  5
3FA
100
AcDbEntity
  8
0
100
AcDbCircle
 62
7
  6
CONTINUOUS
 10
92.2902273705
 20
184.1106711629
 40
125.3235583883
100
AcDbArc
 50
245.5396132237
 51
247.3816975884
  0
ARC
  5
3FB
100
AcDbEntity
  8
0
100
AcDbCircle
 62
7
  6
CONTINUOUS
 10
91.9147581935
 20
193.0188645996
 40
124.391538743
100
AcDbArc
 50
245.6550383861
 51
247.3444934981
  0
ARC
  5
3FC
100
AcDbEntity
  8
0
100
AcDbCircle
 62
7
  6
CONTINUOUS
 10
91.8966383694
 20
182.9219241761
 40
124.3402367455
100
AcDbArc
 50
245.6305831692
 51
247.3447946186
  0
ARC
  5
3FD
100
AcDbEntity
  8
0
100
AcDbCircle
 62
7
  6
CONTINUOUS
 10
91.8063665066
 20
182.7962669337
 40
123.7742326228
100
AcDbArc
 50
245.4918813666
 51
247.3543877074
  0
ARC
  5
3FE
100
AcDbEntity
  8
0
100
AcDbCircle
 62
7
  6
CONTINUOUS
 10
90.7442055779
 20
190.4142842646
 40
121.5360214815
100
AcDbArc
 50
245.4753418113
 51
245.6516358257
  0
ARC
  5
3FF
100
AcDbEntity
  8
0
100
AcDbCircle
 62
7
  6
CONTINUOUS
 10
90.728141388
 20
180.324205671
 40
121.4918215013
100
AcDbArc
 50
245.4753219419
 51
245.6270567676
  0
SPLINE
  5
400
100
AcDbEntity
  8
0
100
AcDbSpline
 62
7
  6
CONTINUOUS
 70
0
 71
3
 72
9
 73
5
 74
0
 42
0.0000001
 43
0.0000001
 44
0.0000000001
 40
0.0
 40
0.0
 40
0.0
 40
0.0
 40
0.246553007
 40
1.0
 40
1.0
 40
1.0
 40
1.0
 10
55.0724185138
 20
44.6696894564
 30
0.0
 10
56.0545091713
 20
44.1698622889
 30
0.0
 10
60.0549430957
 20
42.1764238054
 30
0.0
 10
64.1218217474
 20
40.3167599821
 30
0.0
 10
67.2160009483
 20
38.9877493315
 30
0.0
  0
SPLINE
  5
401
100
AcDbEntity
  8
0
100
AcDbSpline
 62
7
  6
CONTINUOUS
 70
0
 71
3
 72
9
 73
5
 74
0
 42
0.0000001
 43
0.0000001
 44
0.0000000001
 40
0.0
 40
0.0
 40
0.0
 40
0.0
 40
0.2441472732
 40
1.0
 40
1.0
 40
1.0
 40
1.0
 10
36.4098084343
 20
59.8902957299
 30
0.0
 10
36.4427176894
 20
59.9093036614
 30
0.0
 10
36.5734405265
 20
59.9941532016
 30
0.0
 10
36.6857553355
 20
60.1061633205
 30
0.0
 10
36.7576690144
 20
60.1992844759
 30
0.0
  0
SPLINE
  5
402
100
AcDbEntity
  8
0
100
AcDbSpline
 62
7
  6
CONTINUOUS
 70
0
 71
3
 72
15
 73
11
 74
0
 42
0.0000001
 43
0.0000001
 44
0.0000000001
 40
0.0
 40
0.0
 40
0.0
 40
0.0
 40
0.2018548693
 40
0.2622911402
 40
0.3260370268
 40
0.4611949036
 40
0.6021828119
 40
0.7428838166
 40
0.8772176605
 40
1.0
 40
1.0
 40
1.0
 40
1.0
 10
62.0584107652
 20
46.3703854925
 30
0.0
 10
61.5885875229
 20
46.3512901833
 30
0.0
 10
60.9725259884
 20
46.5876294117
 30
0.0
 10
60.349030253
 20
47.0149698463
 30
0.0
 10
59.8840690113
 20
47.4033852367
 30
0.0
 10
59.3470239899
 20
47.9898228863
 30
0.0
 10
58.8047877194
 20
48.799528732
 30
0.0
 10
58.3870874944
 20
49.6780773322
 30
0.0
 10
58.1202812671
 20
50.5693017967
 30
0.0
 10
58.0504596404
 20
51.1689004594
 30
0.0
 10
58.0503957706
 20
51.4549159605
 30
0.0
  0
SPLINE
  5
403
100
AcDbEntity
  8
0
100
AcDbSpline
 62
7
  6
CONTINUOUS
 70
0
 71
3
 72
11
 73
7
 74
0
 42
0.0000001
 43
0.0000001
 44
0.0000000001
 40
0.0
 40
0.0
 40
0.0
 40
0.0
 40
0.2284211061
 40
0.4653671448
 40
0.7208098288
 40
1.0
 40
1.0
 40
1.0
 40
1.0
 10
61.5220268155
 20
45.8117700583
 30
0.0
 10
61.6617260989
 20
45.8924600674
 30
0.0
 10
61.9222539571
 20
46.1028056023
 30
0.0
 10
62.2083173163
 20
46.5320535618
 30
0.0
 10
62.3813592171
 20
47.054524409
 30
0.0
 10
62.4174728579
 20
47.4334607734
 30
0.0
 10
62.4185136128
 20
47.6306430881
 30
0.0
  0
SPLINE
  5
404
100
AcDbEntity
  8
0
100
AcDbSpline
 62
7
  6
CONTINUOUS
 70
0
 71
3
 72
11
 73
7
 74
0
 42
0.0000001
 43
0.0000001
 44
0.0000000001
 40
0.0
 40
0.0
 40
0.0
 40
0.0
 40
0.2128479197
 40
0.4585284298
 40
0.7261615041
 40
1.0
 40
1.0
 40
1.0
 40
1.0
 10
49.0701878885
 20
53.5938229934
 30
0.0
 10
48.7762532785
 20
53.6772229323
 30
0.0
 10
48.1762780234
 20
53.9747718072
 30
0.0
 10
47.3764216085
 20
54.6535345256
 30
0.0
 10
46.6666800087
 20
55.5407262509
 30
0.0
 10
46.291928038
 20
56.2270489814
 30
0.0
 10
46.1353754965
 20
56.5876169435
 30
0.0
  0
SPLINE
  5
405
100
AcDbEntity
  8
0
100
AcDbSpline
 62
7
  6
CONTINUOUS
 70
0
 71
3
 72
11
 73
7
 74
0
 42
0.0000001
 43
0.0000001
 44
0.0000000001
 40
0.0
 40
0.0
 40
0.0
 40
0.0
 40
0.2195742137
 40
0.4535357492
 40
0.7122721552
 40
1.0
 40
1.0
 40
1.0
 40
1.0
 10
48.3906647672
 20
52.5187456091
 30
0.0
 10
48.5200762681
 20
52.5934923011
 30
0.0
 10
48.762050194
 20
52.795708559
 30
0.0
 10
49.0221200738
 20
53.2124881439
 30
0.0
 10
49.1785539359
 20
53.7251277993
 30
0.0
 10
49.2107897001
 20
54.0982163765
 30
0.0
 10
49.2117331787
 20
54.2940479462
 30
0.0
  0
SPLINE
  5
406
100
AcDbEntity
  8
0
100
AcDbSpline
 62
7
  6
CONTINUOUS
 70
0
 71
3
 72
11
 73
7
 74
0
 42
0.0000001
 43
0.0000001
 44
0.0000000001
 40
0.0
 40
0.0
 40
0.0
 40
0.0
 40
0.2274809731
 40
0.4655142931
 40
0.7213979821
 40
1.0
 40
1.0
 40
1.0
 40
1.0
 10
31.9898901362
 20
66.1452556699
 30
0.0
 10
32.0646578611
 20
66.1884783461
 30
0.0
 10
32.2066761641
 20
66.2973206291
 30
0.0
 10
32.3789454242
 20
66.5131748891
 30
0.0
 10
32.5097694875
 20
66.7777698133
 30
0.0
 10
32.5656470724
 20
66.9739681089
 30
0.0
 10
32.5870712638
 20
67.0775455697
 30
0.0
  0
SPLINE
  5
407
100
AcDbEntity
  8
0
100
AcDbSpline
 62
7
  6
CONTINUOUS
 70
0
 71
3
 72
11
 73
7
 74
0
 42
0.0000001
 43
0.0000001
 44
0.0000000001
 40
0.0
 40
0.0
 40
0.0
 40
0.0
 40
0.2177660367
 40
0.4508969052
 40
0.7103700115
 40
1.0
 40
1.0
 40
1.0
 40
1.0
 10
122.4395118896
 20
136.3569956514
 30
0.0
 10
122.5087621424
 20
136.3970137518
 30
0.0
 10
122.638436891
 20
136.5058654431
 30
0.0
 10
122.7763980837
 20
136.7315403619
 30
0.0
 10
122.8582997558
 20
137.0095752174
 30
0.0
 10
122.8744697185
 20
137.2119325802
 30
0.0
 10
122.8744697739
 20
137.3183084471
 30
0.0
  0
SPLINE
  5
408
100
AcDbEntity
  8
0
100
AcDbSpline
 62
7
  6
CONTINUOUS
 70
0
 71
3
 72
11
 73
7
 74
0
 42
0.0000001
 43
0.0000001
 44
0.0000000001
 40
0.0
 40
0.0
 40
0.0
 40
0.0
 40
0.2177559888
 40
0.4508995077
 40
0.710473101
 40
1.0
 40
1.0
 40
1.0
 40
1.0
 10
23.8524398388
 20
83.9042428314
 30
0.0
 10
23.8524246344
 20
83.9728164652
 30
0.0
 10
23.8775709537
 20
84.1157893684
 30
0.0
 10
23.9859678879
 20
84.3150450537
 30
0.0
 10
24.157326091
 20
84.4950364259
 30
0.0
 10
24.3005917303
 20
84.5938731788
 30
0.0
 10
24.3795415735
 20
84.6394781244
 30
0.0
  0
SPLINE
  5
409
100
AcDbEntity
  8
0
100
AcDbSpline
 62
7
  6
CONTINUOUS
 70
0
 71
3
 72
11
 73
7
 74
0
 42
0.0000001
 43
0.0000001
 44
0.0000000001
 40
0.0
 40
0.0
 40
0.0
 40
0.0
 40
0.217769675
 40
0.4509190926
 40
0.7104875845
 40
1.0
 40
1.0
 40
1.0
 40
1.0
 10
23.8527096558
 20
82.6959750735
 30
0.0
 10
23.8527248918
 20
82.6274235981
 30
0.0
 10
23.8779178528
 20
82.4845113424
 30
0.0
 10
23.9863334569
 20
82.2853618439
 30
0.0
 10
24.1576679049
 20
82.1054869824
 30
0.0
 10
24.3008961034
 20
82.0067255033
 30
0.0
 10
24.379822031
 20
81.9611586287
 30
0.0
  0
SPLINE
  5
40A
100
AcDbEntity
  8
0
100
AcDbSpline
 62
7
  6
CONTINUOUS
 70
0
 71
3
 72
18
 73
14
 74
0
 42
0.0000001
 43
0.0000001
 44
0.0000000001
 40
0.0
 40
0.0
 40
0.0
 40
0.0
 40
0.0427338278
 40
0.0869407908
 40
0.1354075775
 40
0.190756592
 40
0.253147014
 40
0.3202992474
 40
0.4596554576
 40
0.598953918
 40
0.7356434995
 40
0.8693060217
 40
1.0
 40
1.0
 40
1.0
 40
1.0
 10
54.2820631598
 20
96.7435757118
 30
0.0
 10
54.3081116702
 20
96.7586303683
 30
0.0
 10
54.3581626363
 20
96.7950387087
 30
0.0
 10
54.4179419168
 20
96.8711233375
 30
0.0
 10
54.4538945326
 20
96.9708410077
 30
0.0
 10
54.4592394719
 20
97.0891681594
 30
0.0
 10
54.4348581389
 20
97.2178868865
 30
0.0
 10
54.3690413938
 20
97.3960242841
 30
0.0
 10
54.2452335953
 20
97.6074242491
 30
0.0
 10
54.0657842813
 20
97.8387643065
 30
0.0
 10
53.8692306714
 20
98.0502538385
 30
0.0
 10
53.6635457972
 20
98.2438999209
 30
0.0
 10
53.5212197334
 20
98.3639709618
 30
0.0
 10
53.4494993171
 20
98.4216124267
 30
0.0
  0
SPLINE
  5
40B
100
AcDbEntity
  8
0
100
AcDbSpline
 62
7
  6
CONTINUOUS
 70
0
 71
3
 72
9
 73
5
 74
0
 42
0.0000001
 43
0.0000001
 44
0.0000000001
 40
0.0
 40
0.0
 40
0.0
 40
0.0
 40
0.4487558092
 40
1.0
 40
1.0
 40
1.0
 40
1.0
 10
41.7548543991
 20
103.7995788658
 30
0.0
 10
41.8005729018
 20
103.8259936617
 30
0.0
 10
41.8907225512
 20
103.9116750014
 30
0.0
 10
41.9141561598
 20
104.0345682777
 30
0.0
 10
41.914141676
 20
104.0994278849
 30
0.0
  0
SPLINE
  5
40C
100
AcDbEntity
  8
0
100
AcDbSpline
 62
7
  6
CONTINUOUS
 70
0
 71
3
 72
11
 73
7
 74
0
 42
0.0000001
 43
0.0000001
 44
0.0000000001
 40
0.0
 40
0.0
 40
0.0
 40
0.0
 40
0.2195828514
 40
0.4546902028
 40
0.7132708008
 40
1.0
 40
1.0
 40
1.0
 40
1.0
 10
24.7509531191
 20
70.9474183499
 30
0.0
 10
24.8189958987
 20
70.9867407394
 30
0.0
 10
24.9486759562
 20
71.0888605198
 30
0.0
 10
25.1042381954
 20
71.2940485247
 30
0.0
 10
25.2225952929
 20
71.5489374124
 30
0.0
 10
25.2730991754
 20
71.7384123907
 30
0.0
 10
25.2927272561
 20
71.8391371968
 30
0.0
  0
SPLINE
  5
40D
100
AcDbEntity
  8
0
100
AcDbSpline
 62
7
  6
CONTINUOUS
 70
0
 71
3
 72
18
 73
14
 74
0
 42
0.0000001
 43
0.0000001
 44
0.0000000001
 40
0.0
 40
0.0
 40
0.0
 40
0.0
 40
0.042432569
 40
0.0878450244
 40
0.1367904958
 40
0.1889908356
 40
0.3018644397
 40
0.4247082147
 40
0.5567084631
 40
0.6978832597
 40
0.8483628409
 40
0.9259374061
 40
1.0
 40
1.0
 40
1.0
 40
1.0
 10
38.5845606405
 20
55.5102590823
 30
0.0
 10
38.6472884676
 20
55.5465157279
 30
0.0
 10
38.7956320322
 20
55.5893427318
 30
0.0
 10
39.0304881315
 20
55.5882678192
 30
0.0
 10
39.2776940565
 20
55.5436930318
 30
0.0
 10
39.6274763333
 20
55.4359621148
 30
0.0
 10
40.0750607044
 20
55.2275968738
 30
0.0
 10
40.6091837516
 20
54.8956502293
 30
0.0
 10
41.1443498263
 20
54.4801293539
 30
0.0
 10
41.6662504668
 20
53.9776914245
 30
0.0
 10
42.062349045
 20
53.4821559816
 30
0.0
 10
42.3133692454
 20
53.0305247819
 30
0.0
 10
42.3974762435
 20
52.7817004737
 30
0.0
 10
42.416011012
 20
52.6566066835
 30
0.0
  0
SPLINE
  5
40E
100
AcDbEntity
  8
0
100
AcDbSpline
 62
7
  6
CONTINUOUS
 70
0
 71
3
 72
9
 73
5
 74
0
 42
0.0000001
 43
0.0000001
 44
0.0000000001
 40
0.0
 40
0.0
 40
0.0
 40
0.0
 40
0.2712577504
 40
1.0
 40
1.0
 40
1.0
 40
1.0
 10
58.0503957706
 20
51.4549159605
 30
0.0
 10
58.0503734465
 20
51.554885617
 30
0.0
 10
58.0655378084
 20
51.9227188214
 30
0.0
 10
58.1462634058
 20
52.2919243631
 30
0.0
 10
58.2567392909
 20
52.5367217401
 30
0.0
  0
SPLINE
  5
40F
100
AcDbEntity
  8
0
100
AcDbSpline
 62
7
  6
CONTINUOUS
 70
0
 71
3
 72
9
 73
5
 74
0
 42
0.0000001
 43
0.0000001
 44
0.0000000001
 40
0.0
 40
0.0
 40
0.0
 40
0.0
 40
0.2457838673
 40
1.0
 40
1.0
 40
1.0
 40
1.0
 10
28.4663880102
 20
61.3593426793
 30
0.0
 10
29.2488502447
 20
60.7521461221
 30
0.0
 10
32.4583718184
 20
58.3152979429
 30
0.0
 10
35.7685359057
 20
56.011544648
 30
0.0
 10
38.3110502069
 20
54.3464634677
 30
0.0
  0
SPLINE
  5
410
100
AcDbEntity
  8
0
100
AcDbSpline
 62
7
  6
CONTINUOUS
 70
0
 71
3
 72
19
 73
15
 74
0
 42
0.0000001
 43
0.0000001
 44
0.0000000001
 40
0.0
 40
0.0
 40
0.0
 40
0.0
 40
0.0691162316
 40
0.1433950667
 40
0.2175528421
 40
0.2901305195
 40
0.4295361623
 40
0.5613784956
 40
0.6855310548
 40
0.8011929747
 40
0.8553772735
 40
0.906709849
 40
0.9548501099
 40
1.0
 40
1.0
 40
1.0
 40
1.0
 10
54.9942765993
 20
45.5648215
 30
0.0
 10
54.9835759535
 20
45.6885321041
 30
0.0
 10
54.9020175987
 20
45.9390344754
 30
0.0
 10
54.7021594775
 20
46.2758282834
 30
0.0
 10
54.4549137689
 20
46.587877749
 30
0.0
 10
54.0984647185
 20
46.9589270305
 30
0.0
 10
53.62359083
 20
47.3568620143
 30
0.0
 10
53.0308381068
 20
47.7506449441
 30
0.0
 10
52.4375102283
 20
48.0594658895
 30
0.0
 10
51.9412112121
 20
48.2463239224
 30
0.0
 10
51.5536768732
 20
48.3366128746
 30
0.0
 10
51.2785483123
 20
48.3686213742
 30
0.0
 10
51.0178393566
 20
48.3569096012
 30
0.0
 10
50.8538916833
 20
48.3059541836
 30
0.0
 10
50.7836709234
 20
48.2653497677
 30
0.0
  0
SPLINE
  5
411
100
AcDbEntity
  8
0
100
AcDbSpline
 62
7
  6
CONTINUOUS
 70
0
 71
3
 72
9
 73
5
 74
0
 42
0.0000001
 43
0.0000001
 44
0.0000000001
 40
0.0
 40
0.0
 40
0.0
 40
0.0
 40
0.2425552381
 40
1.0
 40
1.0
 40
1.0
 40
1.0
 10
49.2117529379
 20
54.3121421697
 30
0.0
 10
49.2117428791
 20
54.357186355
 30
0.0
 10
49.2081643484
 20
54.5428851454
 30
0.0
 10
49.1910684047
 20
54.7282447917
 30
0.0
 10
49.1717157915
 20
54.8675698836
 30
0.0
  0
SPLINE
  5
412
100
AcDbEntity
  8
0
100
AcDbSpline
 62
7
  6
CONTINUOUS
 70
0
 71
3
 72
9
 73
5
 74
0
 42
0.0000001
 43
0.0000001
 44
0.0000000001
 40
0.0
 40
0.0
 40
0.0
 40
0.0
 40
0.2370109827
 40
1.0
 40
1.0
 40
1.0
 40
1.0
 10
62.4185355561
 20
47.6487385688
 30
0.0
 10
62.4185098978
 20
47.7470225222
 30
0.0
 10
62.3996358363
 20
48.1616514921
 30
0.0
 10
62.3120767664
 20
48.5717477124
 30
0.0
 10
62.2173018852
 20
48.8736166001
 30
0.0
  0
SPLINE
  5
413
100
AcDbEntity
  8
0
100
AcDbSpline
 62
7
  6
CONTINUOUS
 70
0
 71
3
 72
11
 73
7
 74
0
 42
0.0000001
 43
0.0000001
 44
0.0000000001
 40
0.0
 40
0.0
 40
0.0
 40
0.0
 40
0.2472416435
 40
0.5030933056
 40
0.757340547
 40
1.0
 40
1.0
 40
1.0
 40
1.0
 10
62.2173018852
 20
48.8736166001
 30
0.0
 10
62.1200611304
 20
49.1833395786
 30
0.0
 10
61.8609139912
 20
49.7954061822
 30
0.0
 10
61.3246778456
 20
50.6377231591
 30
0.0
 10
60.6655436947
 20
51.3795784859
 30
0.0
 10
60.1550910215
 20
51.7923705201
 30
0.0
 10
59.8889929161
 20
51.9676014101
 30
0.0
  0
SPLINE
  5
414
100
AcDbEntity
  8
0
100
AcDbSpline
 62
7
  6
CONTINUOUS
 70
0
 71
3
 72
11
 73
7
 74
0
 42
0.0000001
 43
0.0000001
 44
0.0000000001
 40
0.0
 40
0.0
 40
0.0
 40
0.0
 40
0.2919768883
 40
0.5542301431
 40
0.7873794137
 40
1.0
 40
1.0
 40
1.0
 40
1.0
 10
59.8889929161
 20
51.9676014101
 30
0.0
 10
59.6623904124
 20
52.1168236616
 30
0.0
 10
59.2070637638
 20
52.3652128122
 30
0.0
 10
58.4990368184
 20
52.5744788641
 30
0.0
 10
57.8317642351
 20
52.5897136705
 30
0.0
 10
57.4280390923
 20
52.4551976018
 30
0.0
 10
57.256905062
 20
52.3564505509
 30
0.0
  0
SPLINE
  5
415
100
AcDbEntity
  8
0
100
AcDbSpline
 62
7
  6
CONTINUOUS
 70
0
 71
3
 72
9
 73
5
 74
0
 42
0.0000001
 43
0.0000001
 44
0.0000000001
 40
0.0
 40
0.0
 40
0.0
 40
0.0
 40
0.4858617277
 40
1.0
 40
1.0
 40
1.0
 40
1.0
 10
19.8251695982
 20
71.5537536411
 30
0.0
 10
22.457802871
 20
69.3663559302
 30
0.0
 10
28.1367659675
 20
65.1722983342
 30
0.0
 10
34.1982951115
 20
61.5608126204
 30
0.0
 10
37.3868869796
 20
59.8427669308
 30
0.0
  0
SPLINE
  5
416
100
AcDbEntity
  8
0
100
AcDbSpline
 62
7
  6
CONTINUOUS
 70
0
 71
3
 72
11
 73
7
 74
0
 42
0.0000001
 43
0.0000001
 44
0.0000000001
 40
0.0
 40
0.0
 40
0.0
 40
0.0
 40
0.2514138272
 40
0.5138664017
 40
0.7689753362
 40
1.0
 40
1.0
 40
1.0
 40
1.0
 10
37.3868869796
 20
59.8427669308
 30
0.0
 10
37.6831054379
 20
59.9420305051
 30
0.0
 10
38.3131970855
 20
60.0746749509
 30
0.0
 10
39.2737187563
 20
60.0927065824
 30
0.0
 10
40.1962422627
 20
59.9379553535
 30
0.0
 10
40.7647699326
 20
59.7132559316
 30
0.0
 10
41.0133831084
 20
59.5697222948
 30
0.0
  0
SPLINE
  5
417
100
AcDbEntity
  8
0
100
AcDbSpline
 62
7
  6
CONTINUOUS
 70
0
 71
3
 72
11
 73
7
 74
0
 42
0.0000001
 43
0.0000001
 44
0.0000000001
 40
0.0
 40
0.0
 40
0.0
 40
0.0
 40
0.285967057
 40
0.5456983165
 40
0.7815353537
 40
1.0
 40
1.0
 40
1.0
 40
1.0
 10
49.5269841991
 20
54.6545036104
 30
0.0
 10
49.6236633308
 20
54.5986871504
 30
0.0
 10
49.8010687086
 20
54.4788646822
 30
0.0
 10
50.0213481582
 20
54.2649984353
 30
0.0
 10
50.1761848771
 20
54.0302012878
 30
0.0
 10
50.2328681524
 20
53.859243286
 30
0.0
 10
50.2471991839
 20
53.7751725411
 30
0.0
  0
SPLINE
  5
418
100
AcDbEntity
  8
0
100
AcDbSpline
 62
7
  6
CONTINUOUS
 70
0
 71
3
 72
9
 73
5
 74
0
 42
0.0000001
 43
0.0000001
 44
0.0000000001
 40
0.0
 40
0.0
 40
0.0
 40
0.0
 40
0.2459787561
 40
1.0
 40
1.0
 40
1.0
 40
1.0
 10
29.7126811351
 20
116.2130745791
 30
0.0
 10
30.5225752616
 20
115.6041560199
 30
0.0
 10
33.8397360018
 20
113.1615263742
 30
0.0
 10
37.2523982401
 20
110.8490732272
 30
0.0
 10
39.8695306451
 20
109.1762817882
 30
0.0
  0
SPLINE
  5
419
100
AcDbEntity
  8
0
100
AcDbSpline
 62
7
  6
CONTINUOUS
 70
0
 71
3
 72
11
 73
7
 74
0
 42
0.0000001
 43
0.0000001
 44
0.0000000001
 40
0.0
 40
0.0
 40
0.0
 40
0.0
 40
0.2740770825
 40
0.5327637883
 40
0.7741920227
 40
1.0
 40
1.0
 40
1.0
 40
1.0
 10
39.1658828692
 20
106.668075668
 30
0.0
 10
39.0993452083
 20
106.6898224375
 30
0.0
 10
38.9682293899
 20
106.7269770049
 30
0.0
 10
38.7725121186
 20
106.7594285015
 30
0.0
 10
38.5862980086
 20
106.7600555368
 30
0.0
 10
38.4679675931
 20
106.7268369968
 30
0.0
 10
38.4180326387
 20
106.6979808483
 30
0.0
  0
SPLINE
  5
41A
100
AcDbEntity
  8
0
100
AcDbSpline
 62
7
  6
CONTINUOUS
 70
0
 71
3
 72
9
 73
5
 74
0
 42
0.0000001
 43
0.0000001
 44
0.0000000001
 40
0.0
 40
0.0
 40
0.0
 40
0.0
 40
0.5262323094
 40
1.0
 40
1.0
 40
1.0
 40
1.0
 10
51.310117542
 20
99.5079685344
 30
0.0
 10
51.1927824277
 20
99.5302546508
 30
0.0
 10
50.968027068
 20
99.5573059839
 30
0.0
 10
50.7327357606
 20
99.5192852506
 30
0.0
 10
50.639631273
 20
99.4654958779
 30
0.0
  0
SPLINE
  5
41B
100
AcDbEntity
  8
0
100
AcDbSpline
 62
7
  6
CONTINUOUS
 70
0
 71
3
 72
12
 73
8
 74
0
 42
0.0000001
 43
0.0000001
 44
0.0000000001
 40
0.0
 40
0.0
 40
0.0
 40
0.0
 40
0.2439752389
 40
0.4972647288
 40
0.7572500134
 40
0.8844274333
 40
1.0
 40
1.0
 40
1.0
 40
1.0
 10
41.1277374999
 20
105.3866353995
 30
0.0
 10
41.2164227148
 20
105.2985154993
 30
0.0
 10
41.3912058212
 20
105.1126359547
 30
0.0
 10
41.6317708809
 20
104.8077285019
 30
0.0
 10
41.8023648761
 20
104.524768509
 30
0.0
 10
41.8933225807
 20
104.2829833648
 30
0.0
 10
41.914128451
 20
104.1586509721
 30
0.0
 10
41.914141676
 20
104.0994278849
 30
0.0
  0
SPLINE
  5
41C
100
AcDbEntity
  8
0
100
AcDbSpline
 62
7
  6
CONTINUOUS
 70
0
 71
3
 72
10
 73
6
 74
0
 42
0.0000001
 43
0.0000001
 44
0.0000000001
 40
0.0
 40
0.0
 40
0.0
 40
0.0
 40
0.4610222338
 40
0.7194052161
 40
1.0
 40
1.0
 40
1.0
 40
1.0
 10
49.5261363165
 20
58.4514088426
 30
0.0
 10
49.6221411432
 20
58.5963857676
 30
0.0
 10
49.7202218041
 20
58.8574910232
 30
0.0
 10
49.7770333387
 20
59.2302259378
 30
0.0
 10
49.7859473875
 20
59.4338828915
 30
0.0
 10
49.7859237544
 20
59.5397142547
 30
0.0
  0
SPLINE
  5
41D
100
AcDbEntity
  8
0
100
AcDbSpline
 62
7
  6
CONTINUOUS
 70
0
 71
3
 72
9
 73
5
 74
0
 42
0.0000001
 43
0.0000001
 44
0.0000000001
 40
0.0
 40
0.0
 40
0.0
 40
0.0
 40
0.481810648
 40
1.0
 40
1.0
 40
1.0
 40
1.0
 10
49.7859237544
 20
59.5397142547
 30
0.0
 10
49.7858880164
 20
59.6997526532
 30
0.0
 10
49.7642073367
 20
60.0320637466
 30
0.0
 10
49.7053044234
 20
60.3598232585
 30
0.0
 10
49.664654908
 20
60.5270763247
 30
0.0
  0
SPLINE
  5
41E
100
AcDbEntity
  8
0
100
AcDbSpline
 62
7
  6
CONTINUOUS
 70
0
 71
3
 72
17
 73
13
 74
0
 42
0.0000001
 43
0.0000001
 44
0.0000000001
 40
0.0
 40
0.0
 40
0.0
 40
0.0
 40
0.12868888
 40
0.2702797862
 40
0.4174318383
 40
0.5617733422
 40
0.6954454811
 40
0.8127095582
 40
0.8646748736
 40
0.9125085474
 40
0.9571389666
 40
1.0
 40
1.0
 40
1.0
 40
1.0
 10
122.874470624
 20
138.9513137722
 30
0.0
 10
122.8744707175
 20
139.1308111232
 30
0.0
 10
122.824253606
 20
139.5082315754
 30
0.0
 10
122.6368352346
 20
140.0623898225
 30
0.0
 10
122.3480235866
 20
140.5962152721
 30
0.0
 10
121.9810480427
 20
141.0659402958
 30
0.0
 10
121.5658891534
 20
141.4336240597
 30
0.0
 10
121.1901126144
 20
141.639098811
 30
0.0
 10
120.8961616577
 20
141.7172874712
 30
0.0
 10
120.6938508936
 20
141.7321844805
 30
0.0
 10
120.5054660925
 20
141.7045751016
 30
0.0
 10
120.3913296915
 20
141.657149802
 30
0.0
 10
120.3395676627
 20
141.6272377368
 30
0.0
  0
SPLINE
  5
41F
100
AcDbEntity
  8
0
100
AcDbSpline
 62
7
  6
CONTINUOUS
 70
0
 71
3
 72
9
 73
5
 74
0
 42
0.0000001
 43
0.0000001
 44
0.0000000001
 40
0.0
 40
0.0
 40
0.0
 40
0.0
 40
0.242552684
 40
1.0
 40
1.0
 40
1.0
 40
1.0
 10
17.8423342798
 20
91.7985319612
 30
0.0
 10
18.5996918201
 20
91.1583294248
 30
0.0
 10
21.7736024817
 20
88.5800337358
 30
0.0
 10
25.1409009893
 20
86.2427347351
 30
0.0
 10
27.7664193054
 20
84.6004091666
 30
0.0
  0
SPLINE
  5
420
100
AcDbEntity
  8
0
100
AcDbSpline
 62
7
  6
CONTINUOUS
 70
0
 71
3
 72
9
 73
5
 74
0
 42
0.0000001
 43
0.0000001
 44
0.0000000001
 40
0.0
 40
0.0
 40
0.0
 40
0.0
 40
0.2526949342
 40
1.0
 40
1.0
 40
1.0
 40
1.0
 10
127.3994428165
 20
142.9110507091
 30
0.0
 10
126.6672074283
 20
143.445684405
 30
0.0
 10
123.7565085413
 20
145.5435419043
 30
0.0
 10
120.7935638273
 20
147.5690397706
 30
0.0
 10
118.5505087044
 20
149.0379921677
 30
0.0
  0
SPLINE
  5
421
100
AcDbEntity
  8
0
100
AcDbSpline
 62
7
  6
CONTINUOUS
 70
0
 71
3
 72
9
 73
5
 74
0
 42
0.0000001
 43
0.0000001
 44
0.0000000001
 40
0.0
 40
0.0
 40
0.0
 40
0.0
 40
0.2421590419
 40
1.0
 40
1.0
 40
1.0
 40
1.0
 10
21.0194297483
 20
75.5472233047
 30
0.0
 10
21.9038391986
 20
74.8710510029
 30
0.0
 10
25.6124971463
 20
72.1529665173
 30
0.0
 10
29.5318436047
 20
69.7262917447
 30
0.0
 10
32.5803721435
 20
68.0396082713
 30
0.0
  0
SPLINE
  5
422
100
AcDbEntity
  8
0
100
AcDbSpline
 62
7
  6
CONTINUOUS
 70
0
 71
3
 72
11
 73
7
 74
0
 42
0.0000001
 43
0.0000001
 44
0.0000000001
 40
0.0
 40
0.0
 40
0.0
 40
0.0
 40
0.237235527
 40
0.4999842366
 40
0.7627415248
 40
1.0
 40
1.0
 40
1.0
 40
1.0
 10
25.0866560278
 20
83.5778810426
 30
0.0
 10
25.1669672776
 20
83.5315143699
 30
0.0
 10
25.3537352937
 20
83.4638709491
 30
0.0
 10
25.6523474969
 20
83.4314924137
 30
0.0
 10
25.9509587229
 20
83.4639634619
 30
0.0
 10
26.1377185297
 20
83.5316624951
 30
0.0
 10
26.2180268589
 20
83.5780521627
 30
0.0
  0
SPLINE
  5
423
100
AcDbEntity
  8
0
100
AcDbSpline
 62
7
  6
CONTINUOUS
 70
0
 71
3
 72
11
 73
7
 74
0
 42
0.0000001
 43
0.0000001
 44
0.0000000001
 40
0.0
 40
0.0
 40
0.0
 40
0.0
 40
0.2372450694
 40
0.4999844061
 40
0.7627322254
 40
1.0
 40
1.0
 40
1.0
 40
1.0
 10
24.379822031
 20
81.9611586287
 30
0.0
 10
24.5605297095
 20
81.856829362
 30
0.0
 10
24.980747844
 20
81.7045820946
 30
0.0
 10
25.6526281931
 20
81.631867687
 30
0.0
 10
26.3245061517
 20
81.704790394
 30
0.0
 10
26.7447054797
 20
81.857162749
 30
0.0
 10
26.9254064009
 20
81.9615436489
 30
0.0
  0
SPLINE
  5
424
100
AcDbEntity
  8
0
100
AcDbSpline
 62
7
  6
CONTINUOUS
 70
0
 71
3
 72
9
 73
5
 74
0
 42
0.0000001
 43
0.0000001
 44
0.0000000001
 40
0.0
 40
0.0
 40
0.0
 40
0.0
 40
0.2532998744
 40
1.0
 40
1.0
 40
1.0
 40
1.0
 10
100.044359001
 20
159.7222809698
 30
0.0
 10
99.3080126882
 20
160.0902960292
 30
0.0
 10
96.3902274172
 20
161.5214914556
 30
0.0
 10
93.4291396465
 20
162.8646865658
 30
0.0
 10
91.1954248889
 20
163.8129773405
 30
0.0
  0
SPLINE
  5
425
100
AcDbEntity
  8
0
100
AcDbSpline
 62
7
  6
CONTINUOUS
 70
0
 71
3
 72
20
 73
16
 74
0
 42
0.0000001
 43
0.0000001
 44
0.0000000001
 40
0.0
 40
0.0
 40
0.0
 40
0.0
 40
0.0341649072
 40
0.071709389
 40
0.1489633454
 40
0.2246390724
 40
0.297743737
 40
0.4367439422
 40
0.5674020945
 40
0.6902259155
 40
0.8046630627
 40
0.8582632356
 40
0.9089272141
 40
0.9561618879
 40
1.0
 40
1.0
 40
1.0
 40
1.0
 10
38.2629778392
 20
106.400526692
 30
0.0
 10
38.2629897364
 20
106.3472501291
 30
0.0
 10
38.2793946752
 20
106.2354247589
 30
0.0
 10
38.3536549256
 20
106.0146830108
 30
0.0
 10
38.4970444526
 20
105.7524119207
 30
0.0
 10
38.7036565603
 20
105.4663723134
 30
0.0
 10
38.9975749109
 20
105.1266519017
 30
0.0
 10
39.3865109889
 20
104.7581091297
 30
0.0
 10
39.872887449
 20
104.3849518406
 30
0.0
 10
40.361829101
 20
104.0830327016
 30
0.0
 10
40.7740798769
 20
103.8898917919
 30
0.0
 10
41.0990576835
 20
103.7850455568
 30
0.0
 10
41.3314738071
 20
103.7381540633
 30
0.0
 10
41.5531157167
 20
103.7296204349
 30
0.0
 10
41.6956628883
 20
103.7653797651
 30
0.0
 10
41.7548543991
 20
103.7995788658
 30
0.0
  0
SPLINE
  5
426
100
AcDbEntity
  8
0
100
AcDbSpline
 62
7
  6
CONTINUOUS
 70
0
 71
3
 72
11
 73
7
 74
0
 42
0.0000001
 43
0.0000001
 44
0.0000000001
 40
0.0
 40
0.0
 40
0.0
 40
0.0
 40
0.2688250158
 40
0.5256078884
 40
0.7694742578
 40
1.0
 40
1.0
 40
1.0
 40
1.0
 10
48.2728227738
 20
80.5474150217
 30
0.0
 10
45.1904167293
 20
81.7099904198
 30
0.0
 10
39.2434390887
 20
84.2036206035
 30
0.0
 10
30.8604019428
 20
88.5455954454
 30
0.0
 10
23.2917782557
 20
93.3647092734
 30
0.0
 10
18.7117141498
 20
96.9661619484
 30
0.0
 10
16.5949062875
 20
98.8369469489
 30
0.0
  0
SPLINE
  5
427
100
AcDbEntity
  8
0
100
AcDbSpline
 62
7
  6
CONTINUOUS
 70
0
 71
3
 72
9
 73
5
 74
0
 42
0.0000001
 43
0.0000001
 44
0.0000000001
 40
0.0
 40
0.0
 40
0.0
 40
0.0
 40
0.2444916054
 40
1.0
 40
1.0
 40
1.0
 40
1.0
 10
31.1788595395
 20
107.2612878639
 30
0.0
 10
32.3540274624
 20
106.4104090435
 30
0.0
 10
37.208438598
 20
102.9965410742
 30
0.0
 10
42.245608117
 20
99.8443506864
 30
0.0
 10
46.1283271708
 20
97.6027125082
 30
0.0
  0
SPLINE
  5
428
100
AcDbEntity
  8
0
100
AcDbSpline
 62
7
  6
CONTINUOUS
 70
0
 71
3
 72
9
 73
5
 74
0
 42
0.0000001
 43
0.0000001
 44
0.0000000001
 40
0.0
 40
0.0
 40
0.0
 40
0.0
 40
0.2450522046
 40
1.0
 40
1.0
 40
1.0
 40
1.0
 10
46.1283271708
 20
97.6027125082
 30
0.0
 10
47.460232052
 20
96.8337542626
 30
0.0
 10
52.933705435
 20
93.7624102441
 30
0.0
 10
58.5534812842
 20
90.9533869193
 30
0.0
 10
62.8573752261
 20
88.9721020614
 30
0.0
  0
SPLINE
  5
429
100
AcDbEntity
  8
0
100
AcDbSpline
 62
7
  6
CONTINUOUS
 70
0
 71
3
 72
15
 73
11
 74
0
 42
0.0000001
 43
0.0000001
 44
0.0000000001
 40
0.0
 40
0.0
 40
0.0
 40
0.0
 40
0.1234714972
 40
0.2587108099
 40
0.4001718877
 40
0.5416530882
 40
0.6768214785
 40
0.7403657228
 40
0.8004611287
 40
1.0
 40
1.0
 40
1.0
 40
1.0
 10
68.0323641692
 20
111.7255569641
 30
0.0
 10
68.1631137519
 20
111.8010837462
 30
0.0
 10
68.4561085792
 20
111.9270808044
 30
0.0
 10
68.9345657327
 20
112.0388041514
 30
0.0
 10
69.4465578954
 20
112.0768711488
 30
0.0
 10
69.9583539517
 20
112.0389088543
 30
0.0
 10
70.3654132382
 20
111.9442340781
 30
0.0
 10
70.6618400658
 20
111.8305427956
 30
0.0
 10
71.0134405337
 20
111.6546262696
 30
0.0
 10
71.2754901298
 20
111.429736742
 30
0.0
 10
71.3783157066
 20
111.2084388192
 30
0.0
  0
SPLINE
  5
42A
100
AcDbEntity
  8
0
100
AcDbSpline
 62
7
  6
CONTINUOUS
 70
0
 71
3
 72
9
 73
5
 74
0
 42
0.0000001
 43
0.0000001
 44
0.0000000001
 40
0.0
 40
0.0
 40
0.0
 40
0.0
 40
0.2325908466
 40
1.0
 40
1.0
 40
1.0
 40
1.0
 10
50.1043147734
 20
60.0916357993
 30
0.0
 10
50.079152924
 20
60.1311520725
 30
0.0
 10
49.960547831
 20
60.2944258516
 30
0.0
 10
49.8058311105
 20
60.4293038085
 30
0.0
 10
49.6787987562
 20
60.5173595347
 30
0.0
  0
SPLINE
  5
42B
100
AcDbEntity
  8
0
100
AcDbSpline
 62
7
  6
CONTINUOUS
 70
0
 71
3
 72
9
 73
5
 74
0
 42
0.0000001
 43
0.0000001
 44
0.0000000001
 40
0.0
 40
0.0
 40
0.0
 40
0.0
 40
0.2588677086
 40
1.0
 40
1.0
 40
1.0
 40
1.0
 10
49.7024380181
 20
60.5489015318
 30
0.0
 10
49.7187969876
 20
60.5382651991
 30
0.0
 10
49.7811753117
 20
60.4959499839
 30
0.0
 10
49.8402100975
 20
60.4485972535
 30
0.0
 10
49.8811006503
 20
60.4105339972
 30
0.0
  0
SPLINE
  5
42C
100
AcDbEntity
  8
0
100
AcDbSpline
 62
7
  6
CONTINUOUS
 70
0
 71
3
 72
9
 73
5
 74
0
 42
0.0000001
 43
0.0000001
 44
0.0000000001
 40
0.0
 40
0.0
 40
0.0
 40
0.0
 40
0.2687295507
 40
1.0
 40
1.0
 40
1.0
 40
1.0
 10
49.8811006503
 20
60.4105339972
 30
0.0
 10
49.9067454048
 20
60.3866623986
 30
0.0
 10
49.997953598
 20
60.2936468077
 30
0.0
 10
50.070864357
 20
60.1809149076
 30
0.0
 10
50.1043147734
 20
60.0916357993
 30
0.0
  0
SPLINE
  5
42D
100
AcDbEntity
  8
0
100
AcDbSpline
 62
7
  6
CONTINUOUS
 70
0
 71
3
 72
16
 73
12
 74
0
 42
0.0000001
 43
0.0000001
 44
0.0000000001
 40
0.0
 40
0.0
 40
0.0
 40
0.0
 40
0.1454841187
 40
0.2944091528
 40
0.4408588474
 40
0.5792596768
 40
0.705101048
 40
0.8158759787
 40
0.9122950998
 40
0.9567643749
 40
1.0
 40
1.0
 40
1.0
 40
1.0
 10
45.4607015148
 20
61.0495964214
 30
0.0
 10
45.5341091343
 20
60.8060657691
 30
0.0
 10
45.7219305762
 20
60.3244436993
 30
0.0
 10
46.1010143849
 20
59.6506732391
 30
0.0
 10
46.5630526176
 20
59.0459382637
 30
0.0
 10
47.0815537213
 20
58.5448503705
 30
0.0
 10
47.628387373
 20
58.1756884198
 30
0.0
 10
48.1748679117
 20
57.9591555629
 30
0.0
 10
48.6227468375
 20
57.9208538133
 30
0.0
 10
48.9396212662
 20
57.9879370012
 30
0.0
 10
49.0811128862
 20
58.0504863464
 30
0.0
 10
49.1465600566
 20
58.0883085247
 30
0.0
  0
SPLINE
  5
42E
100
AcDbEntity
  8
0
100
AcDbSpline
 62
7
  6
CONTINUOUS
 70
0
 71
3
 72
10
 73
6
 74
0
 42
0.0000001
 43
0.0000001
 44
0.0000000001
 40
0.0
 40
0.0
 40
0.0
 40
0.0
 40
0.2361733496
 40
0.4850588136
 40
1.0
 40
1.0
 40
1.0
 40
1.0
 10
37.3863018252
 20
62.4631488387
 30
0.0
 10
37.5494605362
 20
62.502751107
 30
0.0
 10
37.8919524436
 20
62.5543061358
 30
0.0
 10
38.603568492
 20
62.57442749
 30
0.0
 10
39.1454988788
 20
62.5250133808
 30
0.0
 10
39.5099451051
 20
62.4905431959
 30
0.0
  0
SPLINE
  5
42F
100
AcDbEntity
  8
0
100
AcDbSpline
 62
7
  6
CONTINUOUS
 70
0
 71
3
 72
9
 73
5
 74
0
 42
0.0000001
 43
0.0000001
 44
0.0000000001
 40
0.0
 40
0.0
 40
0.0
 40
0.0
 40
0.5451847151
 40
1.0
 40
1.0
 40
1.0
 40
1.0
 10
40.2821691266
 20
62.4259418126
 30
0.0
 10
40.4150146687
 20
62.4185371858
 30
0.0
 10
40.6590540205
 20
62.4108543012
 30
0.0
 10
40.9035565809
 20
62.4295574596
 30
0.0
 10
41.0127400192
 20
62.4495412309
 30
0.0
  0
SPLINE
  5
430
100
AcDbEntity
  8
0
100
AcDbSpline
 62
7
  6
CONTINUOUS
 70
0
 71
3
 72
9
 73
5
 74
0
 42
0.0000001
 43
0.0000001
 44
0.0000000001
 40
0.0
 40
0.0
 40
0.0
 40
0.0
 40
0.2753270497
 40
1.0
 40
1.0
 40
1.0
 40
1.0
 10
68.0323277075
 20
111.8888363911
 30
0.0
 10
67.979709673
 20
111.8584418709
 30
0.0
 10
67.7945345482
 20
111.7391920783
 30
0.0
 10
67.6311856503
 20
111.5782631836
 30
0.0
 10
67.5507593687
 20
111.4400174728
 30
0.0
  0
SPLINE
  5
431
100
AcDbEntity
  8
0
100
AcDbSpline
 62
7
  6
CONTINUOUS
 70
0
 71
3
 72
9
 73
5
 74
0
 42
0.0000001
 43
0.0000001
 44
0.0000000001
 40
0.0
 40
0.0
 40
0.0
 40
0.0
 40
0.2455090778
 40
1.0
 40
1.0
 40
1.0
 40
1.0
 10
50.1391526634
 20
81.1043889879
 30
0.0
 10
50.1391446821
 20
81.1269711595
 30
0.0
 10
50.1338224359
 20
81.2189305683
 30
0.0
 10
50.1064947137
 20
81.3091561226
 30
0.0
 10
50.0766673033
 20
81.3718181064
 30
0.0
  0
SPLINE
  5
432
100
AcDbEntity
  8
0
100
AcDbSpline
 62
7
  6
CONTINUOUS
 70
0
 71
3
 72
9
 73
5
 74
0
 42
0.0000001
 43
0.0000001
 44
0.0000000001
 40
0.0
 40
0.0
 40
0.0
 40
0.0
 40
0.2323168445
 40
1.0
 40
1.0
 40
1.0
 40
1.0
 10
49.8882090525
 20
81.6256502007
 30
0.0
 10
49.8599478412
 20
81.6527349735
 30
0.0
 10
49.7320994629
 20
81.7628470486
 30
0.0
 10
49.5838009225
 20
81.8476762703
 30
0.0
 10
49.4658629291
 20
81.9008022231
 30
0.0
  0
SPLINE
  5
433
100
AcDbEntity
  8
0
100
AcDbSpline
 62
7
  6
CONTINUOUS
 70
0
 71
3
 72
24
 73
20
 74
0
 42
0.0000001
 43
0.0000001
 44
0.0000000001
 40
0.0
 40
0.0
 40
0.0
 40
0.0
 40
0.0227517123
 40
0.0474095068
 40
0.0767552834
 40
0.1112294025
 40
0.1484908965
 40
0.1865079626
 40
0.2617257612
 40
0.3348069646
 40
0.4056771561
 40
0.4745042849
 40
0.5414268447
 40
0.6697325576
 40
0.7903617608
 40
0.847385812
 40
0.901694917
 40
0.9526982674
 40
1.0
 40
1.0
 40
1.0
 40
1.0
 10
50.639631273
 20
99.4654958779
 30
0.0
 10
50.6053429147
 20
99.4456864215
 30
0.0
 10
50.5390846025
 20
99.3932178111
 30
0.0
 10
50.4744205002
 20
99.2716574067
 30
0.0
 10
50.4638088575
 20
99.1143866868
 30
0.0
 10
50.5040155623
 20
98.9415621409
 30
0.0
 10
50.5812573575
 20
98.7660729698
 30
0.0
 10
50.7159594548
 20
98.5409175
 30
0.0
 10
50.917604152
 20
98.2854719777
 30
0.0
 10
51.1843783412
 20
98.01225158
 30
0.0
 10
51.4634755559
 20
97.7683203419
 30
0.0
 10
51.7493168878
 20
97.5497246062
 30
0.0
 10
52.1303689913
 20
97.2923883808
 30
0.0
 10
52.6107408839
 20
97.0228018071
 30
0.0
 10
53.1042914174
 20
96.8178062777
 30
0.0
 10
53.4936347128
 20
96.7093226001
 30
0.0
 10
53.7733054923
 20
96.6628082037
 30
0.0
 10
54.0395002979
 20
96.658993293
 30
0.0
 10
54.210782932
 20
96.7023795232
 30
0.0
 10
54.2820631598
 20
96.7435757118
 30
0.0
  0
SPLINE
  5
434
100
AcDbEntity
  8
0
100
AcDbSpline
 62
7
  6
CONTINUOUS
 70
0
 71
3
 72
23
 73
19
 74
0
 42
0.0000001
 43
0.0000001
 44
0.0000000001
 40
0.0
 40
0.0
 40
0.0
 40
0.0
 40
0.0603633344
 40
0.1143927105
 40
0.1629703229
 40
0.2083501811
 40
0.2537291057
 40
0.302319921
 40
0.3563416444
 40
0.416724913
 40
0.483311541
 40
0.5551556924
 40
0.6307775457
 40
0.708365157
 40
0.7859565885
 40
0.861569556
 40
0.93342963
 40
1.0
 40
1.0
 40
1.0
 40
1.0
 10
93.3762737136
 20
130.6107477942
 30
0.0
 10
93.16127693
 20
130.7348734371
 30
0.0
 10
92.7712410092
 20
131.0034894999
 30
0.0
 10
92.3051883476
 20
131.4933001427
 30
0.0
 10
92.0103471491
 20
132.0357229207
 30
0.0
 10
91.9081245478
 20
132.6109874691
 30
0.0
 10
92.0102474047
 20
133.1863513442
 30
0.0
 10
92.3051368264
 20
133.7287318396
 30
0.0
 10
92.7712329746
 20
134.218843797
 30
0.0
 10
93.3876906912
 20
134.6435430698
 30
0.0
 10
94.1317178083
 20
134.9901833188
 30
0.0
 10
94.9763446434
 20
135.2471744381
 30
0.0
 10
95.8905180582
 20
135.4053179812
 30
0.0
 10
96.8402546149
 20
135.4588043396
 30
0.0
 10
97.789940533
 20
135.4055712193
 30
0.0
 10
98.7042881123
 20
135.2477752743
 30
0.0
 10
99.5487277873
 20
134.9910795474
 30
0.0
 10
100.0673434146
 20
134.7496589656
 30
0.0
 10
100.3044478687
 20
134.6127697421
 30
0.0
  0
SPLINE
  5
435
100
AcDbEntity
  8
0
100
AcDbSpline
 62
7
  6
CONTINUOUS
 70
0
 71
3
 72
23
 73
19
 74
0
 42
0.0000001
 43
0.0000001
 44
0.0000000001
 40
0.0
 40
0.0
 40
0.0
 40
0.0
 40
0.0603633411
 40
0.1143927267
 40
0.1629703406
 40
0.2083502033
 40
0.2537291368
 40
0.3023199696
 40
0.3563417134
 40
0.4167249952
 40
0.4833116234
 40
0.5551557624
 40
0.6307775973
 40
0.7083651942
 40
0.7859566161
 40
0.8615695781
 40
0.9334296391
 40
1.0
 40
1.0
 40
1.0
 40
1.0
 10
100.3044478687
 20
134.6127697421
 30
0.0
 10
100.5194446782
 20
134.4886440844
 30
0.0
 10
100.909480642
 20
134.2200279634
 30
0.0
 10
101.3755333832
 20
133.7302172838
 30
0.0
 10
101.6703745757
 20
133.1877944204
 30
0.0
 10
101.7725971515
 20
132.6125297984
 30
0.0
 10
101.6704741788
 20
132.0371657976
 30
0.0
 10
101.3755844884
 20
131.4947852144
 30
0.0
 10
100.9094880514
 20
131.0046732374
 30
0.0
 10
100.2930301246
 20
130.5799740168
 30
0.0
 10
99.5490029367
 20
130.2333338972
 30
0.0
 10
98.7043761755
 20
129.976342947
 30
0.0
 10
97.790202919
 20
129.8181995521
 30
0.0
 10
96.8404665283
 20
129.7647132578
 30
0.0
 10
95.8907807245
 20
129.8179463961
 30
0.0
 10
94.9764332588
 20
129.9757423545
 30
0.0
 10
94.1319936783
 20
130.2324380262
 30
0.0
 10
93.6133781371
 20
130.4738585883
 30
0.0
 10
93.3762737136
 20
130.6107477942
 30
0.0
  0
SPLINE
  5
436
100
AcDbEntity
  8
0
100
AcDbSpline
 62
7
  6
CONTINUOUS
 70
0
 71
3
 72
9
 73
5
 74
0
 42
0.0000001
 43
0.0000001
 44
0.0000000001
 40
0.0
 40
0.0
 40
0.0
 40
0.0
 40
0.4447253515
 40
1.0
 40
1.0
 40
1.0
 40
1.0
 10
38.4180326387
 20
106.6979808483
 30
0.0
 10
38.3732762513
 20
106.6721172629
 30
0.0
 10
38.2849164359
 20
106.5865119075
 30
0.0
 10
38.2629634265
 20
106.4650681826
 30
0.0
 10
38.2629778392
 20
106.400526692
 30
0.0
  0
SPLINE
  5
437
100
AcDbEntity
  8
0
100
AcDbSpline
 62
7
  6
CONTINUOUS
 70
0
 71
3
 72
9
 73
5
 74
0
 42
0.0000001
 43
0.0000001
 44
0.0000000001
 40
0.0
 40
0.0
 40
0.0
 40
0.0
 40
0.4765312256
 40
1.0
 40
1.0
 40
1.0
 40
1.0
 10
50.7836709234
 20
48.2653497677
 30
0.0
 10
50.7337753587
 20
48.2364981822
 30
0.0
 10
50.6377483807
 20
48.1575074833
 30
0.0
 10
50.5843945156
 20
48.0438337453
 30
0.0
 10
50.5691949912
 20
47.9823715217
 30
0.0
  0
SPLINE
  5
438
100
AcDbEntity
  8
0
100
AcDbSpline
 62
7
  6
CONTINUOUS
 70
0
 71
3
 72
9
 73
5
 74
0
 42
0.0000001
 43
0.0000001
 44
0.0000000001
 40
0.0
 40
0.0
 40
0.0
 40
0.0
 40
0.2324356662
 40
1.0
 40
1.0
 40
1.0
 40
1.0
 10
67.6323299265
 20
111.3948980346
 30
0.0
 10
67.6575990913
 20
111.4263494119
 30
0.0
 10
67.7742166273
 20
111.5553068358
 30
0.0
 10
67.9169983566
 20
111.6589165328
 30
0.0
 10
68.0323641692
 20
111.7255569641
 30
0.0
  0
SPLINE
  5
439
100
AcDbEntity
  8
0
100
AcDbSpline
 62
7
  6
CONTINUOUS
 70
0
 71
3
 72
15
 73
11
 74
0
 42
0.0000001
 43
0.0000001
 44
0.0000000001
 40
0.0
 40
0.0
 40
0.0
 40
0.0
 40
0.0895917588
 40
0.1937656232
 40
0.3145643441
 40
0.4492090117
 40
0.5920776012
 40
0.7361277144
 40
0.8742214207
 40
1.0
 40
1.0
 40
1.0
 40
1.0
 10
71.4263521244
 20
111.236288504
 30
0.0
 10
71.3989471103
 20
111.346985678
 30
0.0
 10
71.2791265513
 20
111.5722581804
 30
0.0
 10
70.9741407974
 20
111.8400454944
 30
0.0
 10
70.56231547
 20
112.0483240146
 30
0.0
 10
70.0711794298
 20
112.1846868184
 30
0.0
 10
69.5352106855
 20
112.2405147746
 30
0.0
 10
68.9926528381
 20
112.2118510987
 30
0.0
 10
68.48316054
 20
112.1006948309
 30
0.0
 10
68.170960957
 20
111.9689171302
 30
0.0
 10
68.0323277075
 20
111.8888363911
 30
0.0
  0
SPLINE
  5
43A
100
AcDbEntity
  8
0
100
AcDbSpline
 62
7
  6
CONTINUOUS
 70
0
 71
3
 72
11
 73
7
 74
0
 42
0.0000001
 43
0.0000001
 44
0.0000000001
 40
0.0
 40
0.0
 40
0.0
 40
0.0
 40
0.2177660367
 40
0.4508969052
 40
0.7103700115
 40
1.0
 40
1.0
 40
1.0
 40
1.0
 10
120.3395676627
 20
141.6272377368
 30
0.0
 10
120.2703174099
 20
141.5872196364
 30
0.0
 10
120.1406426612
 20
141.4783679452
 30
0.0
 10
120.0026814685
 20
141.2526930263
 30
0.0
 10
119.9207797965
 20
140.9746581709
 30
0.0
 10
119.9046098338
 20
140.772300808
 30
0.0
 10
119.9046097784
 20
140.6659249412
 30
0.0
  0
SPLINE
  5
43B
100
AcDbEntity
  8
0
100
AcDbSpline
 62
7
  6
CONTINUOUS
 70
0
 71
3
 72
11
 73
7
 74
0
 42
0.0000001
 43
0.0000001
 44
0.0000000001
 40
0.0
 40
0.0
 40
0.0
 40
0.0
 40
0.2254924721
 40
0.4610584527
 40
0.7175154252
 40
1.0
 40
1.0
 40
1.0
 40
1.0
 10
57.256905062
 20
52.3564505509
 30
0.0
 10
57.1196899724
 20
52.2772752669
 30
0.0
 10
56.8637675733
 20
52.0682391979
 30
0.0
 10
56.5868825546
 20
51.6387742625
 30
0.0
 10
56.4219799505
 20
51.1147265901
 30
0.0
 10
56.3891957996
 20
50.7346468497
 30
0.0
 10
56.3892401173
 20
50.5361877375
 30
0.0
  0
SPLINE
  5
43C
100
AcDbEntity
  8
0
100
AcDbSpline
 62
7
  6
CONTINUOUS
 70
0
 71
3
 72
17
 73
13
 74
0
 42
0.0000001
 43
0.0000001
 44
0.0000000001
 40
0.0
 40
0.0
 40
0.0
 40
0.0
 40
0.12868888
 40
0.2702797862
 40
0.4174318383
 40
0.5617733422
 40
0.6954454811
 40
0.8127095582
 40
0.8646748736
 40
0.9125085474
 40
0.9571389666
 40
1.0
 40
1.0
 40
1.0
 40
1.0
 10
119.9046089282
 20
139.0329196161
 30
0.0
 10
119.9046088348
 20
138.853422265
 30
0.0
 10
119.9548259463
 20
138.4760018128
 30
0.0
 10
120.1422443176
 20
137.9218435657
 30
0.0
 10
120.4310559657
 20
137.3880181162
 30
0.0
 10
120.7980315095
 20
136.9182930924
 30
0.0
 10
121.2131903989
 20
136.5506093285
 30
0.0
 10
121.5889669378
 20
136.3451345772
 30
0.0
 10
121.8829178946
 20
136.266945917
 30
0.0
 10
122.0852286587
 20
136.2520489077
 30
0.0
 10
122.2736134598
 20
136.2796582867
 30
0.0
 10
122.3877498608
 20
136.3270835863
 30
0.0
 10
122.4395118896
 20
136.3569956514
 30
0.0
  0
SPLINE
  5
43D
100
AcDbEntity
  8
0
100
AcDbSpline
 62
7
  6
CONTINUOUS
 70
0
 71
3
 72
9
 73
5
 74
0
 42
0.0000001
 43
0.0000001
 44
0.0000000001
 40
0.0
 40
0.0
 40
0.0
 40
0.0
 40
0.2472997008
 40
1.0
 40
1.0
 40
1.0
 40
1.0
 10
115.5104690589
 20
147.2828349369
 30
0.0
 10
116.2527460001
 20
146.7967258067
 30
0.0
 10
119.2413346863
 20
144.8113537906
 30
0.0
 10
122.1782974373
 20
142.748403615
 30
0.0
 10
124.3594026409
 20
141.1558931723
 30
0.0
  0
SPLINE
  5
43E
100
AcDbEntity
  8
0
100
AcDbSpline
 62
7
  6
CONTINUOUS
 70
0
 71
3
 72
11
 73
7
 74
0
 42
0.0000001
 43
0.0000001
 44
0.0000000001
 40
0.0
 40
0.0
 40
0.0
 40
0.0
 40
0.2432926383
 40
0.4991500004
 40
0.7553053691
 40
1.0
 40
1.0
 40
1.0
 40
1.0
 10
19.4961808858
 20
79.7872528479
 30
0.0
 10
19.5354622126
 20
79.4962259259
 30
0.0
 10
19.6620333353
 20
78.9048698368
 30
0.0
 10
19.9645625189
 20
78.0425445628
 30
0.0
 10
20.3707146962
 20
77.2219557633
 30
0.0
 10
20.7079255427
 20
76.7173219754
 30
0.0
 10
20.8907817918
 20
76.4853735463
 30
0.0
  0
SPLINE
  5
43F
100
AcDbEntity
  8
0
100
AcDbSpline
 62
7
  6
CONTINUOUS
 70
0
 71
3
 72
11
 73
7
 74
0
 42
0.0000001
 43
0.0000001
 44
0.0000000001
 40
0.0
 40
0.0
 40
0.0
 40
0.0
 40
0.2446849933
 40
0.5008395224
 40
0.7567015761
 40
1.0
 40
1.0
 40
1.0
 40
1.0
 10
21.0192036855
 20
76.5595557516
 30
0.0
 10
20.8364019082
 20
76.7915372397
 30
0.0
 10
20.4992804942
 20
77.2962245038
 30
0.0
 10
20.0932832683
 20
78.1168940427
 30
0.0
 10
19.7908373421
 20
78.979272413
 30
0.0
 10
19.6643330707
 20
79.5706625469
 30
0.0
 10
19.625065324
 20
79.8617022395
 30
0.0
  0
LINE
  5
440
100
AcDbEntity
  8
0
100
AcDbLine
 62
7
  6
CONTINUOUS
 10
27.4321970283
 20
82.2461234615
 11
27.4659195951
 21
82.2247681767
  0
SPLINE
  5
441
100
AcDbEntity
  8
0
100
AcDbSpline
 62
7
  6
CONTINUOUS
 70
0
 71
3
 72
9
 73
5
 74
0
 42
0.0000001
 43
0.0000001
 44
0.0000000001
 40
0.0
 40
0.0
 40
0.0
 40
0.0
 40
0.2415083628
 40
1.0
 40
1.0
 40
1.0
 40
1.0
 10
43.7360429212
 20
58.0162235757
 30
0.0
 10
43.7293579493
 20
57.9747652425
 30
0.0
 10
43.7054890295
 20
57.8024952629
 30
0.0
 10
43.6962781155
 20
57.628301675
 30
0.0
 10
43.6963075672
 20
57.4964140167
 30
0.0
  0
SPLINE
  5
442
100
AcDbEntity
  8
0
100
AcDbSpline
 62
7
  6
CONTINUOUS
 70
0
 71
3
 72
17
 73
13
 74
0
 42
0.0000001
 43
0.0000001
 44
0.0000000001
 40
0.0
 40
0.0
 40
0.0
 40
0.0
 40
0.1288706537
 40
0.2705332878
 40
0.417458503
 40
0.5612954566
 40
0.6944569868
 40
0.811433306
 40
0.8634676937
 40
0.9115647716
 40
0.956623451
 40
1.0
 40
1.0
 40
1.0
 40
1.0
 10
43.696334423
 20
57.4782928813
 30
0.0
 10
43.6980136338
 20
57.1446351626
 30
0.0
 10
43.7921652867
 20
56.4439004004
 30
0.0
 10
44.1357536972
 20
55.4139911887
 30
0.0
 10
44.6643557987
 20
54.4209955311
 30
0.0
 10
45.3392255947
 20
53.5481608254
 30
0.0
 10
46.1049652389
 20
52.8648406006
 30
0.0
 10
46.8024703548
 20
52.486263182
 30
0.0
 10
47.3492990334
 20
52.3450489275
 30
0.0
 10
47.7269763371
 20
52.3198961498
 30
0.0
 10
48.0794300204
 20
52.3733962157
 30
0.0
 10
48.293413935
 20
52.4625745737
 30
0.0
 10
48.3906647672
 20
52.5187456091
 30
0.0
  0
SPLINE
  5
443
100
AcDbEntity
  8
0
100
AcDbSpline
 62
7
  6
CONTINUOUS
 70
0
 71
3
 72
9
 73
5
 74
0
 42
0.0000001
 43
0.0000001
 44
0.0000000001
 40
0.0
 40
0.0
 40
0.0
 40
0.0
 40
0.2580043544
 40
1.0
 40
1.0
 40
1.0
 40
1.0
 10
32.5836996616
 20
67.7308957895
 30
0.0
 10
31.5338208028
 20
68.3098951482
 30
0.0
 10
27.5030786551
 20
70.6224814008
 30
0.0
 10
23.6307933055
 20
73.2162086189
 30
0.0
 10
20.8910443163
 20
75.3097616725
 30
0.0
  0
SPLINE
  5
444
100
AcDbEntity
  8
0
100
AcDbSpline
 62
7
  6
CONTINUOUS
 70
0
 71
3
 72
17
 73
13
 74
0
 42
0.0000001
 43
0.0000001
 44
0.0000000001
 40
0.0
 40
0.0
 40
0.0
 40
0.0
 40
0.1251280275
 40
0.2624434688
 40
0.4055768761
 40
0.547158885
 40
0.6803700846
 40
0.800172706
 40
0.8546006914
 40
0.9055632787
 40
0.9536975855
 40
1.0
 40
1.0
 40
1.0
 40
1.0
 10
56.3892691382
 20
50.5180678525
 30
0.0
 10
56.3910965421
 20
50.1852467643
 30
0.0
 10
56.4943171296
 20
49.4867032005
 30
0.0
 10
56.8736631483
 20
48.4703381057
 30
0.0
 10
57.456236241
 20
47.5032645598
 30
0.0
 10
58.1983569765
 20
46.6667912706
 30
0.0
 10
59.0391446333
 20
46.0266466065
 30
0.0
 10
59.7974684958
 20
45.6917265171
 30
0.0
 10
60.3888580322
 20
45.5821888277
 30
0.0
 10
60.7995739641
 20
45.5778823607
 30
0.0
 10
61.1822167256
 20
45.6500307668
 30
0.0
 10
61.4153793629
 20
45.7501707164
 30
0.0
 10
61.5220268155
 20
45.8117700583
 30
0.0
  0
SPLINE
  5
445
100
AcDbEntity
  8
0
100
AcDbSpline
 62
7
  6
CONTINUOUS
 70
0
 71
3
 72
14
 73
10
 74
0
 42
0.0000001
 43
0.0000001
 44
0.0000000001
 40
0.0
 40
0.0
 40
0.0
 40
0.0
 40
0.3165206534
 40
0.4630168554
 40
0.5969642714
 40
0.7162756092
 40
0.8209682654
 40
0.9136373185
 40
1.0
 40
1.0
 40
1.0
 40
1.0
 10
32.8491897388
 20
62.3993358873
 30
0.0
 10
33.0699993763
 20
61.9472577859
 30
0.0
 10
33.4603096114
 20
61.3140779062
 30
0.0
 10
34.093846088
 20
60.6050552229
 30
0.0
 10
34.5798976409
 20
60.1918335283
 30
0.0
 10
35.0726017046
 20
59.9005140356
 30
0.0
 10
35.5558230457
 20
59.7421018234
 30
0.0
 10
36.0141162633
 20
59.7269786721
 30
0.0
 10
36.2909353789
 20
59.8216362938
 30
0.0
 10
36.4098084343
 20
59.8902957299
 30
0.0
  0
SPLINE
  5
446
100
AcDbEntity
  8
0
100
AcDbSpline
 62
7
  6
CONTINUOUS
 70
0
 71
3
 72
9
 73
5
 74
0
 42
0.0000001
 43
0.0000001
 44
0.0000000001
 40
0.0
 40
0.0
 40
0.0
 40
0.0
 40
0.5387051282
 40
1.0
 40
1.0
 40
1.0
 40
1.0
 10
38.3838154024
 20
55.2112898867
 30
0.0
 10
38.3952653917
 20
55.2766547039
 30
0.0
 10
38.4397419178
 20
55.3970275133
 30
0.0
 10
38.535363143
 20
55.4818229589
 30
0.0
 10
38.5845606405
 20
55.5102590823
 30
0.0
  0
SPLINE
  5
447
100
AcDbEntity
  8
0
100
AcDbSpline
 62
7
  6
CONTINUOUS
 70
0
 71
3
 72
11
 73
7
 74
0
 42
0.0000001
 43
0.0000001
 44
0.0000000001
 40
0.0
 40
0.0
 40
0.0
 40
0.0
 40
0.2372680199
 40
0.5000159287
 40
0.7627551758
 40
1.0
 40
1.0
 40
1.0
 40
1.0
 10
26.925136584
 20
83.1698114081
 30
0.0
 10
26.744435476
 20
83.0654304004
 30
0.0
 10
26.3242358292
 20
82.913058009
 30
0.0
 10
25.652357638
 20
82.8401354462
 30
0.0
 10
24.9804775214
 20
82.9128499981
 30
0.0
 10
24.5602597058
 20
83.0650972292
 30
0.0
 10
24.3795522141
 20
83.1694263879
 30
0.0
  0
SPLINE
  5
448
100
AcDbEntity
  8
0
100
AcDbSpline
 62
7
  6
CONTINUOUS
 70
0
 71
3
 72
11
 73
7
 74
0
 42
0.0000001
 43
0.0000001
 44
0.0000000001
 40
0.0
 40
0.0
 40
0.0
 40
0.0
 40
0.2895123797
 40
0.5490810698
 40
0.782230464
 40
1.0
 40
1.0
 40
1.0
 40
1.0
 10
24.3795522141
 20
83.1694263879
 30
0.0
 10
24.3006262975
 20
83.2149932562
 30
0.0
 10
24.157398127
 20
83.3137548446
 30
0.0
 10
23.986063552
 20
83.493629651
 30
0.0
 10
23.8776480448
 20
83.6927792073
 30
0.0
 10
23.8524550383
 20
83.8356914008
 30
0.0
 10
23.8524398388
 20
83.9042428314
 30
0.0
  0
SPLINE
  5
449
100
AcDbEntity
  8
0
100
AcDbSpline
 62
7
  6
CONTINUOUS
 70
0
 71
3
 72
9
 73
5
 74
0
 42
0.0000001
 43
0.0000001
 44
0.0000000001
 40
0.0
 40
0.0
 40
0.0
 40
0.0
 40
0.2538997156
 40
1.0
 40
1.0
 40
1.0
 40
1.0
 10
40.3982517988
 20
70.0351823041
 30
0.0
 10
39.756517337
 20
70.3272725882
 30
0.0
 10
37.2390967353
 20
71.4996779235
 30
0.0
 10
34.7629392046
 20
72.7610986776
 30
0.0
 10
32.9447681554
 20
73.7546439419
 30
0.0
  0
SPLINE
  5
44A
100
AcDbEntity
  8
0
100
AcDbSpline
 62
7
  6
CONTINUOUS
 70
0
 71
3
 72
9
 73
5
 74
0
 42
0.0000001
 43
0.0000001
 44
0.0000000001
 40
0.0
 40
0.0
 40
0.0
 40
0.0
 40
0.2461239386
 40
1.0
 40
1.0
 40
1.0
 40
1.0
 10
33.1059157825
 20
73.8477299882
 30
0.0
 10
33.6979780572
 20
73.5242358712
 30
0.0
 10
36.1159329792
 20
72.2326799241
 30
0.0
 10
38.5817972055
 20
71.0311626692
 30
0.0
 10
40.4620698526
 20
70.1737831107
 30
0.0
  0
SPLINE
  5
44B
100
AcDbEntity
  8
0
100
AcDbSpline
 62
7
  6
CONTINUOUS
 70
0
 71
3
 72
11
 73
7
 74
0
 42
0.0000001
 43
0.0000001
 44
0.0000000001
 40
0.0
 40
0.0
 40
0.0
 40
0.0
 40
0.2326388237
 40
0.4851731389
 40
0.7454078663
 40
1.0
 40
1.0
 40
1.0
 40
1.0
 10
35.8949207637
 20
65.5554624365
 30
0.0
 10
35.9097476143
 20
65.2842595423
 30
0.0
 10
36.0102842233
 20
64.7217012348
 30
0.0
 10
36.3221243442
 20
63.9048120379
 30
0.0
 10
36.7800531643
 20
63.1300469083
 30
0.0
 10
37.1722988123
 20
62.6694337866
 30
0.0
 10
37.3863018251
 20
62.4631488387
 30
0.0
  0
SPLINE
  5
44C
100
AcDbEntity
  8
0
100
AcDbSpline
 62
7
  6
CONTINUOUS
 70
0
 71
3
 72
16
 73
12
 74
0
 42
0.0000001
 43
0.0000001
 44
0.0000000001
 40
0.0
 40
0.0
 40
0.0
 40
0.0
 40
0.1422481741
 40
0.291094925
 40
0.4394044324
 40
0.5802748388
 40
0.7080107657
 40
0.8192226526
 40
0.9143636078
 40
0.9578092958
 40
1.0
 40
1.0
 40
1.0
 40
1.0
 10
28.3740236736
 20
69.6425699729
 30
0.0
 10
28.4213937183
 20
69.3799657972
 30
0.0
 10
28.5655025908
 20
68.85047257
 30
0.0
 10
28.8963012112
 20
68.0926847583
 30
0.0
 10
29.3299722061
 20
67.3912533954
 30
0.0
 10
29.8395109245
 20
66.7934464302
 30
0.0
 10
30.3939717922
 20
66.3384830546
 30
0.0
 10
30.9603905334
 20
66.0555042665
 30
0.0
 10
31.4354841523
 20
65.9826308936
 30
0.0
 10
31.772095278
 20
66.0416808109
 30
0.0
 10
31.9213703651
 20
66.1056448901
 30
0.0
 10
31.9898901362
 20
66.1452556699
 30
0.0
  0
SPLINE
  5
44D
100
AcDbEntity
  8
0
100
AcDbSpline
 62
7
  6
CONTINUOUS
 70
0
 71
3
 72
17
 73
13
 74
0
 42
0.0000001
 43
0.0000001
 44
0.0000000001
 40
0.0
 40
0.0
 40
0.0
 40
0.0
 40
0.148900878
 40
0.3031356933
 40
0.4548285118
 40
0.5967544914
 40
0.7230948415
 40
0.8305299285
 40
0.8773928627
 40
0.9203960909
 40
0.9607189917
 40
1.0
 40
1.0
 40
1.0
 40
1.0
 10
21.4853677899
 20
74.5457301761
 30
0.0
 10
21.5329153657
 20
74.2820469207
 30
0.0
 10
21.6701673066
 20
73.7520418428
 30
0.0
 10
21.975244461
 20
72.9904341774
 30
0.0
 10
22.368134648
 20
72.2841752312
 30
0.0
 10
22.825174867
 20
71.6785986129
 30
0.0
 10
23.318419811
 20
71.2113953141
 30
0.0
 10
23.7580405218
 20
70.9486465144
 30
0.0
 10
24.100154866
 20
70.8471596504
 30
0.0
 10
24.3352259469
 20
70.8253036144
 30
0.0
 10
24.5558200549
 20
70.8561725683
 30
0.0
 10
24.6897544235
 20
70.9120512036
 30
0.0
 10
24.7509531191
 20
70.9474183499
 30
0.0
  0
ELLIPSE
  5
44E
100
AcDbEntity
  8
0
100
AcDbEllipse
 62
7
  6
CONTINUOUS
 10
98.8130556191
 20
363.0046071492
 30
0.0
 11
-169.434726108
 21
293.3200726196
 31
0.0
 40
0.5772079276
 41
-3.8543273484
 42
-3.8184737643
  0
ELLIPSE
  5
44F
100
AcDbEntity
  8
0
100
AcDbEllipse
 62
7
  6
CONTINUOUS
 10
55.6359705162
 20
99.9386247503
 30
0.0
 11
1.8485039605
 21
-1.3123402061
 31
0.0
 40
0.363899505
 41
-2.771708655
 42
-2.6101418713
  0
ELLIPSE
  5
450
100
AcDbEntity
  8
0
100
AcDbEllipse
 62
7
  6
CONTINUOUS
 10
43.2615503261
 20
107.0828379544
 30
0.0
 11
1.8485211375
 21
-1.3122881076
 31
0.0
 40
0.3638632829
 41
-2.6784244253
 42
-2.5089456096
  0
ELLIPSE
  5
451
100
AcDbEntity
  8
0
100
AcDbEllipse
 62
7
  6
CONTINUOUS
 10
179.8273792423
 20
224.6594635412
 30
0.0
 11
138.1910787238
 21
1461.4560882749
 31
0.0
 40
0.0841067007
 41
-4.5879561535
 42
-4.5878250594
  0
ENDSEC
  0
SECTION
  2
OBJECTS
  0
DICTIONARY
  5
C
100
AcDbDictionary
280
0
281
1
  3
ACAD_GROUP
350
D
  3
ACAD_MLINESTYLE
350
17
  3
ACAD_LAYOUT
350
1A
  3
ACAD_PLOTSETTINGS
350
19
  3
ACAD_PLOTSTYLENAME
350
E
  0
DICTIONARY
  5
D
102
{ACAD_REACTORS
330
C
102
}
100
AcDbDictionary
280
0
281
1
  0
ACDBDICTIONARYWDFLT
  5
E
102
{ACAD_REACTORS
330
C
102
}
100
AcDbDictionary
281
1
  3
Normal
350
F
100
AcDbDictionaryWithDefault
340
F
  0
DICTIONARY
  5
17
102
{ACAD_REACTORS
330
C
102
}
100
AcDbDictionary
280
0
281
1
  3
Standard
350
18
  0
DICTIONARY
  5
19
102
{ACAD_REACTORS
330
C
102
}
100
AcDbDictionary
281
1
  0
DICTIONARY
  5
1A
102
{ACAD_REACTORS
330
C
102
}
100
AcDbDictionary
281
1
  3
Model
350
452
  3
Layout1
350
453
  0
ACDBPLACEHOLDER
  5
F
102
{ACAD_REACTORS
330
E
102
}
  0
MLINESTYLE
  5
18
102
{ACAD_REACTORS
330
17
102
}
100
AcDbMlineStyle
  2
STANDARD
 70
0
  3

 62
256
 51
90.0
 52
90.0
 71
2
 49
0.5
 62
256
  6
BYLAYER
 49
-0.5
 62
256
  6
BYLAYER
  0
LAYOUT
  5
452
102
{ACAD_REACTORS
330
1A
102
}
100
AcDbPlotSettings
  1

  2
none_device
  4

  6

 40
0.0
 41
0.0
 42
0.0
 43
0.0
 44
210.0
 45
297.0
 46
0.0
 47
0.0
 48
0.0
 49
0.0
140
0.0
141
0.0
142
1.0
143
1.0
 70
1024
 72
1
 73
0
 74
0
  7

 75
0
147
1.0
148
0.0
149
0.0
100
AcDbLayout
  1
Model
 70
0
 71
0
 10
0.0
 20
0.0
 11
210.0
 21
297.0
 12
0.0
 22
0.0
 32
0.0
 14
0.0
 24
0.0
 34
0.0
 15
0.0
 25
0.0
 35
0.0
146
0.0
 13
0.0
 23
0.0
 33
0.0
 16
1.0
 26
0.0
 36
0.0
 17
0.0
 27
1.0
 37
0.0
 76
0
330
213
345
0
346
0
  0
LAYOUT
  5
453
102
{ACAD_REACTORS
330
1A
102
}
100
AcDbPlotSettings
  1

  2
none_device
  4

  6

 40
0.0
 41
0.0
 42
0.0
 43
0.0
 44
210.0
 45
297.0
 46
0.0
 47
0.0
 48
0.0
 49
0.0
140
0.0
141
0.0
142
1.0
143
1.0
 70
0
 72
1
 73
0
 74
0
  7

 75
0
147
1.0
148
0.0
149
0.0
100
AcDbLayout
  1
Layout1
 70
0
 71
1
 10
0.0
 20
0.0
 11
210.0
 21
297.0
 12
0.0
 22
0.0
 32
0.0
 14
0.0
 24
0.0
 34
0.0
 15
0.0
 25
0.0
 35
0.0
146
0.0
 13
0.0
 23
0.0
 33
0.0
 16
1.0
 26
0.0
 36
0.0
 17
0.0
 27
1.0
 37
0.0
 76
0
330
214
345
0
346
0
  0
ENDSEC
  0
EOF
