  0
SECTION
  2
HEADER
  9
$ACADVER
  1
AC1009
  9
$DWGCODEPAGE
  3
ansi_1250
  9
$INSBASE
 10
0.0
 20
0.0
 30
0.0
  9
$EXTMIN
 10
-0.993
 20
-0.993
 30
0.0
  9
$EXTMAX
 10
0.993
 20
0.993
 30
0.0
  9
$LIMMIN
 10
0.0
 20
0.0
  9
$LIMMAX
 10
0.0
 20
0.0
  9
$ORTHOMODE
 70
     0
  9
$REGENMODE
 70
     1
  9
$FILLMODE
 70
     1
  9
$QTEXTMODE
 70
     0
  9
$MIRRTEXT
 70
     1
  9
$DRAGMODE
 70
     2
  9
$LTSCALE
 40
1.0
  9
$OSMODE
 70
     0
  9
$ATTMODE
 70
     1
  9
$TEXTSIZE
 40
0.2
  9
$TRACEWID
 40
0.05
  9
$TEXTSTYLE
  7
STANDARD
  9
$CLAYER
  8
0
  9
$CELTYPE
  6
CONTINUOUS
  9
$CECOLOR
 62
   256
  9
$DIMSCALE
 40
1.0
  9
$DIMASZ
 40
0.18
  9
$DIMEXO
 40
0.0625
  9
$DIMDLI
 40
0.38
  9
$DIMRND
 40
0.0
  9
$DIMDLE
 40
0.0
  9
$DIMEXE
 40
0.18
  9
$DIMTP
 40
0.0
  9
$DIMTM
 40
0.0
  9
$DIMTXT
 40
0.18
  9
$DIMCEN
 40
0.09
  9
$DIMTSZ
 40
0.0
  9
$DIMTOL
 70
     0
  9
$DIMLIM
 70
     0
  9
$DIMTIH
 70
     1
  9
$DIMTOH
 70
     1
  9
$DIMSE1
 70
     0
  9
$DIMSE2
 70
     0
  9
$DIMTAD
 70
     0
  9
$DIMZIN
 70
     0
  9
$DIMBLK
  1

  9
$DIMASO
 70
     1
  9
$DIMSHO
 70
     1
  9
$DIMPOST
  1

  9
$DIMAPOST
  1

  9
$DIMALT
 70
     0
  9
$DIMALTD
 70
     2
  9
$DIMALTF
 40
25.4
  9
$DIMLFAC
 40
1.0
  9
$DIMTOFL
 70
     0
  9
$DIMTVP
 40
0.0
  9
$DIMTIX
 70
     0
  9
$DIMSOXD
 70
     0
  9
$DIMSAH
 70
     0
  9
$DIMBLK1
  1

  9
$DIMBLK2
  1

  9
$DIMSTYLE
  2
STANDARD
  9
$DIMCLRD
 70
     0
  9
$DIMCLRE
 70
     0
  9
$DIMCLRT
 70
     0
  9
$DIMTFAC
 40
1.0
  9
$DIMGAP
 40
0.09
  9
$LUNITS
 70
     2
  9
$LUPREC
 70
     4
  9
$AXISMODE
 70
     0
  9
$AXISUNIT
 10
0.0
 20
0.0
  9
$SKETCHINC
 40
0.1
  9
$FILLETRAD
 40
0.0
  9
$AUNITS
 70
     0
  9
$AUPREC
 70
     0
  9
$MENU
  1
acad
  9
$ELEVATION
 40
0.0
  9
$PELEVATION
 40
0.0
  9
$THICKNESS
 40
0.0
  9
$LIMCHECK
 70
     0
  9
$BLIPMODE
 70
     1
  9
$CHAMFERA
 40
0.0
  9
$CHAMFERB
 40
0.0
  9
$SKPOLY
 70
     0
  9
$TDCREATE
 40
0.000000000
  9
$TDUPDATE
 40
0.000000000
  9
$TDINDWG
 40
0.0000000000
  9
$TDUSRTIMER
 40
0.0000000000
  9
$USRTIMER
 70
     1
  9
$ANGBASE
 50
0.0
  9
$ANGDIR
 70
     0
  9
$PDMODE
 70
     0
  9
$PDSIZE
 40
0.0
  9
$PLINEWID
 40
0.0
  9
$COORDS
 70
     0
  9
$SPLFRAME
 70
     0
  9
$SPLINETYPE
 70
     6
  9
$SPLINESEGS
 70
     8
  9
$ATTDIA
 70
     0
  9
$ATTREQ
 70
     1
  9
$HANDLING
 70
     1
  9
$HANDSEED
  5
BF
  9
$SURFTAB1
 70
     6
  9
$SURFTAB2
 70
     6
  9
$SURFTYPE
 70
     6
  9
$SURFU
 70
     6
  9
$SURFV
 70
     6
  9
$UCSNAME
  2

  9
$UCSORG
 10
0.0
 20
0.0
 30
0.0
  9
$UCSXDIR
 10
1.0
 20
0.0
 30
0.0
  9
$UCSYDIR
 10
0.0
 20
1.0
 30
0.0
  9
$PUCSNAME
  2

  9
$PUCSORG
 10
0.0
 20
0.0
 30
0.0
  9
$PUCSXDIR
 10
1.0
 20
0.0
 30
0.0
  9
$PUCSYDIR
 10
0.0
 20
1.0
 30
0.0
  9
$USERI1
 70
     0
  9
$USERI2
 70
     0
  9
$USERI3
 70
     0
  9
$USERI4
 70
     0
  9
$USERI5
 70
     0
  9
$USERR1
 40
0.0
  9
$USERR2
 40
0.0
  9
$USERR3
 40
0.0
  9
$USERR4
 40
0.0
  9
$USERR5
 40
0.0
  9
$WORLDVIEW
 70
     1
  9
$SHADEDGE
 70
     3
  9
$SHADEDIF
 70
    70
  9
$TILEMODE
 70
     1
  9
$MAXACTVP
 70
    16
  9
$PINSBASE
 10
0.0
 20
0.0
 30
0.0
  9
$PLIMCHECK
 70
     0
  9
$PEXTMIN
 10
1.000000E+20
 20
1.000000E+20
 30
1.000000E+20
  9
$PEXTMAX
 10
-1.000000E+20
 20
-1.000000E+20
 30
-1.000000E+20
  9
$PLIMMIN
 10
0.0
 20
0.0
  9
$PLIMMAX
 10
12.0
 20
9.0
  9
$UNITMODE
 70
     0
  9
$VISRETAIN
 70
     0
  9
$PLINEGEN
 70
     1
  9
$PSLTSCALE
 70
     0
  9
$TREEDEPTH
 70
  3020
  0
ENDSEC
  0
SECTION
  2
TABLES
  0
TABLE
  2
VPORT
 70
     1
  0
VPORT
  2
*ACTIVE
 70
     0
 10
0.0
 20
0.0
 11
1.0
 21
1.0
 12
6.591288
 22
4.579184
 13
0.0
 23
0.0
 14
1.0
 24
1.0
 15
0.0
 25
0.0
 16
0.0
 26
0.0
 36
1.0
 17
0.0
 27
0.0
 37
0.0
 40
9.158369
 41
0.688564
 42
50.0
 43
0.0
 44
0.0
 50
0.0
 51
0.0
 71
     0
 72
   100
 73
     1
 74
     1
 75
     0
 76
     0
 77
     0
 78
     0
  0
ENDTAB
  0
TABLE
  2
LTYPE
 70
     5
  0
LTYPE
  2
CONTINUOUS
 70
    64
  3
Solid line
 72
    65
 73
     0
 40
0.0
  0
LTYPE
  2
CENTER
 70
    64
  3
Center ____ _ ____ _ ____ _ ____ _ ____ _ ____
 72
    65
 73
     4
 40
50.8
 49
31.75
 49
-6.35
 49
6.35
 49
-6.35
  0
LTYPE
  2
HIDDEN
 70
    64
  3
Hidden __ __ __ __ __ __ __ __ __ __ __ __ __ __
 72
    65
 73
     2
 40
9.525
 49
6.35
 49
-3.175
  0
LTYPE
  2
CENTER2
 70
    64
  3
Center (.5x) ___ _ ___ _ ___ _ ___ _ ___ _ ___
 72
    65
 73
     4
 40
28.575
 49
19.05
 49
-3.175
 49
3.175
 49
-3.175
  0
LTYPE
  2
HIDDEN2
 70
    64
  3
Hidden (.5x) _ _ _ _ _ _ _ _ _ _ _ _ _ _ _ _ _
 72
    65
 73
     2
 40
4.7625
 49
3.175
 49
-1.5875
  0
ENDTAB
  0
TABLE
  2
LAYER
 70
     1
  0
LAYER
  2
0
 70
     0
 62
     7
  6
CONTINUOUS
  0
ENDTAB
  0
TABLE
  2
STYLE
 70
     1
  0
STYLE
  2
STANDARD
 70
     0
 40
0.0
 41
1.0
 50
0.0
 71
     0
 42
0.0
  3
txt
  4

  0
ENDTAB
  0
TABLE
  2
VIEW
 70
     0
  0
ENDTAB
  0
TABLE
  2
UCS
 70
     0
  0
ENDTAB
  0
TABLE
  2
APPID
 70
     1
  0
APPID
  2
ACAD
 70
     0
  0
ENDTAB
  0
TABLE
  2
DIMSTYLE
 70
     1
  0
DIMSTYLE
  2
STANDARD
 70
     0
  3

  4

  5

  6

  7

 40
1.0
 41
0.18
 42
0.0625
 43
0.38
 44
0.18
 45
0.0
 46
0.0
 47
0.0
 48
0.0
 71
     0
 72
     0
 73
     1
 74
     1
 75
     0
 76
     0
 77
     0
 78
     0
140
0.18
141
0.09
142
0.0
143
25.4
144
1.0
145
0.0
146
1.0
147
0.09
170
     0
171
     2
172
     0
173
     0
174
     0
175
     0
176
     0
177
     0
178
     0
  0
ENDTAB
  0
ENDSEC
  0
SECTION
  2
BLOCKS
  0
ENDSEC
  0
SECTION
  2
ENTITIES
  0
ARC
  8
0
  6
CONTINUOUS
 62
     7
  5
86
 10
0.0
 20
0.0
 30
0.0
 40
0.735
 50
24.331827
 51
65.668173
  0
ARC
  8
0
  6
CONTINUOUS
 62
     7
  5
87
 10
0.0
 20
0.0
 30
0.0
 40
0.735
 50
69.331827
 51
80.537899
  0
LINE
  8
0
  6
CONTINUOUS
 62
     7
  5
88
 10
0.12083
 20
0.725
 30
0.0
 11
-0.12083
 21
0.725
 31
0.0
  0
ARC
  8
0
  6
CONTINUOUS
 62
     7
  5
89
 10
0.0
 20
0.0
 30
0.0
 40
0.735
 50
99.462101
 51
110.668173
  0
ARC
  8
0
  6
CONTINUOUS
 62
     7
  5
8A
 10
0.0
 20
0.0
 30
0.0
 40
0.735
 50
339.288676
 51
350.537899
  0
LINE
  8
0
  6
CONTINUOUS
 62
     7
  5
8B
 10
0.725
 20
-0.12083
 30
0.0
 11
0.725
 21
0.12083
 31
0.0
  0
ARC
  8
0
  6
CONTINUOUS
 62
     7
  5
8C
 10
0.0
 20
0.0
 30
0.0
 40
0.735
 50
9.462101
 51
20.668173
  0
ARC
  8
0
  6
CONTINUOUS
 62
     7
  5
8D
 10
0.0
 20
0.0
 30
0.0
 40
0.735
 50
114.331827
 51
155.711324
  0
ARC
  8
0
  6
CONTINUOUS
 62
     7
  5
8E
 10
0.0
 20
0.0
 30
0.0
 40
0.735
 50
294.288676
 51
335.711324
  0
ARC
  8
0
  6
CONTINUOUS
 62
     7
  5
8F
 10
0.0
 20
0.0
 30
0.0
 40
0.735
 50
159.288676
 51
170.537899
  0
LINE
  8
0
  6
CONTINUOUS
 62
     7
  5
90
 10
-0.725
 20
0.12083
 30
0.0
 11
-0.725
 21
-0.12083
 31
0.0
  0
ARC
  8
0
  6
CONTINUOUS
 62
     7
  5
91
 10
0.0
 20
0.0
 30
0.0
 40
0.735
 50
189.462101
 51
200.668173
  0
ARC
  8
0
  6
CONTINUOUS
 62
     7
  5
92
 10
0.0
 20
0.0
 30
0.0
 40
0.735
 50
249.288676
 51
290.711324
  0
ARC
  8
0
  6
CONTINUOUS
 62
     7
  5
93
 10
0.0
 20
0.0
 30
0.0
 40
0.735
 50
204.331827
 51
245.711324
  0
CIRCLE
  8
0
  6
CONTINUOUS
 62
     7
  5
94
 10
0.0
 20
0.0
 30
0.0
 40
0.374016
  0
CIRCLE
  8
0
  6
CONTINUOUS
 62
     7
  5
95
 10
0.0
 20
0.0
 30
0.0
 40
0.472441
  0
CIRCLE
  8
0
  6
CONTINUOUS
 62
     7
  5
96
 10
0.0
 20
0.0
 30
0.0
 40
0.511811
  0
CIRCLE
  8
0
  6
CONTINUOUS
 62
     7
  5
97
 10
0.0
 20
0.0
 30
0.0
 40
0.629921
  0
LINE
  8
0
  6
CONTINUOUS
 62
     7
  5
98
 10
-0.6875
 20
-0.284772
 30
0.0
 11
-0.6875
 21
0.284772
 31
0.0
  0
LINE
  8
0
  6
CONTINUOUS
 62
     7
  5
99
 10
-0.284772
 20
-0.6875
 30
0.0
 11
-0.6875
 21
-0.284772
 31
0.0
  0
LINE
  8
0
  6
CONTINUOUS
 62
     7
  5
9A
 10
0.284772
 20
-0.6875
 30
0.0
 11
-0.284772
 21
-0.6875
 31
0.0
  0
LINE
  8
0
  6
CONTINUOUS
 62
     7
  5
9B
 10
0.6875
 20
-0.284772
 30
0.0
 11
0.284772
 21
-0.6875
 31
0.0
  0
LINE
  8
0
  6
CONTINUOUS
 62
     7
  5
9C
 10
0.6875
 20
0.284772
 30
0.0
 11
0.6875
 21
-0.284772
 31
0.0
  0
LINE
  8
0
  6
CONTINUOUS
 62
     7
  5
9D
 10
0.284772
 20
0.6875
 30
0.0
 11
0.6875
 21
0.284772
 31
0.0
  0
LINE
  8
0
  6
CONTINUOUS
 62
     7
  5
9E
 10
-0.284772
 20
0.6875
 30
0.0
 11
0.284772
 21
0.6875
 31
0.0
  0
LINE
  8
0
  6
CONTINUOUS
 62
     7
  5
9F
 10
-0.6875
 20
0.284772
 30
0.0
 11
-0.284772
 21
0.6875
 31
0.0
  0
CIRCLE
  8
0
  6
CONTINUOUS
 62
     7
  5
A0
 10
0.0
 20
0.0
 30
0.0
 40
0.619921
  0
LINE
  8
0
  6
CONTINUOUS
 62
     7
  5
A1
 10
-0.75
 20
0.21875
 30
0.0
 11
-0.75
 21
-0.21875
 31
0.0
  0
ARC
  8
0
  6
CONTINUOUS
 62
     7
  5
A2
 10
0.0
 20
0.0
 30
0.0
 40
0.78125
 50
16.260205
 51
163.739795
  0
LINE
  8
0
  6
CONTINUOUS
 62
     7
  5
A3
 10
0.75
 20
-0.21875
 30
0.0
 11
0.75
 21
0.21875
 31
0.0
  0
ARC
  8
0
  6
CONTINUOUS
 62
     7
  5
A4
 10
0.0
 20
0.0
 30
0.0
 40
0.78125
 50
196.260205
 51
343.739795
  0
CIRCLE
  8
0
  6
CONTINUOUS
 62
     7
  5
A5
 10
0.0
 20
0.0
 30
0.0
 40
0.799
  0
LINE
  8
0
  6
CONTINUOUS
 62
     7
  5
A6
 10
-0.844
 20
0.844
 30
0.0
 11
-0.232218
 21
0.844
 31
0.0
  0
LINE
  8
0
  6
CONTINUOUS
 62
     7
  5
A7
 10
-0.844
 20
0.230844
 30
0.0
 11
-0.844
 21
0.844
 31
0.0
  0
LINE
  8
0
  6
CONTINUOUS
 62
     7
  5
A8
 10
0.844
 20
0.844
 30
0.0
 11
0.844
 21
0.230844
 31
0.0
  0
LINE
  8
0
  6
CONTINUOUS
 62
     7
  5
A9
 10
0.232218
 20
0.844
 30
0.0
 11
0.844
 21
0.844
 31
0.0
  0
LINE
  8
0
  6
CONTINUOUS
 62
     7
  5
AA
 10
0.844
 20
-0.844
 30
0.0
 11
0.230844
 21
-0.844
 31
0.0
  0
LINE
  8
0
  6
CONTINUOUS
 62
     7
  5
AB
 10
0.844
 20
-0.230844
 30
0.0
 11
0.844
 21
-0.844
 31
0.0
  0
LINE
  8
0
  6
CONTINUOUS
 62
     7
  5
AC
 10
-0.844
 20
-0.844
 30
0.0
 11
-0.844
 21
-0.230844
 31
0.0
  0
LINE
  8
0
  6
CONTINUOUS
 62
     7
  5
AD
 10
-0.230844
 20
-0.844
 30
0.0
 11
-0.844
 21
-0.844
 31
0.0
  0
LINE
  8
0
  6
CONTINUOUS
 62
     7
  5
AE
 10
-0.230844
 20
-0.844
 30
0.0
 11
0.230844
 21
-0.844
 31
0.0
  0
ARC
  8
0
  6
CONTINUOUS
 62
     7
  5
AF
 10
0.0
 20
0.0
 30
0.0
 40
0.875
 50
285.296958
 51
344.703042
  0
LINE
  8
0
  6
CONTINUOUS
 62
     7
  5
B0
 10
0.844
 20
-0.230844
 30
0.0
 11
0.844
 21
0.230844
 31
0.0
  0
ARC
  8
0
  6
CONTINUOUS
 62
     7
  5
B1
 10
0.0
 20
0.0
 30
0.0
 40
0.875
 50
15.296958
 51
72.965391
  0
LINE
  8
0
  6
CONTINUOUS
 62
     7
  5
B2
 10
0.0625
 20
0.896
 30
0.0
 11
0.256331
 21
0.836612
 31
0.0
  0
ARC
  8
0
  6
CONTINUOUS
 62
     7
  5
B3
 10
0.0
 20
0.0
 30
0.0
 40
0.875
 50
195.296958
 51
254.703042
  0
LINE
  8
0
  6
CONTINUOUS
 62
     7
  5
B4
 10
-0.844
 20
0.230844
 30
0.0
 11
-0.844
 21
-0.230844
 31
0.0
  0
ARC
  8
0
  6
CONTINUOUS
 62
     7
  5
B5
 10
0.0
 20
0.0
 30
0.0
 40
0.875
 50
107.034609
 51
164.703042
  0
LINE
  8
0
  6
CONTINUOUS
 62
     7
  5
B6
 10
-0.256331
 20
0.836612
 30
0.0
 11
-0.0625
 21
0.896
 31
0.0
  0
LINE
  8
0
  6
CONTINUOUS
 62
     7
  5
B7
 10
-0.0625
 20
0.896
 30
0.0
 11
0.0625
 21
0.896
 31
0.0
  0
ARC
  8
0
  6
CONTINUOUS
 62
     7
  5
B8
 10
0.0
 20
0.0
 30
0.0
 40
0.78125
 50
0.0
 51
16.260205
  0
ARC
  8
0
  6
CONTINUOUS
 62
     7
  5
B9
 10
0.0
 20
0.0
 30
0.0
 40
0.78125
 50
163.739795
 51
196.260205
  0
ARC
  8
0
  6
CONTINUOUS
 62
     7
  5
BA
 10
0.0
 20
0.0
 30
0.0
 40
0.78125
 50
343.739795
 51
0.0
  0
LINE
  8
0
  6
CONTINUOUS
 62
     3
  5
BB
 10
-0.993
 20
0.0
 30
0.0
 11
0.993
 21
0.0
 31
0.0
  0
LINE
  8
0
  6
CONTINUOUS
 62
     3
  5
BC
 10
0.0
 20
-0.993
 30
0.0
 11
0.0
 21
0.993
 31
0.0
  0
ENDSEC
  0
EOF
