999
DXF file: C:\Users\sesa63760\Dev\_Creo\CAD\MCADID0005204_3D-CAD\drw0001_3.dxf
999
Pro/ENGINEER 2019471 by Parametric Technology Corporation
  0
SECTION
  2
HEADER
  9
$ACADVER
  1
AC1024
  9
$DWGCODEPAGE
  3
ANSI_1252
  9
$EXTMAX
 10
43.7569785867
 20
61.8848697155
 30
0.0
  9
$EXTMIN
 10
0.0
 20
0.0
 30
0.0
  9
$LIMMIN
 10
0.0
 20
0.0
  9
$LIMMAX
 10
43.7569785867
 20
61.8848697155
  9
$VIEWCTR
 10
21.8784892934
 20
30.9424348577
  9
$VIEWSIZE
 40
61.8848697155
  9
$CLAYER
  8
0
  9
$LTSCALE
 40
4.0339766926
  9
$CELTYPE
  6
BYLAYER
  9
$DIMSCALE
 40
1.0
  9
$DIMASZ
 40
0.5209164117
  9
$DIMEXO
 40
1.0
  9
$DIMDLI
 40
2.7871111694
  9
$DIMEXE
 40
1.0
  9
$DIMCEN
 40
0.660105277
  9
$DIMLFAC
 40
1.0
  9
$DIMBLK
  1
_FILLED
  9
$DIMALT
 70
0
  9
$DIMALTF
 40
0.0393700787
  9
$DIMTXT
 40
0.7292829764
  9
$DIMTOL
 70
1
  9
$DIMLIM
 70
0
  9
$DIMTFAC
 40
1.0
  9
$DIMTP
 40
0.01
  9
$DIMTM
 40
0.01
  9
$DIMGAP
 40
0.625
  9
$DIMDSEP
 70
46
  9
$AUNITS
 70
0
  9
$PDMODE
 70
3
  9
$PDSIZE
 40
0.3125
  9
$HANDSEED
  5
2D8
  9
$TILEMODE
 70
1
  9
$MEASUREMENT
 70
1
  9
$INSUNITS
 70
4
  0
ENDSEC
  0
SECTION
  2
CLASSES
  0
CLASS
  1
ACDBDICTIONARYWDFLT
  2
AcDbDictionaryWithDefault
  3
AutoCAD 2000
 90
0
 91
1
280
0
281
0
  0
CLASS
  1
ACDBPLACEHOLDER
  2
AcDbPlaceHolder
  3
AutoCAD 2000
 90
0
 91
1
280
0
281
0
  0
CLASS
  1
LAYOUT
  2
AcDbLayout
  3
AutoCAD 2000
 90
0
 91
0
280
0
281
0
  0
ENDSEC
  0
SECTION
  2
TABLES
  0
TABLE
  2
VPORT
  5
8
100
AcDbSymbolTable
 70
2
  0
VPORT
  5
1F4
100
AcDbSymbolTableRecord
100
AcDbViewportTableRecord
  2
*ACTIVE
 70
0
 10
0.0
 20
0.0
 11
1.0
 21
1.0
 12
21.8784892934
 22
30.9424348577
 13
0.0
 23
0.0
 14
1.0
 24
1.0
 15
0.0
 25
0.0
 16
0.0
 26
0.0
 36
1.0
 17
0.0
 27
0.0
 37
0.0
 40
61.8848697155
 41
0.7070707071
 42
50.0
 43
0.0
 44
0.0
 50
0.0
 51
0.0
 71
0
 72
100
 73
1
 74
1
 75
0
 76
0
 77
0
 78
0
  0
ENDTAB
  0
TABLE
  2
LTYPE
  5
5
100
AcDbSymbolTable
 70
6
  0
LTYPE
  5
14
100
AcDbSymbolTableRecord
100
AcDbLinetypeTableRecord
  2
BYBLOCK
 70
0
  3

 72
65
 73
0
 40
0.0
  0
LTYPE
  5
15
100
AcDbSymbolTableRecord
100
AcDbLinetypeTableRecord
  2
BYLAYER
 70
0
  3

 72
65
 73
0
 40
0.0
  0
LTYPE
  5
16
100
AcDbSymbolTableRecord
100
AcDbLinetypeTableRecord
  2
CONTINUOUS
 70
64
  3
Solid line
 72
65
 73
0
 40
0.0
  0
LTYPE
  5
1F5
100
AcDbSymbolTableRecord
100
AcDbLinetypeTableRecord
  2
CENTER
 70
64
  3
____ _ ____ _ ____ _ ____ _ ____ _ ____ _ ____
 72
65
 73
4
 40
0.6
 49
0.375
 74
0
 49
-0.075
 74
0
 49
0.075
 74
0
 49
-0.075
 74
0
  0
LTYPE
  5
1F6
100
AcDbSymbolTableRecord
100
AcDbLinetypeTableRecord
  2
HIDDEN
 70
64
  3
- - - - - - - - - - - - - - - - - - - -
 72
65
 73
2
 40
0.2
 49
0.1
 74
0
 49
-0.1
 74
0
  0
LTYPE
  5
1F7
100
AcDbSymbolTableRecord
100
AcDbLinetypeTableRecord
  2
PHANTOM
 70
64
  3
_____ _ _ _____ _ _ _____ _ _ _____
 72
65
 73
6
 40
0.8
 49
0.45
 74
0
 49
-0.05
 74
0
 49
0.1
 74
0
 49
-0.05
 74
0
 49
0.1
 74
0
 49
-0.05
 74
0
  0
LTYPE
  5
1F8
100
AcDbSymbolTableRecord
100
AcDbLinetypeTableRecord
  2
DOT
 70
64
  3
. . . . . . . . . . . . . . . . . . . .
 72
65
 73
2
 40
0.2
 49
0.1
 74
0
 49
-0.1
 74
0
  0
LTYPE
  5
1F9
100
AcDbSymbolTableRecord
100
AcDbLinetypeTableRecord
  2
DASHED
 70
64
  3
- - - - - - - - - - - - - - - - - - - -
 72
65
 73
2
 40
0.2
 49
0.1
 74
0
 49
-0.1
 74
0
  0
ENDTAB
  0
TABLE
  2
LAYER
  5
2
100
AcDbSymbolTable
 70
36
  0
LAYER
  5
10
100
AcDbSymbolTableRecord
100
AcDbLayerTableRecord
  2
0
 70
0
 62
7
  6
CONTINUOUS
370
-3
390
F
  0
LAYER
  5
1FA
100
AcDbSymbolTableRecord
100
AcDbLayerTableRecord
  2
DEFAULT_1
 70
0
 62
7
  6
CENTER
370
-3
390
F
  0
LAYER
  5
1FB
100
AcDbSymbolTableRecord
100
AcDbLayerTableRecord
  2
DEFAULT_2
 70
0
 62
7
  6
HIDDEN
370
-3
390
F
  0
LAYER
  5
1FC
100
AcDbSymbolTableRecord
100
AcDbLayerTableRecord
  2
DEFAULT_3
 70
0
 62
7
  6
PHANTOM
370
-3
390
F
  0
LAYER
  5
1FD
100
AcDbSymbolTableRecord
100
AcDbLayerTableRecord
  2
00_COMPONENTS
 70
0
 62
7
  6
CONTINUOUS
370
-3
390
F
  0
LAYER
  5
1FE
100
AcDbSymbolTableRecord
100
AcDbLayerTableRecord
  2
01_1_DEFAULT_DATUMS
 70
0
 62
7
  6
CONTINUOUS
370
-3
390
F
  0
LAYER
  5
1FF
100
AcDbSymbolTableRecord
100
AcDbLayerTableRecord
  2
01_PLANES
 70
0
 62
7
  6
CONTINUOUS
370
-3
390
F
  0
LAYER
  5
200
100
AcDbSymbolTableRecord
100
AcDbLayerTableRecord
  2
02_COORD_SYS
 70
0
 62
7
  6
CONTINUOUS
370
-3
390
F
  0
LAYER
  5
201
100
AcDbSymbolTableRecord
100
AcDbLayerTableRecord
  2
03_AXES
 70
0
 62
7
  6
CONTINUOUS
370
-3
390
F
  0
LAYER
  5
202
100
AcDbSymbolTableRecord
100
AcDbLayerTableRecord
  2
04_POINTS
 70
0
 62
7
  6
CONTINUOUS
370
-3
390
F
  0
LAYER
  5
203
100
AcDbSymbolTableRecord
100
AcDbLayerTableRecord
  2
05_CURVES
 70
0
 62
7
  6
CONTINUOUS
370
-3
390
F
  0
LAYER
  5
204
100
AcDbSymbolTableRecord
100
AcDbLayerTableRecord
  2
06_SURFS
 70
0
 62
7
  6
CONTINUOUS
370
-3
390
F
  0
LAYER
  5
205
100
AcDbSymbolTableRecord
100
AcDbLayerTableRecord
  2
07_COSMETICS
 70
0
 62
7
  6
CONTINUOUS
370
-3
390
F
  0
LAYER
  5
206
100
AcDbSymbolTableRecord
100
AcDbLayerTableRecord
  2
10_NOTES
 70
0
 62
7
  6
CONTINUOUS
370
-3
390
F
  0
LAYER
  5
207
100
AcDbSymbolTableRecord
100
AcDbLayerTableRecord
  2
11_NOTES_PUB
 70
0
 62
7
  6
CONTINUOUS
370
-3
390
F
  0
LAYER
  5
208
100
AcDbSymbolTableRecord
100
AcDbLayerTableRecord
  2
13_REF_GTOL
 70
0
 62
7
  6
CONTINUOUS
370
-3
390
F
  0
LAYER
  5
209
100
AcDbSymbolTableRecord
100
AcDbLayerTableRecord
  2
16_MISC
 70
0
 62
7
  6
CONTINUOUS
370
-3
390
F
  0
LAYER
  5
20A
100
AcDbSymbolTableRecord
100
AcDbLayerTableRecord
  2
17_NO_PRINT
 70
0
 62
7
  6
CONTINUOUS
370
-3
390
F
  0
LAYER
  5
20B
100
AcDbSymbolTableRecord
100
AcDbLayerTableRecord
  2
18_DATUM_CAMS_JOINTS
 70
0
 62
7
  6
CONTINUOUS
370
-3
390
F
  0
LAYER
  5
20C
100
AcDbSymbolTableRecord
100
AcDbLayerTableRecord
  2
19_DATUM_FUNCTIONAL
 70
0
 62
7
  6
CONTINUOUS
370
-3
390
F
  0
LAYER
  5
20D
100
AcDbSymbolTableRecord
100
AcDbLayerTableRecord
  2
20_DATUM_KINEMATIC_SCHEME
 70
0
 62
7
  6
CONTINUOUS
370
-3
390
F
  0
ENDTAB
  0
TABLE
  2
STYLE
  5
3
100
AcDbSymbolTable
 70
1
  0
STYLE
  5
11
100
AcDbSymbolTableRecord
100
AcDbTextStyleTableRecord
  2
STANDARD
 70
0
 40
0.0
 41
1.0
 50
0.0
 71
0
 42
0.2
  3
ARIAL.TTF
  4

  0
STYLE
  5
20E
100
AcDbSymbolTableRecord
100
AcDbTextStyleTableRecord
  2
TEXTSTYLE_1
 70
0
 40
0.0
 41
0.8
 50
0.0
 71
0
 42
0.2
  3
gdt
  4

  0
ENDTAB
  0
TABLE
  2
VIEW
  5
6
100
AcDbSymbolTable
 70
0
  0
ENDTAB
  0
TABLE
  2
UCS
  5
7
100
AcDbSymbolTable
 70
0
  0
ENDTAB
  0
TABLE
  2
APPID
  5
9
100
AcDbSymbolTable
 70
1
  0
APPID
  5
20F
100
AcDbSymbolTableRecord
100
AcDbRegAppTableRecord
  2
ACAD
 70
0
  0
ENDTAB
  0
TABLE
  2
BLOCK_RECORD
  5
1
100
AcDbSymbolTable
 70
0
  0
BLOCK_RECORD
  5
210
100
AcDbSymbolTableRecord
100
AcDbBlockTableRecord
  2
*Model_Space
  0
BLOCK_RECORD
  5
211
100
AcDbSymbolTableRecord
100
AcDbBlockTableRecord
  2
*Paper_Space
  0
BLOCK_RECORD
  5
212
100
AcDbSymbolTableRecord
100
AcDbBlockTableRecord
  2
_FILLED
  0
ENDTAB
  0
TABLE
  2
DIMSTYLE
  5
A
100
AcDbSymbolTable
 70
1
100
AcDbDimStyleTable
 71
0
  0
DIMSTYLE
105
213
100
AcDbSymbolTableRecord
100
AcDbDimStyleTableRecord
  2
STANDARD
 70
0
  3

  4

 40
1.0
 41
0.5209164117
 42
1.0
 43
0.38
 44
1.0
 45
0.0
 46
0.0
 47
0.01
 48
0.01
140
0.7292829764
141
0.09
142
0.0
143
25.4
144
1.0
145
0.0
146
1.0
147
0.625
 71
1
 72
0
 73
0
 74
0
 75
0
 76
0
 77
1
 78
8
 79
2
170
0
171
1
172
0
173
0
174
0
175
0
176
0
177
0
178
0
270
2
179
2
271
2
272
2
273
2
274
2
275
0
280
0
281
0
282
0
283
1
284
8
285
0
286
0
287
3
288
0
340
11
278
46
341
212
342
212
343
212
344
212
  0
ENDTAB
  0
ENDSEC
  0
SECTION
  2
BLOCKS
  0
BLOCK
  5
20
100
AcDbEntity
  8
0
100
AcDbBlockBegin
  2
*Model_Space
 70
0
 10
0.0
 20
0.0
 30
0.0
  3
*Model_Space
  1

  0
ENDBLK
  5
21
100
AcDbEntity
  8
0
100
AcDbBlockEnd
  0
BLOCK
  5
1C
100
AcDbEntity
  8
0
100
AcDbBlockBegin
  2
*Paper_Space
 70
0
 10
0.0
 20
0.0
 30
0.0
  3
*Paper_Space
  1

  0
ENDBLK
  5
1D
100
AcDbEntity
  8
0
100
AcDbBlockEnd
  0
BLOCK
  5
214
100
AcDbEntity
  8
0
100
AcDbBlockBegin
  2
_FILLED
 70
64
 10
0.0
 20
0.0
  3
_FILLED
  1

  0
SOLID
  5
215
100
AcDbEntity
  8
0
  6
BYBLOCK
 62
0
100
AcDbTrace
 10
0.0
 20
0.0
 11
-1.0
 21
0.25
 12
-1.0
 22
-0.25
 13
-1.0
 23
-0.25
  0
ENDBLK
  5
216
100
AcDbEntity
  8
0
  6
BYBLOCK
 62
0
100
AcDbBlockEnd
  0
ENDSEC
  0
SECTION
  2
ENTITIES
  0
LINE
  5
217
100
AcDbEntity
  8
0
100
AcDbLine
 62
7
  6
BYLAYER
 10
9.63446109
 20
56.5845757483
 11
8.2538843189
 21
56.1536239654
  0
LWPOLYLINE
  5
218
100
AcDbEntity
  8
0
100
AcDbPolyline
 62
7
  6
BYLAYER
 90
4
 70
0
 10
29.3127877903
 20
4.9648813551
 10
29.6506409405
 20
5.0272159264
 10
30.0444359949
 20
5.1505395493
 10
30.3844610897
 20
5.2023772496
  0
LINE
  5
219
100
AcDbEntity
  8
0
100
AcDbLine
 62
7
  6
BYLAYER
 10
29.3127506605
 20
4.9648817365
 11
29.3095441899
 21
4.9648625525
  0
LINE
  5
21A
100
AcDbEntity
  8
0
100
AcDbLine
 62
7
  6
BYLAYER
 10
26.9844610897
 20
4.9648625525
 11
36.8644610897
 21
4.9648625525
  0
LINE
  5
21B
100
AcDbEntity
  8
0
100
AcDbLine
 62
7
  6
BYLAYER
 10
30.3844610897
 20
5.2023764243
 11
33.384443558
 21
5.2023764243
  0
LINE
  5
21C
100
AcDbEntity
  8
0
100
AcDbLine
 62
7
  6
BYLAYER
 10
34.4593769651
 20
4.9648625525
 11
34.4564603838
 21
4.9648784424
  0
LINE
  5
21D
100
AcDbEntity
  8
0
100
AcDbLine
 62
7
  6
BYLAYER
 10
33.3844450102
 20
5.2914441849
 11
30.384461914
 21
5.2914441849
  0
LINE
  5
21E
100
AcDbEntity
  8
0
100
AcDbLine
 62
7
  6
BYLAYER
 10
26.9844610897
 20
5.6869228681
 11
36.8644610897
 21
5.686922868
  0
LINE
  5
21F
100
AcDbEntity
  8
0
100
AcDbLine
 62
7
  6
BYLAYER
 10
36.7823923718
 20
6.1575534218
 11
34.8644610897
 21
6.1575534218
  0
LINE
  5
220
100
AcDbEntity
  8
0
100
AcDbLine
 62
7
  6
BYLAYER
 10
28.9844610897
 20
6.1575534218
 11
27.0665298075
 21
6.1575534218
  0
LINE
  5
221
100
AcDbEntity
  8
0
100
AcDbLine
 62
7
  6
BYLAYER
 10
36.5108691312
 20
6.2919115749
 11
34.8644610897
 21
6.2919115749
  0
LINE
  5
222
100
AcDbEntity
  8
0
100
AcDbLine
 62
7
  6
BYLAYER
 10
28.9844610897
 20
6.291911575
 11
27.3380530482
 21
6.291911575
  0
LWPOLYLINE
  5
223
100
AcDbEntity
  8
0
100
AcDbPolyline
 62
7
  6
BYLAYER
 90
4
 70
0
 10
33.3844435636
 20
5.2023772508
 10
33.7191586722
 20
5.151982671
 10
34.1128186278
 20
5.0288733575
 10
34.4564434184
 20
4.964878368
  0
LINE
  5
224
100
AcDbEntity
  8
0
100
AcDbLine
 62
7
  6
BYLAYER
 10
26.9844610897
 20
7.5648625525
 11
26.9344610897
 21
7.5648625525
  0
LINE
  5
225
100
AcDbEntity
  8
0
100
AcDbLine
 62
7
  6
BYLAYER
 10
27.2045026582
 20
7.8280408542
 11
28.9844610897
 21
7.8280408542
  0
LINE
  5
226
100
AcDbEntity
  8
0
100
AcDbLine
 62
7
  6
BYLAYER
 10
34.8644610897
 20
7.8280408541
 11
36.6444195212
 21
7.8280408541
  0
LINE
  5
227
100
AcDbEntity
  8
0
100
AcDbLine
 62
7
  6
BYLAYER
 10
27.0665298075
 20
7.8936827011
 11
28.9844610897
 21
7.893682701
  0
LINE
  5
228
100
AcDbEntity
  8
0
100
AcDbLine
 62
7
  6
BYLAYER
 10
34.8644610897
 20
7.893682701
 11
36.7823923718
 21
7.893682701
  0
LINE
  5
229
100
AcDbEntity
  8
0
100
AcDbLine
 62
7
  6
BYLAYER
 10
26.9844610897
 20
8.8148625525
 11
36.8644610897
 21
8.8148625525
  0
LINE
  5
22A
100
AcDbEntity
  8
0
100
AcDbLine
 62
7
  6
BYLAYER
 10
36.7344610897
 20
9.3618848587
 11
36.7844610897
 21
9.3618848587
  0
LINE
  5
22B
100
AcDbEntity
  8
0
100
AcDbLine
 62
7
  6
BYLAYER
 10
26.9344610897
 20
9.3648625525
 11
26.9844610897
 21
9.3648625525
  0
LINE
  5
22C
100
AcDbEntity
  8
0
100
AcDbLine
 62
7
  6
BYLAYER
 10
34.7844610897
 20
10.1148625525
 11
26.9844610897
 21
10.1148625525
  0
LINE
  5
22D
100
AcDbEntity
  8
0
100
AcDbLine
 62
7
  6
BYLAYER
 10
34.7844610897
 20
13.0148625525
 11
26.9844610897
 21
13.0148625525
  0
LINE
  5
22E
100
AcDbEntity
  8
0
100
AcDbLine
 62
7
  6
BYLAYER
 10
36.7344610897
 20
14.4618848587
 11
34.7844610897
 21
14.4618848587
  0
LINE
  5
22F
100
AcDbEntity
  8
0
100
AcDbLine
 62
7
  6
BYLAYER
 10
36.7344610897
 20
14.5631242404
 11
34.7844610897
 21
14.5631242404
  0
LINE
  5
230
100
AcDbEntity
  8
0
100
AcDbLine
 62
7
  6
BYLAYER
 10
34.7844610897
 20
14.5661019342
 11
26.9844610897
 21
14.5661019343
  0
LINE
  5
231
100
AcDbEntity
  8
0
100
AcDbLine
 62
7
  6
BYLAYER
 10
7.5344610898
 20
25.5678402464
 11
7.5344610899
 21
35.3678402464
  0
LINE
  5
232
100
AcDbEntity
  8
0
100
AcDbLine
 62
7
  6
BYLAYER
 10
7.8194610899
 20
35.3678402464
 11
7.8194610899
 21
41.3678402464
  0
LINE
  5
233
100
AcDbEntity
  8
0
100
AcDbLine
 62
7
  6
BYLAYER
 10
8.3202448079
 20
50.5678402464
 11
8.3202448079
 21
49.1678402464
  0
LINE
  5
234
100
AcDbEntity
  8
0
100
AcDbLine
 62
7
  6
BYLAYER
 10
8.2538843189
 20
56.1536239654
 11
8.2344610899
 21
50.5678402465
  0
LINE
  5
235
100
AcDbEntity
  8
0
100
AcDbLine
 62
7
  6
BYLAYER
 10
33.1016337156
 20
18.9006198012
 11
34.4744610898
 21
19.1577548942
  0
LINE
  5
236
100
AcDbEntity
  8
0
100
AcDbLine
 62
7
  6
BYLAYER
 10
34.7844610897
 20
15.3123374273
 11
36.7344610897
 21
15.3123374272
  0
LINE
  5
237
100
AcDbEntity
  8
0
100
AcDbLine
 62
7
  6
BYLAYER
 10
26.9844610897
 20
15.3153151211
 11
34.7844610897
 21
15.315315121
  0
LINE
  5
238
100
AcDbEntity
  8
0
100
AcDbLine
 62
7
  6
BYLAYER
 10
30.8844610897
 20
15.5648625525
 11
34.7844610897
 21
15.5648625525
  0
LINE
  5
239
100
AcDbEntity
  8
0
100
AcDbLine
 62
7
  6
BYLAYER
 10
36.7344610897
 20
17.2448625525
 11
31.2844610897
 21
17.2448625525
  0
LINE
  5
23A
100
AcDbEntity
  8
0
100
AcDbLine
 62
7
  6
BYLAYER
 10
36.4844610897
 20
17.2743150041
 11
30.8844610897
 21
17.2743150041
  0
LINE
  5
23B
100
AcDbEntity
  8
0
100
AcDbLine
 62
7
  6
BYLAYER
 10
34.7844610897
 20
15.9064879123
 11
31.2844610897
 21
15.9069324076
  0
LINE
  5
23C
100
AcDbEntity
  8
0
100
AcDbLine
 62
7
  6
BYLAYER
 10
8.9094610899
 20
49.1678402464
 11
8.9094610899
 21
47.9178402464
  0
LINE
  5
23D
100
AcDbEntity
  8
0
100
AcDbLine
 62
7
  6
BYLAYER
 10
10.13446109
 20
56.7178402464
 11
10.13446109
 21
56.5845757483
  0
LINE
  5
23E
100
AcDbEntity
  8
0
100
AcDbLine
 62
7
  6
BYLAYER
 10
22.8854871297
 20
46.9678402464
 11
21.3619322235
 21
46.1429672831
  0
LINE
  5
23F
100
AcDbEntity
  8
0
100
AcDbLine
 62
7
  6
BYLAYER
 10
34.4744610898
 20
20.8266858324
 11
32.0744610898
 21
20.3771579203
  0
LINE
  5
240
100
AcDbEntity
  8
0
100
AcDbLine
 62
7
  6
BYLAYER
 10
30.8844610897
 20
17.5740002788
 11
26.9844610897
 21
17.5740002789
  0
LINE
  5
241
100
AcDbEntity
  8
0
100
AcDbLine
 62
7
  6
BYLAYER
 10
34.6044610897
 20
17.6489215975
 11
26.9844610897
 21
17.6489215975
  0
LINE
  5
242
100
AcDbEntity
  8
0
100
AcDbLine
 62
7
  6
BYLAYER
 10
36.7844610897
 20
17.8362248942
 11
34.6044610897
 21
17.8362248942
  0
LINE
  5
243
100
AcDbEntity
  8
0
100
AcDbLine
 62
7
  6
BYLAYER
 10
26.9844610898
 20
18.9006198012
 11
34.6044610898
 21
18.9006198012
  0
LINE
  5
244
100
AcDbEntity
  8
0
100
AcDbLine
 62
7
  6
BYLAYER
 10
10.8594546532
 20
41.3678402464
 11
10.8594546532
 21
41.5678402464
  0
LINE
  5
245
100
AcDbEntity
  8
0
100
AcDbLine
 62
7
  6
BYLAYER
 10
11.6094610899
 20
47.9178402464
 11
11.6094610899
 21
44.9678402464
  0
LINE
  5
246
100
AcDbEntity
  8
0
100
AcDbLine
 62
7
  6
BYLAYER
 10
11.6194610899
 20
41.3678402464
 11
11.6194610899
 21
35.3678402464
  0
LINE
  5
247
100
AcDbEntity
  8
0
100
AcDbLine
 62
7
  6
BYLAYER
 10
11.9844610899
 20
44.9678402464
 11
11.9844610899
 21
41.5678402464
  0
LINE
  5
248
100
AcDbEntity
  8
0
100
AcDbLine
 62
7
  6
BYLAYER
 10
30.8844610898
 20
19.4648625525
 11
31.2844610898
 21
19.4648625525
  0
LINE
  5
249
100
AcDbEntity
  8
0
100
AcDbLine
 62
7
  6
BYLAYER
 10
34.6044610898
 20
20.7512544587
 11
34.4744610898
 21
20.7512544587
  0
LINE
  5
24A
100
AcDbEntity
  8
0
100
AcDbLine
 62
7
  6
BYLAYER
 10
34.0717379397
 20
20.7512544587
 11
26.9844610898
 21
20.7512544587
  0
LINE
  5
24B
100
AcDbEntity
  8
0
100
AcDbLine
 62
7
  6
BYLAYER
 10
26.9844610898
 20
21.1258610522
 11
34.6044610898
 21
21.1258610521
  0
LINE
  5
24C
100
AcDbEntity
  8
0
100
AcDbLine
 62
7
  6
BYLAYER
 10
13.8344610898
 20
26.0181734564
 11
13.8344610898
 21
31.8678402464
  0
LINE
  5
24D
100
AcDbEntity
  8
0
100
AcDbLine
 62
7
  6
BYLAYER
 10
13.9468970345
 20
41.3678402464
 11
13.9468970345
 21
41.5678402464
  0
LINE
  5
24E
100
AcDbEntity
  8
0
100
AcDbLine
 62
7
  6
BYLAYER
 10
26.9844610898
 20
21.7648625525
 11
26.9344610898
 21
21.7648625525
  0
LINE
  5
24F
100
AcDbEntity
  8
0
100
AcDbLine
 62
7
  6
BYLAYER
 10
34.6044610898
 20
22.3775592558
 11
26.9844610898
 21
22.3775592558
  0
LINE
  5
250
100
AcDbEntity
  8
0
100
AcDbLine
 62
7
  6
BYLAYER
 10
36.7844610898
 20
22.5648625525
 11
34.6044610898
 21
22.5648625525
  0
LINE
  5
251
100
AcDbEntity
  8
0
100
AcDbLine
 62
7
  6
BYLAYER
 10
36.7344610898
 20
22.6248625525
 11
31.2844610898
 21
22.6248625525
  0
LINE
  5
252
100
AcDbEntity
  8
0
100
AcDbLine
 62
7
  6
BYLAYER
 10
30.8844610898
 20
22.9059632304
 11
31.2844610898
 21
22.9059632304
  0
LINE
  5
253
100
AcDbEntity
  8
0
100
AcDbLine
 62
7
  6
BYLAYER
 10
34.7844610898
 20
23.0348625525
 11
31.2844610898
 21
23.0348625525
  0
LINE
  5
254
100
AcDbEntity
  8
0
100
AcDbLine
 62
7
  6
BYLAYER
 10
30.8844610898
 20
23.1729827371
 11
33.9844610898
 21
23.1729827371
  0
LINE
  5
255
100
AcDbEntity
  8
0
100
AcDbLine
 62
7
  6
BYLAYER
 10
34.2844610898
 20
23.2703954519
 11
30.8844610898
 21
23.2703954519
  0
LINE
  5
256
100
AcDbEntity
  8
0
100
AcDbLine
 62
7
  6
BYLAYER
 10
15.7344610899
 20
35.3678402464
 11
15.7344610899
 21
41.3678402464
  0
LINE
  5
257
100
AcDbEntity
  8
0
100
AcDbLine
 62
7
  6
BYLAYER
 10
15.8344610898
 20
26.306848591
 11
15.8344610898
 21
31.8678402464
  0
LINE
  5
258
100
AcDbEntity
  8
0
100
AcDbLine
 62
7
  6
BYLAYER
 10
21.2889266403
 20
46.076321719
 11
20.889786518
 21
45.0209846237
  0
LINE
  5
259
100
AcDbEntity
  8
0
100
AcDbLine
 62
7
  6
BYLAYER
 10
30.8844610898
 20
23.3648625525
 11
34.7844610898
 21
23.3648625525
  0
LINE
  5
25A
100
AcDbEntity
  8
0
100
AcDbLine
 62
7
  6
BYLAYER
 10
36.7344610898
 20
23.5618848587
 11
36.7844610898
 21
23.5618848587
  0
LINE
  5
25B
100
AcDbEntity
  8
0
100
AcDbLine
 62
7
  6
BYLAYER
 10
26.9344610898
 20
23.5648625525
 11
26.9844610898
 21
23.5648625525
  0
LINE
  5
25C
100
AcDbEntity
  8
0
100
AcDbLine
 62
7
  6
BYLAYER
 10
36.7344610898
 20
24.6948463318
 11
35.7844610898
 21
24.6948463318
  0
LINE
  5
25D
100
AcDbEntity
  8
0
100
AcDbLine
 62
7
  6
BYLAYER
 10
27.9844610898
 20
24.7678402463
 11
26.9844610898
 21
24.7678402463
  0
LINE
  5
25E
100
AcDbEntity
  8
0
100
AcDbLine
 62
7
  6
BYLAYER
 10
26.9844610898
 20
24.8831418037
 11
27.9844610898
 21
24.8831418037
  0
LINE
  5
25F
100
AcDbEntity
  8
0
100
AcDbLine
 62
7
  6
BYLAYER
 10
35.7844610898
 20
24.8870155941
 11
36.7344610898
 21
24.8870155941
  0
LINE
  5
260
100
AcDbEntity
  8
0
100
AcDbLine
 62
7
  6
BYLAYER
 10
20.889786518
 20
45.0209846237
 11
20.8854871297
 21
44.9982247403
  0
LINE
  5
261
100
AcDbEntity
  8
0
100
AcDbLine
 62
7
  6
BYLAYER
 10
29.4844610898
 20
25.3502273369
 11
34.2844610898
 21
25.3502273368
  0
LINE
  5
262
100
AcDbEntity
  8
0
100
AcDbLine
 62
7
  6
BYLAYER
 10
37.4344610898
 20
25.5678402463
 11
25.6164643667
 21
25.5678402463
  0
LINE
  5
263
100
AcDbEntity
  8
0
100
AcDbLine
 62
7
  6
BYLAYER
 10
20.1545098925
 20
25.5678402464
 11
7.5344610898
 21
25.5678402464
  0
LINE
  5
264
100
AcDbEntity
  8
0
100
AcDbLine
 62
7
  6
BYLAYER
 10
7.5344610898
 20
26.0181734564
 11
13.8344610898
 21
26.0181734564
  0
LINE
  5
265
100
AcDbEntity
  8
0
100
AcDbLine
 62
7
  6
BYLAYER
 10
31.1344610898
 20
26.0181734563
 11
37.4344610898
 21
26.0181734562
  0
LINE
  5
266
100
AcDbEntity
  8
0
100
AcDbLine
 62
7
  6
BYLAYER
 10
13.8344610898
 20
26.306848591
 11
15.8344610898
 21
26.306848591
  0
LINE
  5
267
100
AcDbEntity
  8
0
100
AcDbLine
 62
7
  6
BYLAYER
 10
29.1344610898
 20
26.8841988601
 11
31.1344610898
 21
26.8841988601
  0
LINE
  5
268
100
AcDbEntity
  8
0
100
AcDbLine
 62
7
  6
BYLAYER
 10
19.5344610899
 20
41.3678402464
 11
19.5344610899
 21
35.3678402464
  0
LINE
  5
269
100
AcDbEntity
  8
0
100
AcDbLine
 62
7
  6
BYLAYER
 10
19.8519717737
 20
41.5678402464
 11
19.8519717737
 21
41.3678402464
  0
LINE
  5
26A
100
AcDbEntity
  8
0
100
AcDbLine
 62
7
  6
BYLAYER
 10
20.1545098925
 20
23.8248580506
 11
20.1545098925
 21
26.2868774331
  0
LINE
  5
26B
100
AcDbEntity
  8
0
100
AcDbLine
 62
7
  6
BYLAYER
 10
15.8344610898
 20
26.8841988601
 11
20.2578639254
 21
28.0678402464
  0
LINE
  5
26C
100
AcDbEntity
  8
0
100
AcDbLine
 62
7
  6
BYLAYER
 10
20.2578639254
 20
28.0678402464
 11
24.7110581897
 21
28.0678402463
  0
LINE
  5
26D
100
AcDbEntity
  8
0
100
AcDbLine
 62
7
  6
BYLAYER
 10
24.7110581897
 20
28.0678402463
 11
29.1344610898
 21
26.8841988601
  0
LINE
  5
26E
100
AcDbEntity
  8
0
100
AcDbLine
 62
7
  6
BYLAYER
 10
20.8854871296
 20
31.8678402464
 11
20.8854871297
 21
35.3678402464
  0
LINE
  5
26F
100
AcDbEntity
  8
0
100
AcDbLine
 62
7
  6
BYLAYER
 10
20.8854871297
 20
41.3678402464
 11
20.8854871297
 21
44.9982247403
  0
LINE
  5
270
100
AcDbEntity
  8
0
100
AcDbLine
 62
7
  6
BYLAYER
 10
21.0854871296
 20
26.6417230649
 11
21.0854871296
 21
27.3518216485
  0
LINE
  5
271
100
AcDbEntity
  8
0
100
AcDbLine
 62
7
  6
BYLAYER
 10
21.7679265218
 20
28.0678402464
 11
21.7679265218
 21
30.2394226417
  0
LINE
  5
272
100
AcDbEntity
  8
0
100
AcDbLine
 62
7
  6
BYLAYER
 10
23.2009955713
 20
30.2394226417
 11
21.7679265218
 21
30.2394226417
  0
LINE
  5
273
100
AcDbEntity
  8
0
100
AcDbLine
 62
7
  6
BYLAYER
 10
21.7679265218
 20
30.2394226417
 11
20.0418274871
 21
31.8678402464
  0
LINE
  5
274
100
AcDbEntity
  8
0
100
AcDbLine
 62
7
  6
BYLAYER
 10
23.2009955713
 20
30.2394226417
 11
23.2009955713
 21
28.0678402463
  0
LINE
  5
275
100
AcDbEntity
  8
0
100
AcDbLine
 62
7
  6
BYLAYER
 10
24.9270946313
 20
31.8678402463
 11
23.2009955713
 21
30.2394226417
  0
LINE
  5
276
100
AcDbEntity
  8
0
100
AcDbLine
 62
7
  6
BYLAYER
 10
37.4344610898
 20
31.8678402463
 11
7.5344610898
 21
31.8678402464
  0
LINE
  5
277
100
AcDbEntity
  8
0
100
AcDbLine
 62
7
  6
BYLAYER
 10
37.4344610898
 20
33.3678402463
 11
24.8854871296
 21
33.3678402463
  0
LINE
  5
278
100
AcDbEntity
  8
0
100
AcDbLine
 62
7
  6
BYLAYER
 10
20.8854871296
 20
33.3678402464
 11
7.5344610898
 21
33.3678402464
  0
LINE
  5
279
100
AcDbEntity
  8
0
100
AcDbLine
 62
7
  6
BYLAYER
 10
24.8854871296
 20
31.8678402463
 11
24.8854871297
 21
35.3678402463
  0
LINE
  5
27A
100
AcDbEntity
  8
0
100
AcDbLine
 62
7
  6
BYLAYER
 10
24.8854871297
 20
41.3678402463
 11
24.8854871297
 21
44.9982247403
  0
LINE
  5
27B
100
AcDbEntity
  8
0
100
AcDbLine
 62
7
  6
BYLAYER
 10
25.1169504061
 20
41.3678402463
 11
25.1169504061
 21
41.5678402463
  0
LINE
  5
27C
100
AcDbEntity
  8
0
100
AcDbLine
 62
7
  6
BYLAYER
 10
25.4344610899
 20
35.3678402463
 11
25.4344610899
 21
41.3678402463
  0
LINE
  5
27D
100
AcDbEntity
  8
0
100
AcDbLine
 62
7
  6
BYLAYER
 10
25.6164643667
 20
23.8248580505
 11
25.6164643667
 21
26.2868774331
  0
LINE
  5
27E
100
AcDbEntity
  8
0
100
AcDbLine
 62
7
  6
BYLAYER
 10
7.5344610899
 20
35.3678402464
 11
37.4344610899
 21
35.3678402463
  0
LINE
  5
27F
100
AcDbEntity
  8
0
100
AcDbLine
 62
7
  6
BYLAYER
 10
26.9344610897
 20
7.5648625525
 11
26.9344610898
 21
23.5648625525
  0
LINE
  5
280
100
AcDbEntity
  8
0
100
AcDbLine
 62
7
  6
BYLAYER
 10
26.9844610898
 20
25.5678402463
 11
26.9844610897
 21
4.9648625525
  0
LINE
  5
281
100
AcDbEntity
  8
0
100
AcDbLine
 62
7
  6
BYLAYER
 10
27.3844610897
 20
7.8280408542
 11
27.3844610897
 21
6.291911575
  0
LINE
  5
282
100
AcDbEntity
  8
0
100
AcDbLine
 62
7
  6
BYLAYER
 10
27.9844610898
 20
25.5678402463
 11
27.9844610898
 21
24.7678402463
  0
LINE
  5
283
100
AcDbEntity
  8
0
100
AcDbLine
 62
7
  6
BYLAYER
 10
24.8854871297
 20
44.9982247403
 11
24.8811877415
 21
45.0209846237
  0
LINE
  5
284
100
AcDbEntity
  8
0
100
AcDbLine
 62
7
  6
BYLAYER
 10
28.9844610897
 20
7.893682701
 11
28.9844610897
 21
6.1575534219
  0
LINE
  5
285
100
AcDbEntity
  8
0
100
AcDbLine
 62
7
  6
BYLAYER
 10
29.1344610898
 20
26.8841988601
 11
29.1344610898
 21
31.8678402463
  0
LINE
  5
286
100
AcDbEntity
  8
0
100
AcDbLine
 62
7
  6
BYLAYER
 10
29.2344610899
 20
41.3678402463
 11
29.2344610899
 21
35.3678402463
  0
LINE
  5
287
100
AcDbEntity
  8
0
100
AcDbLine
 62
7
  6
BYLAYER
 10
29.4844610898
 20
25.5678402463
 11
29.4844610898
 21
25.3502273369
  0
LINE
  5
288
100
AcDbEntity
  8
0
100
AcDbLine
 62
7
  6
BYLAYER
 10
30.3844610897
 20
5.2914441262
 11
30.3844610897
 21
4.9648625525
  0
LINE
  5
289
100
AcDbEntity
  8
0
100
AcDbLine
 62
7
  6
BYLAYER
 10
24.4820476191
 20
46.076321719
 11
24.8811877415
 21
45.0209846237
  0
LINE
  5
28A
100
AcDbEntity
  8
0
100
AcDbLine
 62
7
  6
BYLAYER
 10
30.8844610897
 20
15.5648625525
 11
30.8844610897
 21
17.5740002788
  0
LINE
  5
28B
100
AcDbEntity
  8
0
100
AcDbLine
 62
7
  6
BYLAYER
 10
30.8844610898
 20
18.9006198012
 11
30.8844610898
 21
20.7512544587
  0
LINE
  5
28C
100
AcDbEntity
  8
0
100
AcDbLine
 62
7
  6
BYLAYER
 10
30.8844610898
 20
22.3775592558
 11
30.8844610898
 21
23.3648625525
  0
LINE
  5
28D
100
AcDbEntity
  8
0
100
AcDbLine
 62
7
  6
BYLAYER
 10
31.0220251453
 20
41.5678402463
 11
31.0220251453
 21
41.3678402463
  0
LINE
  5
28E
100
AcDbEntity
  8
0
100
AcDbLine
 62
7
  6
BYLAYER
 10
31.1344610898
 20
26.0181734563
 11
31.1344610898
 21
31.8678402463
  0
LINE
  5
28F
100
AcDbEntity
  8
0
100
AcDbLine
 62
7
  6
BYLAYER
 10
31.2844610898
 20
23.0348625525
 11
31.2844610898
 21
22.3775592558
  0
LINE
  5
290
100
AcDbEntity
  8
0
100
AcDbLine
 62
7
  6
BYLAYER
 10
31.2844610898
 20
20.7512544587
 11
31.2844610898
 21
18.9006198012
  0
LINE
  5
291
100
AcDbEntity
  8
0
100
AcDbLine
 62
7
  6
BYLAYER
 10
31.2844610897
 20
17.2743150041
 11
31.2844610897
 21
15.9069497376
  0
LINE
  5
292
100
AcDbEntity
  8
0
100
AcDbLine
 62
7
  6
BYLAYER
 10
32.0744610898
 20
20.3771579203
 11
32.0744610898
 21
18.9006198012
  0
LINE
  5
293
100
AcDbEntity
  8
0
100
AcDbLine
 62
7
  6
BYLAYER
 10
7.8194610899
 20
41.3678402464
 11
37.1494610899
 21
41.3678402463
  0
LINE
  5
294
100
AcDbEntity
  8
0
100
AcDbLine
 62
7
  6
BYLAYER
 10
32.9844610899
 20
41.5678402463
 11
32.9844610899
 21
44.9678402463
  0
LINE
  5
295
100
AcDbEntity
  8
0
100
AcDbLine
 62
7
  6
BYLAYER
 10
33.3494610899
 20
35.3678402463
 11
33.3494610899
 21
41.3678402463
  0
LINE
  5
296
100
AcDbEntity
  8
0
100
AcDbLine
 62
7
  6
BYLAYER
 10
33.3594610899
 20
44.9678402463
 11
33.3594610899
 21
47.9178402463
  0
LINE
  5
297
100
AcDbEntity
  8
0
100
AcDbLine
 62
7
  6
BYLAYER
 10
33.3844610897
 20
4.9648625525
 11
33.384443558
 21
5.2914441262
  0
LINE
  5
298
100
AcDbEntity
  8
0
100
AcDbLine
 62
7
  6
BYLAYER
 10
33.9844610898
 20
23.0348625525
 11
33.9844610898
 21
23.1729827371
  0
LINE
  5
299
100
AcDbEntity
  8
0
100
AcDbLine
 62
7
  6
BYLAYER
 10
34.1094610899
 20
41.3678402463
 11
34.1094610899
 21
41.5678402463
  0
LINE
  5
29A
100
AcDbEntity
  8
0
100
AcDbLine
 62
7
  6
BYLAYER
 10
34.2844610898
 20
25.5678402463
 11
34.2844610898
 21
25.3502273368
  0
LINE
  5
29B
100
AcDbEntity
  8
0
100
AcDbLine
 62
7
  6
BYLAYER
 10
34.2844610898
 20
23.3648625525
 11
34.2844610898
 21
23.0348625525
  0
LINE
  5
29C
100
AcDbEntity
  8
0
100
AcDbLine
 62
7
  6
BYLAYER
 10
34.4744610898
 20
18.9006198012
 11
34.4744610898
 21
20.8266858324
  0
LINE
  5
29D
100
AcDbEntity
  8
0
100
AcDbLine
 62
7
  6
BYLAYER
 10
34.6044610898
 20
22.5648625525
 11
34.6044610897
 21
17.6489215975
  0
LINE
  5
29E
100
AcDbEntity
  8
0
100
AcDbLine
 62
7
  6
BYLAYER
 10
34.7844610898
 20
25.5678402463
 11
34.7844610898
 21
23.0348625525
  0
LINE
  5
29F
100
AcDbEntity
  8
0
100
AcDbLine
 62
7
  6
BYLAYER
 10
34.7844610897
 20
8.8148625525
 11
34.7844610897
 21
15.9065225457
  0
LINE
  5
2A0
100
AcDbEntity
  8
0
100
AcDbLine
 62
7
  6
BYLAYER
 10
10.8594546532
 20
41.5678402464
 11
20.8854871297
 21
41.5678402464
  0
LINE
  5
2A1
100
AcDbEntity
  8
0
100
AcDbLine
 62
7
  6
BYLAYER
 10
24.8854871297
 20
41.5678402463
 11
34.1094610899
 21
41.5678402463
  0
LINE
  5
2A2
100
AcDbEntity
  8
0
100
AcDbLine
 62
7
  6
BYLAYER
 10
36.73446109
 20
50.5678402463
 11
36.715037861
 21
56.1536239652
  0
LINE
  5
2A3
100
AcDbEntity
  8
0
100
AcDbLine
 62
7
  6
BYLAYER
 10
34.83446109
 20
56.5845757481
 11
34.83446109
 21
56.7178402463
  0
LINE
  5
2A4
100
AcDbEntity
  8
0
100
AcDbLine
 62
7
  6
BYLAYER
 10
34.8644610897
 20
6.1575534218
 11
34.8644610897
 21
7.893682701
  0
LINE
  5
2A5
100
AcDbEntity
  8
0
100
AcDbLine
 62
7
  6
BYLAYER
 10
35.7844610898
 20
24.6948463318
 11
35.7844610898
 21
25.5678402463
  0
LINE
  5
2A6
100
AcDbEntity
  8
0
100
AcDbLine
 62
7
  6
BYLAYER
 10
36.0594610899
 20
47.9178402463
 11
36.0594610899
 21
49.1678402463
  0
LINE
  5
2A7
100
AcDbEntity
  8
0
100
AcDbLine
 62
7
  6
BYLAYER
 10
36.4644610897
 20
6.2919115749
 11
36.4644610897
 21
7.8280408541
  0
LINE
  5
2A8
100
AcDbEntity
  8
0
100
AcDbLine
 62
7
  6
BYLAYER
 10
36.648677372
 20
49.1678402463
 11
36.648677372
 21
50.5678402463
  0
LINE
  5
2A9
100
AcDbEntity
  8
0
100
AcDbLine
 62
7
  6
BYLAYER
 10
36.7344610897
 20
8.8148625525
 11
36.7344610897
 21
17.3679666524
  0
LINE
  5
2AA
100
AcDbEntity
  8
0
100
AcDbLine
 62
7
  6
BYLAYER
 10
36.7344610898
 20
22.5648625525
 11
36.7344610898
 21
25.5678402463
  0
LINE
  5
2AB
100
AcDbEntity
  8
0
100
AcDbLine
 62
7
  6
BYLAYER
 10
36.7844610897
 20
8.8148625525
 11
36.7844610898
 21
25.5678402463
  0
LINE
  5
2AC
100
AcDbEntity
  8
0
100
AcDbLine
 62
7
  6
BYLAYER
 10
11.6094610899
 20
44.9678402464
 11
20.8854871297
 21
44.9678402464
  0
LINE
  5
2AD
100
AcDbEntity
  8
0
100
AcDbLine
 62
7
  6
BYLAYER
 10
24.8854871297
 20
44.9678402463
 11
33.3594610899
 21
44.9678402463
  0
LINE
  5
2AE
100
AcDbEntity
  8
0
100
AcDbLine
 62
7
  6
BYLAYER
 10
22.8854871297
 20
46.9678402464
 11
24.409042036
 21
46.142967283
  0
LINE
  5
2AF
100
AcDbEntity
  8
0
100
AcDbLine
 62
7
  6
BYLAYER
 10
36.8644610897
 20
4.9648625525
 11
36.8644610897
 21
5.8850066093
  0
LINE
  5
2B0
100
AcDbEntity
  8
0
100
AcDbLine
 62
7
  6
BYLAYER
 10
36.8644610897
 20
5.8883177223
 11
36.8644610897
 21
8.8148625525
  0
LINE
  5
2B1
100
AcDbEntity
  8
0
100
AcDbLine
 62
7
  6
BYLAYER
 10
37.1494610899
 20
41.3678402463
 11
37.1494610899
 21
35.3678402463
  0
LINE
  5
2B2
100
AcDbEntity
  8
0
100
AcDbLine
 62
7
  6
BYLAYER
 10
37.4344610898
 20
25.5678402463
 11
37.4344610899
 21
35.3678402463
  0
LINE
  5
2B3
100
AcDbEntity
  8
0
100
AcDbLine
 62
7
  6
BYLAYER
 10
36.7844610897
 20
17.3866969821
 11
36.4844610897
 21
17.2743150041
  0
LINE
  5
2B4
100
AcDbEntity
  8
0
100
AcDbLine
 62
7
  6
BYLAYER
 10
8.9094610899
 20
47.9178402464
 11
36.0594610899
 21
47.9178402463
  0
LINE
  5
2B5
100
AcDbEntity
  8
0
100
AcDbLine
 62
7
  6
BYLAYER
 10
8.3202448079
 20
49.1678402464
 11
36.648677372
 21
49.1678402463
  0
LINE
  5
2B6
100
AcDbEntity
  8
0
100
AcDbLine
 62
7
  6
BYLAYER
 10
8.23446109
 20
50.5678402464
 11
36.73446109
 21
50.5678402463
  0
LINE
  5
2B7
100
AcDbEntity
  8
0
100
AcDbLine
 62
7
  6
BYLAYER
 10
8.2538843189
 20
56.1536239654
 11
36.715037861
 21
56.1536239652
  0
LINE
  5
2B8
100
AcDbEntity
  8
0
100
AcDbLine
 62
7
  6
BYLAYER
 10
9.63446109
 20
56.5845757483
 11
35.33446109
 21
56.5845757481
  0
LINE
  5
2B9
100
AcDbEntity
  8
0
100
AcDbLine
 62
7
  6
BYLAYER
 10
34.83446109
 20
56.7178402463
 11
10.13446109
 21
56.7178402464
  0
LINE
  5
2BA
100
AcDbEntity
  8
0
100
AcDbLine
 62
7
  6
BYLAYER
 10
31.6844610896
 20
57.22646153
 11
13.2844610904
 21
57.2264615301
  0
LINE
  5
2BB
100
AcDbEntity
  8
0
100
AcDbLine
 62
7
  6
BYLAYER
 10
36.715037861
 20
56.1536239652
 11
35.33446109
 21
56.5845757481
  0
ARC
  5
2BC
100
AcDbEntity
  8
0
100
AcDbCircle
 62
7
  6
BYLAYER
 10
31.6844610899
 20
47.2178402463
 40
10.0086212836
100
AcDbArc
 50
71.655804162
 51
89.9999999996
  0
ARC
  5
2BD
100
AcDbEntity
  8
0
100
AcDbCircle
 62
7
  6
BYLAYER
 10
13.2844610899
 20
47.2178402465
 40
10.0086212836
100
AcDbArc
 50
89.9999999996
 51
108.3441958371
  0
SPLINE
  5
2BE
100
AcDbEntity
  8
0
100
AcDbSpline
 62
7
  6
BYLAYER
 70
0
 71
3
 72
25
 73
21
 74
0
 42
0.0000001
 43
0.0000001
 44
0.0000000001
 40
0.0
 40
0.0
 40
0.0
 40
0.0
 40
0.0082743781
 40
0.0171539671
 40
0.027131878
 40
0.0385476976
 40
0.0516181139
 40
0.066478239
 40
0.0832051166
 40
0.1018325532
 40
0.1448097659
 40
0.1953183303
 40
0.2530506365
 40
0.3175749317
 40
0.3883531044
 40
0.464771057
 40
0.5461497314
 40
0.6317405758
 40
0.8123723214
 40
1.0
 40
1.0
 40
1.0
 40
1.0
 10
25.6164518889
 20
26.2868774322
 30
0.0
 10
25.6164518399
 20
26.2947107998
 30
0.0
 10
25.6140602035
 20
26.3110274048
 30
0.0
 10
25.6036269158
 20
26.3347613453
 30
0.0
 10
25.5866321524
 20
26.3580520042
 30
0.0
 10
25.5632627449
 20
26.3809750796
 30
0.0
 10
25.5335759184
 20
26.4035946341
 30
0.0
 10
25.4976056896
 20
26.4259039507
 30
0.0
 10
25.4554107712
 20
26.4478769397
 30
0.0
 10
25.3876691821
 20
26.4781329397
 30
0.0
 10
25.287640102
 20
26.514031658
 30
0.0
 10
25.1499084806
 20
26.5533126724
 30
0.0
 10
24.9905010866
 20
26.5901787534
 30
0.0
 10
24.8109203883
 20
26.6242474902
 30
0.0
 10
24.6128527357
 20
26.6551655245
 30
0.0
 10
24.3981853289
 20
26.6826186572
 30
0.0
 10
24.168972404
 20
26.7063251129
 30
0.0
 10
23.8409681133
 20
26.733107261
 30
0.0
 10
23.4117729201
 20
26.7552482577
 30
0.0
 10
23.0631145672
 20
26.7611066536
 30
0.0
 10
22.8854871296
 20
26.7611066536
 30
0.0
  0
SPLINE
  5
2BF
100
AcDbEntity
  8
0
100
AcDbSpline
 62
7
  6
BYLAYER
 70
0
 71
3
 72
25
 73
21
 74
0
 42
0.0000001
 43
0.0000001
 44
0.0000000001
 40
0.0
 40
0.0
 40
0.0
 40
0.0
 40
0.0082743781
 40
0.0171539671
 40
0.027131878
 40
0.0385476976
 40
0.0516181139
 40
0.066478239
 40
0.0832051166
 40
0.1018325532
 40
0.1448097659
 40
0.1953183303
 40
0.2530506365
 40
0.3175749317
 40
0.3883531044
 40
0.464771057
 40
0.5461497314
 40
0.6317405758
 40
0.8123723214
 40
1.0
 40
1.0
 40
1.0
 40
1.0
 10
25.6164518889
 20
23.8248580514
 30
0.0
 10
25.6164518399
 20
23.8170246838
 30
0.0
 10
25.6140602034
 20
23.8007080788
 30
0.0
 10
25.6036269157
 20
23.7769741383
 30
0.0
 10
25.5866321524
 20
23.7536834794
 30
0.0
 10
25.5632627449
 20
23.730760404
 30
0.0
 10
25.5335759183
 20
23.7081408496
 30
0.0
 10
25.4976056896
 20
23.685831533
 30
0.0
 10
25.4554107712
 20
23.6638585439
 30
0.0
 10
25.3876691821
 20
23.6336025439
 30
0.0
 10
25.2876401019
 20
23.5977038256
 30
0.0
 10
25.1499084806
 20
23.5584228113
 30
0.0
 10
24.9905010866
 20
23.5215567302
 30
0.0
 10
24.8109203882
 20
23.4874879934
 30
0.0
 10
24.6128527357
 20
23.4565699591
 30
0.0
 10
24.3981853289
 20
23.4291168264
 30
0.0
 10
24.168972404
 20
23.4054103707
 30
0.0
 10
23.8409681133
 20
23.3786282226
 30
0.0
 10
23.4117729201
 20
23.356487226
 30
0.0
 10
23.0631145672
 20
23.3506288301
 30
0.0
 10
22.8854871296
 20
23.3506288301
 30
0.0
  0
SPLINE
  5
2C0
100
AcDbEntity
  8
0
100
AcDbSpline
 62
7
  6
BYLAYER
 70
0
 71
3
 72
17
 73
13
 74
0
 42
0.0000001
 43
0.0000001
 44
0.0000000001
 40
0.0
 40
0.0
 40
0.0
 40
0.0
 40
0.1529420328
 40
0.3030991793
 40
0.4475742959
 40
0.5837710476
 40
0.7091789087
 40
0.821562365
 40
0.872261903
 40
0.9190098132
 40
0.9616346809
 40
1.0
 40
1.0
 40
1.0
 40
1.0
 10
22.8854871296
 20
26.7611066536
 30
0.0
 10
22.7596986135
 20
26.7611066536
 30
0.0
 10
22.5104014557
 20
26.7581249088
 30
0.0
 10
22.1424954981
 20
26.744780807
 30
0.0
 10
21.7887950768
 20
26.7228216727
 30
0.0
 10
21.4561181224
 20
26.6927214336
 30
0.0
 10
21.1507836466
 20
26.6550700219
 30
0.0
 10
20.9165130543
 20
26.6168856975
 30
0.0
 10
20.7473723003
 20
26.582517536
 30
0.0
 10
20.6351844844
 20
26.5562385513
 30
0.0
 10
20.5337737373
 20
26.5287056058
 30
0.0
 10
20.470258032
 20
26.5085329859
 30
0.0
 10
20.4404662376
 20
26.4981360077
 30
0.0
  0
SPLINE
  5
2C1
100
AcDbEntity
  8
0
100
AcDbSpline
 62
7
  6
BYLAYER
 70
0
 71
3
 72
15
 73
11
 74
0
 42
0.0000001
 43
0.0000001
 44
0.0000000001
 40
0.0
 40
0.0
 40
0.0
 40
0.0
 40
0.1894750899
 40
0.3588086813
 40
0.508112589
 40
0.6378297685
 40
0.7490550601
 40
0.843814437
 40
0.9255954994
 40
1.0
 40
1.0
 40
1.0
 40
1.0
 10
20.4404662376
 20
26.4981360077
 30
0.0
 10
20.4182432285
 20
26.4903804446
 30
0.0
 10
20.3764597144
 20
26.4748005299
 30
0.0
 10
20.3185791128
 20
26.4495269482
 30
0.0
 10
20.2691480535
 20
26.4237393452
 30
0.0
 10
20.2282930098
 20
26.3974837426
 30
0.0
 10
20.1960808472
 20
26.370788802
 30
0.0
 10
20.172554104
 20
26.3435742886
 30
0.0
 10
20.157934527
 20
26.315636033
 30
0.0
 10
20.1545223125
 20
26.296120291
 30
0.0
 10
20.1545223703
 20
26.286877434
 30
0.0
  0
SPLINE
  5
2C2
100
AcDbEntity
  8
0
100
AcDbSpline
 62
7
  6
BYLAYER
 70
0
 71
3
 72
25
 73
21
 74
0
 42
0.0000001
 43
0.0000001
 44
0.0000000001
 40
0.0
 40
0.0
 40
0.0
 40
0.0
 40
0.187624467
 40
0.368253842
 40
0.4538445693
 40
0.5352231275
 40
0.6116415952
 40
0.6824204679
 40
0.746945873
 40
0.8046791324
 40
0.8551886909
 40
0.8981666181
 40
0.9167942973
 40
0.9335214154
 40
0.9483817597
 40
0.9614522274
 40
0.9728680508
 40
0.9828460208
 40
0.9917256484
 40
1.0
 40
1.0
 40
1.0
 40
1.0
 10
22.8854871296
 20
23.3506288301
 30
0.0
 10
22.7078627339
 20
23.3506288301
 30
0.0
 10
22.3592096634
 20
23.3564869254
 30
0.0
 10
21.9300198699
 20
23.378627555
 30
0.0
 10
21.6020179693
 20
23.4054086752
 30
0.0
 10
21.372804777
 20
23.4291150995
 30
0.0
 10
21.1581362502
 20
23.4565676723
 30
0.0
 10
20.9600664115
 20
23.4874859501
 30
0.0
 10
20.7804830139
 20
23.5215544911
 30
0.0
 10
20.621072769
 20
23.5584210933
 30
0.0
 10
20.4833386057
 20
23.5977023677
 30
0.0
 10
20.3833077033
 20
23.6336015001
 30
0.0
 10
20.315565064
 20
23.6638579334
 30
0.0
 10
20.273369522
 20
23.6858311489
 30
0.0
 10
20.2373987148
 20
23.708140457
 30
0.0
 10
20.2077117205
 20
23.7307602427
 30
0.0
 10
20.184342398
 20
23.7536835591
 30
0.0
 10
20.1673475009
 20
23.7769741841
 30
0.0
 10
20.1569137237
 20
23.8007080189
 30
0.0
 10
20.1545223213
 20
23.8170247072
 30
0.0
 10
20.1545223703
 20
23.8248580497
 30
0.0
  0
SPLINE
  5
2C3
100
AcDbEntity
  8
0
100
AcDbSpline
 62
7
  6
BYLAYER
 70
0
 71
3
 72
11
 73
7
 74
0
 42
0.0000001
 43
0.0000001
 44
0.0000000001
 40
0.0
 40
0.0
 40
0.0
 40
0.0
 40
0.192351189
 40
0.4184099842
 40
0.6861595209
 40
1.0
 40
1.0
 40
1.0
 40
1.0
 10
24.482044647
 20
46.0763216851
 30
0.0
 10
24.4797643958
 20
46.0823575128
 30
0.0
 10
24.4726059598
 20
46.0946725621
 30
0.0
 10
24.4566965391
 20
46.1114731759
 30
0.0
 10
24.4351023546
 20
46.1279719205
 30
0.0
 10
24.4182995366
 20
46.1379548847
 30
0.0
 10
24.4090419934
 20
46.1429672807
 30
0.0
  0
SPLINE
  5
2C4
100
AcDbEntity
  8
0
100
AcDbSpline
 62
7
  6
BYLAYER
 70
0
 71
3
 72
11
 73
7
 74
0
 42
0.0000001
 43
0.0000001
 44
0.0000000001
 40
0.0
 40
0.0
 40
0.0
 40
0.0
 40
0.3138404791
 40
0.5815900158
 40
0.807648811
 40
1.0
 40
1.0
 40
1.0
 40
1.0
 10
21.3619322661
 20
46.1429672807
 30
0.0
 10
21.3526747229
 20
46.1379548848
 30
0.0
 10
21.3358719048
 20
46.1279719206
 30
0.0
 10
21.3142777203
 20
46.111473176
 30
0.0
 10
21.2983682996
 20
46.0946725621
 30
0.0
 10
21.2912098636
 20
46.0823575128
 30
0.0
 10
21.2889296124
 20
46.0763216851
 30
0.0
  0
SPLINE
  5
2C5
100
AcDbEntity
  8
0
100
AcDbSpline
 62
7
  6
BYLAYER
 70
0
 71
3
 72
25
 73
21
 74
0
 42
0.0000001
 43
0.0000001
 44
0.0000000001
 40
0.0
 40
0.0
 40
0.0
 40
0.0
 40
0.187624467
 40
0.368253842
 40
0.4538445693
 40
0.5352231275
 40
0.6116415952
 40
0.6824204679
 40
0.746945873
 40
0.8046791324
 40
0.8551886909
 40
0.8981666181
 40
0.9167942973
 40
0.9335214154
 40
0.9483817597
 40
0.9614522274
 40
0.9728680508
 40
0.9828460208
 40
0.9917256484
 40
1.0
 40
1.0
 40
1.0
 40
1.0
 10
22.8854871296
 20
24.299087271
 30
0.0
 10
23.0631115252
 20
24.299087271
 30
0.0
 10
23.4117645958
 20
24.2932291757
 30
0.0
 10
23.8409543892
 20
24.2710885461
 30
0.0
 10
24.1689562899
 20
24.2443074259
 30
0.0
 10
24.3981694821
 20
24.2206010016
 30
0.0
 10
24.612838009
 20
24.1931484288
 30
0.0
 10
24.8109078476
 20
24.162230151
 30
0.0
 10
24.9904912453
 20
24.1281616101
 30
0.0
 10
25.1499014902
 20
24.0912950078
 30
0.0
 10
25.2876356534
 20
24.0520137334
 30
0.0
 10
25.3876665558
 20
24.0161146011
 30
0.0
 10
25.4554091951
 20
23.9858581677
 30
0.0
 10
25.4976047372
 20
23.9638849522
 30
0.0
 10
25.5335755444
 20
23.9415756441
 30
0.0
 10
25.5632625387
 20
23.9189558584
 30
0.0
 10
25.5866318612
 20
23.896032542
 30
0.0
 10
25.6036267583
 20
23.8727419171
 30
0.0
 10
25.6140605355
 20
23.8490080822
 30
0.0
 10
25.6164519379
 20
23.8326913939
 30
0.0
 10
25.6164518889
 20
23.8248580514
 30
0.0
  0
SPLINE
  5
2C6
100
AcDbEntity
  8
0
100
AcDbSpline
 62
7
  6
BYLAYER
 70
0
 71
3
 72
22
 73
18
 74
0
 42
0.0000001
 43
0.0000001
 44
0.0000000001
 40
0.0
 40
0.0
 40
0.0
 40
0.0
 40
0.0188319108
 40
0.0302509871
 40
0.0432430094
 40
0.0579107114
 40
0.0743137242
 40
0.1124261625
 40
0.157611864
 40
0.2096772463
 40
0.2682994163
 40
0.3330486998
 40
0.4034279599
 40
0.4788652383
 40
0.6423642371
 40
0.818075374
 40
1.0
 40
1.0
 40
1.0
 40
1.0
 10
24.881181573
 20
45.0209845533
 30
0.0
 10
24.8766119507
 20
45.0330580716
 30
0.0
 10
24.8641838599
 20
45.0504842254
 30
0.0
 10
24.8423951948
 20
45.0705385931
 30
0.0
 10
24.8207144292
 20
45.0863948311
 30
0.0
 10
24.7948384319
 20
45.1020185113
 30
0.0
 10
24.7525978211
 20
45.1236535065
 30
0.0
 10
24.6891729641
 20
45.149423962
 30
0.0
 10
24.6007703119
 20
45.1777987768
 30
0.0
 10
24.4973092194
 20
45.204687413
 30
0.0
 10
24.3796761585
 20
45.2298378346
 30
0.0
 10
24.2488734382
 20
45.2530129487
 30
0.0
 10
24.106043742
 20
45.2739890649
 30
0.0
 10
23.895522804
 20
45.2994529636
 30
0.0
 10
23.6122460036
 20
45.3239225062
 30
0.0
 10
23.2553790126
 20
45.3415732879
 30
0.0
 10
23.010197177
 20
45.3455210957
 30
0.0
 10
22.8854871297
 20
45.3455210957
 30
0.0
  0
SPLINE
  5
2C7
100
AcDbEntity
  8
0
100
AcDbSpline
 62
7
  6
BYLAYER
 70
0
 71
3
 72
18
 73
14
 74
0
 42
0.0000001
 43
0.0000001
 44
0.0000000001
 40
0.0
 40
0.0
 40
0.0
 40
0.0
 40
0.0309633636
 40
0.0672268562
 40
0.1087461014
 40
0.1553882822
 40
0.2069342385
 40
0.2631349228
 40
0.3882400899
 40
0.527898428
 40
0.6788128366
 40
0.8374956624
 40
1.0
 40
1.0
 40
1.0
 40
1.0
 10
24.4090419934
 20
46.1429672807
 30
0.0
 10
24.3950222739
 20
46.1505581051
 30
0.0
 10
24.3635912442
 20
46.1652094714
 30
0.0
 10
24.3111248431
 20
46.1848612069
 30
0.0
 10
24.2498834972
 20
46.2037779344
 30
0.0
 10
24.1802303163
 20
46.2218261536
 30
0.0
 10
24.1025772482
 20
46.2389053572
 30
0.0
 10
23.9847223367
 20
46.2610047411
 30
0.0
 10
23.8211248976
 20
46.2848747617
 30
0.0
 10
23.6082258556
 20
46.3072531547
 30
0.0
 10
23.3774515418
 20
46.3236817137
 30
0.0
 10
23.1345455891
 20
46.3337071488
 30
0.0
 10
22.9691594209
 20
46.3359508965
 30
0.0
 10
22.8854871297
 20
46.3359508965
 30
0.0
  0
SPLINE
  5
2C8
100
AcDbEntity
  8
0
100
AcDbSpline
 62
7
  6
BYLAYER
 70
0
 71
3
 72
25
 73
21
 74
0
 42
0.0000001
 43
0.0000001
 44
0.0000000001
 40
0.0
 40
0.0
 40
0.0
 40
0.0
 40
0.0082743781
 40
0.0171539671
 40
0.027131878
 40
0.0385476976
 40
0.0516181139
 40
0.066478239
 40
0.0832051166
 40
0.1018325532
 40
0.1448097659
 40
0.1953183303
 40
0.2530506365
 40
0.3175749317
 40
0.3883531044
 40
0.464771057
 40
0.5461497314
 40
0.6317405758
 40
0.8123723214
 40
1.0
 40
1.0
 40
1.0
 40
1.0
 10
20.1545223703
 20
23.8248580497
 30
0.0
 10
20.1545224193
 20
23.8326914173
 30
0.0
 10
20.1569140557
 20
23.8490080223
 30
0.0
 10
20.1673473434
 20
23.8727419628
 30
0.0
 10
20.1843421068
 20
23.8960326217
 30
0.0
 10
20.2077115143
 20
23.9189556971
 30
0.0
 10
20.2373983408
 20
23.9415752516
 30
0.0
 10
20.2733685696
 20
23.9638845682
 30
0.0
 10
20.3155634879
 20
23.9858575572
 30
0.0
 10
20.3833050771
 20
24.0161135572
 30
0.0
 10
20.4833341572
 20
24.0520122755
 30
0.0
 10
20.6210657786
 20
24.0912932899
 30
0.0
 10
20.7804731726
 20
24.1281593709
 30
0.0
 10
20.9600538709
 20
24.1622281077
 30
0.0
 10
21.1581215235
 20
24.193146142
 30
0.0
 10
21.3727889303
 20
24.2205992747
 30
0.0
 10
21.6020018552
 20
24.2443057304
 30
0.0
 10
21.9300061459
 20
24.2710878785
 30
0.0
 10
22.3592013391
 20
24.2932288751
 30
0.0
 10
22.707859692
 20
24.299087271
 30
0.0
 10
22.8854871296
 20
24.299087271
 30
0.0
  0
SPLINE
  5
2C9
100
AcDbEntity
  8
0
100
AcDbSpline
 62
7
  6
BYLAYER
 70
0
 71
3
 72
18
 73
14
 74
0
 42
0.0000001
 43
0.0000001
 44
0.0000000001
 40
0.0
 40
0.0
 40
0.0
 40
0.0
 40
0.1625043376
 40
0.3211871634
 40
0.472101572
 40
0.6117599101
 40
0.7368650772
 40
0.7930657615
 40
0.8446117178
 40
0.8912538986
 40
0.9327731438
 40
0.9690366364
 40
1.0
 40
1.0
 40
1.0
 40
1.0
 10
22.8854871297
 20
46.3359508965
 30
0.0
 10
22.8018148385
 20
46.3359508965
 30
0.0
 10
22.6364286703
 20
46.3337071488
 30
0.0
 10
22.3935227176
 20
46.3236817137
 30
0.0
 10
22.1627484039
 20
46.3072531547
 30
0.0
 10
21.9498493618
 20
46.2848747617
 30
0.0
 10
21.7862519227
 20
46.2610047411
 30
0.0
 10
21.6683970113
 20
46.2389053572
 30
0.0
 10
21.5907439431
 20
46.2218261536
 30
0.0
 10
21.5210907622
 20
46.2037779344
 30
0.0
 10
21.4598494163
 20
46.1848612069
 30
0.0
 10
21.4073830152
 20
46.1652094714
 30
0.0
 10
21.3759519855
 20
46.1505581051
 30
0.0
 10
21.3619322661
 20
46.1429672807
 30
0.0
  0
SPLINE
  5
2CA
100
AcDbEntity
  8
0
100
AcDbSpline
 62
7
  6
BYLAYER
 70
0
 71
3
 72
22
 73
18
 74
0
 42
0.0000001
 43
0.0000001
 44
0.0000000001
 40
0.0
 40
0.0
 40
0.0
 40
0.0
 40
0.181924626
 40
0.3576357629
 40
0.5211347617
 40
0.5965720401
 40
0.6669513002
 40
0.7317005837
 40
0.7903227537
 40
0.842388136
 40
0.8875738375
 40
0.9256862758
 40
0.9420892886
 40
0.9567569906
 40
0.9697490129
 40
0.9811680892
 40
1.0
 40
1.0
 40
1.0
 40
1.0
 10
22.8854871297
 20
45.3455210957
 30
0.0
 10
22.7607770824
 20
45.3455210957
 30
0.0
 10
22.5155952468
 20
45.3415732879
 30
0.0
 10
22.1587282558
 20
45.3239225063
 30
0.0
 10
21.8754514554
 20
45.2994529636
 30
0.0
 10
21.6649305174
 20
45.273989065
 30
0.0
 10
21.5221008212
 20
45.2530129487
 30
0.0
 10
21.391298101
 20
45.2298378346
 30
0.0
 10
21.27366504
 20
45.204687413
 30
0.0
 10
21.1702039475
 20
45.1777987768
 30
0.0
 10
21.0818012953
 20
45.1494239621
 30
0.0
 10
21.0183764383
 20
45.1236535066
 30
0.0
 10
20.9761358275
 20
45.1020185113
 30
0.0
 10
20.9502598303
 20
45.0863948311
 30
0.0
 10
20.9285790646
 20
45.0705385932
 30
0.0
 10
20.9067903995
 20
45.0504842254
 30
0.0
 10
20.8943623087
 20
45.0330580716
 30
0.0
 10
20.8897926864
 20
45.0209845533
 30
0.0
  0
SPLINE
  5
2CB
100
AcDbEntity
  8
0
100
AcDbSpline
 62
7
  6
BYLAYER
 70
0
 71
3
 72
11
 73
7
 74
0
 42
0.0000001
 43
0.0000001
 44
0.0000000001
 40
0.0
 40
0.0
 40
0.0
 40
0.0
 40
0.2396637722
 40
0.4821868347
 40
0.7358032104
 40
1.0
 40
1.0
 40
1.0
 40
1.0
 10
36.5108687293
 20
6.2919259014
 30
0.0
 10
36.5360695843
 20
6.2919312142
 30
0.0
 10
36.5869211207
 20
6.287448951
 30
0.0
 10
36.6615899967
 20
6.2647834984
 30
0.0
 10
36.7305860873
 20
6.22241863
 30
0.0
 10
36.7672631506
 20
6.1808528675
 30
0.0
 10
36.7823923718
 20
6.1575534218
 30
0.0
  0
SPLINE
  5
2CC
100
AcDbEntity
  8
0
100
AcDbSpline
 62
7
  6
BYLAYER
 70
0
 71
3
 72
12
 73
8
 74
0
 42
0.0000001
 43
0.0000001
 44
0.0000000001
 40
0.0
 40
0.0
 40
0.0
 40
0.0
 40
0.2453922653
 40
0.486955123
 40
0.6091043243
 40
0.7346209981
 40
1.0
 40
1.0
 40
1.0
 40
1.0
 10
27.2044917523
 20
7.828039238
 30
0.0
 10
27.1914402065
 20
7.8280459615
 30
0.0
 10
27.1654824112
 20
7.8298507378
 30
0.0
 10
27.1339101486
 20
7.8384060212
 30
0.0
 10
27.1105659798
 20
7.850106235
 30
0.0
 10
27.0882208187
 20
7.8659064671
 30
0.0
 10
27.0742165767
 20
7.8818448504
 30
0.0
 10
27.0665298075
 20
7.8936827011
 30
0.0
  0
SPLINE
  5
2CD
100
AcDbEntity
  8
0
100
AcDbSpline
 62
7
  6
BYLAYER
 70
0
 71
3
 72
12
 73
8
 74
0
 42
0.0000001
 43
0.0000001
 44
0.0000000001
 40
0.0
 40
0.0
 40
0.0
 40
0.0
 40
0.2653718116
 40
0.3908733413
 40
0.5130470219
 40
0.7546490619
 40
1.0
 40
1.0
 40
1.0
 40
1.0
 10
36.7823923718
 20
7.893682701
 30
0.0
 10
36.7747058801
 20
7.8818452775
 30
0.0
 10
36.7607112675
 20
7.8659001971
 30
0.0
 10
36.7383631675
 20
7.8501027836
 30
0.0
 10
36.7150125097
 20
7.8384106034
 30
0.0
 10
36.6834404099
 20
7.8298554285
 30
0.0
 10
36.6574831462
 20
7.8280462738
 30
0.0
 10
36.6444339163
 20
7.8280385757
 30
0.0
  0
SPLINE
  5
2CE
100
AcDbEntity
  8
0
100
AcDbSpline
 62
7
  6
BYLAYER
 70
0
 71
3
 72
9
 73
5
 74
0
 42
0.0000001
 43
0.0000001
 44
0.0000000001
 40
0.0
 40
0.0
 40
0.0
 40
0.0
 40
0.5023576434
 40
1.0
 40
1.0
 40
1.0
 40
1.0
 10
27.0665298075
 20
7.8936827011
 30
0.0
 10
27.0403046023
 20
7.9340702887
 30
0.0
 10
26.9992026679
 20
8.0222299362
 30
0.0
 10
26.9844610897
 20
8.1185263614
 30
0.0
 10
26.9844610897
 20
8.1662295136
 30
0.0
  0
SPLINE
  5
2CF
100
AcDbEntity
  8
0
100
AcDbSpline
 62
7
  6
BYLAYER
 70
0
 71
3
 72
9
 73
5
 74
0
 42
0.0000001
 43
0.0000001
 44
0.0000000001
 40
0.0
 40
0.0
 40
0.0
 40
0.0
 40
0.4976424702
 40
1.0
 40
1.0
 40
1.0
 40
1.0
 10
36.8644610897
 20
8.1662295135
 30
0.0
 10
36.8644610897
 20
8.1185263504
 30
0.0
 10
36.8497195106
 20
8.0222299241
 30
0.0
 10
36.8086175712
 20
7.9340702795
 30
0.0
 10
36.7823923718
 20
7.893682701
 30
0.0
  0
SPLINE
  5
2D0
100
AcDbEntity
  8
0
100
AcDbSpline
 62
7
  6
BYLAYER
 70
0
 71
3
 72
9
 73
5
 74
0
 42
0.0000001
 43
0.0000001
 44
0.0000000001
 40
0.0
 40
0.0
 40
0.0
 40
0.0
 40
0.5023576434
 40
1.0
 40
1.0
 40
1.0
 40
1.0
 10
36.7823923718
 20
6.1575534218
 30
0.0
 10
36.8086175771
 20
6.1171658342
 30
0.0
 10
36.8497195115
 20
6.0290061867
 30
0.0
 10
36.8644610897
 20
5.9327097615
 30
0.0
 10
36.8644610897
 20
5.8850066093
 30
0.0
  0
SPLINE
  5
2D1
100
AcDbEntity
  8
0
100
AcDbSpline
 62
7
  6
BYLAYER
 70
0
 71
3
 72
9
 73
5
 74
0
 42
0.0000001
 43
0.0000001
 44
0.0000000001
 40
0.0
 40
0.0
 40
0.0
 40
0.0
 40
0.4976424702
 40
1.0
 40
1.0
 40
1.0
 40
1.0
 10
26.9844610897
 20
5.8850066093
 30
0.0
 10
26.9844610897
 20
5.9327097725
 30
0.0
 10
26.9992026688
 20
6.0290061988
 30
0.0
 10
27.0403046082
 20
6.1171658433
 30
0.0
 10
27.0665298075
 20
6.1575534218
 30
0.0
  0
SPLINE
  5
2D2
100
AcDbEntity
  8
0
100
AcDbSpline
 62
7
  6
BYLAYER
 70
0
 71
3
 72
11
 73
7
 74
0
 42
0.0000001
 43
0.0000001
 44
0.0000000001
 40
0.0
 40
0.0
 40
0.0
 40
0.0
 40
0.2641677588
 40
0.5177933818
 40
0.760322217
 40
1.0
 40
1.0
 40
1.0
 40
1.0
 10
27.0665298075
 20
6.1575534218
 30
0.0
 10
27.081657437
 20
6.1808504164
 30
0.0
 10
27.1183317377
 20
6.2224158031
 30
0.0
 10
27.1873257399
 20
6.2647821748
 30
0.0
 10
27.2619977918
 20
6.2874502759
 30
0.0
 10
27.3128518563
 20
6.2919296515
 30
0.0
 10
27.3380543026
 20
6.2919249984
 30
0.0
  0
SPLINE
  5
2D3
100
AcDbEntity
  8
0
100
AcDbSpline
 62
7
  6
BYLAYER
 70
0
 71
3
 72
15
 73
11
 74
0
 42
0.0000001
 43
0.0000001
 44
0.0000000001
 40
0.0
 40
0.0
 40
0.0
 40
0.0
 40
0.1583419584
 40
0.3118654316
 40
0.4574845934
 40
0.5931590034
 40
0.7169955075
 40
0.8270145228
 40
0.9214742424
 40
1.0
 40
1.0
 40
1.0
 40
1.0
 10
30.384461914
 20
5.2914441849
 30
0.0
 10
30.3249146069
 20
5.2914227849
 30
0.0
 10
30.2073974856
 20
5.2798548544
 30
0.0
 10
30.0407899832
 20
5.2350901762
 30
0.0
 10
29.8879615954
 20
5.1765130981
 30
0.0
 10
29.7486819439
 20
5.1147183688
 30
0.0
 10
29.6222159153
 20
5.0571449748
 30
0.0
 10
29.5082704552
 20
5.0093886411
 30
0.0
 10
29.4071173037
 20
4.9759884152
 30
0.0
 10
29.3422973349
 20
4.9652296683
 30
0.0
 10
29.3127683783
 20
4.9648815581
 30
0.0
  0
SPLINE
  5
2D4
100
AcDbEntity
  8
0
100
AcDbSpline
 62
7
  6
BYLAYER
 70
0
 71
3
 72
15
 73
11
 74
0
 42
0.0000001
 43
0.0000001
 44
0.0000000001
 40
0.0
 40
0.0
 40
0.0
 40
0.0
 40
0.0784601673
 40
0.1729225709
 40
0.2829249742
 40
0.406755851
 40
0.5424413554
 40
0.6880797463
 40
0.8416277919
 40
1.0
 40
1.0
 40
1.0
 40
1.0
 10
34.4564439395
 20
4.9648784181
 30
0.0
 10
34.426931368
 20
4.9651965833
 30
0.0
 10
34.3621102563
 20
4.9759244776
 30
0.0
 10
34.2609391049
 20
5.00926433
 30
0.0
 10
34.1469660734
 20
5.0570260501
 30
0.0
 10
34.0204717147
 20
5.1146162189
 30
0.0
 10
33.8811475488
 20
5.1764354544
 30
0.0
 10
33.728262274
 20
5.2350424809
 30
0.0
 10
33.5615916236
 20
5.2798613061
 30
0.0
 10
33.4440197304
 20
5.291426535
 30
0.0
 10
33.3844450102
 20
5.2914441849
 30
0.0
  0
ELLIPSE
  5
2D5
100
AcDbEntity
  8
0
100
AcDbEllipse
 62
7
  6
BYLAYER
 10
22.5385861328
 20
26.5085994576
 30
0.0
 11
2.1005025617
 21
-0.0106691395
 31
0.0
 40
0.5781522924
 41
-3.1328333479
 42
-3.1244914366
  0
ENDSEC
  0
SECTION
  2
OBJECTS
  0
DICTIONARY
  5
C
100
AcDbDictionary
280
0
281
1
  3
ACAD_GROUP
350
D
  3
ACAD_MLINESTYLE
350
17
  3
ACAD_LAYOUT
350
1A
  3
ACAD_PLOTSETTINGS
350
19
  3
ACAD_PLOTSTYLENAME
350
E
  0
DICTIONARY
  5
D
102
{ACAD_REACTORS
330
C
102
}
100
AcDbDictionary
280
0
281
1
  0
ACDBDICTIONARYWDFLT
  5
E
102
{ACAD_REACTORS
330
C
102
}
100
AcDbDictionary
281
1
  3
Normal
350
F
100
AcDbDictionaryWithDefault
340
F
  0
DICTIONARY
  5
17
102
{ACAD_REACTORS
330
C
102
}
100
AcDbDictionary
280
0
281
1
  3
Standard
350
18
  0
DICTIONARY
  5
19
102
{ACAD_REACTORS
330
C
102
}
100
AcDbDictionary
281
1
  0
DICTIONARY
  5
1A
102
{ACAD_REACTORS
330
C
102
}
100
AcDbDictionary
281
1
  3
Model
350
2D6
  3
Layout1
350
2D7
  0
ACDBPLACEHOLDER
  5
F
102
{ACAD_REACTORS
330
E
102
}
  0
MLINESTYLE
  5
18
102
{ACAD_REACTORS
330
17
102
}
100
AcDbMlineStyle
  2
STANDARD
 70
0
  3

 62
256
 51
90.0
 52
90.0
 71
2
 49
0.5
 62
256
  6
BYLAYER
 49
-0.5
 62
256
  6
BYLAYER
  0
LAYOUT
  5
2D6
102
{ACAD_REACTORS
330
1A
102
}
100
AcDbPlotSettings
  1

  2
none_device
  4

  6

 40
0.0
 41
0.0
 42
0.0
 43
0.0
 44
210.0
 45
297.0
 46
0.0
 47
0.0
 48
0.0
 49
0.0
140
0.0
141
0.0
142
1.0
143
1.0
 70
1024
 72
1
 73
0
 74
0
  7

 75
0
147
1.0
148
0.0
149
0.0
100
AcDbLayout
  1
Model
 70
0
 71
0
 10
0.0
 20
0.0
 11
210.0
 21
297.0
 12
0.0
 22
0.0
 32
0.0
 14
0.0
 24
0.0
 34
0.0
 15
0.0
 25
0.0
 35
0.0
146
0.0
 13
0.0
 23
0.0
 33
0.0
 16
1.0
 26
0.0
 36
0.0
 17
0.0
 27
1.0
 37
0.0
 76
0
330
210
345
0
346
0
  0
LAYOUT
  5
2D7
102
{ACAD_REACTORS
330
1A
102
}
100
AcDbPlotSettings
  1

  2
none_device
  4

  6

 40
0.0
 41
0.0
 42
0.0
 43
0.0
 44
210.0
 45
297.0
 46
0.0
 47
0.0
 48
0.0
 49
0.0
140
0.0
141
0.0
142
1.0
143
1.0
 70
0
 72
1
 73
0
 74
0
  7

 75
0
147
1.0
148
0.0
149
0.0
100
AcDbLayout
  1
Layout1
 70
0
 71
1
 10
0.0
 20
0.0
 11
210.0
 21
297.0
 12
0.0
 22
0.0
 32
0.0
 14
0.0
 24
0.0
 34
0.0
 15
0.0
 25
0.0
 35
0.0
146
0.0
 13
0.0
 23
0.0
 33
0.0
 16
1.0
 26
0.0
 36
0.0
 17
0.0
 27
1.0
 37
0.0
 76
0
330
211
345
0
346
0
  0
ENDSEC
  0
EOF
