999
DXF file: C:\2D\Gen2D\CAD\A9N26904_3D-CAD\drw0001_1.dxf
999
Pro/ENGINEER 2019471 by Parametric Technology Corporation
  0
SECTION
  2
HEADER
  9
$ACADVER
  1
AC1024
  9
$DWGCODEPAGE
  3
ANSI_1252
  9
$EXTMAX
 10
74.2574939491
 20
105.0213128708
 30
0.0
  9
$EXTMIN
 10
0.0
 20
0.0
 30
0.0
  9
$LIMMIN
 10
0.0
 20
0.0
  9
$LIMMAX
 10
74.2574939491
 20
105.0213128708
  9
$VIEWCTR
 10
37.1287469745
 20
52.5106564354
  9
$VIEWSIZE
 40
105.0213128708
  9
$CLAYER
  8
0
  9
$LTSCALE
 40
6.8458337279
  9
$CELTYPE
  6
BYLAYER
  9
$DIMSCALE
 40
1.0
  9
$DIMASZ
 40
0.8840177851
  9
$DIMEXO
 40
1.0
  9
$DIMDLI
 40
4.7298487574
  9
$DIMEXE
 40
1.0
  9
$DIMCEN
 40
1.1202273373
  9
$DIMLFAC
 40
1.0
  9
$DIMBLK
  1
_FILLED
  9
$DIMALT
 70
0
  9
$DIMALTF
 40
0.0393700787
  9
$DIMTXT
 40
1.2376248992
  9
$DIMTOL
 70
1
  9
$DIMLIM
 70
0
  9
$DIMTFAC
 40
1.0
  9
$DIMTP
 40
0.01
  9
$DIMTM
 40
0.01
  9
$DIMGAP
 40
0.625
  9
$DIMDSEP
 70
46
  9
$AUNITS
 70
0
  9
$PDMODE
 70
3
  9
$PDSIZE
 40
0.3125
  9
$HANDSEED
  5
356
  9
$TILEMODE
 70
1
  9
$MEASUREMENT
 70
1
  9
$INSUNITS
 70
4
  0
ENDSEC
  0
SECTION
  2
CLASSES
  0
CLASS
  1
ACDBDICTIONARYWDFLT
  2
AcDbDictionaryWithDefault
  3
AutoCAD 2000
 90
0
 91
1
280
0
281
0
  0
CLASS
  1
ACDBPLACEHOLDER
  2
AcDbPlaceHolder
  3
AutoCAD 2000
 90
0
 91
1
280
0
281
0
  0
CLASS
  1
LAYOUT
  2
AcDbLayout
  3
AutoCAD 2000
 90
0
 91
0
280
0
281
0
  0
ENDSEC
  0
SECTION
  2
TABLES
  0
TABLE
  2
VPORT
  5
8
100
AcDbSymbolTable
 70
2
  0
VPORT
  5
1F4
100
AcDbSymbolTableRecord
100
AcDbViewportTableRecord
  2
*ACTIVE
 70
0
 10
0.0
 20
0.0
 11
1.0
 21
1.0
 12
37.1287469745
 22
52.5106564354
 13
0.0
 23
0.0
 14
1.0
 24
1.0
 15
0.0
 25
0.0
 16
0.0
 26
0.0
 36
1.0
 17
0.0
 27
0.0
 37
0.0
 40
105.0213128708
 41
0.7070707071
 42
50.0
 43
0.0
 44
0.0
 50
0.0
 51
0.0
 71
0
 72
100
 73
1
 74
1
 75
0
 76
0
 77
0
 78
0
  0
ENDTAB
  0
TABLE
  2
LTYPE
  5
5
100
AcDbSymbolTable
 70
6
  0
LTYPE
  5
14
100
AcDbSymbolTableRecord
100
AcDbLinetypeTableRecord
  2
BYBLOCK
 70
0
  3

 72
65
 73
0
 40
0.0
  0
LTYPE
  5
15
100
AcDbSymbolTableRecord
100
AcDbLinetypeTableRecord
  2
BYLAYER
 70
0
  3

 72
65
 73
0
 40
0.0
  0
LTYPE
  5
16
100
AcDbSymbolTableRecord
100
AcDbLinetypeTableRecord
  2
CONTINUOUS
 70
64
  3
Solid line
 72
65
 73
0
 40
0.0
  0
LTYPE
  5
1F5
100
AcDbSymbolTableRecord
100
AcDbLinetypeTableRecord
  2
CENTER
 70
64
  3
____ _ ____ _ ____ _ ____ _ ____ _ ____ _ ____
 72
65
 73
4
 40
0.6
 49
0.375
 74
0
 49
-0.075
 74
0
 49
0.075
 74
0
 49
-0.075
 74
0
  0
LTYPE
  5
1F6
100
AcDbSymbolTableRecord
100
AcDbLinetypeTableRecord
  2
HIDDEN
 70
64
  3
- - - - - - - - - - - - - - - - - - - -
 72
65
 73
2
 40
0.2
 49
0.1
 74
0
 49
-0.1
 74
0
  0
LTYPE
  5
1F7
100
AcDbSymbolTableRecord
100
AcDbLinetypeTableRecord
  2
PHANTOM
 70
64
  3
_____ _ _ _____ _ _ _____ _ _ _____
 72
65
 73
6
 40
0.8
 49
0.45
 74
0
 49
-0.05
 74
0
 49
0.1
 74
0
 49
-0.05
 74
0
 49
0.1
 74
0
 49
-0.05
 74
0
  0
LTYPE
  5
1F8
100
AcDbSymbolTableRecord
100
AcDbLinetypeTableRecord
  2
DOT
 70
64
  3
. . . . . . . . . . . . . . . . . . . .
 72
65
 73
2
 40
0.2
 49
0.1
 74
0
 49
-0.1
 74
0
  0
LTYPE
  5
1F9
100
AcDbSymbolTableRecord
100
AcDbLinetypeTableRecord
  2
DASHED
 70
64
  3
- - - - - - - - - - - - - - - - - - - -
 72
65
 73
2
 40
0.2
 49
0.1
 74
0
 49
-0.1
 74
0
  0
ENDTAB
  0
TABLE
  2
LAYER
  5
2
100
AcDbSymbolTable
 70
36
  0
LAYER
  5
10
100
AcDbSymbolTableRecord
100
AcDbLayerTableRecord
  2
0
 70
0
 62
7
  6
CONTINUOUS
370
-3
390
F
  0
LAYER
  5
1FA
100
AcDbSymbolTableRecord
100
AcDbLayerTableRecord
  2
DEFAULT_1
 70
0
 62
7
  6
CENTER
370
-3
390
F
  0
LAYER
  5
1FB
100
AcDbSymbolTableRecord
100
AcDbLayerTableRecord
  2
DEFAULT_2
 70
0
 62
8
  6
HIDDEN
370
-3
390
F
  0
LAYER
  5
1FC
100
AcDbSymbolTableRecord
100
AcDbLayerTableRecord
  2
DEFAULT_3
 70
0
 62
7
  6
PHANTOM
370
-3
390
F
  0
LAYER
  5
1FD
100
AcDbSymbolTableRecord
100
AcDbLayerTableRecord
  2
00_COMPONENTS
 70
0
 62
7
  6
CONTINUOUS
370
-3
390
F
  0
LAYER
  5
1FE
100
AcDbSymbolTableRecord
100
AcDbLayerTableRecord
  2
00_COMPONENTS_1
 70
0
 62
7
  6
CONTINUOUS
370
-3
390
F
  0
LAYER
  5
1FF
100
AcDbSymbolTableRecord
100
AcDbLayerTableRecord
  2
01_1_DEFAULT_DATUMS
 70
0
 62
7
  6
CONTINUOUS
370
-3
390
F
  0
LAYER
  5
200
100
AcDbSymbolTableRecord
100
AcDbLayerTableRecord
  2
01_PLANES
 70
0
 62
7
  6
CONTINUOUS
370
-3
390
F
  0
LAYER
  5
201
100
AcDbSymbolTableRecord
100
AcDbLayerTableRecord
  2
02_COORD_SYS
 70
0
 62
7
  6
CONTINUOUS
370
-3
390
F
  0
LAYER
  5
202
100
AcDbSymbolTableRecord
100
AcDbLayerTableRecord
  2
03_AXES
 70
0
 62
7
  6
CONTINUOUS
370
-3
390
F
  0
LAYER
  5
203
100
AcDbSymbolTableRecord
100
AcDbLayerTableRecord
  2
04_POINTS
 70
0
 62
7
  6
CONTINUOUS
370
-3
390
F
  0
LAYER
  5
204
100
AcDbSymbolTableRecord
100
AcDbLayerTableRecord
  2
05_CURVES
 70
0
 62
7
  6
CONTINUOUS
370
-3
390
F
  0
LAYER
  5
205
100
AcDbSymbolTableRecord
100
AcDbLayerTableRecord
  2
06_SURFS
 70
0
 62
7
  6
CONTINUOUS
370
-3
390
F
  0
LAYER
  5
206
100
AcDbSymbolTableRecord
100
AcDbLayerTableRecord
  2
07_COSMETICS
 70
0
 62
7
  6
CONTINUOUS
370
-3
390
F
  0
LAYER
  5
207
100
AcDbSymbolTableRecord
100
AcDbLayerTableRecord
  2
10_NOTES
 70
0
 62
7
  6
CONTINUOUS
370
-3
390
F
  0
LAYER
  5
208
100
AcDbSymbolTableRecord
100
AcDbLayerTableRecord
  2
11_NOTES_PUB
 70
0
 62
7
  6
CONTINUOUS
370
-3
390
F
  0
LAYER
  5
209
100
AcDbSymbolTableRecord
100
AcDbLayerTableRecord
  2
13_REF_GTOL
 70
0
 62
7
  6
CONTINUOUS
370
-3
390
F
  0
LAYER
  5
20A
100
AcDbSymbolTableRecord
100
AcDbLayerTableRecord
  2
16_MISC
 70
0
 62
7
  6
CONTINUOUS
370
-3
390
F
  0
LAYER
  5
20B
100
AcDbSymbolTableRecord
100
AcDbLayerTableRecord
  2
17_NO_PRINT
 70
0
 62
7
  6
CONTINUOUS
370
-3
390
F
  0
LAYER
  5
20C
100
AcDbSymbolTableRecord
100
AcDbLayerTableRecord
  2
18_DATUM_CAMS_JOINTS
 70
0
 62
7
  6
CONTINUOUS
370
-3
390
F
  0
LAYER
  5
20D
100
AcDbSymbolTableRecord
100
AcDbLayerTableRecord
  2
19_DATUM_FUNCTIONAL
 70
0
 62
7
  6
CONTINUOUS
370
-3
390
F
  0
LAYER
  5
20E
100
AcDbSymbolTableRecord
100
AcDbLayerTableRecord
  2
20_DATUM_KINEMATIC_SCHEME
 70
0
 62
7
  6
CONTINUOUS
370
-3
390
F
  0
ENDTAB
  0
TABLE
  2
STYLE
  5
3
100
AcDbSymbolTable
 70
1
  0
STYLE
  5
11
100
AcDbSymbolTableRecord
100
AcDbTextStyleTableRecord
  2
STANDARD
 70
0
 40
0.0
 41
0.8
 50
0.0
 71
0
 42
0.2
  3
txt
  4

  0
STYLE
  5
20F
100
AcDbSymbolTableRecord
100
AcDbTextStyleTableRecord
  2
TEXTSTYLE_1
 70
0
 40
0.0
 41
0.8
 50
0.0
 71
0
 42
0.2
  3
gdt
  4

  0
ENDTAB
  0
TABLE
  2
VIEW
  5
6
100
AcDbSymbolTable
 70
0
  0
ENDTAB
  0
TABLE
  2
UCS
  5
7
100
AcDbSymbolTable
 70
0
  0
ENDTAB
  0
TABLE
  2
APPID
  5
9
100
AcDbSymbolTable
 70
1
  0
APPID
  5
210
100
AcDbSymbolTableRecord
100
AcDbRegAppTableRecord
  2
ACAD
 70
0
  0
ENDTAB
  0
TABLE
  2
BLOCK_RECORD
  5
1
100
AcDbSymbolTable
 70
0
  0
BLOCK_RECORD
  5
211
100
AcDbSymbolTableRecord
100
AcDbBlockTableRecord
  2
*Model_Space
  0
BLOCK_RECORD
  5
212
100
AcDbSymbolTableRecord
100
AcDbBlockTableRecord
  2
*Paper_Space
  0
BLOCK_RECORD
  5
213
100
AcDbSymbolTableRecord
100
AcDbBlockTableRecord
  2
_FILLED
  0
ENDTAB
  0
TABLE
  2
DIMSTYLE
  5
A
100
AcDbSymbolTable
 70
1
100
AcDbDimStyleTable
 71
0
  0
DIMSTYLE
105
214
100
AcDbSymbolTableRecord
100
AcDbDimStyleTableRecord
  2
STANDARD
 70
0
  3

  4

 40
1.0
 41
0.8840177851
 42
1.0
 43
0.38
 44
1.0
 45
0.0
 46
0.0
 47
0.01
 48
0.01
140
1.2376248992
141
0.09
142
0.0
143
25.4
144
1.0
145
0.0
146
1.0
147
0.625
 71
1
 72
0
 73
0
 74
0
 75
0
 76
0
 77
1
 78
8
 79
2
170
0
171
1
172
0
173
0
174
0
175
0
176
0
177
0
178
0
270
2
179
2
271
2
272
2
273
2
274
2
275
0
280
0
281
0
282
0
283
1
284
8
285
0
286
0
287
3
288
0
340
11
278
46
341
213
342
213
343
213
344
213
  0
ENDTAB
  0
ENDSEC
  0
SECTION
  2
BLOCKS
  0
BLOCK
  5
20
100
AcDbEntity
  8
0
100
AcDbBlockBegin
  2
*Model_Space
 70
0
 10
0.0
 20
0.0
 30
0.0
  3
*Model_Space
  1

  0
ENDBLK
  5
21
100
AcDbEntity
  8
0
100
AcDbBlockEnd
  0
BLOCK
  5
1C
100
AcDbEntity
  8
0
100
AcDbBlockBegin
  2
*Paper_Space
 70
0
 10
0.0
 20
0.0
 30
0.0
  3
*Paper_Space
  1

  0
ENDBLK
  5
1D
100
AcDbEntity
  8
0
100
AcDbBlockEnd
  0
BLOCK
  5
215
100
AcDbEntity
  8
0
100
AcDbBlockBegin
  2
_FILLED
 70
64
 10
0.0
 20
0.0
  3
_FILLED
  1

  0
SOLID
  5
216
100
AcDbEntity
  8
0
  6
BYBLOCK
 62
0
100
AcDbTrace
 10
0.0
 20
0.0
 11
-1.0
 21
0.25
 12
-1.0
 22
-0.25
 13
-1.0
 23
-0.25
  0
ENDBLK
  5
217
100
AcDbEntity
  8
0
  6
BYBLOCK
 62
0
100
AcDbBlockEnd
  0
ENDSEC
  0
SECTION
  2
ENTITIES
  0
LINE
  5
218
100
AcDbEntity
  8
00_COMPONENTS_1
100
AcDbLine
 62
7
  6
CONTINUOUS
 10
31.0017884703
 20
8.2187661982
 11
30.2946787451
 21
8.6270069528
  0
LINE
  5
219
100
AcDbEntity
  8
00_COMPONENTS_1
100
AcDbLine
 62
7
  6
CONTINUOUS
 10
25.5570435866
 20
11.3622200081
 11
24.8499338615
 21
11.7704607626
  0
LINE
  5
21A
100
AcDbEntity
  8
00_COMPONENTS_1
100
AcDbLine
 62
7
  6
CONTINUOUS
 10
32.9812491288
 20
10.7904807505
 11
34.5790008799
 21
9.9660195053
  0
LINE
  5
21B
100
AcDbEntity
  8
00_COMPONENTS_1
100
AcDbLine
 62
7
  6
CONTINUOUS
 10
19.5462760726
 20
16.2913035401
 11
13.3944214639
 21
19.8429981045
  0
LINE
  5
21C
100
AcDbEntity
  8
00_COMPONENTS_1
100
AcDbLine
 62
7
  6
CONTINUOUS
 10
17.2124125481
 20
18.6128218384
 11
11.5201792606
 21
21.8991599123
  0
LINE
  5
21D
100
AcDbEntity
  8
00_COMPONENTS_1
100
AcDbLine
 62
7
  6
CONTINUOUS
 10
15.2420596834
 20
19.8173677804
 11
9.549826396
 21
23.1037058543
  0
LINE
  5
21E
100
AcDbEntity
  8
00_COMPONENTS_1
100
AcDbLine
 62
7
  6
CONTINUOUS
 10
19.752507561
 20
17.9479799002
 11
17.3129790092
 21
19.3564105032
  0
LINE
  5
21F
100
AcDbEntity
  8
00_COMPONENTS_1
100
AcDbLine
 62
7
  6
CONTINUOUS
 10
18.2743996896
 20
18.8515706634
 11
15.8348711379
 21
20.2600012665
  0
LINE
  5
220
100
AcDbEntity
  8
00_COMPONENTS_1
100
AcDbLine
 62
7
  6
CONTINUOUS
 10
29.4733738308
 20
13.2967055088
 11
29.1905299408
 21
13.4600018106
  0
LINE
  5
221
100
AcDbEntity
  8
00_COMPONENTS_1
100
AcDbLine
 62
7
  6
CONTINUOUS
 10
35.1450048877
 20
8.1069414622
 11
32.9812491288
 21
9.3588798458
  0
LINE
  5
222
100
AcDbEntity
  8
00_COMPONENTS_1
100
AcDbLine
 62
7
  6
CONTINUOUS
 10
9.5492980987
 20
23.1040034678
 11
11.5201853393
 21
21.8991702405
  0
LINE
  5
223
100
AcDbEntity
  8
00_COMPONENTS_1
100
AcDbLine
 62
7
  6
CONTINUOUS
 10
17.2124186268
 20
18.6128321666
 11
15.2415313861
 21
19.8176653939
  0
LINE
  5
224
100
AcDbEntity
  8
00_COMPONENTS_1
100
AcDbLine
 62
7
  6
CONTINUOUS
 10
15.8348711379
 20
20.2600012665
 11
17.3129790092
 21
19.3564105032
  0
LINE
  5
225
100
AcDbEntity
  8
00_COMPONENTS_1
100
AcDbLine
 62
7
  6
CONTINUOUS
 10
19.752507561
 20
17.9479799002
 11
18.2743996896
 21
18.8515706634
  0
LINE
  5
226
100
AcDbEntity
  8
00_COMPONENTS_1
100
AcDbLine
 62
7
  6
CONTINUOUS
 10
36.8783412047
 20
11.8720059002
 11
35.8096644776
 21
12.423457366
  0
LINE
  5
227
100
AcDbEntity
  8
00_COMPONENTS_1
100
AcDbLine
 62
7
  6
CONTINUOUS
 10
16.1305229356
 20
24.0797232609
 11
14.0314391038
 21
25.261884579
  0
LINE
  5
228
100
AcDbEntity
  8
00_COMPONENTS_1
100
AcDbLine
 62
7
  6
CONTINUOUS
 10
17.2838796908
 20
23.3841259149
 11
19.3833659221
 21
22.2014186032
  0
LINE
  5
229
100
AcDbEntity
  8
00_COMPONENTS_1
100
AcDbLine
 62
7
  6
CONTINUOUS
 10
12.6233603389
 20
26.0892667431
 11
12.4056986851
 21
26.2118824695
  0
LINE
  5
22A
100
AcDbEntity
  8
00_COMPONENTS_1
100
AcDbLine
 62
7
  6
CONTINUOUS
 10
34.608365839
 20
10.5614428347
 11
35.1033426466
 21
10.2756743065
  0
LINE
  5
22B
100
AcDbEntity
  8
00_COMPONENTS_1
100
AcDbLine
 62
7
  6
CONTINUOUS
 10
19.6945269005
 20
21.2644817733
 11
17.2549983488
 21
22.6729123764
  0
LINE
  5
22C
100
AcDbEntity
  8
00_COMPONENTS_1
100
AcDbLine
 62
7
  6
CONTINUOUS
 10
17.2838796908
 20
23.3841259149
 11
14.0314391038
 21
25.261884579
  0
LINE
  5
22D
100
AcDbEntity
  8
00_COMPONENTS_1
100
AcDbLine
 62
7
  6
CONTINUOUS
 10
12.6172196535
 20
26.078366088
 11
11.5916464034
 21
26.6704639888
  0
LINE
  5
22E
100
AcDbEntity
  8
00_COMPONENTS_1
100
AcDbLine
 62
7
  6
CONTINUOUS
 10
18.7247533511
 20
22.9569937909
 11
15.542759588
 21
24.7940771863
  0
LINE
  5
22F
100
AcDbEntity
  8
00_COMPONENTS_1
100
AcDbLine
 62
7
  6
CONTINUOUS
 10
12.7924727016
 20
26.3819201387
 11
12.5728987424
 21
26.5086883553
  0
LINE
  5
230
100
AcDbEntity
  8
00_COMPONENTS_1
100
AcDbLine
 62
7
  6
CONTINUOUS
 10
37.4367811878
 20
12.1944194502
 11
37.9317579954
 21
11.908650922
  0
LINE
  5
231
100
AcDbEntity
  8
00_COMPONENTS_1
100
AcDbLine
 62
7
  6
CONTINUOUS
 10
30.2943173083
 20
16.465523767
 11
29.7712145288
 21
16.7675304652
  0
LINE
  5
232
100
AcDbEntity
  8
00_COMPONENTS_1
100
AcDbLine
 62
7
  6
CONTINUOUS
 10
26.0870144436
 20
18.8945562563
 11
25.5566821498
 21
19.2007368222
  0
LINE
  5
233
100
AcDbEntity
  8
00_COMPONENTS_1
100
AcDbLine
 62
7
  6
CONTINUOUS
 10
14.4591549081
 20
26.0081752758
 11
13.0449354578
 21
26.8246567849
  0
LINE
  5
234
100
AcDbEntity
  8
00_COMPONENTS_1
100
AcDbLine
 62
7
  6
CONTINUOUS
 10
18.5622642907
 20
22.6755922366
 11
16.130241539
 21
24.0799096109
  0
LINE
  5
235
100
AcDbEntity
  8
00_COMPONENTS_1
100
AcDbLine
 62
7
  6
CONTINUOUS
 10
19.6945269005
 20
21.2644817733
 11
21.1726347719
 21
20.3608910101
  0
LINE
  5
236
100
AcDbEntity
  8
00_COMPONENTS_1
100
AcDbLine
 62
7
  6
CONTINUOUS
 10
19.5462760726
 20
22.6600223938
 11
18.7247586548
 21
22.9570029749
  0
LINE
  5
237
100
AcDbEntity
  8
00_COMPONENTS_1
100
AcDbLine
 62
7
  6
CONTINUOUS
 10
24.8495036267
 20
77.7354426478
 11
26.8223234816
 21
78.8744439232
  0
LINE
  5
238
100
AcDbEntity
  8
00_COMPONENTS_1
100
AcDbLine
 62
7
  6
CONTINUOUS
 10
29.6648809072
 20
80.5155854217
 11
58.5147174656
 21
97.1719468997
  0
LINE
  5
239
100
AcDbEntity
  8
00_COMPONENTS_1
100
AcDbLine
 62
7
  6
CONTINUOUS
 10
29.5871142428
 20
22.0883495569
 11
31.0013583846
 21
21.2718537925
  0
LINE
  5
23A
100
AcDbEntity
  8
00_COMPONENTS_1
100
AcDbLine
 62
7
  6
CONTINUOUS
 10
43.4664384111
 20
14.9987760074
 11
42.7562535904
 21
15.408792129
  0
LINE
  5
23B
100
AcDbEntity
  8
00_COMPONENTS_1
100
AcDbLine
 62
7
  6
CONTINUOUS
 10
13.3944214639
 20
19.8429981045
 11
13.3944214639
 21
20.8170901514
  0
LINE
  5
23C
100
AcDbEntity
  8
00_COMPONENTS_1
100
AcDbLine
 62
7
  6
CONTINUOUS
 10
13.3944214639
 20
36.1837489261
 11
13.3944214639
 21
56.4248438467
  0
LINE
  5
23D
100
AcDbEntity
  8
00_COMPONENTS_1
100
AcDbLine
 62
7
  6
CONTINUOUS
 10
51.7352613284
 20
92.4413611302
 11
40.264373315
 21
85.8186803799
  0
LINE
  5
23E
100
AcDbEntity
  8
00_COMPONENTS_1
100
AcDbLine
 62
7
  6
CONTINUOUS
 10
28.1835332246
 20
78.0885668906
 11
29.6648809072
 21
78.9438182688
  0
LINE
  5
23F
100
AcDbEntity
  8
00_COMPONENTS_1
100
AcDbLine
 62
7
  6
CONTINUOUS
 10
32.7408082116
 20
78.7397381396
 11
29.898250786
 21
77.098596641
  0
LINE
  5
240
100
AcDbEntity
  8
00_COMPONENTS_1
100
AcDbLine
 62
7
  6
CONTINUOUS
 10
14.8086409141
 20
35.2693671136
 11
16.2228603644
 21
34.4528856046
  0
LINE
  5
241
100
AcDbEntity
  8
00_COMPONENTS_1
100
AcDbLine
 62
7
  6
CONTINUOUS
 10
13.3944214639
 20
36.1837489261
 11
14.7379299416
 21
35.4080914925
  0
LINE
  5
242
100
AcDbEntity
  8
00_COMPONENTS_1
100
AcDbLine
 62
7
  6
CONTINUOUS
 10
16.3642823095
 20
34.4691377571
 11
19.5462760726
 21
32.6320543618
  0
LINE
  5
243
100
AcDbEntity
  8
00_COMPONENTS_1
100
AcDbLine
 62
7
  6
CONTINUOUS
 10
18.8391663475
 20
35.6449378269
 11
17.5663688422
 21
36.3797711851
  0
LINE
  5
244
100
AcDbEntity
  8
00_COMPONENTS_1
100
AcDbLine
 62
7
  6
CONTINUOUS
 10
17.3493443476
 20
40.4098992994
 11
17.3574206003
 21
40.3219391666
  0
LINE
  5
245
100
AcDbEntity
  8
00_COMPONENTS_1
100
AcDbLine
 62
7
  6
CONTINUOUS
 10
14.7379299416
 20
35.1468936453
 11
14.7379299416
 21
35.4080914925
  0
LINE
  5
246
100
AcDbEntity
  8
00_COMPONENTS_1
100
AcDbLine
 62
7
  6
CONTINUOUS
 10
16.2228603644
 20
24.2330089798
 11
16.2228603644
 21
24.4014297028
  0
LINE
  5
247
100
AcDbEntity
  8
00_COMPONENTS_1
100
AcDbLine
 62
7
  6
CONTINUOUS
 10
16.2228603644
 20
34.2265577455
 11
16.2228603644
 21
34.4528856046
  0
LINE
  5
248
100
AcDbEntity
  8
00_COMPONENTS_1
100
AcDbLine
 62
7
  6
CONTINUOUS
 10
31.0013582355
 20
74.1837480835
 11
32.9812491288
 21
75.3295534751
  0
LINE
  5
249
100
AcDbEntity
  8
00_COMPONENTS_1
100
AcDbLine
 62
7
  6
CONTINUOUS
 10
57.180006212
 20
89.2979073203
 11
64.6665720743
 21
93.6202523354
  0
LINE
  5
24A
100
AcDbEntity
  8
00_COMPONENTS_1
100
AcDbLine
 62
7
  6
CONTINUOUS
 10
35.8096644776
 20
76.9625300906
 11
45.7091181986
 21
82.6752265701
  0
LINE
  5
24B
100
AcDbEntity
  8
00_COMPONENTS_1
100
AcDbLine
 62
7
  6
CONTINUOUS
 10
18.0313580182
 20
36.7939185163
 11
18.8391663475
 21
36.3275407108
  0
LINE
  5
24C
100
AcDbEntity
  8
00_COMPONENTS_1
100
AcDbLine
 62
7
  6
CONTINUOUS
 10
18.0107442814
 20
36.9917435537
 11
18.8391663475
 21
36.5134646709
  0
LINE
  5
24D
100
AcDbEntity
  8
00_COMPONENTS_1
100
AcDbLine
 62
7
  6
CONTINUOUS
 10
17.7253430736
 20
37.4517506728
 11
18.6445857163
 21
36.9210376919
  0
LINE
  5
24E
100
AcDbEntity
  8
00_COMPONENTS_1
100
AcDbLine
 62
7
  6
CONTINUOUS
 10
17.7109178283
 20
37.663663328
 11
18.630160471
 21
37.1329503471
  0
LINE
  5
24F
100
AcDbEntity
  8
00_COMPONENTS_1
100
AcDbLine
 62
7
  6
CONTINUOUS
 10
17.4743764769
 20
38.1655102411
 11
18.3936191196
 21
37.6347972603
  0
LINE
  5
250
100
AcDbEntity
  8
00_COMPONENTS_1
100
AcDbLine
 62
7
  6
CONTINUOUS
 10
18.7917451332
 20
37.4797750618
 11
18.511827667
 21
37.6413818302
  0
LINE
  5
251
100
AcDbEntity
  8
00_COMPONENTS_1
100
AcDbLine
 62
7
  6
CONTINUOUS
 10
17.4668050525
 20
38.3913292492
 11
18.3860476952
 21
37.8606162684
  0
LINE
  5
252
100
AcDbEntity
  8
00_COMPONENTS_1
100
AcDbLine
 62
7
  6
CONTINUOUS
 10
17.279871103
 20
38.9311789456
 11
18.1991137457
 21
38.4004659648
  0
LINE
  5
253
100
AcDbEntity
  8
00_COMPONENTS_1
100
AcDbLine
 62
7
  6
CONTINUOUS
 10
18.5636401984
 20
38.2019795627
 11
18.247074728
 21
38.3847445875
  0
LINE
  5
254
100
AcDbEntity
  8
00_COMPONENTS_1
100
AcDbLine
 62
7
  6
CONTINUOUS
 10
54.0337500003
 20
17.8337701114
 11
53.3206032611
 21
18.2454962587
  0
LINE
  5
255
100
AcDbEntity
  8
00_COMPONENTS_1
100
AcDbLine
 62
7
  6
CONTINUOUS
 10
17.2797802437
 20
39.1706447527
 11
18.1990228863
 21
38.6399317718
  0
LINE
  5
256
100
AcDbEntity
  8
00_COMPONENTS_1
100
AcDbLine
 62
7
  6
CONTINUOUS
 10
18.3916234322
 20
38.9739118615
 11
17.4723807895
 21
39.5046248424
  0
LINE
  5
257
100
AcDbEntity
  8
00_COMPONENTS_1
100
AcDbLine
 62
7
  6
CONTINUOUS
 10
17.1429219652
 20
39.7444462759
 11
18.0621646079
 21
39.213733295
  0
LINE
  5
258
100
AcDbEntity
  8
00_COMPONENTS_1
100
AcDbLine
 62
7
  6
CONTINUOUS
 10
17.1508963015
 20
39.9972225002
 11
18.0701389442
 21
39.4665095193
  0
LINE
  5
259
100
AcDbEntity
  8
00_COMPONENTS_1
100
AcDbLine
 62
7
  6
CONTINUOUS
 10
18.276663243
 20
39.7912261858
 11
17.3574206003
 21
40.3219391666
  0
LINE
  5
25A
100
AcDbEntity
  8
00_COMPONENTS_1
100
AcDbLine
 62
7
  6
CONTINUOUS
 10
17.9461847781
 20
40.0653211116
 11
17.0269421354
 21
40.5960340925
  0
LINE
  5
25B
100
AcDbEntity
  8
00_COMPONENTS_1
100
AcDbLine
 62
7
  6
CONTINUOUS
 10
16.4826740348
 20
41.0804512216
 11
17.4019166775
 21
40.5497382407
  0
LINE
  5
25C
100
AcDbEntity
  8
00_COMPONENTS_1
100
AcDbLine
 62
7
  6
CONTINUOUS
 10
35.1033426466
 20
10.2756743065
 11
35.8104523717
 21
9.0509311349
  0
LINE
  5
25D
100
AcDbEntity
  8
00_COMPONENTS_1
100
AcDbLine
 62
7
  6
CONTINUOUS
 10
18.7917451332
 20
37.4797750618
 11
18.7176558457
 21
37.6904881149
  0
LINE
  5
25E
100
AcDbEntity
  8
00_COMPONENTS_1
100
AcDbLine
 62
7
  6
CONTINUOUS
 10
18.5636401984
 20
38.2019795627
 11
18.5062191521
 21
38.4280170094
  0
LINE
  5
25F
100
AcDbEntity
  8
00_COMPONENTS_1
100
AcDbLine
 62
7
  6
CONTINUOUS
 10
17.4631266512
 20
39.5595801965
 11
17.4723807895
 21
39.5046248424
  0
LINE
  5
260
100
AcDbEntity
  8
00_COMPONENTS_1
100
AcDbLine
 62
7
  6
CONTINUOUS
 10
18.3916234322
 20
38.9739118615
 11
18.3511938923
 21
39.2140011714
  0
LINE
  5
261
100
AcDbEntity
  8
00_COMPONENTS_1
100
AcDbLine
 62
7
  6
CONTINUOUS
 10
18.276663243
 20
39.7912261858
 11
18.253452817
 21
40.04401572
  0
LINE
  5
262
100
AcDbEntity
  8
00_COMPONENTS_1
100
AcDbLine
 62
7
  6
CONTINUOUS
 10
17.5663688422
 20
44.1365441478
 11
17.5663688422
 21
43.8445089035
  0
LINE
  5
263
100
AcDbEntity
  8
00_COMPONENTS_1
100
AcDbLine
 62
7
  6
CONTINUOUS
 10
17.5663688422
 20
38.7657731408
 11
17.5663688422
 21
38.5827079541
  0
LINE
  5
264
100
AcDbEntity
  8
00_COMPONENTS_1
100
AcDbLine
 62
7
  6
CONTINUOUS
 10
17.5663688422
 20
38.1123996258
 11
17.5663688422
 21
36.3797711851
  0
LINE
  5
265
100
AcDbEntity
  8
00_COMPONENTS_1
100
AcDbLine
 62
7
  6
CONTINUOUS
 10
18.8391663475
 20
43.4017107897
 11
18.8391663475
 21
35.6449378269
  0
LINE
  5
266
100
AcDbEntity
  8
00_COMPONENTS_1
100
AcDbLine
 62
7
  6
CONTINUOUS
 10
19.5462760726
 20
16.2913035401
 11
19.5462760726
 21
18.0670450119
  0
LINE
  5
267
100
AcDbEntity
  8
00_COMPONENTS_1
100
AcDbLine
 62
7
  6
CONTINUOUS
 10
19.5462760726
 20
21.3500724924
 11
19.5462760726
 21
22.6600223938
  0
LINE
  5
268
100
AcDbEntity
  8
00_COMPONENTS_1
100
AcDbLine
 62
7
  6
CONTINUOUS
 10
19.5462760726
 20
32.6320543618
 11
19.5462760726
 21
52.8731492824
  0
LINE
  5
269
100
AcDbEntity
  8
00_COMPONENTS_1
100
AcDbLine
 62
7
  6
CONTINUOUS
 10
16.8051670766
 20
41.7727363171
 11
16.8129585987
 21
41.9715804931
  0
LINE
  5
26A
100
AcDbEntity
  8
00_COMPONENTS_1
100
AcDbLine
 62
7
  6
CONTINUOUS
 10
17.7244097193
 20
41.2420233363
 11
17.7351240326
 21
41.5154588422
  0
LINE
  5
26B
100
AcDbEntity
  8
00_COMPONENTS_1
100
AcDbLine
 62
7
  6
CONTINUOUS
 10
16.8966626118
 20
43.0595169716
 11
16.8707661691
 21
42.8095268156
  0
LINE
  5
26C
100
AcDbEntity
  8
00_COMPONENTS_1
100
AcDbLine
 62
7
  6
CONTINUOUS
 10
17.7900088118
 20
42.2788138348
 11
17.8192500406
 21
42.5610927348
  0
LINE
  5
26D
100
AcDbEntity
  8
00_COMPONENTS_1
100
AcDbLine
 62
7
  6
CONTINUOUS
 10
35.2520919715
 20
74.0219135017
 11
38.0805073203
 21
75.6548901172
  0
LINE
  5
26E
100
AcDbEntity
  8
00_COMPONENTS_1
100
AcDbLine
 62
7
  6
CONTINUOUS
 10
49.3506576232
 20
80.7766873013
 11
45.7091181986
 21
78.6742560841
  0
LINE
  5
26F
100
AcDbEntity
  8
00_COMPONENTS_1
100
AcDbLine
 62
7
  6
CONTINUOUS
 10
38.6453745572
 20
74.1990333984
 11
34.760629728
 21
71.956167236
  0
LINE
  5
270
100
AcDbEntity
  8
00_COMPONENTS_1
100
AcDbLine
 62
7
  6
CONTINUOUS
 10
18.2511211641
 20
38.3917533789
 11
18.1991149888
 21
38.4004681158
  0
LINE
  5
271
100
AcDbEntity
  8
00_COMPONENTS_1
100
AcDbLine
 62
7
  6
CONTINUOUS
 10
18.1040225697
 20
39.2040875972
 11
18.0621708631
 21
39.2137441604
  0
LINE
  5
272
100
AcDbEntity
  8
00_COMPONENTS_1
100
AcDbLine
 62
7
  6
CONTINUOUS
 10
17.4286198537
 20
40.5402527778
 11
17.4019367866
 21
40.5497731832
  0
LINE
  5
273
100
AcDbEntity
  8
00_COMPONENTS_1
100
AcDbLine
 62
7
  6
CONTINUOUS
 10
17.4535896005
 20
41.6037272223
 11
17.4392135165
 21
41.6100779968
  0
LINE
  5
274
100
AcDbEntity
  8
00_COMPONENTS_1
100
AcDbLine
 62
7
  6
CONTINUOUS
 10
17.8192500406
 20
42.5610927348
 11
17.4957998042
 21
42.7136127776
  0
LINE
  5
275
100
AcDbEntity
  8
00_COMPONENTS_1
100
AcDbLine
 62
7
  6
CONTINUOUS
 10
16.5105721127
 20
41.3871932862
 11
17.4298147554
 21
40.8564803053
  0
LINE
  5
276
100
AcDbEntity
  8
00_COMPONENTS_1
100
AcDbLine
 62
7
  6
CONTINUOUS
 10
17.7244097193
 20
41.2420233363
 11
16.8051670766
 21
41.7727363171
  0
LINE
  5
277
100
AcDbEntity
  8
00_COMPONENTS_1
100
AcDbLine
 62
7
  6
CONTINUOUS
 10
16.5199458909
 20
42.1407476318
 11
17.4391885336
 21
41.6100346509
  0
LINE
  5
278
100
AcDbEntity
  8
00_COMPONENTS_1
100
AcDbLine
 62
7
  6
CONTINUOUS
 10
16.5560767285
 20
42.4366647756
 11
17.4753193712
 21
41.9059517947
  0
LINE
  5
279
100
AcDbEntity
  8
00_COMPONENTS_1
100
AcDbLine
 62
7
  6
CONTINUOUS
 10
17.7900088118
 20
42.2788138348
 11
16.8707661691
 21
42.8095268156
  0
LINE
  5
27A
100
AcDbEntity
  8
00_COMPONENTS_1
100
AcDbLine
 62
7
  6
CONTINUOUS
 10
17.4957998042
 20
42.7136127776
 11
16.5765571615
 21
43.2443257585
  0
LINE
  5
27B
100
AcDbEntity
  8
00_COMPONENTS_1
100
AcDbLine
 62
7
  6
CONTINUOUS
 10
16.6098706963
 20
43.4900211426
 11
17.529113339
 21
42.9593081617
  0
LINE
  5
27C
100
AcDbEntity
  8
00_COMPONENTS_1
100
AcDbLine
 62
7
  6
CONTINUOUS
 10
18.8391663475
 20
43.4017107897
 11
17.5663688422
 21
44.1365441478
  0
LINE
  5
27D
100
AcDbEntity
  8
00_COMPONENTS_1
100
AcDbLine
 62
7
  6
CONTINUOUS
 10
38.6388677206
 20
10.6839077504
 11
37.9317579954
 21
11.908650922
  0
LINE
  5
27E
100
AcDbEntity
  8
00_COMPONENTS_1
100
AcDbLine
 62
7
  6
CONTINUOUS
 10
29.7639846209
 20
16.7866731166
 11
29.7712145287
 21
16.7675304652
  0
LINE
  5
27F
100
AcDbEntity
  8
00_COMPONENTS_1
100
AcDbLine
 62
7
  6
CONTINUOUS
 10
27.4180988464
 20
20.0748972132
 11
29.1905299408
 21
13.4600018106
  0
LINE
  5
280
100
AcDbEntity
  8
00_COMPONENTS_1
100
AcDbLine
 62
7
  6
CONTINUOUS
 10
29.4733738308
 20
13.2967055088
 11
29.1980701458
 21
14.3241672172
  0
LINE
  5
281
100
AcDbEntity
  8
00_COMPONENTS_1
100
AcDbLine
 62
7
  6
CONTINUOUS
 10
29.2695711393
 20
14.8380860951
 11
28.9788781028
 21
15.9229824483
  0
LINE
  5
282
100
AcDbEntity
  8
00_COMPONENTS_1
100
AcDbLine
 62
7
  6
CONTINUOUS
 10
27.7803259344
 20
20.3961025904
 11
27.6297026521
 21
20.9582441939
  0
LINE
  5
283
100
AcDbEntity
  8
00_COMPONENTS_1
100
AcDbLine
 62
7
  6
CONTINUOUS
 10
13.3944214639
 20
56.4248438467
 11
24.8495036267
 21
63.0383991395
  0
LINE
  5
284
100
AcDbEntity
  8
00_COMPONENTS_1
100
AcDbLine
 62
7
  6
CONTINUOUS
 10
18.253452817
 20
40.04401572
 11
17.9461847781
 21
40.0653211116
  0
LINE
  5
285
100
AcDbEntity
  8
00_COMPONENTS_1
100
AcDbLine
 62
7
  6
CONTINUOUS
 10
17.9273926388
 20
40.45633042
 11
17.4286198537
 21
40.5402527778
  0
LINE
  5
286
100
AcDbEntity
  8
00_COMPONENTS_1
100
AcDbLine
 62
7
  6
CONTINUOUS
 10
17.7351240326
 20
41.5154588422
 11
17.4535896005
 21
41.6037272223
  0
LINE
  5
287
100
AcDbEntity
  8
00_COMPONENTS_1
100
AcDbLine
 62
7
  6
CONTINUOUS
 10
24.8495036267
 20
63.0383991395
 11
24.8495036267
 21
77.7354426478
  0
LINE
  5
288
100
AcDbEntity
  8
00_COMPONENTS_1
100
AcDbLine
 62
7
  6
CONTINUOUS
 10
26.0870144436
 20
18.8945562563
 11
26.0869894281
 21
19.951979048
  0
LINE
  5
289
100
AcDbEntity
  8
00_COMPONENTS_1
100
AcDbLine
 62
7
  6
CONTINUOUS
 10
18.1091888819
 20
37.2301422055
 11
18.0107442813
 21
36.9917435537
  0
LINE
  5
28A
100
AcDbEntity
  8
00_COMPONENTS_1
100
AcDbLine
 62
7
  6
CONTINUOUS
 10
17.8450288909
 20
37.9515188113
 11
17.7109178283
 21
37.6636633279
  0
LINE
  5
28B
100
AcDbEntity
  8
00_COMPONENTS_1
100
AcDbLine
 62
7
  6
CONTINUOUS
 10
18.630160471
 20
37.1329503471
 11
18.7917451332
 21
37.4797750618
  0
LINE
  5
28C
100
AcDbEntity
  8
00_COMPONENTS_1
100
AcDbLine
 62
7
  6
CONTINUOUS
 10
17.6443975557
 20
38.7326925435
 11
17.4668050525
 21
38.3913292492
  0
LINE
  5
28D
100
AcDbEntity
  8
00_COMPONENTS_1
100
AcDbLine
 62
7
  6
CONTINUOUS
 10
18.3860476952
 20
37.8606162683
 11
18.5636401984
 21
38.2019795627
  0
LINE
  5
28E
100
AcDbEntity
  8
00_COMPONENTS_1
100
AcDbLine
 62
7
  6
CONTINUOUS
 10
17.4723807895
 20
39.5046248424
 11
17.2797802437
 21
39.1706447527
  0
LINE
  5
28F
100
AcDbEntity
  8
00_COMPONENTS_1
100
AcDbLine
 62
7
  6
CONTINUOUS
 10
17.3574206003
 20
40.3219391666
 11
17.1508963015
 21
39.9972225002
  0
LINE
  5
290
100
AcDbEntity
  8
00_COMPONENTS_1
100
AcDbLine
 62
7
  6
CONTINUOUS
 10
54.7954025068
 20
77.6332334915
 11
45.7091181986
 21
72.3872961142
  0
LINE
  5
291
100
AcDbEntity
  8
00_COMPONENTS_1
100
AcDbLine
 62
7
  6
CONTINUOUS
 10
18.7176558457
 20
37.6904881149
 11
18.4560673257
 21
37.6280785828
  0
LINE
  5
292
100
AcDbEntity
  8
00_COMPONENTS_1
100
AcDbLine
 62
7
  6
CONTINUOUS
 10
18.5062191521
 20
38.4280170094
 11
18.2511211641
 21
38.3917533789
  0
LINE
  5
293
100
AcDbEntity
  8
00_COMPONENTS_1
100
AcDbLine
 62
7
  6
CONTINUOUS
 10
18.3511938923
 20
39.2140011714
 11
18.1040225697
 21
39.2040875972
  0
LINE
  5
294
100
AcDbEntity
  8
00_COMPONENTS_1
100
AcDbLine
 62
7
  6
CONTINUOUS
 10
29.6648809072
 20
78.9438182688
 11
29.6648809072
 21
80.5155854217
  0
LINE
  5
295
100
AcDbEntity
  8
00_COMPONENTS_1
100
AcDbLine
 62
7
  6
CONTINUOUS
 10
29.7639599989
 20
17.8291271245
 11
29.7639846209
 21
16.7866731166
  0
LINE
  5
296
100
AcDbEntity
  8
00_COMPONENTS_1
100
AcDbLine
 62
7
  6
CONTINUOUS
 10
31.0013583846
 20
21.2718534743
 11
31.0013583782
 21
22.9048589153
  0
LINE
  5
297
100
AcDbEntity
  8
00_COMPONENTS_1
100
AcDbLine
 62
7
  6
CONTINUOUS
 10
31.0013582355
 20
59.4867045751
 11
31.0013582355
 21
74.1837480835
  0
LINE
  5
298
100
AcDbEntity
  8
00_COMPONENTS_1
100
AcDbLine
 62
7
  6
CONTINUOUS
 10
11.5916464034
 20
26.6704639888
 11
9.5492980987
 21
23.1040034678
  0
LINE
  5
299
100
AcDbEntity
  8
00_COMPONENTS_1
100
AcDbLine
 62
7
  6
CONTINUOUS
 10
13.0449354578
 20
26.8246567849
 11
12.6172196535
 21
26.078366088
  0
LINE
  5
29A
100
AcDbEntity
  8
00_COMPONENTS_1
100
AcDbLine
 62
7
  6
CONTINUOUS
 10
14.0314391038
 20
25.261884579
 11
14.4591549081
 21
26.0081752758
  0
LINE
  5
29B
100
AcDbEntity
  8
00_COMPONENTS_1
100
AcDbLine
 62
7
  6
CONTINUOUS
 10
18.1990228863
 20
38.6399317718
 11
18.3916234322
 21
38.9739118615
  0
LINE
  5
29C
100
AcDbEntity
  8
00_COMPONENTS_1
100
AcDbLine
 62
7
  6
CONTINUOUS
 10
18.0701389442
 20
39.4665095193
 11
18.276663243
 21
39.7912261858
  0
LINE
  5
29D
100
AcDbEntity
  8
00_COMPONENTS_1
100
AcDbLine
 62
7
  6
CONTINUOUS
 10
16.8051670766
 20
41.7727363171
 11
16.5105721127
 21
41.3871932862
  0
LINE
  5
29E
100
AcDbEntity
  8
00_COMPONENTS_1
100
AcDbLine
 62
7
  6
CONTINUOUS
 10
17.4298147554
 20
40.8564803053
 11
17.7244097193
 21
41.2420233363
  0
LINE
  5
29F
100
AcDbEntity
  8
00_COMPONENTS_1
100
AcDbLine
 62
7
  6
CONTINUOUS
 10
16.8707661691
 20
42.8095268156
 11
16.5560767285
 21
42.4366647756
  0
LINE
  5
2A0
100
AcDbEntity
  8
00_COMPONENTS_1
100
AcDbLine
 62
7
  6
CONTINUOUS
 10
17.4753193712
 20
41.9059517947
 11
17.7900088118
 21
42.2788138348
  0
LINE
  5
2A1
100
AcDbEntity
  8
00_COMPONENTS_1
100
AcDbLine
 62
7
  6
CONTINUOUS
 10
19.5462760726
 20
52.8731492824
 11
31.0013582355
 21
59.4867045751
  0
LINE
  5
2A2
100
AcDbEntity
  8
00_COMPONENTS_1
100
AcDbLine
 62
7
  6
CONTINUOUS
 10
61.9725064546
 20
70.9174295055
 11
60.7492168162
 21
70.4602376516
  0
LINE
  5
2A3
100
AcDbEntity
  8
00_COMPONENTS_1
100
AcDbLine
 62
7
  6
CONTINUOUS
 10
62.8705459916
 20
69.235515388
 11
64.09383563
 21
69.6927072419
  0
LINE
  5
2A4
100
AcDbEntity
  8
00_COMPONENTS_1
100
AcDbLine
 62
7
  6
CONTINUOUS
 10
19.5462760726
 20
52.8731492824
 11
13.3944214639
 21
56.4248438467
  0
LINE
  5
2A5
100
AcDbEntity
  8
00_COMPONENTS_1
100
AcDbLine
 62
7
  6
CONTINUOUS
 10
34.6094977136
 20
10.3566637571
 11
34.608365839
 21
10.5614428347
  0
LINE
  5
2A6
100
AcDbEntity
  8
00_COMPONENTS_1
100
AcDbLine
 62
7
  6
CONTINUOUS
 10
32.9812491288
 20
9.3588798458
 11
32.9812491288
 21
10.7904807505
  0
LINE
  5
2A7
100
AcDbEntity
  8
00_COMPONENTS_1
100
AcDbLine
 62
7
  6
CONTINUOUS
 10
32.9812491288
 20
73.8897875462
 11
32.9812491288
 21
75.3295534751
  0
LINE
  5
2A8
100
AcDbEntity
  8
00_COMPONENTS_1
100
AcDbLine
 62
7
  6
CONTINUOUS
 10
29.2695711393
 20
14.8380860951
 11
29.1980701458
 21
14.3241672172
  0
LINE
  5
2A9
100
AcDbEntity
  8
00_COMPONENTS_1
100
AcDbLine
 62
7
  6
CONTINUOUS
 10
15.2415313861
 20
19.8176653939
 11
17.2838796908
 21
23.3841259149
  0
LINE
  5
2AA
100
AcDbEntity
  8
00_COMPONENTS_1
100
AcDbLine
 62
7
  6
CONTINUOUS
 10
16.2228603644
 20
24.2330089798
 11
16.1305229356
 21
24.0797232609
  0
LINE
  5
2AB
100
AcDbEntity
  8
00_COMPONENTS_1
100
AcDbLine
 62
7
  6
CONTINUOUS
 10
61.9725064546
 20
73.3669367569
 11
64.4615119616
 21
74.8039561785
  0
LINE
  5
2AC
100
AcDbEntity
  8
00_COMPONENTS_1
100
AcDbLine
 62
7
  6
CONTINUOUS
 10
64.09383563
 20
66.3940374767
 11
62.382021605
 21
65.7542646845
  0
LINE
  5
2AD
100
AcDbEntity
  8
00_COMPONENTS_1
100
AcDbLine
 62
7
  6
CONTINUOUS
 10
26.8035085948
 20
53.859688888
 11
28.0055951276
 21
53.1656796053
  0
LINE
  5
2AE
100
AcDbEntity
  8
00_COMPONENTS_1
100
AcDbLine
 62
7
  6
CONTINUOUS
 10
26.9216633611
 20
54.1573456029
 11
30.3703380076
 21
52.1662974109
  0
LINE
  5
2AF
100
AcDbEntity
  8
00_COMPONENTS_1
100
AcDbLine
 62
7
  6
CONTINUOUS
 10
43.4664384111
 20
14.9987760074
 11
42.7085668026
 21
17.8272309105
  0
LINE
  5
2B0
100
AcDbEntity
  8
00_COMPONENTS_1
100
AcDbLine
 62
7
  6
CONTINUOUS
 10
34.5272835187
 20
72.090886685
 11
34.4654194339
 21
72.9431055401
  0
LINE
  5
2B1
100
AcDbEntity
  8
00_COMPONENTS_1
100
AcDbLine
 62
7
  6
CONTINUOUS
 10
37.7208644758
 20
14.9475968186
 11
37.7208644758
 21
12.0980033828
  0
LINE
  5
2B2
100
AcDbEntity
  8
00_COMPONENTS_1
100
AcDbLine
 62
7
  6
CONTINUOUS
 10
34.5790008799
 20
9.9660195053
 11
34.6094977136
 21
10.3566637571
  0
LINE
  5
2B3
100
AcDbEntity
  8
00_COMPONENTS_1
100
AcDbLine
 62
7
  6
CONTINUOUS
 10
17.2549983488
 20
22.6729123764
 11
15.8348711379
 21
20.2600012665
  0
LINE
  5
2B4
100
AcDbEntity
  8
00_COMPONENTS_1
100
AcDbLine
 62
7
  6
CONTINUOUS
 10
18.2743996896
 20
18.8515706634
 11
19.6945269005
 21
21.2644817733
  0
LINE
  5
2B5
100
AcDbEntity
  8
00_COMPONENTS_1
100
AcDbLine
 62
7
  6
CONTINUOUS
 10
19.3833659221
 20
22.2014186032
 11
19.0438251722
 21
21.6401560925
  0
LINE
  5
2B6
100
AcDbEntity
  8
00_COMPONENTS_1
100
AcDbLine
 62
7
  6
CONTINUOUS
 10
17.5686746698
 20
19.2017251383
 11
17.2124186268
 21
18.6128321666
  0
LINE
  5
2B7
100
AcDbEntity
  8
00_COMPONENTS_1
100
AcDbLine
 62
7
  6
CONTINUOUS
 10
30.6478300177
 20
53.3503130289
 11
27.5651556357
 21
55.13005565
  0
LINE
  5
2B8
100
AcDbEntity
  8
00_COMPONENTS_1
100
AcDbLine
 62
7
  6
CONTINUOUS
 10
31.298365548
 20
53.8269859733
 11
28.2076601912
 21
55.611365175
  0
LINE
  5
2B9
100
AcDbEntity
  8
00_COMPONENTS_1
100
AcDbLine
 62
7
  6
CONTINUOUS
 10
28.446213356
 20
55.7858091711
 11
31.7198081863
 21
53.8958410714
  0
LINE
  5
2BA
100
AcDbEntity
  8
00_COMPONENTS_1
100
AcDbLine
 62
7
  6
CONTINUOUS
 10
30.1884408526
 20
55.6604014852
 11
31.3905273854
 21
54.9663922025
  0
LINE
  5
2BB
100
AcDbEntity
  8
00_COMPONENTS_1
100
AcDbLine
 62
7
  6
CONTINUOUS
 10
21.1726347719
 20
20.3608910101
 11
19.752507561
 21
17.9479799002
  0
LINE
  5
2BC
100
AcDbEntity
  8
00_COMPONENTS_1
100
AcDbLine
 62
7
  6
CONTINUOUS
 10
17.874440059
 20
43.9586831716
 11
16.6098706963
 21
43.4900211426
  0
LINE
  5
2BD
100
AcDbEntity
  8
00_COMPONENTS_1
100
AcDbLine
 62
7
  6
CONTINUOUS
 10
17.529113339
 20
42.9593081617
 11
18.7936827017
 21
43.4279701908
  0
LINE
  5
2BE
100
AcDbEntity
  8
00_COMPONENTS_1
100
AcDbLine
 62
7
  6
CONTINUOUS
 10
31.0013582355
 20
59.4867045751
 11
24.8495036267
 21
63.0383991395
  0
LINE
  5
2BF
100
AcDbEntity
  8
00_COMPONENTS_1
100
AcDbLine
 62
7
  6
CONTINUOUS
 10
51.7352613284
 20
92.4413611302
 11
49.3506576232
 21
80.7766873013
  0
LINE
  5
2C0
100
AcDbEntity
  8
00_COMPONENTS_1
100
AcDbLine
 62
7
  6
CONTINUOUS
 10
18.1575287315
 20
36.721075469
 11
17.5663688422
 21
36.3797711851
  0
LINE
  5
2C1
100
AcDbEntity
  8
00_COMPONENTS_1
100
AcDbLine
 62
7
  6
CONTINUOUS
 10
32.3800211163
 20
57.4388901498
 11
31.9698287513
 21
57.4870059546
  0
LINE
  5
2C2
100
AcDbEntity
  8
00_COMPONENTS_1
100
AcDbLine
 62
7
  6
CONTINUOUS
 10
62.8210310592
 20
44.4627427248
 11
61.9725064546
 21
44.9526275511
  0
LINE
  5
2C3
100
AcDbEntity
  8
00_COMPONENTS_1
100
AcDbLine
 62
7
  6
CONTINUOUS
 10
65.8615775592
 20
44.1769365437
 11
61.9725064546
 21
46.4222419972
  0
LINE
  5
2C4
100
AcDbEntity
  8
00_COMPONENTS_1
100
AcDbLine
 62
7
  6
CONTINUOUS
 10
35.2510713465
 20
74.0218223278
 11
35.8169592083
 21
72.5660567829
  0
LINE
  5
2C5
100
AcDbEntity
  8
00_COMPONENTS_1
100
AcDbLine
 62
7
  6
CONTINUOUS
 10
54.0337500003
 20
17.8337701114
 11
53.2758783917
 21
20.6622250145
  0
LINE
  5
2C6
100
AcDbEntity
  8
00_COMPONENTS_1
100
AcDbLine
 62
7
  6
CONTINUOUS
 10
45.7091181986
 20
72.3872961142
 11
45.7091181986
 21
82.6752265701
  0
LINE
  5
2C7
100
AcDbEntity
  8
00_COMPONENTS_1
100
AcDbLine
 62
7
  6
CONTINUOUS
 10
18.8391663475
 20
36.9575460315
 11
18.7177072625
 21
36.9173624939
  0
LINE
  5
2C8
100
AcDbEntity
  8
00_COMPONENTS_1
100
AcDbLine
 62
7
  6
CONTINUOUS
 10
38.6453745572
 20
74.1990333984
 11
38.0794866954
 21
75.6547989433
  0
LINE
  5
2C9
100
AcDbEntity
  8
00_COMPONENTS_1
100
AcDbLine
 62
7
  6
CONTINUOUS
 10
54.7954025068
 20
77.6332334915
 11
57.180006212
 21
89.2979073203
  0
LINE
  5
2CA
100
AcDbEntity
  8
00_COMPONENTS_1
100
AcDbLine
 62
7
  6
CONTINUOUS
 10
26.4605603969
 20
20.2832436273
 11
26.0869894281
 21
19.951979048
  0
LINE
  5
2CB
100
AcDbEntity
  8
00_COMPONENTS_1
100
AcDbLine
 62
7
  6
CONTINUOUS
 10
26.0870144436
 20
18.8945562563
 11
27.7803259344
 21
20.3961025903
  0
LINE
  5
2CC
100
AcDbEntity
  8
00_COMPONENTS_1
100
AcDbLine
 62
7
  6
CONTINUOUS
 10
32.9812491288
 20
75.3295534751
 11
35.2510713465
 21
74.0218223278
  0
LINE
  5
2CD
100
AcDbEntity
  8
00_COMPONENTS_1
100
AcDbLine
 62
7
  6
CONTINUOUS
 10
34.760629728
 20
71.956167236
 11
34.5272835187
 21
72.090886685
  0
LINE
  5
2CE
100
AcDbEntity
  8
00_COMPONENTS_1
100
AcDbLine
 62
7
  6
CONTINUOUS
 10
31.0013582355
 20
74.1837480835
 11
24.8495036267
 21
77.7354426478
  0
LINE
  5
2CF
100
AcDbEntity
  8
00_COMPONENTS_1
100
AcDbLine
 62
7
  6
CONTINUOUS
 10
29.898250786
 20
77.098596641
 11
26.8223234816
 21
78.8744439232
  0
LINE
  5
2D0
100
AcDbEntity
  8
00_COMPONENTS_1
100
AcDbLine
 62
7
  6
CONTINUOUS
 10
34.4654194339
 20
72.9431055401
 11
32.9812491288
 21
73.8897875462
  0
LINE
  5
2D1
100
AcDbEntity
  8
00_COMPONENTS_1
100
AcDbLine
 62
7
  6
CONTINUOUS
 10
60.7492168162
 20
70.4602376516
 11
60.2606924296
 21
66.9789869481
  0
LINE
  5
2D2
100
AcDbEntity
  8
00_COMPONENTS_1
100
AcDbLine
 62
7
  6
CONTINUOUS
 10
65.0888912393
 20
76.7197454619
 11
64.4615119616
 21
74.8039561785
  0
LINE
  5
2D3
100
AcDbEntity
  8
00_COMPONENTS_1
100
AcDbLine
 62
7
  6
CONTINUOUS
 10
61.9725064546
 20
43.9728497402
 11
62.8210310592
 21
44.4627427248
  0
LINE
  5
2D4
100
AcDbEntity
  8
00_COMPONENTS_1
100
AcDbLine
 62
7
  6
CONTINUOUS
 10
62.8210310592
 20
42.421486682
 11
65.8615775592
 21
44.1769365437
  0
LINE
  5
2D5
100
AcDbEntity
  8
00_COMPONENTS_1
100
AcDbLine
 62
7
  6
CONTINUOUS
 10
29.6648809072
 20
78.9438182688
 11
31.3795984687
 21
77.9538480192
  0
LINE
  5
2D6
100
AcDbEntity
  8
00_COMPONENTS_1
100
AcDbLine
 62
7
  6
CONTINUOUS
 10
35.8096644776
 20
76.9598084159
 11
38.0794866954
 21
75.6493555939
  0
LINE
  5
2D7
100
AcDbEntity
  8
00_COMPONENTS_1
100
AcDbLine
 62
7
  6
CONTINUOUS
 10
32.7408082116
 20
78.7397381396
 11
29.6648809072
 21
80.5155854217
  0
LINE
  5
2D8
100
AcDbEntity
  8
00_COMPONENTS_1
100
AcDbLine
 62
7
  6
CONTINUOUS
 10
61.9725064546
 20
73.3669367569
 11
61.9725064546
 21
70.9174295055
  0
LINE
  5
2D9
100
AcDbEntity
  8
00_COMPONENTS_1
100
AcDbLine
 62
7
  6
CONTINUOUS
 10
61.9725064546
 20
65.9906930181
 11
61.9725064546
 21
43.9728497402
  0
LINE
  5
2DA
100
AcDbEntity
  8
00_COMPONENTS_1
100
AcDbLine
 62
7
  6
CONTINUOUS
 10
62.382021605
 20
65.7542646845
 11
62.8705459916
 21
69.235515388
  0
LINE
  5
2DB
100
AcDbEntity
  8
00_COMPONENTS_1
100
AcDbLine
 62
7
  6
CONTINUOUS
 10
65.8615775592
 20
82.2259491819
 11
65.0888912393
 21
76.7197454619
  0
LINE
  5
2DC
100
AcDbEntity
  8
00_COMPONENTS_1
100
AcDbLine
 62
7
  6
CONTINUOUS
 10
35.8104523717
 20
9.0509311349
 11
35.1450048877
 21
8.1069414622
  0
LINE
  5
2DD
100
AcDbEntity
  8
00_COMPONENTS_1
100
AcDbLine
 62
7
  6
CONTINUOUS
 10
37.9734202366
 20
9.7399180777
 11
38.6388677206
 21
10.6839077504
  0
LINE
  5
2DE
100
AcDbEntity
  8
00_COMPONENTS_1
100
AcDbLine
 62
7
  6
CONTINUOUS
 10
29.8681639769
 20
16.7115579415
 11
28.9788781028
 21
15.9229824483
  0
LINE
  5
2DF
100
AcDbEntity
  8
00_COMPONENTS_1
100
AcDbLine
 62
7
  6
CONTINUOUS
 10
29.2695711393
 20
14.8380860951
 11
30.2943575388
 21
15.746816869
  0
LINE
  5
2E0
100
AcDbEntity
  8
00_COMPONENTS_1
100
AcDbLine
 62
7
  6
CONTINUOUS
 10
29.1980701458
 20
14.3241672172
 11
30.2943827558
 21
15.2963239583
  0
LINE
  5
2E1
100
AcDbEntity
  8
00_COMPONENTS_1
100
AcDbLine
 62
7
  6
CONTINUOUS
 10
31.0013583782
 20
22.9048589153
 11
19.5462760726
 21
16.2913035401
  0
LINE
  5
2E2
100
AcDbEntity
  8
00_COMPONENTS_1
100
AcDbLine
 62
7
  6
CONTINUOUS
 10
62.382021605
 20
65.7542646845
 11
60.2606924296
 21
66.9789869481
  0
LINE
  5
2E3
100
AcDbEntity
  8
00_COMPONENTS_1
100
AcDbLine
 62
7
  6
CONTINUOUS
 10
62.8210310592
 20
44.4627427248
 11
62.8210310592
 21
42.421486682
  0
LINE
  5
2E4
100
AcDbEntity
  8
00_COMPONENTS_1
100
AcDbLine
 62
7
  6
CONTINUOUS
 10
64.09383563
 20
69.6927072419
 11
64.09383563
 21
66.3940374767
  0
LINE
  5
2E5
100
AcDbEntity
  8
00_COMPONENTS_1
100
AcDbLine
 62
7
  6
CONTINUOUS
 10
65.8615775592
 20
86.471761751
 11
65.8615775592
 21
82.2259491819
  0
LINE
  5
2E6
100
AcDbEntity
  8
00_COMPONENTS_1
100
AcDbLine
 62
7
  6
CONTINUOUS
 10
65.8615775592
 20
44.1769365437
 11
65.8615775592
 21
28.3367896513
  0
LINE
  5
2E7
100
AcDbEntity
  8
00_COMPONENTS_1
100
AcDbLine
 62
7
  6
CONTINUOUS
 10
62.8705459916
 20
69.235515388
 11
60.7492168162
 21
70.4602376516
  0
LINE
  5
2E8
100
AcDbEntity
  8
00_COMPONENTS_1
100
AcDbLine
 62
7
  6
CONTINUOUS
 10
64.09383563
 20
69.6927072419
 11
61.9725064546
 21
70.9174295055
  0
LINE
  5
2E9
100
AcDbEntity
  8
00_COMPONENTS_1
100
AcDbLine
 62
7
  6
CONTINUOUS
 10
29.1905299408
 20
13.4600018106
 11
25.5570435866
 21
11.362220008
  0
LINE
  5
2EA
100
AcDbEntity
  8
00_COMPONENTS_1
100
AcDbLine
 62
7
  6
CONTINUOUS
 10
30.2944635647
 20
13.770759058
 11
29.4733738308
 21
13.2967055088
  0
LINE
  5
2EB
100
AcDbEntity
  8
00_COMPONENTS_1
100
AcDbLine
 62
7
  6
CONTINUOUS
 10
40.264373315
 20
85.8186803799
 11
45.7091181986
 21
82.6752265701
  0
LINE
  5
2EC
100
AcDbEntity
  8
00_COMPONENTS_1
100
AcDbLine
 62
7
  6
CONTINUOUS
 10
49.3506576232
 20
80.7766873013
 11
54.7954025068
 21
77.6332334915
  0
LINE
  5
2ED
100
AcDbEntity
  8
00_COMPONENTS_1
100
AcDbLine
 62
7
  6
CONTINUOUS
 10
65.8615775592
 20
28.3367896513
 11
64.7019272662
 21
23.9930083619
  0
LINE
  5
2EE
100
AcDbEntity
  8
00_COMPONENTS_1
100
AcDbLine
 62
7
  6
CONTINUOUS
 10
37.7208644758
 20
12.0980033828
 11
37.6623960807
 21
12.0641635778
  0
LINE
  5
2EF
100
AcDbEntity
  8
00_COMPONENTS_1
100
AcDbLine
 62
7
  6
CONTINUOUS
 10
42.7085668026
 20
17.8272309105
 11
37.7208644758
 21
14.9475968186
  0
LINE
  5
2F0
100
AcDbEntity
  8
00_COMPONENTS_1
100
AcDbLine
 62
7
  6
CONTINUOUS
 10
32.9812491288
 20
10.7904807505
 11
35.8096644776
 21
12.423457366
  0
LINE
  5
2F1
100
AcDbEntity
  8
00_COMPONENTS_1
100
AcDbLine
 62
7
  6
CONTINUOUS
 10
34.608365839
 20
10.5614428347
 11
37.4367811878
 21
12.1944194502
  0
LINE
  5
2F2
100
AcDbEntity
  8
00_COMPONENTS_1
100
AcDbLine
 62
7
  6
CONTINUOUS
 10
35.1033426466
 20
10.2756743065
 11
37.9317579954
 21
11.908650922
  0
LINE
  5
2F3
100
AcDbEntity
  8
00_COMPONENTS_1
100
AcDbLine
 62
7
  6
CONTINUOUS
 10
53.2758783917
 20
20.6622250145
 11
43.4664384111
 21
14.9987760074
  0
LINE
  5
2F4
100
AcDbEntity
  8
00_COMPONENTS_1
100
AcDbLine
 62
7
  6
CONTINUOUS
 10
32.9812491288
 20
9.3588798458
 11
31.0017884703
 21
8.2187661982
  0
LINE
  5
2F5
100
AcDbEntity
  8
00_COMPONENTS_1
100
AcDbLine
 62
7
  6
CONTINUOUS
 10
64.6665720743
 20
93.6202523354
 11
65.8615775592
 21
86.471761751
  0
LINE
  5
2F6
100
AcDbEntity
  8
00_COMPONENTS_1
100
AcDbLine
 62
7
  6
CONTINUOUS
 10
35.8104523717
 20
9.0509311349
 11
38.6388677206
 21
10.6839077504
  0
LINE
  5
2F7
100
AcDbEntity
  8
00_COMPONENTS_1
100
AcDbLine
 62
7
  6
CONTINUOUS
 10
35.1450048877
 20
8.1123848117
 11
37.9734202366
 21
9.7453614271
  0
LINE
  5
2F8
100
AcDbEntity
  8
00_COMPONENTS_1
100
AcDbLine
 62
7
  6
CONTINUOUS
 10
64.7019272662
 20
23.9930083619
 11
54.0337500003
 21
17.8337701114
  0
LINE
  5
2F9
100
AcDbEntity
  8
00_COMPONENTS_1
100
AcDbLine
 62
7
  6
CONTINUOUS
 10
51.7352613284
 20
92.4413611302
 11
57.180006212
 21
89.2979073204
  0
LINE
  5
2FA
100
AcDbEntity
  8
00_COMPONENTS_1
100
AcDbLine
 62
7
  6
CONTINUOUS
 10
64.6665720743
 20
93.6202523354
 11
58.5147174656
 21
97.1719468997
  0
ARC
  5
2FB
100
AcDbEntity
  8
00_COMPONENTS_1
100
AcDbCircle
 62
7
  6
CONTINUOUS
 10
35.1902080535
 20
40.8456299019
 40
18.7675715355
100
AcDbArc
 50
171.8999466804
 51
172.6569025468
  0
ARC
  5
2FC
100
AcDbEntity
  8
00_COMPONENTS_1
100
AcDbCircle
 62
7
  6
CONTINUOUS
 10
36.0425030364
 20
40.3239942718
 40
18.7000127643
100
AcDbArc
 50
171.8985793082
 51
172.658269919
  0
ARC
  5
2FD
100
AcDbEntity
  8
00_COMPONENTS_1
100
AcDbCircle
 62
7
  6
CONTINUOUS
 10
38.9494380536
 20
42.7030038865
 40
13.5011809838
100
AcDbArc
 50
124.5201849788
 51
127.9432114707
  0
ARC
  5
2FE
100
AcDbEntity
  8
00_COMPONENTS_1
100
AcDbCircle
 62
7
  6
CONTINUOUS
 10
30.8796215494
 20
40.8828659902
 40
12.9592502232
100
AcDbArc
 50
181.8861509843
 51
183.6169528676
  0
ARC
  5
2FF
100
AcDbEntity
  8
00_COMPONENTS_1
100
AcDbCircle
 62
7
  6
CONTINUOUS
 10
29.8328600321
 20
41.4060152266
 40
12.8315081972
100
AcDbArc
 50
182.8332281439
 51
183.6191674217
  0
ARC
  5
300
100
AcDbEntity
  8
00_COMPONENTS_1
100
AcDbCircle
 62
7
  6
CONTINUOUS
 10
24.4035295903
 20
28.1610678736
 40
12.0806940157
100
AcDbArc
 50
143.1383589896
 51
143.5257255225
  0
ARC
  5
301
100
AcDbEntity
  8
00_COMPONENTS_1
100
AcDbCircle
 62
7
  6
CONTINUOUS
 10
34.2935726941
 20
44.8748336647
 40
11.6973793473
100
AcDbArc
 50
129.4065805593
 51
129.8156734716
  0
ARC
  5
302
100
AcDbEntity
  8
00_COMPONENTS_1
100
AcDbCircle
 62
7
  6
CONTINUOUS
 10
37.9683470594
 20
43.1143971145
 40
11.6041233146
100
AcDbArc
 50
124.4900500744
 51
127.9527606512
  0
ARC
  5
303
100
AcDbEntity
  8
00_COMPONENTS_1
100
AcDbCircle
 62
7
  6
CONTINUOUS
 10
35.4008931144
 20
44.2953815109
 40
11.548706447
100
AcDbArc
 50
128.0554298065
 51
129.8184644438
  0
ARC
  5
304
100
AcDbEntity
  8
00_COMPONENTS_1
100
AcDbCircle
 62
7
  6
CONTINUOUS
 10
34.115735584
 20
45.0929854514
 40
11.4159276705
100
AcDbArc
 50
128.0476346715
 51
129.4119970691
  0
ARC
  5
305
100
AcDbEntity
  8
00_COMPONENTS_1
100
AcDbCircle
 62
7
  6
CONTINUOUS
 10
19.2607145363
 20
29.0748604967
 40
6.8562272575
100
AcDbArc
 50
179.83407285
 51
179.999922249
  0
ARC
  5
306
100
AcDbEntity
  8
00_COMPONENTS_1
100
AcDbCircle
 62
7
  6
CONTINUOUS
 10
19.2191357838
 20
29.0748538311
 40
6.814648505
100
AcDbArc
 50
179.9998657315
 51
180.2461129277
  0
ARC
  5
307
100
AcDbEntity
  8
00_COMPONENTS_1
100
AcDbCircle
 62
7
  6
CONTINUOUS
 10
20.6170233475
 20
28.2580497107
 40
6.6568952708
100
AcDbArc
 50
179.9970829138
 51
181.1246260505
  0
ARC
  5
308
100
AcDbEntity
  8
00_COMPONENTS_1
100
AcDbCircle
 62
7
  6
CONTINUOUS
 10
15.8572082135
 20
28.4005448394
 40
3.3564876734
100
AcDbArc
 50
204.5709907334
 51
209.5413464961
  0
ARC
  5
309
100
AcDbEntity
  8
00_COMPONENTS_1
100
AcDbCircle
 62
7
  6
CONTINUOUS
 10
15.7219863806
 20
28.3250511663
 40
3.2016225467
100
AcDbArc
 50
209.5590960384
 51
210.5564579054
  0
ARC
  5
30A
100
AcDbEntity
  8
00_COMPONENTS_1
100
AcDbCircle
 62
7
  6
CONTINUOUS
 10
28.5312872764
 20
19.9538564587
 40
2.4442985693
100
AcDbArc
 50
176.3592585676
 51
180.0440076035
  0
ARC
  5
30B
100
AcDbEntity
  8
00_COMPONENTS_1
100
AcDbCircle
 62
7
  6
CONTINUOUS
 10
29.365258505
 20
15.3837984425
 40
1.5556768332
100
AcDbArc
 50
75.3212793885
 51
75.7805654225
  0
ARC
  5
30C
100
AcDbEntity
  8
00_COMPONENTS_1
100
AcDbCircle
 62
7
  6
CONTINUOUS
 10
29.3743517652
 20
15.4197350164
 40
1.518607647
100
AcDbArc
 50
75.7800876963
 51
76.3604044453
  0
ARC
  5
30D
100
AcDbEntity
  8
00_COMPONENTS_1
100
AcDbCircle
 62
7
  6
CONTINUOUS
 10
17.7433065145
 20
40.6174542677
 40
0.3942214221
100
AcDbArc
 50
142.6758003741
 51
153.8098561327
  0
ARC
  5
30E
100
AcDbEntity
  8
00_COMPONENTS_1
100
AcDbCircle
 62
7
  6
CONTINUOUS
 10
18.3707637987
 20
39.2751851247
 40
0.3563429909
100
AcDbArc
 50
147.5264108859
 51
157.0491052559
  0
ARC
  5
30F
100
AcDbEntity
  8
00_COMPONENTS_1
100
AcDbCircle
 62
7
  6
CONTINUOUS
 10
18.5039390374
 20
38.4638160759
 40
0.3521229864
100
AcDbArc
 50
149.9898154646
 51
158.7521234415
  0
ARC
  5
310
100
AcDbEntity
  8
00_COMPONENTS_1
100
AcDbCircle
 62
7
  6
CONTINUOUS
 10
18.692153773
 20
37.701007574
 40
0.3452185774
100
AcDbArc
 50
152.4617300783
 51
160.4926340065
  0
SPLINE
  5
311
100
AcDbEntity
  8
00_COMPONENTS_1
100
AcDbSpline
 62
7
  6
CONTINUOUS
 70
0
 71
3
 72
12
 73
8
 74
0
 42
0.0000001
 43
0.0000001
 44
0.0000000001
 40
0.0
 40
0.0
 40
0.0
 40
0.0
 40
0.2626357167
 40
0.5234189258
 40
0.7720265963
 40
0.8890976057
 40
1.0
 40
1.0
 40
1.0
 40
1.0
 10
13.3944214639
 20
36.1837489261
 30
0.0
 10
13.0345209675
 20
35.7037412069
 30
0.0
 10
12.3867660334
 20
34.6929014183
 30
0.0
 10
11.6510041027
 20
33.0842492967
 30
0.0
 10
11.2524359777
 20
31.7025969169
 30
0.0
 10
11.0896942552
 20
30.6249216059
 30
0.0
 10
11.060978801
 20
30.1038648298
 30
0.0
 10
11.060978801
 20
29.8505272343
 30
0.0
  0
SPLINE
  5
312
100
AcDbEntity
  8
00_COMPONENTS_1
100
AcDbSpline
 62
7
  6
CONTINUOUS
 70
0
 71
3
 72
14
 73
10
 74
0
 42
0.0000001
 43
0.0000001
 44
0.0000000001
 40
0.0
 40
0.0
 40
0.0
 40
0.0
 40
0.2892717396
 40
0.4225562558
 40
0.5485008031
 40
0.6678918322
 40
0.7818705803
 40
0.8919421829
 40
1.0
 40
1.0
 40
1.0
 40
1.0
 10
11.060978801
 20
29.8505272343
 30
0.0
 10
11.060978801
 20
29.4805208114
 30
0.0
 10
11.1041825126
 20
28.9373724132
 30
0.0
 10
11.2711615501
 20
28.2547171823
 30
0.0
 10
11.4410123742
 20
27.7998051847
 30
0.0
 10
11.6576164484
 20
27.3928078723
 30
0.0
 10
11.9190221372
 20
27.0376048946
 30
0.0
 10
12.2230949986
 20
26.7383787079
 30
0.0
 10
12.4531922779
 20
26.577783388
 30
0.0
 10
12.5728990937
 20
26.5086889605
 30
0.0
  0
LINE
  5
313
100
AcDbEntity
  8
00_COMPONENTS_1
100
AcDbLine
 62
7
  6
CONTINUOUS
 10
24.8495793254
 20
19.3531488237
 11
24.8499338615
 21
11.7704607626
  0
SPLINE
  5
314
100
AcDbEntity
  8
00_COMPONENTS_1
100
AcDbSpline
 62
7
  6
CONTINUOUS
 70
0
 71
3
 72
11
 73
7
 74
0
 42
0.0000001
 43
0.0000001
 44
0.0000000001
 40
0.0
 40
0.0
 40
0.0
 40
0.0
 40
0.2207858413
 40
0.4649556252
 40
0.7267547159
 40
1.0
 40
1.0
 40
1.0
 40
1.0
 10
53.3206032611
 20
18.2454962587
 30
0.0
 10
53.2719139579
 20
18.3939498216
 30
0.0
 10
53.1483306594
 20
18.6997950627
 30
0.0
 10
52.9088466637
 20
19.1556205769
 30
0.0
 10
52.61152967
 20
19.6206878344
 30
0.0
 10
52.3836947403
 20
19.9235729801
 30
0.0
 10
52.2620478425
 20
20.0738678041
 30
0.0
  0
SPLINE
  5
315
100
AcDbEntity
  8
00_COMPONENTS_1
100
AcDbSpline
 62
7
  6
CONTINUOUS
 70
0
 71
3
 72
11
 73
7
 74
0
 42
0.0000001
 43
0.0000001
 44
0.0000000001
 40
0.0
 40
0.0
 40
0.0
 40
0.0
 40
0.2177176178
 40
0.4508759381
 40
0.7105362463
 40
1.0
 40
1.0
 40
1.0
 40
1.0
 10
31.7197849622
 20
53.8958005768
 30
0.0
 10
31.7442417261
 20
53.8816983248
 30
0.0
 10
31.7900286615
 20
53.8432720356
 30
0.0
 10
31.8387642617
 20
53.7635855669
 30
0.0
 10
31.8676146579
 20
53.6653989378
 30
0.0
 10
31.8733665575
 20
53.5939613004
 30
0.0
 10
31.8733665575
 20
53.5564267143
 30
0.0
  0
SPLINE
  5
316
100
AcDbEntity
  8
00_COMPONENTS_1
100
AcDbSpline
 62
7
  6
CONTINUOUS
 70
0
 71
3
 72
11
 73
7
 74
0
 42
0.0000001
 43
0.0000001
 44
0.0000000001
 40
0.0
 40
0.0
 40
0.0
 40
0.0
 40
0.2194907488
 40
0.4632454505
 40
0.7255001261
 40
1.0
 40
1.0
 40
1.0
 40
1.0
 10
42.7562535904
 20
15.408792129
 30
0.0
 10
42.7100509082
 20
15.5572300246
 30
0.0
 10
42.5905793925
 20
15.8637968431
 30
0.0
 10
42.3556030158
 20
16.3215332133
 30
0.0
 10
42.0610558134
 20
16.7900803791
 30
0.0
 10
41.8342207882
 20
17.095678927
 30
0.0
 10
41.7128190045
 20
17.2475421907
 30
0.0
  0
SPLINE
  5
317
100
AcDbEntity
  8
00_COMPONENTS_1
100
AcDbSpline
 62
7
  6
CONTINUOUS
 70
0
 71
3
 72
11
 73
7
 74
0
 42
0.0000001
 43
0.0000001
 44
0.0000000001
 40
0.0
 40
0.0
 40
0.0
 40
0.0
 40
0.2976055013
 40
0.5576634414
 40
0.7875157665
 40
1.0
 40
1.0
 40
1.0
 40
1.0
 10
29.7324603333
 20
16.8955152979
 30
0.0
 10
29.6678454765
 20
16.9111929984
 30
0.0
 10
29.5445258071
 20
16.9327801424
 30
0.0
 10
29.3673330509
 20
16.9309766625
 30
0.0
 10
29.2134661378
 20
16.8917052039
 30
0.0
 10
29.127888445
 20
16.8383487953
 30
0.0
 10
29.0923768102
 20
16.8068442501
 30
0.0
  0
LINE
  5
318
100
AcDbEntity
  8
00_COMPONENTS_1
100
AcDbLine
 62
7
  6
CONTINUOUS
 10
30.2946787451
 20
8.6270069527
 11
30.2943173082
 21
16.4655237669
  0
SPLINE
  5
319
100
AcDbEntity
  8
00_COMPONENTS_1
100
AcDbSpline
 62
7
  6
CONTINUOUS
 70
0
 71
3
 72
14
 73
10
 74
0
 42
0.0000001
 43
0.0000001
 44
0.0000000001
 40
0.0
 40
0.0
 40
0.0
 40
0.0
 40
0.1142792954
 40
0.2374753033
 40
0.4999208646
 40
0.6333994869
 40
0.7634060603
 40
0.8866222169
 40
1.0
 40
1.0
 40
1.0
 40
1.0
 10
29.7639599989
 20
17.8291271244
 30
0.0
 10
29.7639568463
 20
17.9793371248
 30
0.0
 10
29.7371413302
 20
18.2917763521
 30
0.0
 10
29.5926163451
 20
18.9341600001
 30
0.0
 10
29.3192203727
 20
19.5675765065
 30
0.0
 10
28.9444378274
 20
20.1496423222
 30
0.0
 10
28.6185432567
 20
20.5416548742
 30
0.0
 10
28.2640382045
 20
20.8699557487
 30
0.0
 10
28.0055105103
 20
21.0460585141
 30
0.0
 10
27.8745515244
 20
21.1171795891
 30
0.0
  0
SPLINE
  5
31A
100
AcDbEntity
  8
00_COMPONENTS_1
100
AcDbSpline
 62
7
  6
CONTINUOUS
 70
0
 71
3
 72
11
 73
7
 74
0
 42
0.0000001
 43
0.0000001
 44
0.0000000001
 40
0.0
 40
0.0
 40
0.0
 40
0.0
 40
0.2250372883
 40
0.467074978
 40
0.7258304699
 40
1.0
 40
1.0
 40
1.0
 40
1.0
 10
31.9698287513
 20
57.4870059546
 30
0.0
 10
31.6024559953
 20
57.404705725
 30
0.0
 10
30.8529732016
 20
57.1725149326
 30
0.0
 10
29.7482157366
 20
56.661691428
 30
0.0
 10
28.6398513006
 20
55.9842744303
 30
0.0
 10
27.9289324561
 20
55.4436074486
 30
0.0
 10
27.5766187997
 20
55.1499108816
 30
0.0
  0
SPLINE
  5
31B
100
AcDbEntity
  8
00_COMPONENTS_1
100
AcDbSpline
 62
7
  6
CONTINUOUS
 70
0
 71
3
 72
11
 73
7
 74
0
 42
0.0000001
 43
0.0000001
 44
0.0000000001
 40
0.0
 40
0.0
 40
0.0
 40
0.0
 40
0.249428113
 40
0.511997869
 40
0.768189832
 40
1.0
 40
1.0
 40
1.0
 40
1.0
 10
27.5766187997
 20
55.1499108816
 30
0.0
 10
27.4621886517
 20
55.0545193434
 30
0.0
 10
27.2512549985
 20
54.8291986179
 30
0.0
 10
27.0075030791
 20
54.4374026771
 30
0.0
 10
26.845790957
 20
54.0164718842
 30
0.0
 10
26.8011615915
 20
53.7247066151
 30
0.0
 10
26.8011615915
 20
53.5862534281
 30
0.0
  0
SPLINE
  5
31C
100
AcDbEntity
  8
00_COMPONENTS_1
100
AcDbSpline
 62
7
  6
CONTINUOUS
 70
0
 71
3
 72
11
 73
7
 74
0
 42
0.0000001
 43
0.0000001
 44
0.0000000001
 40
0.0
 40
0.0
 40
0.0
 40
0.0
 40
0.2896008699
 40
0.5491153211
 40
0.7822446856
 40
1.0
 40
1.0
 40
1.0
 40
1.0
 10
26.8011615915
 20
53.5862534281
 30
0.0
 10
26.8011615915
 20
53.5153436753
 30
0.0
 10
26.8119582355
 20
53.3804388775
 30
0.0
 10
26.8665379568
 20
53.1950753792
 30
0.0
 10
26.9585173863
 20
53.0446178559
 30
0.0
 10
27.044973245
 20
52.9720623311
 30
0.0
 10
27.0911399418
 20
52.9453891497
 30
0.0
  0
SPLINE
  5
31D
100
AcDbEntity
  8
00_COMPONENTS_1
100
AcDbSpline
 62
7
  6
CONTINUOUS
 70
0
 71
3
 72
12
 73
8
 74
0
 42
0.0000001
 43
0.0000001
 44
0.0000000001
 40
0.0
 40
0.0
 40
0.0
 40
0.0
 40
0.2626357167
 40
0.5234189258
 40
0.7720265963
 40
0.8890976057
 40
1.0
 40
1.0
 40
1.0
 40
1.0
 10
16.3642823095
 20
34.4691377571
 30
0.0
 10
16.0043818131
 20
33.9891300379
 30
0.0
 10
15.356626879
 20
32.9782902493
 30
0.0
 10
14.6208649483
 20
31.3696381277
 30
0.0
 10
14.2222968234
 20
29.987985748
 30
0.0
 10
14.0595551008
 20
28.9103104369
 30
0.0
 10
14.0308396467
 20
28.3892536608
 30
0.0
 10
14.0308396467
 20
28.1359160653
 30
0.0
  0
SPLINE
  5
31E
100
AcDbEntity
  8
00_COMPONENTS_1
100
AcDbSpline
 62
7
  6
CONTINUOUS
 70
0
 71
3
 72
14
 73
10
 74
0
 42
0.0000001
 43
0.0000001
 44
0.0000000001
 40
0.0
 40
0.0
 40
0.0
 40
0.0
 40
0.2892716826
 40
0.4225562518
 40
0.5485007277
 40
0.6678915456
 40
0.7818703959
 40
0.8919423559
 40
1.0
 40
1.0
 40
1.0
 40
1.0
 10
14.0308396467
 20
28.1359160653
 30
0.0
 10
14.0308396467
 20
27.7659096541
 30
0.0
 10
14.0740435459
 20
27.222761207
 30
0.0
 10
14.2410221744
 20
26.540105873
 30
0.0
 10
14.4108728892
 20
26.0851940153
 30
0.0
 10
14.627478242
 20
25.6781974804
 30
0.0
 10
14.8888841272
 20
25.3229945293
 30
0.0
 10
15.192952437
 20
25.0237633452
 30
0.0
 10
15.4230507494
 20
24.8631677084
 30
0.0
 10
15.5427594352
 20
24.7940769177
 30
0.0
  0
SPLINE
  5
31F
100
AcDbEntity
  8
00_COMPONENTS_1
100
AcDbSpline
 62
7
  6
CONTINUOUS
 70
0
 71
3
 72
9
 73
5
 74
0
 42
0.0000001
 43
0.0000001
 44
0.0000000001
 40
0.0
 40
0.0
 40
0.0
 40
0.0
 40
0.2749888869
 40
1.0
 40
1.0
 40
1.0
 40
1.0
 10
12.5459086351
 20
29.0748701407
 30
0.0
 10
12.5459086351
 20
28.8624587182
 30
0.0
 10
12.5815632322
 20
28.0922254073
 30
0.0
 10
12.7769383934
 20
27.3163940472
 30
0.0
 10
13.0449354578
 20
26.8246567849
 30
0.0
  0
SPLINE
  5
320
100
AcDbEntity
  8
00_COMPONENTS_1
100
AcDbSpline
 62
7
  6
CONTINUOUS
 70
0
 71
3
 72
12
 73
8
 74
0
 42
0.0000001
 43
0.0000001
 44
0.0000000001
 40
0.0
 40
0.0
 40
0.0
 40
0.0
 40
0.2628519197
 40
0.5235749229
 40
0.7720498693
 40
0.8890849622
 40
1.0
 40
1.0
 40
1.0
 40
1.0
 10
14.8086409141
 20
35.2693671136
 30
0.0
 10
14.4593228695
 20
34.7981816795
 30
0.0
 10
13.8308889519
 20
33.8076661304
 30
0.0
 10
13.1173812732
 20
32.2338775987
 30
0.0
 10
12.7312615262
 20
30.883902428
 30
0.0
 10
12.5736922741
 20
29.8313201722
 30
0.0
 10
12.5459086351
 20
29.3223745819
 30
0.0
 10
12.5459086351
 20
29.0748701407
 30
0.0
  0
SPLINE
  5
321
100
AcDbEntity
  8
00_COMPONENTS_1
100
AcDbSpline
 62
7
  6
CONTINUOUS
 70
0
 71
3
 72
11
 73
7
 74
0
 42
0.0000001
 43
0.0000001
 44
0.0000000001
 40
0.0
 40
0.0
 40
0.0
 40
0.0
 40
0.2346762267
 40
0.4944924581
 40
0.7572749143
 40
1.0
 40
1.0
 40
1.0
 40
1.0
 10
31.8733665575
 20
53.5564267143
 30
0.0
 10
31.8733665575
 20
53.4758299758
 30
0.0
 10
31.8449086936
 20
53.3058634127
 30
0.0
 10
31.7441286807
 20
53.0642101279
 30
0.0
 10
31.5946962829
 20
52.845851478
 30
0.0
 10
31.4661623751
 20
52.7258673158
 30
0.0
 10
31.3973600852
 20
52.678800289
 30
0.0
  0
SPLINE
  5
322
100
AcDbEntity
  8
00_COMPONENTS_1
100
AcDbSpline
 62
7
  6
CONTINUOUS
 70
0
 71
3
 72
11
 73
7
 74
0
 42
0.0000001
 43
0.0000001
 44
0.0000000001
 40
0.0
 40
0.0
 40
0.0
 40
0.0
 40
0.2983215678
 40
0.5617584534
 40
0.7914119087
 40
1.0
 40
1.0
 40
1.0
 40
1.0
 10
30.8316770154
 20
52.2644582391
 30
0.0
 10
30.7926409726
 20
52.2340095895
 30
0.0
 10
30.7140805761
 20
52.1825968921
 30
0.0
 10
30.5901188363
 20
52.135420035
 30
0.0
 10
30.4719271975
 20
52.1263230615
 30
0.0
 10
30.4003535226
 20
52.1490551942
 30
0.0
 10
30.3703596532
 20
52.1663352523
 30
0.0
  0
SPLINE
  5
323
100
AcDbEntity
  8
00_COMPONENTS_1
100
AcDbSpline
 62
7
  6
CONTINUOUS
 70
0
 71
3
 72
9
 73
5
 74
0
 42
0.0000001
 43
0.0000001
 44
0.0000000001
 40
0.0
 40
0.0
 40
0.0
 40
0.0
 40
0.5218633607
 40
1.0
 40
1.0
 40
1.0
 40
1.0
 10
16.5560767285
 20
42.4366647756
 30
0.0
 10
16.5316744122
 20
42.4077515161
 30
0.0
 10
16.4938282372
 20
42.3446176652
 30
0.0
 10
16.4761232176
 20
42.2722744758
 30
0.0
 10
16.4761232176
 20
42.2376101106
 30
0.0
  0
SPLINE
  5
324
100
AcDbEntity
  8
00_COMPONENTS_1
100
AcDbSpline
 62
7
  6
CONTINUOUS
 70
0
 71
3
 72
11
 73
7
 74
0
 42
0.0000001
 43
0.0000001
 44
0.0000000001
 40
0.0
 40
0.0
 40
0.0
 40
0.0
 40
0.2895102417
 40
0.5489624749
 40
0.7820664018
 40
1.0
 40
1.0
 40
1.0
 40
1.0
 10
16.4761232176
 20
42.2376101106
 30
0.0
 10
16.4761232176
 20
42.2268965519
 30
0.0
 10
16.4777589023
 20
42.2065141172
 30
0.0
 10
16.4859946847
 20
42.1785036152
 30
0.0
 10
16.4998927982
 20
42.1557558311
 30
0.0
 10
16.5129694464
 20
42.1447937761
 30
0.0
 10
16.5199515623
 20
42.1407575429
 30
0.0
  0
SPLINE
  5
325
100
AcDbEntity
  8
00_COMPONENTS_1
100
AcDbSpline
 62
7
  6
CONTINUOUS
 70
0
 71
3
 72
9
 73
5
 74
0
 42
0.0000001
 43
0.0000001
 44
0.0000000001
 40
0.0
 40
0.0
 40
0.0
 40
0.0
 40
0.5235922379
 40
1.0
 40
1.0
 40
1.0
 40
1.0
 10
16.5105721127
 20
41.3871932862
 30
0.0
 10
16.4874714488
 20
41.3569609296
 30
0.0
 10
16.451651559
 20
41.2926437184
 30
0.0
 10
16.4351702252
 20
41.2200692832
 30
0.0
 10
16.4351702252
 20
41.1854502189
 30
0.0
  0
SPLINE
  5
326
100
AcDbEntity
  8
00_COMPONENTS_1
100
AcDbSpline
 62
7
  6
CONTINUOUS
 70
0
 71
3
 72
11
 73
7
 74
0
 42
0.0000001
 43
0.0000001
 44
0.0000000001
 40
0.0
 40
0.0
 40
0.0
 40
0.0
 40
0.2894051929
 40
0.5489813515
 40
0.782076083
 40
1.0
 40
1.0
 40
1.0
 40
1.0
 10
16.4351702252
 20
41.1854502189
 30
0.0
 10
16.4351702252
 20
41.1738410432
 30
0.0
 10
16.4369515413
 20
41.1517472333
 30
0.0
 10
16.4458682041
 20
41.1213807264
 30
0.0
 10
16.4609341488
 20
41.096717885
 30
0.0
 10
16.4751104926
 20
41.0848344484
 30
0.0
 10
16.4826833353
 20
41.0804674353
 30
0.0
  0
SPLINE
  5
327
100
AcDbEntity
  8
00_COMPONENTS_1
100
AcDbSpline
 62
7
  6
CONTINUOUS
 70
0
 71
3
 72
9
 73
5
 74
0
 42
0.0000001
 43
0.0000001
 44
0.0000000001
 40
0.0
 40
0.0
 40
0.0
 40
0.0
 40
0.5253572346
 40
1.0
 40
1.0
 40
1.0
 40
1.0
 10
17.1508963015
 20
39.9972225002
 30
0.0
 10
17.1351680147
 20
39.9724930282
 30
0.0
 10
17.1107869899
 20
39.9217037279
 30
0.0
 10
17.0999429072
 20
39.8659223806
 30
0.0
 10
17.0999429072
 20
39.8394440884
 30
0.0
  0
SPLINE
  5
328
100
AcDbEntity
  8
00_COMPONENTS_1
100
AcDbSpline
 62
7
  6
CONTINUOUS
 70
0
 71
3
 72
11
 73
7
 74
0
 42
0.0000001
 43
0.0000001
 44
0.0000000001
 40
0.0
 40
0.0
 40
0.0
 40
0.0
 40
0.2892187225
 40
0.5490312308
 40
0.782196969
 40
1.0
 40
1.0
 40
1.0
 40
1.0
 10
17.0999429072
 20
39.8394440884
 30
0.0
 10
17.0999429072
 20
39.8289474887
 30
0.0
 10
17.1015701322
 20
39.8089589684
 30
0.0
 10
17.1096213248
 20
39.7814746697
 30
0.0
 10
17.1232594041
 20
39.75916044
 30
0.0
 10
17.1360732294
 20
39.748393345
 30
0.0
 10
17.1429262538
 20
39.7444537311
 30
0.0
  0
SPLINE
  5
329
100
AcDbEntity
  8
00_COMPONENTS_1
100
AcDbSpline
 62
7
  6
CONTINUOUS
 70
0
 71
3
 72
9
 73
5
 74
0
 42
0.0000001
 43
0.0000001
 44
0.0000000001
 40
0.0
 40
0.0
 40
0.0
 40
0.0
 40
0.5255644228
 40
1.0
 40
1.0
 40
1.0
 40
1.0
 10
17.2797802437
 20
39.1706447527
 30
0.0
 10
17.2664848036
 20
39.147589718
 30
0.0
 10
17.2458821527
 20
39.1008579218
 30
0.0
 10
17.236892045
 20
39.0502016221
 30
0.0
 10
17.236892045
 20
39.0261767581
 30
0.0
  0
SPLINE
  5
32A
100
AcDbEntity
  8
00_COMPONENTS_1
100
AcDbSpline
 62
7
  6
CONTINUOUS
 70
0
 71
3
 72
11
 73
7
 74
0
 42
0.0000001
 43
0.0000001
 44
0.0000000001
 40
0.0
 40
0.0
 40
0.0
 40
0.0
 40
0.2890851578
 40
0.5490062872
 40
0.782258381
 40
1.0
 40
1.0
 40
1.0
 40
1.0
 10
17.236892045
 20
39.0261767581
 30
0.0
 10
17.236892045
 20
39.0156850622
 30
0.0
 10
17.2385272032
 20
38.9956982738
 30
0.0
 10
17.2465740559
 20
38.9682117491
 30
0.0
 10
17.2602089534
 20
38.9458889328
 30
0.0
 10
17.2730221268
 20
38.9351210385
 30
0.0
 10
17.2798709893
 20
38.9311787446
 30
0.0
  0
SPLINE
  5
32B
100
AcDbEntity
  8
00_COMPONENTS_1
100
AcDbSpline
 62
7
  6
CONTINUOUS
 70
0
 71
3
 72
9
 73
5
 74
0
 42
0.0000001
 43
0.0000001
 44
0.0000000001
 40
0.0
 40
0.0
 40
0.0
 40
0.0
 40
0.2674168647
 40
1.0
 40
1.0
 40
1.0
 40
1.0
 10
17.4668050525
 20
38.3913292492
 30
0.0
 10
17.4612021838
 20
38.3805595732
 30
0.0
 10
17.4423662996
 20
38.3393177537
 30
0.0
 10
17.4313974189
 20
38.293765166
 30
0.0
 10
17.4313974189
 20
38.2605080537
 30
0.0
  0
SPLINE
  5
32C
100
AcDbEntity
  8
00_COMPONENTS_1
100
AcDbSpline
 62
7
  6
CONTINUOUS
 70
0
 71
3
 72
11
 73
7
 74
0
 42
0.0000001
 43
0.0000001
 44
0.0000000001
 40
0.0
 40
0.0
 40
0.0
 40
0.0
 40
0.2889258944
 40
0.5489307861
 40
0.7822987174
 40
1.0
 40
1.0
 40
1.0
 40
1.0
 10
17.4313974189
 20
38.2605080537
 30
0.0
 10
17.4313974189
 20
38.2500223254
 30
0.0
 10
17.4330396904
 20
38.2300387806
 30
0.0
 10
17.44108659
 20
38.2025536176
 30
0.0
 10
17.4547106446
 20
38.1802161169
 30
0.0
 10
17.4675281815
 20
38.1694501751
 30
0.0
 10
17.4743732819
 20
38.1655045659
 30
0.0
  0
SPLINE
  5
32D
100
AcDbEntity
  8
00_COMPONENTS_1
100
AcDbSpline
 62
7
  6
CONTINUOUS
 70
0
 71
3
 72
9
 73
5
 74
0
 42
0.0000001
 43
0.0000001
 44
0.0000000001
 40
0.0
 40
0.0
 40
0.0
 40
0.0
 40
0.2672676691
 40
1.0
 40
1.0
 40
1.0
 40
1.0
 10
17.7109178283
 20
37.6636633279
 30
0.0
 10
17.7063713217
 20
37.6539047231
 30
0.0
 10
17.691080544
 20
37.6166819911
 30
0.0
 10
17.6823640156
 20
37.5762634787
 30
0.0
 10
17.6823640156
 20
37.5467484853
 30
0.0
  0
SPLINE
  5
32E
100
AcDbEntity
  8
00_COMPONENTS_1
100
AcDbSpline
 62
7
  6
CONTINUOUS
 70
0
 71
3
 72
11
 73
7
 74
0
 42
0.0000001
 43
0.0000001
 44
0.0000000001
 40
0.0
 40
0.0
 40
0.0
 40
0.0
 40
0.2887430092
 40
0.5488078669
 40
0.7823184903
 40
1.0
 40
1.0
 40
1.0
 40
1.0
 10
17.6823640156
 20
37.5467484853
 30
0.0
 10
17.6823640156
 20
37.536269706
 30
0.0
 10
17.6840126883
 20
37.516290925
 30
0.0
 10
17.6920637654
 20
37.4888101506
 30
0.0
 10
17.7056706142
 20
37.4664537234
 30
0.0
 10
17.7184950682
 20
37.4556888889
 30
0.0
 10
17.7253378346
 20
37.4517411394
 30
0.0
  0
SPLINE
  5
32F
100
AcDbEntity
  8
00_COMPONENTS_1
100
AcDbSpline
 62
7
  6
CONTINUOUS
 70
0
 71
3
 72
9
 73
5
 74
0
 42
0.0000001
 43
0.0000001
 44
0.0000000001
 40
0.0
 40
0.0
 40
0.0
 40
0.0
 40
0.2666999042
 40
1.0
 40
1.0
 40
1.0
 40
1.0
 10
18.0107442813
 20
36.9917435537
 30
0.0
 10
18.0071617739
 20
36.9830679641
 30
0.0
 10
17.9950961148
 20
36.9500341033
 30
0.0
 10
17.9883789602
 20
36.9147239138
 30
0.0
 10
17.9883789602
 20
36.8889163288
 30
0.0
  0
SPLINE
  5
330
100
AcDbEntity
  8
00_COMPONENTS_1
100
AcDbSpline
 62
7
  6
CONTINUOUS
 70
0
 71
3
 72
11
 73
7
 74
0
 42
0.0000001
 43
0.0000001
 44
0.0000000001
 40
0.0
 40
0.0
 40
0.0
 40
0.0
 40
0.2885386385
 40
0.5486411496
 40
0.7823181019
 40
1.0
 40
1.0
 40
1.0
 40
1.0
 10
17.9883789602
 20
36.8889163288
 30
0.0
 10
17.9883789602
 20
36.8784454158
 30
0.0
 10
17.9900334275
 20
36.8584728846
 30
0.0
 10
17.998092518
 20
36.8309992737
 30
0.0
 10
18.0116768903
 20
36.8086207072
 30
0.0
 10
18.0245095796
 20
36.7978551115
 30
0.0
 10
18.0313512419
 20
36.7939060988
 30
0.0
  0
SPLINE
  5
331
100
AcDbEntity
  8
00_COMPONENTS_1
100
AcDbSpline
 62
7
  6
CONTINUOUS
 70
0
 71
3
 72
9
 73
5
 74
0
 42
0.0000001
 43
0.0000001
 44
0.0000000001
 40
0.0
 40
0.0
 40
0.0
 40
0.0
 40
0.5314244921
 40
1.0
 40
1.0
 40
1.0
 40
1.0
 10
18.7177072625
 20
36.9173624939
 30
0.0
 10
18.7051128122
 20
36.9131957446
 30
0.0
 10
18.6799494094
 20
36.9086222234
 30
0.0
 10
18.6547121895
 20
36.9151829255
 30
0.0
 10
18.644580478
 20
36.9210281573
 30
0.0
  0
SPLINE
  5
332
100
AcDbEntity
  8
00_COMPONENTS_1
100
AcDbSpline
 62
7
  6
CONTINUOUS
 70
0
 71
3
 72
9
 73
5
 74
0
 42
0.0000001
 43
0.0000001
 44
0.0000000001
 40
0.0
 40
0.0
 40
0.0
 40
0.0
 40
0.5248245469
 40
1.0
 40
1.0
 40
1.0
 40
1.0
 10
18.4560673257
 20
37.6280785828
 30
0.0
 10
18.4451826688
 20
37.625481732
 30
0.0
 10
18.4235122122
 20
37.6233771996
 30
0.0
 10
18.4023936446
 20
37.6297319554
 30
0.0
 10
18.3936159219
 20
37.6347915775
 30
0.0
  0
SPLINE
  5
333
100
AcDbEntity
  8
00_COMPONENTS_1
100
AcDbSpline
 62
7
  6
CONTINUOUS
 70
0
 71
3
 72
10
 73
6
 74
0
 42
0.0000001
 43
0.0000001
 44
0.0000000001
 40
0.0
 40
0.0
 40
0.0
 40
0.0
 40
0.471945244
 40
0.7290786879
 40
1.0
 40
1.0
 40
1.0
 40
1.0
 10
12.8046613791
 20
27.004848839
 30
0.0
 10
12.6674862745
 20
27.3040740185
 30
0.0
 10
12.5191973911
 20
27.796945966
 30
0.0
 10
12.422299371
 20
28.4880024359
 30
0.0
 10
12.4053622661
 20
28.8566227862
 30
0.0
 10
12.4045501478
 20
29.0455817285
 30
0.0
  0
SPLINE
  5
334
100
AcDbEntity
  8
00_COMPONENTS_1
100
AcDbSpline
 62
7
  6
CONTINUOUS
 70
0
 71
3
 72
12
 73
8
 74
0
 42
0.0000001
 43
0.0000001
 44
0.0000000001
 40
0.0
 40
0.0
 40
0.0
 40
0.0
 40
0.1109023943
 40
0.2279734037
 40
0.4765810742
 40
0.7373642833
 40
1.0
 40
1.0
 40
1.0
 40
1.0
 10
17.2128334098
 20
26.29883267
 30
0.0
 10
17.2128334098
 20
26.5521702655
 30
0.0
 10
17.241548864
 20
27.0732270416
 30
0.0
 10
17.4042905865
 20
28.1509023526
 30
0.0
 10
17.8028587115
 20
29.5325547323
 30
0.0
 10
18.5386206422
 20
31.141206854
 30
0.0
 10
19.1863755763
 20
32.1520466426
 30
0.0
 10
19.5462760726
 20
32.6320543618
 30
0.0
  0
SPLINE
  5
335
100
AcDbEntity
  8
00_COMPONENTS_1
100
AcDbSpline
 62
7
  6
CONTINUOUS
 70
0
 71
3
 72
13
 73
9
 74
0
 42
0.0000001
 43
0.0000001
 44
0.0000000001
 40
0.0
 40
0.0
 40
0.0
 40
0.0
 40
0.1095293854
 40
0.2286569839
 40
0.3551124188
 40
0.4862733419
 40
0.751013209
 40
1.0
 40
1.0
 40
1.0
 40
1.0
 10
27.6304957849
 20
21.0063742898
 30
0.0
 10
27.6713440457
 20
20.8977635218
 30
0.0
 10
27.7694023482
 20
20.6757397255
 30
0.0
 10
27.9513974287
 20
20.3460449404
 30
0.0
 10
28.1706454395
 20
20.0120791178
 30
0.0
 10
28.5060755748
 20
19.5714559938
 30
0.0
 10
28.9727676838
 20
19.0698717971
 30
0.0
 10
29.3948050958
 20
18.7224177166
 30
0.0
 10
29.6124181582
 20
18.5733336662
 30
0.0
  0
SPLINE
  5
336
100
AcDbEntity
  8
00_COMPONENTS_1
100
AcDbSpline
 62
7
  6
CONTINUOUS
 70
0
 71
3
 72
12
 73
8
 74
0
 42
0.0000001
 43
0.0000001
 44
0.0000000001
 40
0.0
 40
0.0
 40
0.0
 40
0.0
 40
0.0976834073
 40
0.1988053737
 40
0.4222086811
 40
0.6875058477
 40
1.0
 40
1.0
 40
1.0
 40
1.0
 10
29.0923768102
 20
16.8068442501
 30
0.0
 10
29.069626092
 20
16.7866606951
 30
0.0
 10
29.027566096
 20
16.7405268121
 30
0.0
 10
28.9601969499
 20
16.6267290843
 30
0.0
 10
28.9140523673
 20
16.4453070299
 30
0.0
 10
28.9181090073
 20
16.1941969252
 30
0.0
 10
28.9536969427
 20
16.0169611313
 30
0.0
 10
28.9788781028
 20
15.9229824482
 30
0.0
  0
SPLINE
  5
337
100
AcDbEntity
  8
00_COMPONENTS_1
100
AcDbSpline
 62
7
  6
CONTINUOUS
 70
0
 71
3
 72
9
 73
5
 74
0
 42
0.0000001
 43
0.0000001
 44
0.0000000001
 40
0.0
 40
0.0
 40
0.0
 40
0.0
 40
0.2582969334
 40
1.0
 40
1.0
 40
1.0
 40
1.0
 10
30.421749429
 20
54.6597377788
 30
0.0
 10
30.5028688183
 20
54.6926565288
 30
0.0
 10
30.8192577368
 20
54.8141918516
 30
0.0
 10
31.1452230014
 20
54.9114381898
 30
0.0
 10
31.3905273853
 20
54.9663922025
 30
0.0
  0
SPLINE
  5
338
100
AcDbEntity
  8
00_COMPONENTS_1
100
AcDbSpline
 62
7
  6
CONTINUOUS
 70
0
 71
3
 72
15
 73
11
 74
0
 42
0.0000001
 43
0.0000001
 44
0.0000000001
 40
0.0
 40
0.0
 40
0.0
 40
0.0
 40
0.1019792756
 40
0.2173966823
 40
0.3441025244
 40
0.4785815836
 40
0.6162065841
 40
0.7519831953
 40
0.8813133572
 40
1.0
 40
1.0
 40
1.0
 40
1.0
 10
31.3905273853
 20
54.9663922025
 30
0.0
 10
31.4691029746
 20
54.9839950022
 30
0.0
 10
31.631210044
 20
55.0464888163
 30
0.0
 10
31.8597980999
 20
55.1959122477
 30
0.0
 10
32.0785584074
 20
55.3991903417
 30
0.0
 10
32.2763118055
 20
55.6455411159
 30
0.0
 10
32.4427859243
 20
55.9223486033
 30
0.0
 10
32.5694728455
 20
56.2151343606
 30
0.0
 10
32.6494713627
 20
56.5084894926
 30
0.0
 10
32.6701234404
 20
56.7045255258
 30
0.0
 10
32.6701234404
 20
56.798240894
 30
0.0
  0
SPLINE
  5
339
100
AcDbEntity
  8
00_COMPONENTS_1
100
AcDbSpline
 62
7
  6
CONTINUOUS
 70
0
 71
3
 72
11
 73
7
 74
0
 42
0.0000001
 43
0.0000001
 44
0.0000000001
 40
0.0
 40
0.0
 40
0.0
 40
0.0
 40
0.289544088
 40
0.5491514914
 40
0.7823076575
 40
1.0
 40
1.0
 40
1.0
 40
1.0
 10
32.6701234404
 20
56.798240894
 30
0.0
 10
32.6701234404
 20
56.8691366375
 30
0.0
 10
32.6593009717
 20
57.0040443442
 30
0.0
 10
32.6047550322
 20
57.1894390423
 30
0.0
 10
32.5127329219
 20
57.3398804344
 30
0.0
 10
32.4263142932
 20
57.4124670202
 30
0.0
 10
32.380154967
 20
57.4391219754
 30
0.0
  0
SPLINE
  5
33A
100
AcDbEntity
  8
00_COMPONENTS_1
100
AcDbSpline
 62
7
  6
CONTINUOUS
 70
0
 71
3
 72
11
 73
7
 74
0
 42
0.0000001
 43
0.0000001
 44
0.0000000001
 40
0.0
 40
0.0
 40
0.0
 40
0.0
 40
0.2177409579
 40
0.4509932278
 40
0.7109149546
 40
1.0
 40
1.0
 40
1.0
 40
1.0
 10
18.1991136236
 20
38.4004657488
 30
0.0
 10
18.1922647934
 20
38.4044080493
 30
0.0
 10
18.1794516224
 20
38.4151759076
 30
0.0
 10
18.1658167409
 20
38.4374987444
 30
0.0
 10
18.1577698826
 20
38.4649852835
 30
0.0
 10
18.1561346877
 20
38.4849720863
 30
0.0
 10
18.1561346877
 20
38.4954637773
 30
0.0
  0
SPLINE
  5
33B
100
AcDbEntity
  8
00_COMPONENTS_1
100
AcDbSpline
 62
7
  6
CONTINUOUS
 70
0
 71
3
 72
11
 73
7
 74
0
 42
0.0000001
 43
0.0000001
 44
0.0000000001
 40
0.0
 40
0.0
 40
0.0
 40
0.0
 40
0.2179335982
 40
0.4510375251
 40
0.7104897583
 40
1.0
 40
1.0
 40
1.0
 40
1.0
 10
17.439194205
 20
41.610044562
 30
0.0
 10
17.4322120891
 20
41.6140807952
 30
0.0
 10
17.4191354409
 20
41.6250428502
 30
0.0
 10
17.4052373274
 20
41.6477906343
 30
0.0
 10
17.397001545
 20
41.6758011363
 30
0.0
 10
17.3953658603
 20
41.6961835711
 30
0.0
 10
17.3953658603
 20
41.7068971297
 30
0.0
  0
SPLINE
  5
33C
100
AcDbEntity
  8
00_COMPONENTS_1
100
AcDbSpline
 62
7
  6
CONTINUOUS
 70
0
 71
3
 72
11
 73
7
 74
0
 42
0.0000001
 43
0.0000001
 44
0.0000000001
 40
0.0
 40
0.0
 40
0.0
 40
0.0
 40
0.2177005826
 40
0.4510688691
 40
0.711074374
 40
1.0
 40
1.0
 40
1.0
 40
1.0
 10
18.3936159219
 20
37.6347915775
 30
0.0
 10
18.3867708523
 20
37.6387371869
 30
0.0
 10
18.3739533023
 20
37.6495030867
 30
0.0
 10
18.3603292995
 20
37.6718406353
 30
0.0
 10
18.352282374
 20
37.6993258014
 30
0.0
 10
18.3506400616
 20
37.7193093558
 30
0.0
 10
18.3506400616
 20
37.7297950728
 30
0.0
  0
SPLINE
  5
33D
100
AcDbEntity
  8
00_COMPONENTS_1
100
AcDbSpline
 62
7
  6
CONTINUOUS
 70
0
 71
3
 72
11
 73
7
 74
0
 42
0.0000001
 43
0.0000001
 44
0.0000000001
 40
0.0
 40
0.0
 40
0.0
 40
0.0
 40
0.2176807827
 40
0.4511919872
 40
0.7112574554
 40
1.0
 40
1.0
 40
1.0
 40
1.0
 10
18.644580478
 20
36.9210281573
 30
0.0
 10
18.6377377403
 20
36.9249758998
 30
0.0
 10
18.6249132591
 20
36.9357406922
 30
0.0
 10
18.6113065057
 20
36.9580971989
 30
0.0
 10
18.6032553762
 20
36.9855779609
 30
0.0
 10
18.6016066583
 20
37.0055567446
 30
0.0
 10
18.6016066583
 20
37.0160355044
 30
0.0
  0
SPLINE
  5
33E
100
AcDbEntity
  8
00_COMPONENTS_1
100
AcDbSpline
 62
7
  6
CONTINUOUS
 70
0
 71
3
 72
12
 73
8
 74
0
 42
0.0000001
 43
0.0000001
 44
0.0000000001
 40
0.0
 40
0.0
 40
0.0
 40
0.0
 40
0.1021041229
 40
0.2073197624
 40
0.4360620315
 40
0.7000035722
 40
1.0
 40
1.0
 40
1.0
 40
1.0
 10
27.0911399418
 20
52.9453891497
 30
0.0
 10
27.1205074497
 20
52.9284218351
 30
0.0
 10
27.1841464702
 20
52.9004543435
 30
0.0
 10
27.3270334204
 20
52.8715044528
 30
0.0
 10
27.5290811416
 20
52.8915108476
 30
0.0
 10
27.7744936325
 20
52.9935776219
 30
0.0
 10
27.9290512337
 20
53.1018708983
 30
0.0
 10
28.0055951276
 20
53.1656796053
 30
0.0
  0
SPLINE
  5
33F
100
AcDbEntity
  8
00_COMPONENTS_1
100
AcDbSpline
 62
7
  6
CONTINUOUS
 70
0
 71
3
 72
15
 73
11
 74
0
 42
0.0000001
 43
0.0000001
 44
0.0000000001
 40
0.0
 40
0.0
 40
0.0
 40
0.0
 40
0.1247083443
 40
0.2570809122
 40
0.3934778642
 40
0.5297812428
 40
0.6618211094
 40
0.785847562
 40
0.8991361218
 40
1.0
 40
1.0
 40
1.0
 40
1.0
 10
31.4575433588
 20
57.3206350785
 30
0.0
 10
31.4468154838
 20
57.2299221653
 30
0.0
 10
31.4090718793
 20
57.044576867
 30
0.0
 10
31.3128059366
 20
56.7721074062
 30
0.0
 10
31.1792059051
 20
56.5063218378
 30
0.0
 10
31.014268618
 20
56.2590685299
 30
0.0
 10
30.8253050739
 20
56.0414403693
 30
0.0
 10
30.6205849577
 20
55.8629809759
 30
0.0
 10
30.4090838558
 20
55.7318444596
 30
0.0
 10
30.2605336647
 20
55.6765519887
 30
0.0
 10
30.1884408526
 20
55.6604014852
 30
0.0
  0
SPLINE
  5
340
100
AcDbEntity
  8
00_COMPONENTS_1
100
AcDbSpline
 62
7
  6
CONTINUOUS
 70
0
 71
3
 72
9
 73
5
 74
0
 42
0.0000001
 43
0.0000001
 44
0.0000000001
 40
0.0
 40
0.0
 40
0.0
 40
0.0
 40
0.241920164
 40
1.0
 40
1.0
 40
1.0
 40
1.0
 10
30.1884408526
 20
55.6604014852
 30
0.0
 10
30.1084280531
 20
55.6424767163
 30
0.0
 10
29.7793961599
 20
55.5608346138
 30
0.0
 10
29.4577481679
 20
55.4503635377
 30
0.0
 10
29.2196628963
 20
55.3537470615
 30
0.0
  0
SPLINE
  5
341
100
AcDbEntity
  8
00_COMPONENTS_1
100
AcDbSpline
 62
7
  6
CONTINUOUS
 70
0
 71
3
 72
12
 73
8
 74
0
 42
0.0000001
 43
0.0000001
 44
0.0000000001
 40
0.0
 40
0.0
 40
0.0
 40
0.0
 40
0.1109150378
 40
0.2279501307
 40
0.4764250771
 40
0.7371480803
 40
1.0
 40
1.0
 40
1.0
 40
1.0
 10
13.9601280854
 20
28.2583886316
 30
0.0
 10
13.9601280854
 20
28.5058930729
 30
0.0
 10
13.9879117244
 20
29.0148386632
 30
0.0
 10
14.1454809765
 20
30.067420919
 30
0.0
 10
14.5316007235
 20
31.4173960897
 30
0.0
 10
15.2451084022
 20
32.9911846213
 30
0.0
 10
15.8735423198
 20
33.9817001705
 30
0.0
 10
16.2228603644
 20
34.4528856046
 30
0.0
  0
SPLINE
  5
342
100
AcDbEntity
  8
00_COMPONENTS_1
100
AcDbSpline
 62
7
  6
CONTINUOUS
 70
0
 71
3
 72
10
 73
6
 74
0
 42
0.0000001
 43
0.0000001
 44
0.0000000001
 40
0.0
 40
0.0
 40
0.0
 40
0.0
 40
0.2288753664
 40
0.5978090137
 40
1.0
 40
1.0
 40
1.0
 40
1.0
 10
14.4225484357
 20
26.0773064609
 30
0.0
 10
14.3486638046
 20
26.2209436155
 30
0.0
 10
14.182893275
 20
26.6104876039
 30
0.0
 10
14.012725924
 20
27.2991515313
 30
0.0
 10
13.9669959813
 20
27.8436077155
 30
0.0
 10
13.9614104038
 20
28.1273937151
 30
0.0
  0
SPLINE
  5
343
100
AcDbEntity
  8
00_COMPONENTS_1
100
AcDbSpline
 62
7
  6
CONTINUOUS
 70
0
 71
3
 72
11
 73
7
 74
0
 42
0.0000001
 43
0.0000001
 44
0.0000000001
 40
0.0
 40
0.0
 40
0.0
 40
0.0
 40
0.2947432177
 40
0.5564383742
 40
0.787479321
 40
1.0
 40
1.0
 40
1.0
 40
1.0
 10
31.2983655479
 20
53.8269859733
 30
0.0
 10
31.3346554817
 20
53.8520123147
 30
0.0
 10
31.407287096
 20
53.8938013935
 30
0.0
 10
31.5205215884
 20
53.9300607642
 30
0.0
 10
31.6276580176
 20
53.933537815
 30
0.0
 10
31.6922494785
 20
53.9116780792
 30
0.0
 10
31.7197849622
 20
53.8958005768
 30
0.0
  0
SPLINE
  5
344
100
AcDbEntity
  8
00_COMPONENTS_1
100
AcDbSpline
 62
7
  6
CONTINUOUS
 70
0
 71
3
 72
11
 73
7
 74
0
 42
0.0000001
 43
0.0000001
 44
0.0000000001
 40
0.0
 40
0.0
 40
0.0
 40
0.0
 40
0.2326224219
 40
0.4899064717
 40
0.7525789142
 40
1.0
 40
1.0
 40
1.0
 40
1.0
 10
30.2167787418
 20
52.5057137456
 30
0.0
 10
30.2167787418
 20
52.581313428
 30
0.0
 10
30.2418888555
 20
52.7406786803
 30
0.0
 10
30.3321755755
 20
52.9695968089
 30
0.0
 10
30.4676374153
 20
53.1807693936
 30
0.0
 10
30.5846111443
 20
53.3006240503
 30
0.0
 10
30.6478300177
 20
53.3503130289
 30
0.0
  0
SPLINE
  5
345
100
AcDbEntity
  8
00_COMPONENTS_1
100
AcDbSpline
 62
7
  6
CONTINUOUS
 70
0
 71
3
 72
11
 73
7
 74
0
 42
0.0000001
 43
0.0000001
 44
0.0000000001
 40
0.0
 40
0.0
 40
0.0
 40
0.0
 40
0.217923917
 40
0.4510186485
 40
0.7105948071
 40
1.0
 40
1.0
 40
1.0
 40
1.0
 10
17.401925978
 20
40.5497544544
 30
0.0
 10
17.3943531353
 20
40.5541214675
 30
0.0
 10
17.3801767915
 20
40.5660049041
 30
0.0
 10
17.3651108468
 20
40.5906677456
 30
0.0
 10
17.356194184
 20
40.6210342524
 30
0.0
 10
17.3544128678
 20
40.6431280623
 30
0.0
 10
17.3544128678
 20
40.6547372381
 30
0.0
  0
SPLINE
  5
346
100
AcDbEntity
  8
00_COMPONENTS_1
100
AcDbSpline
 62
7
  6
CONTINUOUS
 70
0
 71
3
 72
14
 73
10
 74
0
 42
0.0000001
 43
0.0000001
 44
0.0000000001
 40
0.0
 40
0.0
 40
0.0
 40
0.0
 40
0.1080578411
 40
0.2181293945
 40
0.3321081297
 40
0.4514991855
 40
0.577443742
 40
0.7107282533
 40
1.0
 40
1.0
 40
1.0
 40
1.0
 10
18.7247537616
 20
22.9569944987
 30
0.0
 10
18.6050471689
 20
23.0260893686
 30
0.0
 10
18.3749500123
 20
23.1866846413
 30
0.0
 10
18.070876616
 20
23.485910234
 30
0.0
 10
17.8094709547
 20
23.8411132074
 30
0.0
 10
17.5928670244
 20
24.2481106102
 30
0.0
 10
17.4230161854
 20
24.7030226291
 30
0.0
 10
17.2560371016
 20
25.3856778513
 30
0.0
 10
17.2128334098
 20
25.9288262455
 30
0.0
 10
17.2128334098
 20
26.29883267
 30
0.0
  0
LINE
  5
347
100
AcDbEntity
  8
00_COMPONENTS_1
100
AcDbLine
 62
7
  6
CONTINUOUS
 10
25.5566821498
 20
19.2007368222
 11
25.5570435866
 21
11.362220008
  0
SPLINE
  5
348
100
AcDbEntity
  8
00_COMPONENTS_1
100
AcDbSpline
 62
7
  6
CONTINUOUS
 70
0
 71
3
 72
8
 73
4
 74
0
 42
0.0000001
 43
0.0000001
 44
0.0000000001
 40
0.0
 40
0.0
 40
0.0
 40
0.0
 40
1.0
 40
1.0
 40
1.0
 40
1.0
 10
31.0013583846
 20
21.2718534743
 30
0.0
 10
31.0013583846
 20
16.9208243799
 30
0.0
 10
31.001501758
 20
12.5697952832
 30
0.0
 10
31.0017884703
 20
8.2187661982
 30
0.0
  0
SPLINE
  5
349
100
AcDbEntity
  8
00_COMPONENTS_1
100
AcDbSpline
 62
7
  6
CONTINUOUS
 70
0
 71
3
 72
11
 73
7
 74
0
 42
0.0000001
 43
0.0000001
 44
0.0000000001
 40
0.0
 40
0.0
 40
0.0
 40
0.0
 40
0.2176984088
 40
0.4508795219
 40
0.7106061906
 40
1.0
 40
1.0
 40
1.0
 40
1.0
 10
30.3703596532
 20
52.1663352523
 30
0.0
 10
30.3458997451
 20
52.1804270865
 30
0.0
 10
30.3001260953
 20
52.2188726989
 30
0.0
 10
30.2513712304
 20
52.2985552315
 30
0.0
 10
30.2225475363
 20
52.3967545965
 30
0.0
 10
30.2167787418
 20
52.4681882122
 30
0.0
 10
30.2167787418
 20
52.5057137456
 30
0.0
  0
SPLINE
  5
34A
100
AcDbEntity
  8
00_COMPONENTS_1
100
AcDbSpline
 62
7
  6
CONTINUOUS
 70
0
 71
3
 72
12
 73
8
 74
0
 42
0.0000001
 43
0.0000001
 44
0.0000000001
 40
0.0
 40
0.0
 40
0.0
 40
0.0
 40
0.1110294599
 40
0.2281242019
 40
0.4765902522
 40
0.7372091653
 40
1.0
 40
1.0
 40
1.0
 40
1.0
 10
12.4045160293
 20
29.0947159323
 30
0.0
 10
12.4052393343
 20
29.3445943646
 30
0.0
 10
12.4344996193
 20
29.8582003904
 30
0.0
 10
12.5952101375
 20
30.9198768638
 30
0.0
 10
12.9855723562
 20
32.2809160065
 30
0.0
 10
13.704819289
 20
33.8678467304
 30
0.0
 10
14.3375717136
 20
34.8669981413
 30
0.0
 10
14.6891553826
 20
35.3425789719
 30
0.0
  0
SPLINE
  5
34B
100
AcDbEntity
  8
00_COMPONENTS_1
100
AcDbSpline
 62
7
  6
CONTINUOUS
 70
0
 71
3
 72
9
 73
5
 74
0
 42
0.0000001
 43
0.0000001
 44
0.0000000001
 40
0.0
 40
0.0
 40
0.0
 40
0.0
 40
0.2346409353
 40
1.0
 40
1.0
 40
1.0
 40
1.0
 10
18.6016066583
 20
37.0160355044
 30
0.0
 10
18.6016066583
 20
37.0221570952
 30
0.0
 10
18.6028376643
 20
37.0482434218
 30
0.0
 10
18.6084806881
 20
37.0740209518
 30
0.0
 10
18.6145371202
 20
37.0930478921
 30
0.0
  0
SPLINE
  5
34C
100
AcDbEntity
  8
00_COMPONENTS_1
100
AcDbSpline
 62
7
  6
CONTINUOUS
 70
0
 71
3
 72
9
 73
5
 74
0
 42
0.0000001
 43
0.0000001
 44
0.0000000001
 40
0.0
 40
0.0
 40
0.0
 40
0.0
 40
0.2465975351
 40
1.0
 40
1.0
 40
1.0
 40
1.0
 10
18.6145371202
 20
37.0930478921
 30
0.0
 10
18.6156059205
 20
37.0964056444
 30
0.0
 10
18.6201692117
 20
37.109948234
 30
0.0
 10
18.6256139644
 20
37.1231917422
 30
0.0
 10
18.630160471
 20
37.1329503471
 30
0.0
  0
SPLINE
  5
34D
100
AcDbEntity
  8
00_COMPONENTS_1
100
AcDbSpline
 62
7
  6
CONTINUOUS
 70
0
 71
3
 72
9
 73
5
 74
0
 42
0.0000001
 43
0.0000001
 44
0.0000000001
 40
0.0
 40
0.0
 40
0.0
 40
0.0
 40
0.2334314329
 40
1.0
 40
1.0
 40
1.0
 40
1.0
 10
18.3506400616
 20
37.7297950728
 30
0.0
 10
18.3506400616
 20
37.7366595218
 30
0.0
 10
18.352197755
 20
37.7660622586
 30
0.0
 10
18.3592469964
 20
37.795029218
 30
0.0
 10
18.366751236
 20
37.8162857381
 30
0.0
  0
SPLINE
  5
34E
100
AcDbEntity
  8
00_COMPONENTS_1
100
AcDbSpline
 62
7
  6
CONTINUOUS
 70
0
 71
3
 72
9
 73
5
 74
0
 42
0.0000001
 43
0.0000001
 44
0.0000000001
 40
0.0
 40
0.0
 40
0.0
 40
0.0
 40
0.2323513962
 40
1.0
 40
1.0
 40
1.0
 40
1.0
 10
18.1561346877
 20
38.4954637773
 30
0.0
 10
18.1561346877
 20
38.5030745721
 30
0.0
 10
18.1580603706
 20
38.5358245095
 30
0.0
 10
18.1666615325
 20
38.5679830246
 30
0.0
 10
18.1757529135
 20
38.5914266775
 30
0.0
  0
SPLINE
  5
34F
100
AcDbEntity
  8
00_COMPONENTS_1
100
AcDbSpline
 62
7
  6
CONTINUOUS
 70
0
 71
3
 72
9
 73
5
 74
0
 42
0.0000001
 43
0.0000001
 44
0.0000000001
 40
0.0
 40
0.0
 40
0.0
 40
0.0
 40
0.2314004015
 40
1.0
 40
1.0
 40
1.0
 40
1.0
 10
18.0191855499
 20
39.3087311075
 30
0.0
 10
18.0191855499
 20
39.3170917881
 30
0.0
 10
18.0215212569
 20
39.3532145823
 30
0.0
 10
18.0318152025
 20
39.3885601686
 30
0.0
 10
18.0426291361
 20
39.4141382474
 30
0.0
  0
SPLINE
  5
350
100
AcDbEntity
  8
00_COMPONENTS_1
100
AcDbSpline
 62
7
  6
CONTINUOUS
 70
0
 71
3
 72
11
 73
7
 74
0
 42
0.0000001
 43
0.0000001
 44
0.0000000001
 40
0.0
 40
0.0
 40
0.0
 40
0.0
 40
0.2178024206
 40
0.4509682028
 40
0.7107812713
 40
1.0
 40
1.0
 40
1.0
 40
1.0
 10
18.0621688847
 20
39.2137407288
 30
0.0
 10
18.0553158864
 20
39.2176803432
 30
0.0
 10
18.0425020839
 20
39.2284474245
 30
0.0
 10
18.0288639919
 20
39.2507616482
 30
0.0
 10
18.0208128074
 20
39.2782459707
 30
0.0
 10
18.0191855499
 20
39.2982345078
 30
0.0
 10
18.0191855499
 20
39.3087311075
 30
0.0
  0
SPLINE
  5
351
100
AcDbEntity
  8
00_COMPONENTS_1
100
AcDbSpline
 62
7
  6
CONTINUOUS
 70
0
 71
3
 72
9
 73
5
 74
0
 42
0.0000001
 43
0.0000001
 44
0.0000000001
 40
0.0
 40
0.0
 40
0.0
 40
0.0
 40
0.2299136293
 40
1.0
 40
1.0
 40
1.0
 40
1.0
 10
17.3544128678
 20
40.6547372381
 30
0.0
 10
17.3544128678
 20
40.6656081361
 30
0.0
 10
17.3580151447
 20
40.7128728531
 30
0.0
 10
17.373471897
 20
40.7587788934
 30
0.0
 10
17.3895581086
 20
40.7914444829
 30
0.0
  0
SPLINE
  5
352
100
AcDbEntity
  8
00_COMPONENTS_1
100
AcDbSpline
 62
7
  6
CONTINUOUS
 70
0
 71
3
 72
9
 73
5
 74
0
 42
0.0000001
 43
0.0000001
 44
0.0000000001
 40
0.0
 40
0.0
 40
0.0
 40
0.0
 40
0.4746331365
 40
1.0
 40
1.0
 40
1.0
 40
1.0
 10
17.3953658603
 20
41.7068971297
 30
0.0
 10
17.3953658603
 20
41.7293792161
 30
0.0
 10
17.4031305284
 20
41.7767721069
 30
0.0
 10
17.421183786
 20
41.8209520811
 30
0.0
 10
17.4328585616
 20
41.8429287295
 30
0.0
  0
SPLINE
  5
353
100
AcDbEntity
  8
00_COMPONENTS_1
100
AcDbSpline
 62
7
  6
CONTINUOUS
 70
0
 71
3
 72
9
 73
5
 74
0
 42
0.0000001
 43
0.0000001
 44
0.0000000001
 40
0.0
 40
0.0
 40
0.0
 40
0.0
 40
0.2525879336
 40
1.0
 40
1.0
 40
1.0
 40
1.0
 10
17.4328585616
 20
41.8429287295
 30
0.0
 10
17.4358633703
 20
41.8485849946
 30
0.0
 10
17.4483539696
 20
41.8706551571
 30
0.0
 10
17.4630957453
 20
41.8914685438
 30
0.0
 10
17.4753193712
 20
41.9059517947
 30
0.0
  0
ENDSEC
  0
SECTION
  2
OBJECTS
  0
DICTIONARY
  5
C
100
AcDbDictionary
280
0
281
1
  3
ACAD_GROUP
350
D
  3
ACAD_MLINESTYLE
350
17
  3
ACAD_LAYOUT
350
1A
  3
ACAD_PLOTSETTINGS
350
19
  3
ACAD_PLOTSTYLENAME
350
E
  0
DICTIONARY
  5
D
102
{ACAD_REACTORS
330
C
102
}
100
AcDbDictionary
280
0
281
1
  0
ACDBDICTIONARYWDFLT
  5
E
102
{ACAD_REACTORS
330
C
102
}
100
AcDbDictionary
281
1
  3
Normal
350
F
100
AcDbDictionaryWithDefault
340
F
  0
DICTIONARY
  5
17
102
{ACAD_REACTORS
330
C
102
}
100
AcDbDictionary
280
0
281
1
  3
Standard
350
18
  0
DICTIONARY
  5
19
102
{ACAD_REACTORS
330
C
102
}
100
AcDbDictionary
281
1
  0
DICTIONARY
  5
1A
102
{ACAD_REACTORS
330
C
102
}
100
AcDbDictionary
281
1
  3
Model
350
354
  3
Layout1
350
355
  0
ACDBPLACEHOLDER
  5
F
102
{ACAD_REACTORS
330
E
102
}
  0
MLINESTYLE
  5
18
102
{ACAD_REACTORS
330
17
102
}
100
AcDbMlineStyle
  2
STANDARD
 70
0
  3

 62
256
 51
90.0
 52
90.0
 71
2
 49
0.5
 62
256
  6
BYLAYER
 49
-0.5
 62
256
  6
BYLAYER
  0
LAYOUT
  5
354
102
{ACAD_REACTORS
330
1A
102
}
100
AcDbPlotSettings
  1

  2
none_device
  4

  6

 40
0.0
 41
0.0
 42
0.0
 43
0.0
 44
210.0
 45
297.0
 46
0.0
 47
0.0
 48
0.0
 49
0.0
140
0.0
141
0.0
142
1.0
143
1.0
 70
1024
 72
1
 73
0
 74
0
  7

 75
0
147
1.0
148
0.0
149
0.0
100
AcDbLayout
  1
Model
 70
0
 71
0
 10
0.0
 20
0.0
 11
210.0
 21
297.0
 12
0.0
 22
0.0
 32
0.0
 14
0.0
 24
0.0
 34
0.0
 15
0.0
 25
0.0
 35
0.0
146
0.0
 13
0.0
 23
0.0
 33
0.0
 16
1.0
 26
0.0
 36
0.0
 17
0.0
 27
1.0
 37
0.0
 76
0
330
211
345
0
346
0
  0
LAYOUT
  5
355
102
{ACAD_REACTORS
330
1A
102
}
100
AcDbPlotSettings
  1

  2
none_device
  4

  6

 40
0.0
 41
0.0
 42
0.0
 43
0.0
 44
210.0
 45
297.0
 46
0.0
 47
0.0
 48
0.0
 49
0.0
140
0.0
141
0.0
142
1.0
143
1.0
 70
0
 72
1
 73
0
 74
0
  7

 75
0
147
1.0
148
0.0
149
0.0
100
AcDbLayout
  1
Layout1
 70
0
 71
1
 10
0.0
 20
0.0
 11
210.0
 21
297.0
 12
0.0
 22
0.0
 32
0.0
 14
0.0
 24
0.0
 34
0.0
 15
0.0
 25
0.0
 35
0.0
146
0.0
 13
0.0
 23
0.0
 33
0.0
 16
1.0
 26
0.0
 36
0.0
 17
0.0
 27
1.0
 37
0.0
 76
0
330
212
345
0
346
0
  0
ENDSEC
  0
EOF
