999
DXF file: C:\Users\sesa63760\Dev\_Creo\CAD\MCADID0002316_3D-CAD\drw0001_2.dxf
999
Pro/ENGINEER 2019471 by Parametric Technology Corporation
  0
SECTION
  2
HEADER
  9
$ACADVER
  1
AC1024
  9
$DWGCODEPAGE
  3
ANSI_1252
  9
$EXTMAX
 10
151.0266059286
 20
213.5947712419
 30
0.0
  9
$EXTMIN
 10
0.0
 20
0.0
 30
0.0
  9
$LIMMIN
 10
0.0
 20
0.0
  9
$LIMMAX
 10
151.0266059286
 20
213.5947712419
  9
$VIEWCTR
 10
75.5133029643
 20
106.7973856209
  9
$VIEWSIZE
 40
213.5947712419
  9
$CLAYER
  8
0
  9
$LTSCALE
 40
13.923214718
  9
$CELTYPE
  6
BYLAYER
  9
$DIMSCALE
 40
1.0
  9
$DIMASZ
 40
1.7979357849
  9
$DIMEXO
 40
1.0
  9
$DIMDLI
 40
9.6196756233
  9
$DIMEXE
 40
1.0
  9
$DIMCEN
 40
2.2783442266
  9
$DIMLFAC
 40
1.0
  9
$DIMBLK
  1
_FILLED
  9
$DIMALT
 70
0
  9
$DIMALTF
 40
0.0393700787
  9
$DIMTXT
 40
2.5171100988
  9
$DIMTOL
 70
1
  9
$DIMLIM
 70
0
  9
$DIMTFAC
 40
1.0
  9
$DIMTP
 40
0.01
  9
$DIMTM
 40
0.01
  9
$DIMGAP
 40
0.625
  9
$DIMDSEP
 70
46
  9
$AUNITS
 70
0
  9
$PDMODE
 70
3
  9
$PDSIZE
 40
0.3125
  9
$HANDSEED
  5
263
  9
$TILEMODE
 70
1
  9
$MEASUREMENT
 70
1
  9
$INSUNITS
 70
4
  0
ENDSEC
  0
SECTION
  2
CLASSES
  0
CLASS
  1
ACDBDICTIONARYWDFLT
  2
AcDbDictionaryWithDefault
  3
AutoCAD 2000
 90
0
 91
1
280
0
281
0
  0
CLASS
  1
ACDBPLACEHOLDER
  2
AcDbPlaceHolder
  3
AutoCAD 2000
 90
0
 91
1
280
0
281
0
  0
CLASS
  1
LAYOUT
  2
AcDbLayout
  3
AutoCAD 2000
 90
0
 91
0
280
0
281
0
  0
ENDSEC
  0
SECTION
  2
TABLES
  0
TABLE
  2
VPORT
  5
8
100
AcDbSymbolTable
 70
2
  0
VPORT
  5
1F4
100
AcDbSymbolTableRecord
100
AcDbViewportTableRecord
  2
*ACTIVE
 70
0
 10
0.0
 20
0.0
 11
1.0
 21
1.0
 12
75.5133029643
 22
106.7973856209
 13
0.0
 23
0.0
 14
1.0
 24
1.0
 15
0.0
 25
0.0
 16
0.0
 26
0.0
 36
1.0
 17
0.0
 27
0.0
 37
0.0
 40
213.5947712419
 41
0.7070707071
 42
50.0
 43
0.0
 44
0.0
 50
0.0
 51
0.0
 71
0
 72
100
 73
1
 74
1
 75
0
 76
0
 77
0
 78
0
  0
ENDTAB
  0
TABLE
  2
LTYPE
  5
5
100
AcDbSymbolTable
 70
6
  0
LTYPE
  5
14
100
AcDbSymbolTableRecord
100
AcDbLinetypeTableRecord
  2
BYBLOCK
 70
0
  3

 72
65
 73
0
 40
0.0
  0
LTYPE
  5
15
100
AcDbSymbolTableRecord
100
AcDbLinetypeTableRecord
  2
BYLAYER
 70
0
  3

 72
65
 73
0
 40
0.0
  0
LTYPE
  5
16
100
AcDbSymbolTableRecord
100
AcDbLinetypeTableRecord
  2
CONTINUOUS
 70
64
  3
Solid line
 72
65
 73
0
 40
0.0
  0
LTYPE
  5
1F5
100
AcDbSymbolTableRecord
100
AcDbLinetypeTableRecord
  2
CENTER
 70
64
  3
____ _ ____ _ ____ _ ____ _ ____ _ ____ _ ____
 72
65
 73
4
 40
0.6
 49
0.375
 74
0
 49
-0.075
 74
0
 49
0.075
 74
0
 49
-0.075
 74
0
  0
LTYPE
  5
1F6
100
AcDbSymbolTableRecord
100
AcDbLinetypeTableRecord
  2
HIDDEN
 70
64
  3
- - - - - - - - - - - - - - - - - - - -
 72
65
 73
2
 40
0.2
 49
0.1
 74
0
 49
-0.1
 74
0
  0
LTYPE
  5
1F7
100
AcDbSymbolTableRecord
100
AcDbLinetypeTableRecord
  2
PHANTOM
 70
64
  3
_____ _ _ _____ _ _ _____ _ _ _____
 72
65
 73
6
 40
0.8
 49
0.45
 74
0
 49
-0.05
 74
0
 49
0.1
 74
0
 49
-0.05
 74
0
 49
0.1
 74
0
 49
-0.05
 74
0
  0
LTYPE
  5
1F8
100
AcDbSymbolTableRecord
100
AcDbLinetypeTableRecord
  2
DOT
 70
64
  3
. . . . . . . . . . . . . . . . . . . .
 72
65
 73
2
 40
0.2
 49
0.1
 74
0
 49
-0.1
 74
0
  0
LTYPE
  5
1F9
100
AcDbSymbolTableRecord
100
AcDbLinetypeTableRecord
  2
DASHED
 70
64
  3
- - - - - - - - - - - - - - - - - - - -
 72
65
 73
2
 40
0.2
 49
0.1
 74
0
 49
-0.1
 74
0
  0
ENDTAB
  0
TABLE
  2
LAYER
  5
2
100
AcDbSymbolTable
 70
36
  0
LAYER
  5
10
100
AcDbSymbolTableRecord
100
AcDbLayerTableRecord
  2
0
 70
0
 62
7
  6
CONTINUOUS
370
-3
390
F
  0
LAYER
  5
1FA
100
AcDbSymbolTableRecord
100
AcDbLayerTableRecord
  2
DEFAULT_1
 70
0
 62
7
  6
CENTER
370
-3
390
F
  0
LAYER
  5
1FB
100
AcDbSymbolTableRecord
100
AcDbLayerTableRecord
  2
DEFAULT_2
 70
0
 62
8
  6
HIDDEN
370
-3
390
F
  0
LAYER
  5
1FC
100
AcDbSymbolTableRecord
100
AcDbLayerTableRecord
  2
DEFAULT_3
 70
0
 62
7
  6
PHANTOM
370
-3
390
F
  0
LAYER
  5
1FD
100
AcDbSymbolTableRecord
100
AcDbLayerTableRecord
  2
00_COMPONENTS
 70
0
 62
7
  6
CONTINUOUS
370
-3
390
F
  0
LAYER
  5
1FE
100
AcDbSymbolTableRecord
100
AcDbLayerTableRecord
  2
01_1_DEFAULT_DATUMS
 70
0
 62
7
  6
CONTINUOUS
370
-3
390
F
  0
LAYER
  5
1FF
100
AcDbSymbolTableRecord
100
AcDbLayerTableRecord
  2
01_PLANES
 70
0
 62
7
  6
CONTINUOUS
370
-3
390
F
  0
LAYER
  5
200
100
AcDbSymbolTableRecord
100
AcDbLayerTableRecord
  2
02_COORD_SYS
 70
0
 62
7
  6
CONTINUOUS
370
-3
390
F
  0
LAYER
  5
201
100
AcDbSymbolTableRecord
100
AcDbLayerTableRecord
  2
03_AXES
 70
0
 62
7
  6
CONTINUOUS
370
-3
390
F
  0
LAYER
  5
202
100
AcDbSymbolTableRecord
100
AcDbLayerTableRecord
  2
04_POINTS
 70
0
 62
7
  6
CONTINUOUS
370
-3
390
F
  0
LAYER
  5
203
100
AcDbSymbolTableRecord
100
AcDbLayerTableRecord
  2
05_CURVES
 70
0
 62
7
  6
CONTINUOUS
370
-3
390
F
  0
LAYER
  5
204
100
AcDbSymbolTableRecord
100
AcDbLayerTableRecord
  2
06_SURFS
 70
0
 62
7
  6
CONTINUOUS
370
-3
390
F
  0
LAYER
  5
205
100
AcDbSymbolTableRecord
100
AcDbLayerTableRecord
  2
07_COSMETICS
 70
0
 62
7
  6
CONTINUOUS
370
-3
390
F
  0
LAYER
  5
206
100
AcDbSymbolTableRecord
100
AcDbLayerTableRecord
  2
10_NOTES
 70
0
 62
7
  6
CONTINUOUS
370
-3
390
F
  0
LAYER
  5
207
100
AcDbSymbolTableRecord
100
AcDbLayerTableRecord
  2
11_NOTES_PUB
 70
0
 62
7
  6
CONTINUOUS
370
-3
390
F
  0
LAYER
  5
208
100
AcDbSymbolTableRecord
100
AcDbLayerTableRecord
  2
13_REF_GTOL
 70
0
 62
7
  6
CONTINUOUS
370
-3
390
F
  0
LAYER
  5
209
100
AcDbSymbolTableRecord
100
AcDbLayerTableRecord
  2
16_MISC
 70
0
 62
7
  6
CONTINUOUS
370
-3
390
F
  0
LAYER
  5
20A
100
AcDbSymbolTableRecord
100
AcDbLayerTableRecord
  2
17_NO_PRINT
 70
0
 62
7
  6
CONTINUOUS
370
-3
390
F
  0
LAYER
  5
20B
100
AcDbSymbolTableRecord
100
AcDbLayerTableRecord
  2
18_DATUM_CAMS_JOINTS
 70
0
 62
7
  6
CONTINUOUS
370
-3
390
F
  0
LAYER
  5
20C
100
AcDbSymbolTableRecord
100
AcDbLayerTableRecord
  2
19_DATUM_FUNCTIONAL
 70
0
 62
7
  6
CONTINUOUS
370
-3
390
F
  0
LAYER
  5
20D
100
AcDbSymbolTableRecord
100
AcDbLayerTableRecord
  2
20_DATUM_KINEMATIC_SCHEME
 70
0
 62
7
  6
CONTINUOUS
370
-3
390
F
  0
ENDTAB
  0
TABLE
  2
STYLE
  5
3
100
AcDbSymbolTable
 70
1
  0
STYLE
  5
11
100
AcDbSymbolTableRecord
100
AcDbTextStyleTableRecord
  2
STANDARD
 70
0
 40
0.0
 41
0.8
 50
0.0
 71
0
 42
0.2
  3
txt
  4

  0
STYLE
  5
20E
100
AcDbSymbolTableRecord
100
AcDbTextStyleTableRecord
  2
TEXTSTYLE_1
 70
0
 40
0.0
 41
0.8
 50
0.0
 71
0
 42
0.2
  3
gdt
  4

  0
ENDTAB
  0
TABLE
  2
VIEW
  5
6
100
AcDbSymbolTable
 70
0
  0
ENDTAB
  0
TABLE
  2
UCS
  5
7
100
AcDbSymbolTable
 70
0
  0
ENDTAB
  0
TABLE
  2
APPID
  5
9
100
AcDbSymbolTable
 70
1
  0
APPID
  5
20F
100
AcDbSymbolTableRecord
100
AcDbRegAppTableRecord
  2
ACAD
 70
0
  0
ENDTAB
  0
TABLE
  2
BLOCK_RECORD
  5
1
100
AcDbSymbolTable
 70
0
  0
BLOCK_RECORD
  5
210
100
AcDbSymbolTableRecord
100
AcDbBlockTableRecord
  2
*Model_Space
  0
BLOCK_RECORD
  5
211
100
AcDbSymbolTableRecord
100
AcDbBlockTableRecord
  2
*Paper_Space
  0
BLOCK_RECORD
  5
212
100
AcDbSymbolTableRecord
100
AcDbBlockTableRecord
  2
_FILLED
  0
ENDTAB
  0
TABLE
  2
DIMSTYLE
  5
A
100
AcDbSymbolTable
 70
1
100
AcDbDimStyleTable
 71
0
  0
DIMSTYLE
105
213
100
AcDbSymbolTableRecord
100
AcDbDimStyleTableRecord
  2
STANDARD
 70
0
  3

  4

 40
1.0
 41
1.7979357849
 42
1.0
 43
0.38
 44
1.0
 45
0.0
 46
0.0
 47
0.01
 48
0.01
140
2.5171100988
141
0.09
142
0.0
143
25.4
144
1.0
145
0.0
146
1.0
147
0.625
 71
1
 72
0
 73
0
 74
0
 75
0
 76
0
 77
1
 78
8
 79
2
170
0
171
1
172
0
173
0
174
0
175
0
176
0
177
0
178
0
270
2
179
2
271
2
272
2
273
2
274
2
275
0
280
0
281
0
282
0
283
1
284
8
285
0
286
0
287
3
288
0
340
11
278
46
341
212
342
212
343
212
344
212
  0
ENDTAB
  0
ENDSEC
  0
SECTION
  2
BLOCKS
  0
BLOCK
  5
20
100
AcDbEntity
  8
0
100
AcDbBlockBegin
  2
*Model_Space
 70
0
 10
0.0
 20
0.0
 30
0.0
  3
*Model_Space
  1

  0
ENDBLK
  5
21
100
AcDbEntity
  8
0
100
AcDbBlockEnd
  0
BLOCK
  5
1C
100
AcDbEntity
  8
0
100
AcDbBlockBegin
  2
*Paper_Space
 70
0
 10
0.0
 20
0.0
 30
0.0
  3
*Paper_Space
  1

  0
ENDBLK
  5
1D
100
AcDbEntity
  8
0
100
AcDbBlockEnd
  0
BLOCK
  5
214
100
AcDbEntity
  8
0
100
AcDbBlockBegin
  2
_FILLED
 70
64
 10
0.0
 20
0.0
  3
_FILLED
  1

  0
SOLID
  5
215
100
AcDbEntity
  8
0
  6
BYBLOCK
 62
0
100
AcDbTrace
 10
0.0
 20
0.0
 11
-1.0
 21
0.25
 12
-1.0
 22
-0.25
 13
-1.0
 23
-0.25
  0
ENDBLK
  5
216
100
AcDbEntity
  8
0
  6
BYBLOCK
 62
0
100
AcDbBlockEnd
  0
ENDSEC
  0
SECTION
  2
ENTITIES
  0
LINE
  5
217
100
AcDbEntity
  8
0
100
AcDbLine
 62
7
  6
CONTINUOUS
 10
108.8699437298
 20
22.4052287578
 11
104.8699437298
 21
22.4052287579
  0
LINE
  5
218
100
AcDbEntity
  8
0
100
AcDbLine
 62
7
  6
CONTINUOUS
 10
78.5582983233
 20
22.4052287586
 11
74.5598108731
 21
22.4052287586
  0
LINE
  5
219
100
AcDbEntity
  8
0
100
AcDbLine
 62
7
  6
CONTINUOUS
 10
48.2481654649
 20
22.4052287593
 11
44.2481654649
 21
22.4052287594
  0
LINE
  5
21A
100
AcDbEntity
  8
0
100
AcDbLine
 62
7
  6
CONTINUOUS
 10
109.3699437299
 20
22.9052287577
 11
104.3699437299
 21
22.9052287579
  0
LINE
  5
21B
100
AcDbEntity
  8
0
100
AcDbLine
 62
7
  6
CONTINUOUS
 10
79.0590545982
 20
22.9052287586
 11
74.0590545982
 21
22.9052287586
  0
LINE
  5
21C
100
AcDbEntity
  8
0
100
AcDbLine
 62
7
  6
CONTINUOUS
 10
48.7481654649
 20
22.9052287593
 11
43.7481654649
 21
22.9052287595
  0
LINE
  5
21D
100
AcDbEntity
  8
0
100
AcDbLine
 62
7
  6
CONTINUOUS
 10
43.7481654649
 20
22.9052287595
 11
44.2481654649
 21
22.4052287594
  0
LINE
  5
21E
100
AcDbEntity
  8
0
100
AcDbLine
 62
7
  6
CONTINUOUS
 10
113.1772618246
 20
40.4052287578
 11
100.5626256364
 21
40.4052287578
  0
LINE
  5
21F
100
AcDbEntity
  8
0
100
AcDbLine
 62
7
  6
CONTINUOUS
 10
82.866336547
 20
40.4052287586
 11
70.2517726494
 21
40.4052287586
  0
LINE
  5
220
100
AcDbEntity
  8
0
100
AcDbLine
 62
7
  6
CONTINUOUS
 10
52.5554835597
 20
40.4052287594
 11
39.9408473715
 21
40.4052287594
  0
LINE
  5
221
100
AcDbEntity
  8
0
100
AcDbLine
 62
7
  6
CONTINUOUS
 10
114.1755222936
 20
41.346270839
 11
99.5643651675
 21
41.3462708396
  0
LINE
  5
222
100
AcDbEntity
  8
0
100
AcDbLine
 62
7
  6
CONTINUOUS
 10
83.8646331612
 20
41.3462708401
 11
69.2534760352
 21
41.3462708401
  0
LINE
  5
223
100
AcDbEntity
  8
0
100
AcDbLine
 62
7
  6
CONTINUOUS
 10
53.5537440287
 20
41.3462708405
 11
38.9425869026
 21
41.3462708411
  0
LINE
  5
224
100
AcDbEntity
  8
0
100
AcDbLine
 62
7
  6
CONTINUOUS
 10
99.5643651675
 20
41.5052287573
 11
94.4902580426
 21
41.5052287573
  0
LINE
  5
225
100
AcDbEntity
  8
0
100
AcDbLine
 62
7
  6
CONTINUOUS
 10
94.4902579974
 20
43.5052287575
 11
96.8656844473
 21
43.5052287574
  0
LINE
  5
226
100
AcDbEntity
  8
0
100
AcDbLine
 62
7
  6
CONTINUOUS
 10
96.8876646086
 20
43.688130446
 11
94.5283363078
 21
43.688130446
  0
LINE
  5
227
100
AcDbEntity
  8
0
100
AcDbLine
 62
7
  6
CONTINUOUS
 10
98.4344744375
 20
43.8011113386
 11
99.4193806764
 21
43.8011113386
  0
LINE
  5
228
100
AcDbEntity
  8
0
100
AcDbLine
 62
7
  6
CONTINUOUS
 10
99.4078407428
 20
43.9965025574
 11
98.4474261596
 21
43.9965025574
  0
LINE
  5
229
100
AcDbEntity
  8
0
100
AcDbLine
 62
7
  6
CONTINUOUS
 10
134.5590545981
 20
44.4052287557
 11
18.5590545983
 21
44.4052287587
  0
LINE
  5
22A
100
AcDbEntity
  8
0
100
AcDbLine
 62
7
  6
CONTINUOUS
 10
16.5590545983
 20
46.4052287586
 11
16.5590545983
 21
47.4052287586
  0
LINE
  5
22B
100
AcDbEntity
  8
0
100
AcDbLine
 62
7
  6
CONTINUOUS
 10
17.5590545983
 20
47.4052287586
 11
17.5590545983
 21
47.5052287586
  0
LINE
  5
22C
100
AcDbEntity
  8
0
100
AcDbLine
 62
7
  6
CONTINUOUS
 10
16.5610545983
 20
47.5052287586
 11
17.5499838804
 21
96.9516928626
  0
LINE
  5
22D
100
AcDbEntity
  8
0
100
AcDbLine
 62
7
  6
CONTINUOUS
 10
136.5590545982
 20
46.4052287556
 11
16.5590545983
 21
46.4052287586
  0
LINE
  5
22E
100
AcDbEntity
  8
0
100
AcDbLine
 62
7
  6
CONTINUOUS
 10
16.5590545983
 20
47.4052287586
 11
136.5590545983
 21
47.4052287586
  0
LINE
  5
22F
100
AcDbEntity
  8
0
100
AcDbLine
 62
7
  6
CONTINUOUS
 10
136.5570545983
 20
47.5052287556
 11
16.5610545983
 21
47.5052287586
  0
LINE
  5
230
100
AcDbEntity
  8
0
100
AcDbLine
 62
7
  6
CONTINUOUS
 10
74.5590545982
 20
22.4052287586
 11
74.0590545982
 21
22.9052287586
  0
LINE
  5
231
100
AcDbEntity
  8
0
100
AcDbLine
 62
7
  6
CONTINUOUS
 10
24.5808000286
 20
101.8427655744
 11
26.6206918377
 21
142.8871483368
  0
LINE
  5
232
100
AcDbEntity
  8
0
100
AcDbLine
 62
7
  6
CONTINUOUS
 10
38.9425869026
 20
41.3462708411
 11
38.7619228403
 21
44.4052287581
  0
LINE
  5
233
100
AcDbEntity
  8
0
100
AcDbLine
 62
7
  6
CONTINUOUS
 10
104.3699437299
 20
22.9052287579
 11
104.8699437298
 21
22.4052287579
  0
LINE
  5
234
100
AcDbEntity
  8
0
100
AcDbLine
 62
7
  6
CONTINUOUS
 10
43.7481654656
 20
40.4052287595
 11
43.7481654649
 21
22.9052287595
  0
LINE
  5
235
100
AcDbEntity
  8
0
100
AcDbLine
 62
7
  6
CONTINUOUS
 10
48.7481654656
 20
40.4052287593
 11
48.7481654649
 21
22.9052287593
  0
LINE
  5
236
100
AcDbEntity
  8
0
100
AcDbLine
 62
7
  6
CONTINUOUS
 10
17.9529127777
 20
97.6302905754
 11
24.1786973752
 21
101.187881774
  0
LINE
  5
237
100
AcDbEntity
  8
0
100
AcDbLine
 62
7
  6
CONTINUOUS
 10
53.5537440287
 20
41.3462708405
 11
53.7344080912
 21
44.4052287578
  0
LINE
  5
238
100
AcDbEntity
  8
0
100
AcDbLine
 62
7
  6
CONTINUOUS
 10
69.2534760352
 20
41.3462708401
 11
69.0728119728
 21
44.4052287574
  0
LINE
  5
239
100
AcDbEntity
  8
0
100
AcDbLine
 62
7
  6
CONTINUOUS
 10
17.5499838804
 20
96.9516928626
 11
135.5681253187
 21
96.9516928597
  0
LINE
  5
23A
100
AcDbEntity
  8
0
100
AcDbLine
 62
7
  6
CONTINUOUS
 10
135.1651964214
 20
97.6302905724
 11
17.9529127777
 21
97.6302905754
  0
LINE
  5
23B
100
AcDbEntity
  8
0
100
AcDbLine
 62
7
  6
CONTINUOUS
 10
74.0590545982
 20
40.4052287586
 11
74.0590545982
 21
22.9052287586
  0
LINE
  5
23C
100
AcDbEntity
  8
0
100
AcDbLine
 62
7
  6
CONTINUOUS
 10
24.1786973752
 20
101.187881774
 11
128.9394118241
 21
101.1878817713
  0
LINE
  5
23D
100
AcDbEntity
  8
0
100
AcDbLine
 62
7
  6
CONTINUOUS
 10
128.5373091707
 20
101.8427655718
 11
24.5808000286
 21
101.8427655744
  0
LINE
  5
23E
100
AcDbEntity
  8
0
100
AcDbLine
 62
7
  6
CONTINUOUS
 10
79.0590545982
 20
40.4052287586
 11
79.0590545982
 21
22.9052287586
  0
LINE
  5
23F
100
AcDbEntity
  8
0
100
AcDbLine
 62
7
  6
CONTINUOUS
 10
83.8646331612
 20
41.3462708401
 11
84.0452972236
 21
44.405228757
  0
LINE
  5
240
100
AcDbEntity
  8
0
100
AcDbLine
 62
7
  6
CONTINUOUS
 10
99.5643651675
 20
41.3462708396
 11
99.3837011052
 21
44.4052287566
  0
LINE
  5
241
100
AcDbEntity
  8
0
100
AcDbLine
 62
7
  6
CONTINUOUS
 10
94.4866558779
 20
43.5052287575
 11
94.4866558779
 21
41.5052287575
  0
LINE
  5
242
100
AcDbEntity
  8
0
100
AcDbLine
 62
7
  6
CONTINUOUS
 10
94.5372755926
 20
44.4052287567
 11
94.5247585997
 21
43.688130446
  0
LINE
  5
243
100
AcDbEntity
  8
0
100
AcDbLine
 62
7
  6
CONTINUOUS
 10
135.1651964214
 20
97.6302905724
 11
128.9394118241
 21
101.1878817713
  0
LINE
  5
244
100
AcDbEntity
  8
0
100
AcDbLine
 62
7
  6
CONTINUOUS
 10
104.3699437305
 20
40.4052287579
 11
104.3699437299
 21
22.9052287579
  0
LINE
  5
245
100
AcDbEntity
  8
0
100
AcDbLine
 62
7
  6
CONTINUOUS
 10
109.3699437305
 20
40.4052287577
 11
109.3699437299
 21
22.9052287577
  0
LINE
  5
246
100
AcDbEntity
  8
0
100
AcDbLine
 62
7
  6
CONTINUOUS
 10
94.4866558779
 20
43.5052287575
 11
94.5247585997
 21
43.688130446
  0
LINE
  5
247
100
AcDbEntity
  8
0
100
AcDbLine
 62
7
  6
CONTINUOUS
 10
114.1755222936
 20
41.346270839
 11
114.3561863561
 21
44.4052287563
  0
LINE
  5
248
100
AcDbEntity
  8
0
100
AcDbLine
 62
7
  6
CONTINUOUS
 10
48.7481654649
 20
22.9052287593
 11
48.2481654649
 21
22.4052287593
  0
LINE
  5
249
100
AcDbEntity
  8
0
100
AcDbLine
 62
7
  6
CONTINUOUS
 10
128.5373091707
 20
101.8427655718
 11
126.4974173637
 21
142.8871483343
  0
LINE
  5
24A
100
AcDbEntity
  8
0
100
AcDbLine
 62
7
  6
CONTINUOUS
 10
136.5570545983
 20
47.5052287556
 11
135.5681253187
 21
96.9516928597
  0
LINE
  5
24B
100
AcDbEntity
  8
0
100
AcDbLine
 62
7
  6
CONTINUOUS
 10
135.5590545983
 20
47.4052287556
 11
135.5590545983
 21
47.5052287556
  0
LINE
  5
24C
100
AcDbEntity
  8
0
100
AcDbLine
 62
7
  6
CONTINUOUS
 10
136.5590545982
 20
46.4052287556
 11
136.5590545983
 21
47.4052287556
  0
LINE
  5
24D
100
AcDbEntity
  8
0
100
AcDbLine
 62
7
  6
CONTINUOUS
 10
78.5590545982
 20
22.4052287586
 11
79.0590545982
 21
22.9052287586
  0
LINE
  5
24E
100
AcDbEntity
  8
0
100
AcDbLine
 62
7
  6
CONTINUOUS
 10
109.3699437299
 20
22.9052287577
 11
108.8699437298
 21
22.4052287578
  0
ARC
  5
24F
100
AcDbEntity
  8
0
100
AcDbCircle
 62
7
  6
CONTINUOUS
 10
76.5590545983
 20
140.4052287586
 40
50.0
100
AcDbArc
 50
2.8452395828
 51
177.154760414
  0
ARC
  5
250
100
AcDbEntity
  8
0
100
AcDbCircle
 62
7
  6
CONTINUOUS
 10
18.5590545983
 20
46.4052287586
 40
2.0
100
AcDbArc
 50
179.9999999986
 51
270.0
  0
ARC
  5
251
100
AcDbEntity
  8
0
100
AcDbCircle
 62
7
  6
CONTINUOUS
 10
134.5590545982
 20
46.4052287557
 40
2.0
100
AcDbArc
 50
269.9999999971
 51
359.9999999986
  0
ARC
  5
252
100
AcDbEntity
  8
0
100
AcDbCircle
 62
7
  6
CONTINUOUS
 10
82.8663726923
 20
41.4052287586
 40
1.0
100
AcDbArc
 50
270.0
 51
356.62
  0
ARC
  5
253
100
AcDbEntity
  8
0
100
AcDbCircle
 62
7
  6
CONTINUOUS
 10
70.2517365041
 20
41.4052287586
 40
1.0
100
AcDbArc
 50
183.38
 51
270.0
  0
ARC
  5
254
100
AcDbEntity
  8
0
100
AcDbCircle
 62
7
  6
CONTINUOUS
 10
52.5554835597
 20
41.4052287591
 40
1.0
100
AcDbArc
 50
269.9999999978
 51
356.6199999978
  0
ARC
  5
255
100
AcDbEntity
  8
0
100
AcDbCircle
 62
7
  6
CONTINUOUS
 10
39.9408473716
 20
41.4052287596
 40
1.0
100
AcDbArc
 50
183.3799999978
 51
269.9999999978
  0
ARC
  5
256
100
AcDbEntity
  8
0
100
AcDbCircle
 62
7
  6
CONTINUOUS
 10
113.1772618246
 20
41.4052287576
 40
1.0
100
AcDbArc
 50
269.9999999978
 51
356.6199999978
  0
ARC
  5
257
100
AcDbEntity
  8
0
100
AcDbCircle
 62
7
  6
CONTINUOUS
 10
100.5626256365
 20
41.4052287581
 40
1.0
100
AcDbArc
 50
183.3799999978
 51
269.9999999978
  0
ARC
  5
258
100
AcDbEntity
  8
0
100
AcDbCircle
 62
7
  6
CONTINUOUS
 10
18.3498239283
 20
96.9356960617
 40
0.8
100
AcDbArc
 50
119.7448812969
 51
178.8542371618
  0
ARC
  5
259
100
AcDbEntity
  8
0
100
AcDbCircle
 62
7
  6
CONTINUOUS
 10
129.3363229748
 20
101.882476285
 40
0.8
100
AcDbArc
 50
182.8452395831
 51
240.2551187002
  0
ARC
  5
25A
100
AcDbEntity
  8
0
100
AcDbCircle
 62
7
  6
CONTINUOUS
 10
23.7817862245
 20
101.8824762877
 40
0.8
100
AcDbArc
 50
299.7448812969
 51
357.154760414
  0
ARC
  5
25B
100
AcDbEntity
  8
0
100
AcDbCircle
 62
7
  6
CONTINUOUS
 10
134.7682852707
 20
96.9356960588
 40
0.8
100
AcDbArc
 50
1.1457628353
 51
60.2551187002
  0
SPLINE
  5
25C
100
AcDbEntity
  8
0
100
AcDbSpline
 62
7
  6
CONTINUOUS
 70
0
 71
3
 72
11
 73
7
 74
0
 42
0.0000001
 43
0.0000001
 44
0.0000000001
 40
0.0
 40
0.0
 40
0.0
 40
0.0
 40
0.2347654268
 40
0.4820020209
 40
0.7375924226
 40
1.0
 40
1.0
 40
1.0
 40
1.0
 10
96.8876654072
 20
43.6882101273
 30
0.0
 10
97.0123995466
 20
43.6882101273
 30
0.0
 10
97.2656358232
 20
43.7474157728
 30
0.0
 10
97.6378038359
 20
43.8656163646
 30
0.0
 10
98.0328763455
 20
43.9647079662
 30
0.0
 10
98.3080069819
 20
43.9968040106
 30
0.0
 10
98.4474277779
 20
43.9968318605
 30
0.0
  0
SPLINE
  5
25D
100
AcDbEntity
  8
0
100
AcDbSpline
 62
7
  6
CONTINUOUS
 70
0
 71
3
 72
131
 73
127
 74
0
 42
0.0000001
 43
0.0000001
 44
0.0000000001
 40
0.0
 40
0.0
 40
0.0
 40
0.0
 40
0.0000094172
 40
0.000037672
 40
0.0000847598
 40
0.0001506762
 40
0.0003389764
 40
0.0006025363
 40
0.0009413194
 40
0.0013552894
 40
0.0018444072
 40
0.0024085948
 40
0.0037617465
 40
0.0054138755
 40
0.0073640906
 40
0.0096111875
 40
0.0121537228
 40
0.0149902409
 40
0.0215381469
 40
0.0292389948
 40
0.038074245
 40
0.0480228893
 40
0.0590608354
 40
0.0711613757
 40
0.084294981
 40
0.0984289873
 40
0.1135296109
 40
0.1295629614
 40
0.1464911272
 40
0.1642717444
 40
0.1828586734
 40
0.2022030421
 40
0.222259127
 40
0.2429854714
 40
0.253587524
 40
0.2643415331
 40
0.275245099
 40
0.2862924023
 40
0.2974647522
 40
0.308744028
 40
0.3144235239
 40
0.3201272605
 40
0.3316161847
 40
0.3432094649
 40
0.3549070506
 40
0.3667002553
 40
0.3785678286
 40
0.3845245794
 40
0.3904956193
 40
0.3964845125
 40
0.402488098
 40
0.4085075509
 40
0.414544311
 40
0.4205954778
 40
0.4266636449
 40
0.4388324371
 40
0.4510312541
 40
0.4571387952
 40
0.4632522044
 40
0.4754892807
 40
0.4816141065
 40
0.4877417511
 40
0.4938714945
 40
0.5000020673
 40
0.5030676756
 40
0.5061333835
 40
0.512263249
 40
0.5245158013
 40
0.536753549
 40
0.5489712527
 40
0.5550730956
 40
0.5611701788
 40
0.5733393706
 40
0.5794069007
 40
0.5854584146
 40
0.5914966391
 40
0.5975164468
 40
0.6035198078
 40
0.6095066348
 40
0.6154783985
 40
0.6214351871
 40
0.6273742395
 40
0.6332973116
 40
0.6450913927
 40
0.6509533174
 40
0.6567896679
 40
0.6683860051
 40
0.6798736704
 40
0.6912578659
 40
0.69690921
 40
0.7025331718
 40
0.7137039869
 40
0.7247537098
 40
0.7356608899
 40
0.7570210056
 40
0.7777445414
 40
0.7977975874
 40
0.8171410755
 40
0.8357287036
 40
0.8535088377
 40
0.8864695394
 40
0.9015708811
 40
0.9157051582
 40
0.9288386478
 40
0.9409391685
 40
0.9519771148
 40
0.9619257405
 40
0.9707609941
 40
0.9784618532
 40
0.9850097632
 40
0.9878462813
 40
0.9903888159
 40
0.9926359112
 40
0.9945861242
 40
0.9962382509
 40
0.9975914008
 40
0.9981555878
 40
0.9986447053
 40
0.9990586755
 40
0.999397459
 40
0.9996610197
 40
0.999849321
 40
0.999915238
 40
0.9999623265
 40
0.999990582
 40
1.0
 40
1.0
 40
1.0
 40
1.0
 10
26.6206918377
 20
142.8871483368
 30
0.0
 10
26.620676254
 20
142.8868347801
 30
0.0
 10
26.6227345294
 20
142.8875834029
 30
0.0
 10
26.624785336
 20
142.886851486
 30
0.0
 10
26.6299332391
 20
142.887258377
 30
0.0
 10
26.6397109365
 20
142.8870011415
 30
0.0
 10
26.6571706753
 20
142.8871813041
 30
0.0
 10
26.6834326393
 20
142.88708616
 30
0.0
 10
26.7173509101
 20
142.8871179156
 30
0.0
 10
26.7587377861
 20
142.8871038239
 30
0.0
 10
26.8076571049
 20
142.8871086024
 30
0.0
 10
26.8878794277
 20
142.8871102087
 30
0.0
 10
27.0068763555
 20
142.8871219416
 30
0.0
 10
27.172077712
 20
142.8871434534
 30
0.0
 10
27.367081273
 20
142.8871779721
 30
0.0
 10
27.5917681716
 20
142.8872190317
 30
0.0
 10
27.8460019166
 20
142.8872570036
 30
0.0
 10
28.2436121372
 20
142.8872937039
 30
0.0
 10
28.8131855595
 20
142.8872747458
 30
0.0
 10
29.5827392363
 20
142.8869671246
 30
0.0
 10
30.4656636749
 20
142.8866494429
 30
0.0
 10
31.4598373751
 20
142.8867975603
 30
0.0
 10
32.5628661252
 20
142.8875436659
 30
0.0
 10
33.772071906
 20
142.8885839396
 30
0.0
 10
35.0844920501
 20
142.8893671249
 30
0.0
 10
36.4969257893
 20
142.8867801293
 30
0.0
 10
38.0060138769
 20
142.8797782745
 30
0.0
 10
39.6082729896
 20
142.8791909927
 30
0.0
 10
41.2998564315
 20
142.8867009353
 30
0.0
 10
43.0765365773
 20
142.8990264109
 30
0.0
 10
44.9338004905
 20
142.9073760999
 30
0.0
 10
46.8669613074
 20
142.8961992457
 30
0.0
 10
48.8710640496
 20
142.8580191246
 30
0.0
 10
50.5839748408
 20
142.8368180602
 30
0.0
 10
51.9869105686
 20
142.8356880159
 30
0.0
 10
53.0622914269
 20
142.8539433229
 30
0.0
 10
54.151678178
 20
142.902106313
 30
0.0
 10
55.2532491122
 20
142.9786174853
 30
0.0
 10
56.3670612966
 20
143.0623484014
 30
0.0
 10
57.3055503461
 20
143.0752283217
 30
0.0
 10
58.0607311068
 20
143.0504896664
 30
0.0
 10
58.8218545075
 20
143.0033402771
 30
0.0
 10
59.7780862834
 20
142.9238382726
 30
0.0
 10
60.9370326254
 20
142.8662037185
 30
0.0
 10
62.1069191612
 20
142.9073552151
 30
0.0
 10
63.2824563703
 20
142.9911896499
 30
0.0
 10
64.2695350822
 20
143.0329580871
 30
0.0
 10
65.0629982999
 20
143.0193986783
 30
0.0
 10
65.6591502797
 20
142.9802484937
 30
0.0
 10
66.2557226766
 20
142.9282164029
 30
0.0
 10
66.8542011415
 20
142.8791416588
 30
0.0
 10
67.4553257485
 20
142.8440656345
 30
0.0
 10
68.0591773223
 20
142.8336405665
 30
0.0
 10
68.6642429446
 20
142.8618187404
 30
0.0
 10
69.4693685127
 20
142.9539734061
 30
0.0
 10
70.4643993039
 20
143.1543134549
 30
0.0
 10
71.4662036168
 20
143.3298177236
 30
0.0
 10
72.278550067
 20
143.3931591583
 30
0.0
 10
73.0940767628
 20
143.406468609
 30
0.0
 10
73.909989792
 20
143.3754869648
 30
0.0
 10
74.7241862668
 20
143.3153459949
 30
0.0
 10
75.3344797037
 20
143.2591768363
 30
0.0
 10
75.9441141525
 20
143.1961719335
 30
0.0
 10
76.4533123251
 20
143.1497012511
 30
0.0
 10
76.8623327536
 20
143.1448207379
 30
0.0
 10
77.2707897208
 20
143.1632077976
 30
0.0
 10
77.9835188505
 20
143.2206934601
 30
0.0
 10
79.0016951992
 20
143.295840218
 30
0.0
 10
80.2252091932
 20
143.3326100054
 30
0.0
 10
81.2449507
 20
143.3029371223
 30
0.0
 10
82.054053886
 20
143.2096867032
 30
0.0
 10
82.8556025708
 20
143.0768649809
 30
0.0
 10
83.6525656113
 20
142.9246591546
 30
0.0
 10
84.455817568
 20
142.8188147994
 30
0.0
 10
85.0606505111
 20
142.7836716171
 30
0.0
 10
85.6646568
 20
142.7871264227
 30
0.0
 10
86.266087948
 20
142.8189592714
 30
0.0
 10
86.8643447018
 20
142.8702428991
 30
0.0
 10
87.4602369452
 20
142.9291107142
 30
0.0
 10
88.0556321975
 20
142.9770606407
 30
0.0
 10
88.6508130454
 20
143.0042235902
 30
0.0
 10
89.2449986506
 20
143.0077683138
 30
0.0
 10
90.0333440596
 20
142.9819584076
 30
0.0
 10
90.817774096
 20
142.9306850083
 30
0.0
 10
91.6000445623
 20
142.8920385266
 30
0.0
 10
92.3766461612
 20
142.8782819235
 30
0.0
 10
93.3408935154
 20
142.9096600814
 30
0.0
 10
94.4864890116
 20
142.9986782049
 30
0.0
 10
95.4361735043
 20
143.0516007199
 30
0.0
 10
96.1916296662
 20
143.0624658535
 30
0.0
 10
96.9399185239
 20
143.0475547205
 30
0.0
 10
97.8665656425
 20
142.9890569802
 30
0.0
 10
98.9677999045
 20
142.9067626996
 30
0.0
 10
100.4093746553
 20
142.8188270144
 30
0.0
 10
102.1767089665
 20
142.7965467561
 30
0.0
 10
104.2476789131
 20
142.8411856563
 30
0.0
 10
106.2512164421
 20
142.8960568093
 30
0.0
 10
108.1843285405
 20
142.9080497702
 30
0.0
 10
110.0415463401
 20
142.8972417004
 30
0.0
 10
112.3527166622
 20
142.8834364381
 30
0.0
 10
114.5477191115
 20
142.881007121
 30
0.0
 10
116.6211554437
 20
142.8868546405
 30
0.0
 10
118.0336180155
 20
142.8888046402
 30
0.0
 10
119.3460427904
 20
142.8886283831
 30
0.0
 10
120.555244102
 20
142.8875310526
 30
0.0
 10
121.6582715699
 20
142.8867681441
 30
0.0
 10
122.6524447835
 20
142.8866952404
 30
0.0
 10
123.5353690839
 20
142.8869968935
 30
0.0
 10
124.3049233942
 20
142.8872717329
 30
0.0
 10
124.8744973235
 20
142.8872849124
 30
0.0
 10
125.272107653
 20
142.8872482787
 30
0.0
 10
125.5263413211
 20
142.8872120194
 30
0.0
 10
125.751028072
 20
142.8871740359
 30
0.0
 10
125.9460314366
 20
142.8871437627
 30
0.0
 10
126.1112325851
 20
142.8871270706
 30
0.0
 10
126.2302293548
 20
142.8871189475
 30
0.0
 10
126.3104515874
 20
142.8871191477
 30
0.0
 10
126.3593708824
 20
142.887114935
 30
0.0
 10
126.4007577698
 20
142.8871288895
 30
0.0
 10
126.4346760869
 20
142.8870961499
 30
0.0
 10
126.4609381281
 20
142.8871901341
 30
0.0
 10
126.4783979536
 20
142.8870075188
 30
0.0
 10
126.4881757283
 20
142.8872637845
 30
0.0
 10
126.4933237138
 20
142.8868540435
 30
0.0
 10
126.4953745622
 20
142.8875873527
 30
0.0
 10
126.4974329485
 20
142.8868347531
 30
0.0
 10
126.4974173637
 20
142.8871483343
 30
0.0
  0
SPLINE
  5
25E
100
AcDbEntity
  8
0
100
AcDbSpline
 62
7
  6
CONTINUOUS
 70
0
 71
3
 72
11
 73
7
 74
0
 42
0.0000001
 43
0.0000001
 44
0.0000000001
 40
0.0
 40
0.0
 40
0.0
 40
0.0
 40
0.2342648699
 40
0.4820066951
 40
0.7373354547
 40
1.0
 40
1.0
 40
1.0
 40
1.0
 10
96.8656844473
 20
43.5052287574
 30
0.0
 10
96.9906454302
 20
43.5052287574
 30
0.0
 10
97.2461701617
 20
43.5550370162
 30
0.0
 10
97.6213531921
 20
43.6698864713
 30
0.0
 10
98.0180133426
 20
43.7698798235
 30
0.0
 10
98.2943652454
 20
43.8006764784
 30
0.0
 10
98.4344744375
 20
43.8011113386
 30
0.0
  0
SPLINE
  5
25F
100
AcDbEntity
  8
0
100
AcDbSpline
 62
7
  6
CONTINUOUS
 70
0
 71
3
 72
9
 73
5
 74
0
 42
0.0000001
 43
0.0000001
 44
0.0000000001
 40
0.0
 40
0.0
 40
0.0
 40
0.0
 40
0.2542997823
 40
1.0
 40
1.0
 40
1.0
 40
1.0
 10
96.8876646086
 20
43.688130446
 30
0.0
 10
96.8875071985
 20
43.6724976612
 30
0.0
 10
96.8852212429
 20
43.611058425
 30
0.0
 10
96.876356262
 20
43.5498127009
 30
0.0
 10
96.8656844473
 20
43.5052287574
 30
0.0
  0
SPLINE
  5
260
100
AcDbEntity
  8
0
100
AcDbSpline
 62
7
  6
CONTINUOUS
 70
0
 71
3
 72
9
 73
5
 74
0
 42
0.0000001
 43
0.0000001
 44
0.0000000001
 40
0.0
 40
0.0
 40
0.0
 40
0.0
 40
0.241420585
 40
1.0
 40
1.0
 40
1.0
 40
1.0
 10
98.4343466736
 20
43.8013026635
 30
0.0
 10
98.4364249118
 20
43.8169144786
 30
0.0
 10
98.4438925259
 20
43.8817289246
 30
0.0
 10
98.4471686011
 20
43.9470158435
 30
0.0
 10
98.4474258673
 20
43.9965025574
 30
0.0
  0
ENDSEC
  0
SECTION
  2
OBJECTS
  0
DICTIONARY
  5
C
100
AcDbDictionary
280
0
281
1
  3
ACAD_GROUP
350
D
  3
ACAD_MLINESTYLE
350
17
  3
ACAD_LAYOUT
350
1A
  3
ACAD_PLOTSETTINGS
350
19
  3
ACAD_PLOTSTYLENAME
350
E
  0
DICTIONARY
  5
D
102
{ACAD_REACTORS
330
C
102
}
100
AcDbDictionary
280
0
281
1
  0
ACDBDICTIONARYWDFLT
  5
E
102
{ACAD_REACTORS
330
C
102
}
100
AcDbDictionary
281
1
  3
Normal
350
F
100
AcDbDictionaryWithDefault
340
F
  0
DICTIONARY
  5
17
102
{ACAD_REACTORS
330
C
102
}
100
AcDbDictionary
280
0
281
1
  3
Standard
350
18
  0
DICTIONARY
  5
19
102
{ACAD_REACTORS
330
C
102
}
100
AcDbDictionary
281
1
  0
DICTIONARY
  5
1A
102
{ACAD_REACTORS
330
C
102
}
100
AcDbDictionary
281
1
  3
Model
350
261
  3
Layout1
350
262
  0
ACDBPLACEHOLDER
  5
F
102
{ACAD_REACTORS
330
E
102
}
  0
MLINESTYLE
  5
18
102
{ACAD_REACTORS
330
17
102
}
100
AcDbMlineStyle
  2
STANDARD
 70
0
  3

 62
256
 51
90.0
 52
90.0
 71
2
 49
0.5
 62
256
  6
BYLAYER
 49
-0.5
 62
256
  6
BYLAYER
  0
LAYOUT
  5
261
102
{ACAD_REACTORS
330
1A
102
}
100
AcDbPlotSettings
  1

  2
none_device
  4

  6

 40
0.0
 41
0.0
 42
0.0
 43
0.0
 44
210.0
 45
297.0
 46
0.0
 47
0.0
 48
0.0
 49
0.0
140
0.0
141
0.0
142
1.0
143
1.0
 70
1024
 72
1
 73
0
 74
0
  7

 75
0
147
1.0
148
0.0
149
0.0
100
AcDbLayout
  1
Model
 70
0
 71
0
 10
0.0
 20
0.0
 11
210.0
 21
297.0
 12
0.0
 22
0.0
 32
0.0
 14
0.0
 24
0.0
 34
0.0
 15
0.0
 25
0.0
 35
0.0
146
0.0
 13
0.0
 23
0.0
 33
0.0
 16
1.0
 26
0.0
 36
0.0
 17
0.0
 27
1.0
 37
0.0
 76
0
330
210
345
0
346
0
  0
LAYOUT
  5
262
102
{ACAD_REACTORS
330
1A
102
}
100
AcDbPlotSettings
  1

  2
none_device
  4

  6

 40
0.0
 41
0.0
 42
0.0
 43
0.0
 44
210.0
 45
297.0
 46
0.0
 47
0.0
 48
0.0
 49
0.0
140
0.0
141
0.0
142
1.0
143
1.0
 70
0
 72
1
 73
0
 74
0
  7

 75
0
147
1.0
148
0.0
149
0.0
100
AcDbLayout
  1
Layout1
 70
0
 71
1
 10
0.0
 20
0.0
 11
210.0
 21
297.0
 12
0.0
 22
0.0
 32
0.0
 14
0.0
 24
0.0
 34
0.0
 15
0.0
 25
0.0
 35
0.0
146
0.0
 13
0.0
 23
0.0
 33
0.0
 16
1.0
 26
0.0
 36
0.0
 17
0.0
 27
1.0
 37
0.0
 76
0
330
211
345
0
346
0
  0
ENDSEC
  0
EOF
