999
DXF file: C:\Users\sesa63760\Dev\_Creo\CAD\MCADPP0003063_3D-CAD\drw0001_1.dxf
999
Pro/ENGINEER 2019471 by Parametric Technology Corporation
  0
SECTION
  2
HEADER
  9
$ACADVER
  1
AC1024
  9
$DWGCODEPAGE
  3
ANSI_1252
  9
$EXTMAX
 10
91.9217434287
 20
130.0036085635
 30
0.0
  9
$EXTMIN
 10
0.0
 20
0.0
 30
0.0
  9
$LIMMIN
 10
0.0
 20
0.0
  9
$LIMMAX
 10
91.9217434287
 20
130.0036085635
  9
$VIEWCTR
 10
45.9608717144
 20
65.0018042818
  9
$VIEWSIZE
 40
130.0036085635
  9
$CLAYER
  8
0
  9
$LTSCALE
 40
8.474309299
  9
$CELTYPE
  6
BYLAYER
  9
$DIMSCALE
 40
1.0
  9
$DIMASZ
 40
1.0943064694
  9
$DIMEXO
 40
1.0
  9
$DIMDLI
 40
5.8549773338
  9
$DIMEXE
 40
1.0
  9
$DIMCEN
 40
1.386705158
  9
$DIMLFAC
 40
1.0
  9
$DIMBLK
  1
_FILLED
  9
$DIMALT
 70
0
  9
$DIMALTF
 40
0.0393700787
  9
$DIMTXT
 40
1.5320290571
  9
$DIMTOL
 70
1
  9
$DIMLIM
 70
0
  9
$DIMTFAC
 40
1.0
  9
$DIMTP
 40
0.01
  9
$DIMTM
 40
0.01
  9
$DIMGAP
 40
0.625
  9
$DIMDSEP
 70
46
  9
$AUNITS
 70
0
  9
$PDMODE
 70
3
  9
$PDSIZE
 40
0.3125
  9
$HANDSEED
  5
240
  9
$TILEMODE
 70
1
  9
$MEASUREMENT
 70
1
  9
$INSUNITS
 70
4
  0
ENDSEC
  0
SECTION
  2
CLASSES
  0
CLASS
  1
ACDBDICTIONARYWDFLT
  2
AcDbDictionaryWithDefault
  3
AutoCAD 2000
 90
0
 91
1
280
0
281
0
  0
CLASS
  1
ACDBPLACEHOLDER
  2
AcDbPlaceHolder
  3
AutoCAD 2000
 90
0
 91
1
280
0
281
0
  0
CLASS
  1
LAYOUT
  2
AcDbLayout
  3
AutoCAD 2000
 90
0
 91
0
280
0
281
0
  0
ENDSEC
  0
SECTION
  2
TABLES
  0
TABLE
  2
VPORT
  5
8
100
AcDbSymbolTable
 70
2
  0
VPORT
  5
1F4
100
AcDbSymbolTableRecord
100
AcDbViewportTableRecord
  2
*ACTIVE
 70
0
 10
0.0
 20
0.0
 11
1.0
 21
1.0
 12
45.9608717144
 22
65.0018042818
 13
0.0
 23
0.0
 14
1.0
 24
1.0
 15
0.0
 25
0.0
 16
0.0
 26
0.0
 36
1.0
 17
0.0
 27
0.0
 37
0.0
 40
130.0036085635
 41
0.7070707071
 42
50.0
 43
0.0
 44
0.0
 50
0.0
 51
0.0
 71
0
 72
100
 73
1
 74
1
 75
0
 76
0
 77
0
 78
0
  0
ENDTAB
  0
TABLE
  2
LTYPE
  5
5
100
AcDbSymbolTable
 70
6
  0
LTYPE
  5
14
100
AcDbSymbolTableRecord
100
AcDbLinetypeTableRecord
  2
BYBLOCK
 70
0
  3

 72
65
 73
0
 40
0.0
  0
LTYPE
  5
15
100
AcDbSymbolTableRecord
100
AcDbLinetypeTableRecord
  2
BYLAYER
 70
0
  3

 72
65
 73
0
 40
0.0
  0
LTYPE
  5
16
100
AcDbSymbolTableRecord
100
AcDbLinetypeTableRecord
  2
CONTINUOUS
 70
64
  3
Solid line
 72
65
 73
0
 40
0.0
  0
LTYPE
  5
1F5
100
AcDbSymbolTableRecord
100
AcDbLinetypeTableRecord
  2
CENTER
 70
64
  3
____ _ ____ _ ____ _ ____ _ ____ _ ____ _ ____
 72
65
 73
4
 40
0.6
 49
0.375
 74
0
 49
-0.075
 74
0
 49
0.075
 74
0
 49
-0.075
 74
0
  0
LTYPE
  5
1F6
100
AcDbSymbolTableRecord
100
AcDbLinetypeTableRecord
  2
HIDDEN
 70
64
  3
- - - - - - - - - - - - - - - - - - - -
 72
65
 73
2
 40
0.2
 49
0.1
 74
0
 49
-0.1
 74
0
  0
LTYPE
  5
1F7
100
AcDbSymbolTableRecord
100
AcDbLinetypeTableRecord
  2
PHANTOM
 70
64
  3
_____ _ _ _____ _ _ _____ _ _ _____
 72
65
 73
6
 40
0.8
 49
0.45
 74
0
 49
-0.05
 74
0
 49
0.1
 74
0
 49
-0.05
 74
0
 49
0.1
 74
0
 49
-0.05
 74
0
  0
LTYPE
  5
1F8
100
AcDbSymbolTableRecord
100
AcDbLinetypeTableRecord
  2
DOT
 70
64
  3
. . . . . . . . . . . . . . . . . . . .
 72
65
 73
2
 40
0.2
 49
0.1
 74
0
 49
-0.1
 74
0
  0
LTYPE
  5
1F9
100
AcDbSymbolTableRecord
100
AcDbLinetypeTableRecord
  2
DASHED
 70
64
  3
- - - - - - - - - - - - - - - - - - - -
 72
65
 73
2
 40
0.2
 49
0.1
 74
0
 49
-0.1
 74
0
  0
ENDTAB
  0
TABLE
  2
LAYER
  5
2
100
AcDbSymbolTable
 70
36
  0
LAYER
  5
10
100
AcDbSymbolTableRecord
100
AcDbLayerTableRecord
  2
0
 70
0
 62
7
  6
CONTINUOUS
370
-3
390
F
  0
LAYER
  5
1FA
100
AcDbSymbolTableRecord
100
AcDbLayerTableRecord
  2
DEFAULT_1
 70
0
 62
7
  6
CENTER
370
-3
390
F
  0
LAYER
  5
1FB
100
AcDbSymbolTableRecord
100
AcDbLayerTableRecord
  2
DEFAULT_2
 70
0
 62
8
  6
HIDDEN
370
-3
390
F
  0
LAYER
  5
1FC
100
AcDbSymbolTableRecord
100
AcDbLayerTableRecord
  2
DEFAULT_3
 70
0
 62
7
  6
PHANTOM
370
-3
390
F
  0
LAYER
  5
1FD
100
AcDbSymbolTableRecord
100
AcDbLayerTableRecord
  2
00_COMPONENTS
 70
0
 62
7
  6
CONTINUOUS
370
-3
390
F
  0
LAYER
  5
1FE
100
AcDbSymbolTableRecord
100
AcDbLayerTableRecord
  2
01_1_DEFAULT_DATUMS
 70
0
 62
7
  6
CONTINUOUS
370
-3
390
F
  0
LAYER
  5
1FF
100
AcDbSymbolTableRecord
100
AcDbLayerTableRecord
  2
01_PLANES
 70
0
 62
7
  6
CONTINUOUS
370
-3
390
F
  0
LAYER
  5
200
100
AcDbSymbolTableRecord
100
AcDbLayerTableRecord
  2
02_COORD_SYS
 70
0
 62
7
  6
CONTINUOUS
370
-3
390
F
  0
LAYER
  5
201
100
AcDbSymbolTableRecord
100
AcDbLayerTableRecord
  2
03_AXES
 70
0
 62
7
  6
CONTINUOUS
370
-3
390
F
  0
LAYER
  5
202
100
AcDbSymbolTableRecord
100
AcDbLayerTableRecord
  2
04_POINTS
 70
0
 62
7
  6
CONTINUOUS
370
-3
390
F
  0
LAYER
  5
203
100
AcDbSymbolTableRecord
100
AcDbLayerTableRecord
  2
05_CURVES
 70
0
 62
7
  6
CONTINUOUS
370
-3
390
F
  0
LAYER
  5
204
100
AcDbSymbolTableRecord
100
AcDbLayerTableRecord
  2
06_SURFS
 70
0
 62
7
  6
CONTINUOUS
370
-3
390
F
  0
LAYER
  5
205
100
AcDbSymbolTableRecord
100
AcDbLayerTableRecord
  2
07_COSMETICS
 70
0
 62
7
  6
CONTINUOUS
370
-3
390
F
  0
LAYER
  5
206
100
AcDbSymbolTableRecord
100
AcDbLayerTableRecord
  2
10_NOTES
 70
0
 62
7
  6
CONTINUOUS
370
-3
390
F
  0
LAYER
  5
207
100
AcDbSymbolTableRecord
100
AcDbLayerTableRecord
  2
11_NOTES_PUB
 70
0
 62
7
  6
CONTINUOUS
370
-3
390
F
  0
LAYER
  5
208
100
AcDbSymbolTableRecord
100
AcDbLayerTableRecord
  2
13_REF_GTOL
 70
0
 62
7
  6
CONTINUOUS
370
-3
390
F
  0
LAYER
  5
209
100
AcDbSymbolTableRecord
100
AcDbLayerTableRecord
  2
16_MISC
 70
0
 62
7
  6
CONTINUOUS
370
-3
390
F
  0
LAYER
  5
20A
100
AcDbSymbolTableRecord
100
AcDbLayerTableRecord
  2
17_NO_PRINT
 70
0
 62
7
  6
CONTINUOUS
370
-3
390
F
  0
LAYER
  5
20B
100
AcDbSymbolTableRecord
100
AcDbLayerTableRecord
  2
18_DATUM_CAMS_JOINTS
 70
0
 62
7
  6
CONTINUOUS
370
-3
390
F
  0
LAYER
  5
20C
100
AcDbSymbolTableRecord
100
AcDbLayerTableRecord
  2
19_DATUM_FUNCTIONAL
 70
0
 62
7
  6
CONTINUOUS
370
-3
390
F
  0
LAYER
  5
20D
100
AcDbSymbolTableRecord
100
AcDbLayerTableRecord
  2
20_DATUM_KINEMATIC_SCHEME
 70
0
 62
7
  6
CONTINUOUS
370
-3
390
F
  0
LAYER
  5
20E
100
AcDbSymbolTableRecord
100
AcDbLayerTableRecord
  2
SHELL32
 70
0
 62
7
  6
CONTINUOUS
370
-3
390
F
  0
ENDTAB
  0
TABLE
  2
STYLE
  5
3
100
AcDbSymbolTable
 70
1
  0
STYLE
  5
11
100
AcDbSymbolTableRecord
100
AcDbTextStyleTableRecord
  2
STANDARD
 70
0
 40
0.0
 41
0.8
 50
0.0
 71
0
 42
0.2
  3
txt
  4

  0
STYLE
  5
20F
100
AcDbSymbolTableRecord
100
AcDbTextStyleTableRecord
  2
TEXTSTYLE_1
 70
0
 40
0.0
 41
0.8
 50
0.0
 71
0
 42
0.2
  3
gdt
  4

  0
ENDTAB
  0
TABLE
  2
VIEW
  5
6
100
AcDbSymbolTable
 70
0
  0
ENDTAB
  0
TABLE
  2
UCS
  5
7
100
AcDbSymbolTable
 70
0
  0
ENDTAB
  0
TABLE
  2
APPID
  5
9
100
AcDbSymbolTable
 70
1
  0
APPID
  5
210
100
AcDbSymbolTableRecord
100
AcDbRegAppTableRecord
  2
ACAD
 70
0
  0
ENDTAB
  0
TABLE
  2
BLOCK_RECORD
  5
1
100
AcDbSymbolTable
 70
0
  0
BLOCK_RECORD
  5
211
100
AcDbSymbolTableRecord
100
AcDbBlockTableRecord
  2
*Model_Space
  0
BLOCK_RECORD
  5
212
100
AcDbSymbolTableRecord
100
AcDbBlockTableRecord
  2
*Paper_Space
  0
BLOCK_RECORD
  5
213
100
AcDbSymbolTableRecord
100
AcDbBlockTableRecord
  2
_FILLED
  0
ENDTAB
  0
TABLE
  2
DIMSTYLE
  5
A
100
AcDbSymbolTable
 70
1
100
AcDbDimStyleTable
 71
0
  0
DIMSTYLE
105
214
100
AcDbSymbolTableRecord
100
AcDbDimStyleTableRecord
  2
STANDARD
 70
0
  3

  4

 40
1.0
 41
1.0943064694
 42
1.0
 43
0.38
 44
1.0
 45
0.0
 46
0.0
 47
0.01
 48
0.01
140
1.5320290571
141
0.09
142
0.0
143
25.4
144
1.0
145
0.0
146
1.0
147
0.625
 71
1
 72
0
 73
0
 74
0
 75
0
 76
0
 77
1
 78
8
 79
2
170
0
171
1
172
0
173
0
174
0
175
0
176
0
177
0
178
0
270
2
179
2
271
2
272
2
273
2
274
2
275
0
280
0
281
0
282
0
283
1
284
8
285
0
286
0
287
3
288
0
340
11
278
46
341
213
342
213
343
213
344
213
  0
ENDTAB
  0
ENDSEC
  0
SECTION
  2
BLOCKS
  0
BLOCK
  5
20
100
AcDbEntity
  8
0
100
AcDbBlockBegin
  2
*Model_Space
 70
0
 10
0.0
 20
0.0
 30
0.0
  3
*Model_Space
  1

  0
ENDBLK
  5
21
100
AcDbEntity
  8
0
100
AcDbBlockEnd
  0
BLOCK
  5
1C
100
AcDbEntity
  8
0
100
AcDbBlockBegin
  2
*Paper_Space
 70
0
 10
0.0
 20
0.0
 30
0.0
  3
*Paper_Space
  1

  0
ENDBLK
  5
1D
100
AcDbEntity
  8
0
100
AcDbBlockEnd
  0
BLOCK
  5
215
100
AcDbEntity
  8
0
100
AcDbBlockBegin
  2
_FILLED
 70
64
 10
0.0
 20
0.0
  3
_FILLED
  1

  0
SOLID
  5
216
100
AcDbEntity
  8
0
  6
BYBLOCK
 62
0
100
AcDbTrace
 10
0.0
 20
0.0
 11
-1.0
 21
0.25
 12
-1.0
 22
-0.25
 13
-1.0
 23
-0.25
  0
ENDBLK
  5
217
100
AcDbEntity
  8
0
  6
BYBLOCK
 62
0
100
AcDbBlockEnd
  0
ENDSEC
  0
SECTION
  2
ENTITIES
  0
LINE
  5
218
100
AcDbEntity
  8
0
100
AcDbLine
 62
7
  6
CONTINUOUS
 10
10.9270124716
 20
37.8857812169
 11
14.5640313429
 21
35.7859948961
  0
LINE
  5
219
100
AcDbEntity
  8
0
100
AcDbLine
 62
7
  6
CONTINUOUS
 10
27.5854569315
 20
28.2682414016
 11
31.2224758028
 21
26.1684550807
  0
LINE
  5
21A
100
AcDbEntity
  8
0
100
AcDbLine
 62
7
  6
CONTINUOUS
 10
30.9594431537
 20
26.7498434853
 11
27.3224242824
 21
28.8496298062
  0
LINE
  5
21B
100
AcDbEntity
  8
0
100
AcDbLine
 62
7
  6
CONTINUOUS
 10
14.3009986938
 20
36.3673833007
 11
10.6639798225
 21
38.4671696216
  0
LINE
  5
21C
100
AcDbEntity
  8
0
100
AcDbLine
 62
7
  6
CONTINUOUS
 10
10.6639798225
 20
38.4671696373
 11
10.6639798225
 21
74.3459188351
  0
LINE
  5
21D
100
AcDbEntity
  8
0
100
AcDbLine
 62
7
  6
CONTINUOUS
 10
14.3009986938
 20
65.6096008678
 11
14.3009986938
 21
36.3673833164
  0
LINE
  5
21E
100
AcDbEntity
  8
0
100
AcDbLine
 62
7
  6
CONTINUOUS
 10
16.3215647334
 20
66.1021858233
 11
16.3215647334
 21
64.4430529117
  0
LINE
  5
21F
100
AcDbEntity
  8
0
100
AcDbLine
 62
7
  6
CONTINUOUS
 10
10.6639798225
 20
74.3459188351
 11
62.3900397224
 21
104.2097951791
  0
LINE
  5
220
100
AcDbEntity
  8
0
100
AcDbLine
 62
7
  6
CONTINUOUS
 10
24.67315133
 20
52.9326849832
 11
24.67315133
 21
61.2805041347
  0
LINE
  5
221
100
AcDbEntity
  8
0
100
AcDbLine
 62
7
  6
CONTINUOUS
 10
25.3018582428
 20
59.2583953293
 11
25.3018582428
 21
60.9175282409
  0
LINE
  5
222
100
AcDbEntity
  8
0
100
AcDbLine
 62
7
  6
CONTINUOUS
 10
27.3224242824
 20
51.4031611335
 11
24.67315133
 21
52.9326849832
  0
LINE
  5
223
100
AcDbEntity
  8
0
100
AcDbLine
 62
7
  6
CONTINUOUS
 10
27.3224242824
 20
28.8496298219
 11
27.3224242824
 21
58.0918473733
  0
LINE
  5
224
100
AcDbEntity
  8
0
100
AcDbLine
 62
7
  6
CONTINUOUS
 10
30.9594431537
 20
62.6285926988
 11
30.9594431537
 21
26.749843501
  0
LINE
  5
225
100
AcDbEntity
  8
0
100
AcDbLine
 62
7
  6
CONTINUOUS
 10
16.3215647334
 20
64.4430529117
 11
17.7584365244
 21
65.2726262752
  0
LINE
  5
226
100
AcDbEntity
  8
0
100
AcDbLine
 62
7
  6
CONTINUOUS
 10
27.3224242824
 20
58.0918473733
 11
25.3018582428
 21
59.2583953293
  0
LINE
  5
227
100
AcDbEntity
  8
0
100
AcDbLine
 62
7
  6
CONTINUOUS
 10
16.3215647334
 20
64.4430529117
 11
14.3009986938
 21
65.6096008678
  0
LINE
  5
228
100
AcDbEntity
  8
0
100
AcDbLine
 62
7
  6
CONTINUOUS
 10
25.3018582428
 20
60.9175282409
 11
16.3215647334
 21
66.1021858233
  0
LINE
  5
229
100
AcDbEntity
  8
0
100
AcDbLine
 62
7
  6
CONTINUOUS
 10
30.9594431537
 20
62.6285926988
 11
10.6639798225
 21
74.3459188351
  0
LINE
  5
22A
100
AcDbEntity
  8
0
100
AcDbLine
 62
7
  6
CONTINUOUS
 10
82.6855030535
 20
92.4924690428
 11
30.9594431537
 21
62.6285926988
  0
LINE
  5
22B
100
AcDbEntity
  8
0
100
AcDbLine
 62
7
  6
CONTINUOUS
 10
15.1990205825
 20
35.8488953152
 11
27.3224242824
 21
42.848303924
  0
LINE
  5
22C
100
AcDbEntity
  8
0
100
AcDbLine
 62
7
  6
CONTINUOUS
 10
31.8574650405
 20
26.2313554988
 11
81.7874811667
 21
55.0582916763
  0
LINE
  5
22D
100
AcDbEntity
  8
0
100
AcDbLine
 62
7
  6
CONTINUOUS
 10
82.6855030535
 20
56.613719845
 11
82.6855030535
 21
92.4924690428
  0
LINE
  5
22E
100
AcDbEntity
  8
0
100
AcDbLine
 62
7
  6
CONTINUOUS
 10
82.6855030535
 20
92.4924690428
 11
62.3900397224
 21
104.2097951791
  0
SPLINE
  5
22F
100
AcDbEntity
  8
0
100
AcDbSpline
 62
7
  6
CONTINUOUS
 70
0
 71
3
 72
11
 73
7
 74
0
 42
0.0000001
 43
0.0000001
 44
0.0000000001
 40
0.0
 40
0.0
 40
0.0
 40
0.0
 40
0.2177839232
 40
0.4509111712
 40
0.7102971902
 40
1.0
 40
1.0
 40
1.0
 40
1.0
 10
14.5640345114
 20
35.7860003842
 30
0.0
 10
14.6059261704
 20
35.7618147919
 30
0.0
 10
14.7021786957
 20
35.72688481
 30
0.0
 10
14.8620521706
 20
35.7228382125
 30
0.0
 10
15.0324396336
 20
35.7639852596
 30
0.0
 10
15.1432952655
 20
35.8167224807
 30
0.0
 10
15.1990205825
 20
35.8488953152
 30
0.0
  0
SPLINE
  5
230
100
AcDbEntity
  8
0
100
AcDbSpline
 62
7
  6
CONTINUOUS
 70
0
 71
3
 72
11
 73
7
 74
0
 42
0.0000001
 43
0.0000001
 44
0.0000000001
 40
0.0
 40
0.0
 40
0.0
 40
0.0
 40
0.2177825098
 40
0.4509091636
 40
0.7102957098
 40
1.0
 40
1.0
 40
1.0
 40
1.0
 10
10.9270156401
 20
37.8857867051
 30
0.0
 10
10.8851226049
 20
37.9099731179
 30
0.0
 10
10.8067423495
 20
37.9758666291
 30
0.0
 10
10.7232973899
 20
38.1123026629
 30
0.0
 10
10.6737360202
 20
38.2804430712
 30
0.0
 10
10.6639798226
 20
38.4028208022
 30
0.0
 10
10.6639798225
 20
38.4671696373
 30
0.0
  0
SPLINE
  5
231
100
AcDbEntity
  8
0
100
AcDbSpline
 62
7
  6
CONTINUOUS
 70
0
 71
3
 72
11
 73
7
 74
0
 42
0.0000001
 43
0.0000001
 44
0.0000000001
 40
0.0
 40
0.0
 40
0.0
 40
0.0
 40
0.2177839233
 40
0.4509111713
 40
0.7102971903
 40
1.0
 40
1.0
 40
1.0
 40
1.0
 10
31.2224789713
 20
26.1684605689
 30
0.0
 10
31.2643706302
 20
26.1442749766
 30
0.0
 10
31.3606231552
 20
26.1093449947
 30
0.0
 10
31.5204966295
 20
26.1052983971
 30
0.0
 10
31.6908840921
 20
26.1464454437
 30
0.0
 10
31.8017397238
 20
26.1991826644
 30
0.0
 10
31.8574650405
 20
26.2313554988
 30
0.0
  0
SPLINE
  5
232
100
AcDbEntity
  8
0
100
AcDbSpline
 62
7
  6
CONTINUOUS
 70
0
 71
3
 72
11
 73
7
 74
0
 42
0.0000001
 43
0.0000001
 44
0.0000000001
 40
0.0
 40
0.0
 40
0.0
 40
0.0
 40
0.2177825098
 40
0.4509091636
 40
0.7102957098
 40
1.0
 40
1.0
 40
1.0
 40
1.0
 10
27.5854601
 20
28.2682468897
 30
0.0
 10
27.5435670648
 20
28.2924333026
 30
0.0
 10
27.4651868094
 20
28.3583268137
 30
0.0
 10
27.3817418498
 20
28.4947628476
 30
0.0
 10
27.3321804801
 20
28.6629032558
 30
0.0
 10
27.3224242825
 20
28.7852809869
 30
0.0
 10
27.3224242824
 20
28.8496298219
 30
0.0
  0
SPLINE
  5
233
100
AcDbEntity
  8
0
100
AcDbSpline
 62
7
  6
CONTINUOUS
 70
0
 71
3
 72
12
 73
8
 74
0
 42
0.0000001
 43
0.0000001
 44
0.0000000001
 40
0.0
 40
0.0
 40
0.0
 40
0.0
 40
0.1081617551
 40
0.2183714185
 40
0.4513373914
 40
0.7104779274
 40
1.0
 40
1.0
 40
1.0
 40
1.0
 10
69.4837183089
 20
95.0847706414
 30
0.0
 10
69.4837268682
 20
95.0354841511
 30
0.0
 10
69.4751413817
 20
94.935770332
 30
0.0
 10
69.4233182737
 20
94.7359005227
 30
0.0
 10
69.2904118644
 20
94.4907370272
 30
0.0
 10
69.042711042
 20
94.2306791885
 30
0.0
 10
68.8354466298
 20
94.0878793652
 30
0.0
 10
68.7211937558
 20
94.0219158314
 30
0.0
  0
SPLINE
  5
234
100
AcDbEntity
  8
0
100
AcDbSpline
 62
7
  6
CONTINUOUS
 70
0
 71
3
 72
12
 73
8
 74
0
 42
0.0000001
 43
0.0000001
 44
0.0000000001
 40
0.0
 40
0.0
 40
0.0
 40
0.0
 40
0.1081617551
 40
0.2183714185
 40
0.4513373914
 40
0.7104779274
 40
1.0
 40
1.0
 40
1.0
 40
1.0
 10
29.0727340121
 20
71.7536172477
 30
0.0
 10
29.0727425714
 20
71.7043307573
 30
0.0
 10
29.064157085
 20
71.6046169382
 30
0.0
 10
29.012333977
 20
71.4047471289
 30
0.0
 10
28.8794275676
 20
71.1595836334
 30
0.0
 10
28.6317267452
 20
70.8995257948
 30
0.0
 10
28.424462333
 20
70.7567259714
 30
0.0
 10
28.3102094591
 20
70.6907624377
 30
0.0
  0
SPLINE
  5
235
100
AcDbEntity
  8
0
100
AcDbSpline
 62
7
  6
CONTINUOUS
 70
0
 71
3
 72
13
 73
9
 74
0
 42
0.0000001
 43
0.0000001
 44
0.0000000001
 40
0.0
 40
0.0
 40
0.0
 40
0.0
 40
0.1142247162
 40
0.2375579182
 40
0.4999983243
 40
0.7624396434
 40
0.8857739388
 40
1.0
 40
1.0
 40
1.0
 40
1.0
 10
81.7874811667
 20
55.0582916763
 30
0.0
 10
81.8489408381
 20
55.0937752225
 30
0.0
 10
81.9703782478
 20
55.1789211639
 30
0.0
 10
82.1977455287
 20
55.3916856716
 30
0.0
 10
82.4378837723
 20
55.7197297375
 30
0.0
 10
82.6019074975
 20
56.0917189868
 30
0.0
 10
82.6724830215
 20
56.3950092681
 30
0.0
 10
82.6855030534
 20
56.5427515995
 30
0.0
 10
82.6855030535
 20
56.613719845
 30
0.0
  0
SPLINE
  5
236
100
AcDbEntity
  8
0
100
AcDbSpline
 62
7
  6
CONTINUOUS
 70
0
 71
3
 72
18
 73
14
 74
0
 42
0.0000001
 43
0.0000001
 44
0.0000000001
 40
0.0
 40
0.0
 40
0.0
 40
0.0
 40
0.1286608479
 40
0.2702086249
 40
0.4173256739
 40
0.5616310892
 40
0.6952667061
 40
0.7562724886
 40
0.8127631876
 40
0.8647153239
 40
0.9125346469
 40
0.957151962
 40
1.0
 40
1.0
 40
1.0
 40
1.0
 10
28.3102094591
 20
70.6907624377
 30
0.0
 10
28.1174793547
 20
70.5794903243
 30
0.0
 10
27.681119137
 20
70.3994478638
 30
0.0
 10
26.9699752513
 20
70.2571838255
 30
0.0
 10
26.2176793405
 20
70.2363835628
 30
0.0
 10
25.4862751581
 20
70.3390730762
 30
0.0
 10
24.9257499811
 20
70.5262858423
 30
0.0
 10
24.5432149764
 20
70.7342540517
 30
0.0
 10
24.3057577639
 20
70.9077996197
 30
0.0
 10
24.1140921538
 20
71.1002119477
 30
0.0
 10
23.9727464005
 20
71.3082079029
 30
0.0
 10
23.8855644836
 20
71.5275653802
 30
0.0
 10
23.8657774382
 20
71.6795028016
 30
0.0
 10
23.8657645671
 20
71.7536172365
 30
0.0
  0
SPLINE
  5
237
100
AcDbEntity
  8
0
100
AcDbSpline
 62
7
  6
CONTINUOUS
 70
0
 71
3
 72
18
 73
14
 74
0
 42
0.0000001
 43
0.0000001
 44
0.0000000001
 40
0.0
 40
0.0
 40
0.0
 40
0.0
 40
0.1286608479
 40
0.2702086249
 40
0.4173256739
 40
0.5616310892
 40
0.6952667061
 40
0.7562724886
 40
0.8127631876
 40
0.8647153239
 40
0.9125346469
 40
0.957151962
 40
1.0
 40
1.0
 40
1.0
 40
1.0
 10
68.7211937558
 20
94.0219158314
 30
0.0
 10
68.5284636515
 20
93.910643718
 30
0.0
 10
68.0921034338
 20
93.7306012576
 30
0.0
 10
67.380959548
 20
93.5883372193
 30
0.0
 10
66.6286636373
 20
93.5675369566
 30
0.0
 10
65.8972594549
 20
93.67022647
 30
0.0
 10
65.3367342779
 20
93.857439236
 30
0.0
 10
64.9541992731
 20
94.0654074455
 30
0.0
 10
64.7167420606
 20
94.2389530135
 30
0.0
 10
64.5250764506
 20
94.4313653414
 30
0.0
 10
64.3837306973
 20
94.6393612966
 30
0.0
 10
64.2965487803
 20
94.858718774
 30
0.0
 10
64.2767617349
 20
95.0106561954
 30
0.0
 10
64.2767488639
 20
95.0847706302
 30
0.0
  0
SPLINE
  5
238
100
AcDbEntity
  8
0
100
AcDbSpline
 62
7
  6
CONTINUOUS
 70
0
 71
3
 72
11
 73
7
 74
0
 42
0.0000001
 43
0.0000001
 44
0.0000000001
 40
0.0
 40
0.0
 40
0.0
 40
0.0
 40
0.2897042894
 40
0.549090765
 40
0.7822174453
 40
1.0
 40
1.0
 40
1.0
 40
1.0
 10
30.9594431537
 20
26.749843501
 30
0.0
 10
30.9594431538
 20
26.685494666
 30
0.0
 10
30.9691993295
 20
26.5631169487
 30
0.0
 10
31.0187607118
 20
26.3949765503
 30
0.0
 10
31.1022056685
 20
26.2585405245
 30
0.0
 10
31.1805859161
 20
26.1926469672
 30
0.0
 10
31.2224789713
 20
26.1684605689
 30
0.0
  0
SPLINE
  5
239
100
AcDbEntity
  8
0
100
AcDbSpline
 62
7
  6
CONTINUOUS
 70
0
 71
3
 72
12
 73
8
 74
0
 42
0.0000001
 43
0.0000001
 44
0.0000000001
 40
0.0
 40
0.0
 40
0.0
 40
0.0
 40
0.1081617551
 40
0.2183714185
 40
0.4513373914
 40
0.7104779274
 40
1.0
 40
1.0
 40
1.0
 40
1.0
 10
64.2767488639
 20
95.0847706302
 30
0.0
 10
64.2767403046
 20
95.1340571206
 30
0.0
 10
64.2853257911
 20
95.2337709397
 30
0.0
 10
64.3371488991
 20
95.433640749
 30
0.0
 10
64.4700553084
 20
95.6788042445
 30
0.0
 10
64.7177561309
 20
95.9388620831
 30
0.0
 10
64.9250205431
 20
96.0816619064
 30
0.0
 10
65.039273417
 20
96.1476254402
 30
0.0
  0
SPLINE
  5
23A
100
AcDbEntity
  8
0
100
AcDbSpline
 62
7
  6
CONTINUOUS
 70
0
 71
3
 72
18
 73
14
 74
0
 42
0.0000001
 43
0.0000001
 44
0.0000000001
 40
0.0
 40
0.0
 40
0.0
 40
0.0
 40
0.1286608479
 40
0.2702086249
 40
0.4173256739
 40
0.5616310892
 40
0.6952667061
 40
0.7562724886
 40
0.8127631876
 40
0.8647153239
 40
0.9125346469
 40
0.957151962
 40
1.0
 40
1.0
 40
1.0
 40
1.0
 10
24.6282891202
 20
72.8164720465
 30
0.0
 10
24.8210192246
 20
72.9277441599
 30
0.0
 10
25.2573794422
 20
73.1077866203
 30
0.0
 10
25.968523328
 20
73.2500506586
 30
0.0
 10
26.7208192388
 20
73.2708509213
 30
0.0
 10
27.4522234212
 20
73.1681614079
 30
0.0
 10
28.0127485982
 20
72.9809486419
 30
0.0
 10
28.3952836029
 20
72.7729804324
 30
0.0
 10
28.6327408154
 20
72.5994348644
 30
0.0
 10
28.8244064255
 20
72.4070225365
 30
0.0
 10
28.9657521788
 20
72.1990265813
 30
0.0
 10
29.0529340957
 20
71.9796691039
 30
0.0
 10
29.0727211411
 20
71.8277316825
 30
0.0
 10
29.0727340121
 20
71.7536172477
 30
0.0
  0
SPLINE
  5
23B
100
AcDbEntity
  8
0
100
AcDbSpline
 62
7
  6
CONTINUOUS
 70
0
 71
3
 72
18
 73
14
 74
0
 42
0.0000001
 43
0.0000001
 44
0.0000000001
 40
0.0
 40
0.0
 40
0.0
 40
0.0
 40
0.1286608479
 40
0.2702086249
 40
0.4173256739
 40
0.5616310892
 40
0.6952667061
 40
0.7562724886
 40
0.8127631876
 40
0.8647153239
 40
0.9125346469
 40
0.957151962
 40
1.0
 40
1.0
 40
1.0
 40
1.0
 10
65.039273417
 20
96.1476254402
 30
0.0
 10
65.2320035213
 20
96.2588975536
 30
0.0
 10
65.668363739
 20
96.4389400141
 30
0.0
 10
66.3795076248
 20
96.5812040524
 30
0.0
 10
67.1318035356
 20
96.602004315
 30
0.0
 10
67.863207718
 20
96.4993148017
 30
0.0
 10
68.4237328949
 20
96.3121020356
 30
0.0
 10
68.8062678997
 20
96.1041338262
 30
0.0
 10
69.0437251122
 20
95.9305882582
 30
0.0
 10
69.2353907223
 20
95.7381759302
 30
0.0
 10
69.3767364755
 20
95.530179975
 30
0.0
 10
69.4639183925
 20
95.3108224977
 30
0.0
 10
69.4837054379
 20
95.1588850763
 30
0.0
 10
69.4837183089
 20
95.0847706414
 30
0.0
  0
SPLINE
  5
23C
100
AcDbEntity
  8
0
100
AcDbSpline
 62
7
  6
CONTINUOUS
 70
0
 71
3
 72
12
 73
8
 74
0
 42
0.0000001
 43
0.0000001
 44
0.0000000001
 40
0.0
 40
0.0
 40
0.0
 40
0.0
 40
0.1081617551
 40
0.2183714185
 40
0.4513373914
 40
0.7104779274
 40
1.0
 40
1.0
 40
1.0
 40
1.0
 10
23.8657645671
 20
71.7536172365
 30
0.0
 10
23.8657560079
 20
71.8029037268
 30
0.0
 10
23.8743414943
 20
71.9026175459
 30
0.0
 10
23.9261646023
 20
72.1024873552
 30
0.0
 10
24.0590710116
 20
72.3476508507
 30
0.0
 10
24.3067718341
 20
72.6077086894
 30
0.0
 10
24.5140362463
 20
72.7505085127
 30
0.0
 10
24.6282891202
 20
72.8164720465
 30
0.0
  0
SPLINE
  5
23D
100
AcDbEntity
  8
0
100
AcDbSpline
 62
7
  6
CONTINUOUS
 70
0
 71
3
 72
11
 73
7
 74
0
 42
0.0000001
 43
0.0000001
 44
0.0000000001
 40
0.0
 40
0.0
 40
0.0
 40
0.0
 40
0.2897042894
 40
0.549090765
 40
0.7822174453
 40
1.0
 40
1.0
 40
1.0
 40
1.0
 10
14.3009986938
 20
36.3673833164
 30
0.0
 10
14.3009986939
 20
36.3030344814
 30
0.0
 10
14.3107548696
 20
36.180656764
 30
0.0
 10
14.3603162519
 20
36.0125163656
 30
0.0
 10
14.4437612086
 20
35.8760803399
 30
0.0
 10
14.5221414562
 20
35.8101867826
 30
0.0
 10
14.5640345114
 20
35.7860003842
 30
0.0
  0
ENDSEC
  0
SECTION
  2
OBJECTS
  0
DICTIONARY
  5
C
100
AcDbDictionary
280
0
281
1
  3
ACAD_GROUP
350
D
  3
ACAD_MLINESTYLE
350
17
  3
ACAD_LAYOUT
350
1A
  3
ACAD_PLOTSETTINGS
350
19
  3
ACAD_PLOTSTYLENAME
350
E
  0
DICTIONARY
  5
D
102
{ACAD_REACTORS
330
C
102
}
100
AcDbDictionary
280
0
281
1
  0
ACDBDICTIONARYWDFLT
  5
E
102
{ACAD_REACTORS
330
C
102
}
100
AcDbDictionary
281
1
  3
Normal
350
F
100
AcDbDictionaryWithDefault
340
F
  0
DICTIONARY
  5
17
102
{ACAD_REACTORS
330
C
102
}
100
AcDbDictionary
280
0
281
1
  3
Standard
350
18
  0
DICTIONARY
  5
19
102
{ACAD_REACTORS
330
C
102
}
100
AcDbDictionary
281
1
  0
DICTIONARY
  5
1A
102
{ACAD_REACTORS
330
C
102
}
100
AcDbDictionary
281
1
  3
Model
350
23E
  3
Layout1
350
23F
  0
ACDBPLACEHOLDER
  5
F
102
{ACAD_REACTORS
330
E
102
}
  0
MLINESTYLE
  5
18
102
{ACAD_REACTORS
330
17
102
}
100
AcDbMlineStyle
  2
STANDARD
 70
0
  3

 62
256
 51
90.0
 52
90.0
 71
2
 49
0.5
 62
256
  6
BYLAYER
 49
-0.5
 62
256
  6
BYLAYER
  0
LAYOUT
  5
23E
102
{ACAD_REACTORS
330
1A
102
}
100
AcDbPlotSettings
  1

  2
none_device
  4

  6

 40
0.0
 41
0.0
 42
0.0
 43
0.0
 44
210.0
 45
297.0
 46
0.0
 47
0.0
 48
0.0
 49
0.0
140
0.0
141
0.0
142
1.0
143
1.0
 70
1024
 72
1
 73
0
 74
0
  7

 75
0
147
1.0
148
0.0
149
0.0
100
AcDbLayout
  1
Model
 70
0
 71
0
 10
0.0
 20
0.0
 11
210.0
 21
297.0
 12
0.0
 22
0.0
 32
0.0
 14
0.0
 24
0.0
 34
0.0
 15
0.0
 25
0.0
 35
0.0
146
0.0
 13
0.0
 23
0.0
 33
0.0
 16
1.0
 26
0.0
 36
0.0
 17
0.0
 27
1.0
 37
0.0
 76
0
330
211
345
0
346
0
  0
LAYOUT
  5
23F
102
{ACAD_REACTORS
330
1A
102
}
100
AcDbPlotSettings
  1

  2
none_device
  4

  6

 40
0.0
 41
0.0
 42
0.0
 43
0.0
 44
210.0
 45
297.0
 46
0.0
 47
0.0
 48
0.0
 49
0.0
140
0.0
141
0.0
142
1.0
143
1.0
 70
0
 72
1
 73
0
 74
0
  7

 75
0
147
1.0
148
0.0
149
0.0
100
AcDbLayout
  1
Layout1
 70
0
 71
1
 10
0.0
 20
0.0
 11
210.0
 21
297.0
 12
0.0
 22
0.0
 32
0.0
 14
0.0
 24
0.0
 34
0.0
 15
0.0
 25
0.0
 35
0.0
146
0.0
 13
0.0
 23
0.0
 33
0.0
 16
1.0
 26
0.0
 36
0.0
 17
0.0
 27
1.0
 37
0.0
 76
0
330
212
345
0
346
0
  0
ENDSEC
  0
EOF
