999
DXF file: C:\Users\sesa63760\Dev\_Creo\CAD\MCADUE0001284_3D-CAD\drw0001_1.dxf
999
Pro/ENGINEER 2019471 by Parametric Technology Corporation
  0
SECTION
  2
HEADER
  9
$ACADVER
  1
AC1024
  9
$DWGCODEPAGE
  3
ANSI_1252
  9
$EXTMAX
 10
1033.497644735
 20
1461.6609546966
 30
0.0
  9
$EXTMIN
 10
0.0
 20
0.0
 30
0.0
  9
$LIMMIN
 10
0.0
 20
0.0
  9
$LIMMAX
 10
1033.497644735
 20
1461.6609546966
  9
$VIEWCTR
 10
516.7488223675
 20
730.8304773483
  9
$VIEWSIZE
 40
1461.6609546966
  9
$CLAYER
  8
0
  9
$LTSCALE
 40
95.2786400099
  9
$CELTYPE
  6
BYLAYER
  9
$DIMSCALE
 40
1.0
  9
$DIMASZ
 40
12.3035433897
  9
$DIMEXO
 40
1.0
  9
$DIMDLI
 40
65.8288785523
  9
$DIMEXE
 40
1.0
  9
$DIMCEN
 40
15.5910501834
  9
$DIMLFAC
 40
1.0
  9
$DIMBLK
  1
_FILLED
  9
$DIMALT
 70
0
  9
$DIMALTF
 40
0.0393700787
  9
$DIMTXT
 40
17.2249607456
  9
$DIMTOL
 70
1
  9
$DIMLIM
 70
0
  9
$DIMTFAC
 40
1.0
  9
$DIMTP
 40
0.01
  9
$DIMTM
 40
0.01
  9
$DIMGAP
 40
0.625
  9
$DIMDSEP
 70
46
  9
$AUNITS
 70
0
  9
$PDMODE
 70
3
  9
$PDSIZE
 40
0.3125
  9
$HANDSEED
  5
407
  9
$TILEMODE
 70
1
  9
$MEASUREMENT
 70
1
  9
$INSUNITS
 70
4
  0
ENDSEC
  0
SECTION
  2
CLASSES
  0
CLASS
  1
ACDBDICTIONARYWDFLT
  2
AcDbDictionaryWithDefault
  3
AutoCAD 2000
 90
0
 91
1
280
0
281
0
  0
CLASS
  1
ACDBPLACEHOLDER
  2
AcDbPlaceHolder
  3
AutoCAD 2000
 90
0
 91
1
280
0
281
0
  0
CLASS
  1
LAYOUT
  2
AcDbLayout
  3
AutoCAD 2000
 90
0
 91
0
280
0
281
0
  0
ENDSEC
  0
SECTION
  2
TABLES
  0
TABLE
  2
VPORT
  5
8
100
AcDbSymbolTable
 70
2
  0
VPORT
  5
1F4
100
AcDbSymbolTableRecord
100
AcDbViewportTableRecord
  2
*ACTIVE
 70
0
 10
0.0
 20
0.0
 11
1.0
 21
1.0
 12
516.7488223675
 22
730.8304773483
 13
0.0
 23
0.0
 14
1.0
 24
1.0
 15
0.0
 25
0.0
 16
0.0
 26
0.0
 36
1.0
 17
0.0
 27
0.0
 37
0.0
 40
1461.6609546966
 41
0.7070707071
 42
50.0
 43
0.0
 44
0.0
 50
0.0
 51
0.0
 71
0
 72
100
 73
1
 74
1
 75
0
 76
0
 77
0
 78
0
  0
ENDTAB
  0
TABLE
  2
LTYPE
  5
5
100
AcDbSymbolTable
 70
6
  0
LTYPE
  5
14
100
AcDbSymbolTableRecord
100
AcDbLinetypeTableRecord
  2
BYBLOCK
 70
0
  3

 72
65
 73
0
 40
0.0
  0
LTYPE
  5
15
100
AcDbSymbolTableRecord
100
AcDbLinetypeTableRecord
  2
BYLAYER
 70
0
  3

 72
65
 73
0
 40
0.0
  0
LTYPE
  5
16
100
AcDbSymbolTableRecord
100
AcDbLinetypeTableRecord
  2
CONTINUOUS
 70
64
  3
Solid line
 72
65
 73
0
 40
0.0
  0
LTYPE
  5
1F5
100
AcDbSymbolTableRecord
100
AcDbLinetypeTableRecord
  2
CENTER
 70
64
  3
____ _ ____ _ ____ _ ____ _ ____ _ ____ _ ____
 72
65
 73
4
 40
0.6
 49
0.375
 74
0
 49
-0.075
 74
0
 49
0.075
 74
0
 49
-0.075
 74
0
  0
LTYPE
  5
1F6
100
AcDbSymbolTableRecord
100
AcDbLinetypeTableRecord
  2
HIDDEN
 70
64
  3
- - - - - - - - - - - - - - - - - - - -
 72
65
 73
2
 40
0.2
 49
0.1
 74
0
 49
-0.1
 74
0
  0
LTYPE
  5
1F7
100
AcDbSymbolTableRecord
100
AcDbLinetypeTableRecord
  2
PHANTOM
 70
64
  3
_____ _ _ _____ _ _ _____ _ _ _____
 72
65
 73
6
 40
0.8
 49
0.45
 74
0
 49
-0.05
 74
0
 49
0.1
 74
0
 49
-0.05
 74
0
 49
0.1
 74
0
 49
-0.05
 74
0
  0
LTYPE
  5
1F8
100
AcDbSymbolTableRecord
100
AcDbLinetypeTableRecord
  2
DOT
 70
64
  3
. . . . . . . . . . . . . . . . . . . .
 72
65
 73
2
 40
0.2
 49
0.1
 74
0
 49
-0.1
 74
0
  0
LTYPE
  5
1F9
100
AcDbSymbolTableRecord
100
AcDbLinetypeTableRecord
  2
DASHED
 70
64
  3
- - - - - - - - - - - - - - - - - - - -
 72
65
 73
2
 40
0.2
 49
0.1
 74
0
 49
-0.1
 74
0
  0
ENDTAB
  0
TABLE
  2
LAYER
  5
2
100
AcDbSymbolTable
 70
36
  0
LAYER
  5
10
100
AcDbSymbolTableRecord
100
AcDbLayerTableRecord
  2
0
 70
0
 62
7
  6
CONTINUOUS
370
-3
390
F
  0
LAYER
  5
1FA
100
AcDbSymbolTableRecord
100
AcDbLayerTableRecord
  2
DEFAULT_1
 70
0
 62
7
  6
CENTER
370
-3
390
F
  0
LAYER
  5
1FB
100
AcDbSymbolTableRecord
100
AcDbLayerTableRecord
  2
DEFAULT_2
 70
0
 62
8
  6
HIDDEN
370
-3
390
F
  0
LAYER
  5
1FC
100
AcDbSymbolTableRecord
100
AcDbLayerTableRecord
  2
DEFAULT_3
 70
0
 62
7
  6
PHANTOM
370
-3
390
F
  0
LAYER
  5
1FD
100
AcDbSymbolTableRecord
100
AcDbLayerTableRecord
  2
00_COMPONENTS
 70
0
 62
7
  6
CONTINUOUS
370
-3
390
F
  0
LAYER
  5
1FE
100
AcDbSymbolTableRecord
100
AcDbLayerTableRecord
  2
01_1_DEFAULT_DATUMS
 70
0
 62
7
  6
CONTINUOUS
370
-3
390
F
  0
LAYER
  5
1FF
100
AcDbSymbolTableRecord
100
AcDbLayerTableRecord
  2
01_PLANES
 70
0
 62
7
  6
CONTINUOUS
370
-3
390
F
  0
LAYER
  5
200
100
AcDbSymbolTableRecord
100
AcDbLayerTableRecord
  2
02_COORD_SYS
 70
0
 62
7
  6
CONTINUOUS
370
-3
390
F
  0
LAYER
  5
201
100
AcDbSymbolTableRecord
100
AcDbLayerTableRecord
  2
03_AXES
 70
0
 62
7
  6
CONTINUOUS
370
-3
390
F
  0
LAYER
  5
202
100
AcDbSymbolTableRecord
100
AcDbLayerTableRecord
  2
04_POINTS
 70
0
 62
7
  6
CONTINUOUS
370
-3
390
F
  0
LAYER
  5
203
100
AcDbSymbolTableRecord
100
AcDbLayerTableRecord
  2
05_CURVES
 70
0
 62
7
  6
CONTINUOUS
370
-3
390
F
  0
LAYER
  5
204
100
AcDbSymbolTableRecord
100
AcDbLayerTableRecord
  2
06_SURFS
 70
0
 62
7
  6
CONTINUOUS
370
-3
390
F
  0
LAYER
  5
205
100
AcDbSymbolTableRecord
100
AcDbLayerTableRecord
  2
07_COSMETICS
 70
0
 62
7
  6
CONTINUOUS
370
-3
390
F
  0
LAYER
  5
206
100
AcDbSymbolTableRecord
100
AcDbLayerTableRecord
  2
10_NOTES
 70
0
 62
7
  6
CONTINUOUS
370
-3
390
F
  0
LAYER
  5
207
100
AcDbSymbolTableRecord
100
AcDbLayerTableRecord
  2
11_NOTES_PUB
 70
0
 62
7
  6
CONTINUOUS
370
-3
390
F
  0
LAYER
  5
208
100
AcDbSymbolTableRecord
100
AcDbLayerTableRecord
  2
13_REF_GTOL
 70
0
 62
7
  6
CONTINUOUS
370
-3
390
F
  0
LAYER
  5
209
100
AcDbSymbolTableRecord
100
AcDbLayerTableRecord
  2
16_MISC
 70
0
 62
7
  6
CONTINUOUS
370
-3
390
F
  0
LAYER
  5
20A
100
AcDbSymbolTableRecord
100
AcDbLayerTableRecord
  2
17_NO_PRINT
 70
0
 62
7
  6
CONTINUOUS
370
-3
390
F
  0
LAYER
  5
20B
100
AcDbSymbolTableRecord
100
AcDbLayerTableRecord
  2
18_DATUM_CAMS_JOINTS
 70
0
 62
7
  6
CONTINUOUS
370
-3
390
F
  0
LAYER
  5
20C
100
AcDbSymbolTableRecord
100
AcDbLayerTableRecord
  2
19_DATUM_FUNCTIONAL
 70
0
 62
7
  6
CONTINUOUS
370
-3
390
F
  0
LAYER
  5
20D
100
AcDbSymbolTableRecord
100
AcDbLayerTableRecord
  2
20_DATUM_KINEMATIC_SCHEME
 70
0
 62
7
  6
CONTINUOUS
370
-3
390
F
  0
ENDTAB
  0
TABLE
  2
STYLE
  5
3
100
AcDbSymbolTable
 70
1
  0
STYLE
  5
11
100
AcDbSymbolTableRecord
100
AcDbTextStyleTableRecord
  2
STANDARD
 70
0
 40
0.0
 41
0.8
 50
0.0
 71
0
 42
0.2
  3
txt
  4

  0
STYLE
  5
20E
100
AcDbSymbolTableRecord
100
AcDbTextStyleTableRecord
  2
TEXTSTYLE_1
 70
0
 40
0.0
 41
0.8
 50
0.0
 71
0
 42
0.2
  3
gdt
  4

  0
ENDTAB
  0
TABLE
  2
VIEW
  5
6
100
AcDbSymbolTable
 70
0
  0
ENDTAB
  0
TABLE
  2
UCS
  5
7
100
AcDbSymbolTable
 70
0
  0
ENDTAB
  0
TABLE
  2
APPID
  5
9
100
AcDbSymbolTable
 70
1
  0
APPID
  5
20F
100
AcDbSymbolTableRecord
100
AcDbRegAppTableRecord
  2
ACAD
 70
0
  0
ENDTAB
  0
TABLE
  2
BLOCK_RECORD
  5
1
100
AcDbSymbolTable
 70
0
  0
BLOCK_RECORD
  5
210
100
AcDbSymbolTableRecord
100
AcDbBlockTableRecord
  2
*Model_Space
  0
BLOCK_RECORD
  5
211
100
AcDbSymbolTableRecord
100
AcDbBlockTableRecord
  2
*Paper_Space
  0
BLOCK_RECORD
  5
212
100
AcDbSymbolTableRecord
100
AcDbBlockTableRecord
  2
_FILLED
  0
ENDTAB
  0
TABLE
  2
DIMSTYLE
  5
A
100
AcDbSymbolTable
 70
1
100
AcDbDimStyleTable
 71
0
  0
DIMSTYLE
105
213
100
AcDbSymbolTableRecord
100
AcDbDimStyleTableRecord
  2
STANDARD
 70
0
  3

  4

 40
1.0
 41
12.3035433897
 42
1.0
 43
0.38
 44
1.0
 45
0.0
 46
0.0
 47
0.01
 48
0.01
140
17.2249607456
141
0.09
142
0.0
143
25.4
144
1.0
145
0.0
146
1.0
147
0.625
 71
1
 72
0
 73
0
 74
0
 75
0
 76
0
 77
1
 78
8
 79
2
170
0
171
1
172
0
173
0
174
0
175
0
176
0
177
0
178
0
270
2
179
2
271
2
272
2
273
2
274
2
275
0
280
0
281
0
282
0
283
1
284
8
285
0
286
0
287
3
288
0
340
11
278
46
341
212
342
212
343
212
344
212
  0
ENDTAB
  0
ENDSEC
  0
SECTION
  2
BLOCKS
  0
BLOCK
  5
20
100
AcDbEntity
  8
0
100
AcDbBlockBegin
  2
*Model_Space
 70
0
 10
0.0
 20
0.0
 30
0.0
  3
*Model_Space
  1

  0
ENDBLK
  5
21
100
AcDbEntity
  8
0
100
AcDbBlockEnd
  0
BLOCK
  5
1C
100
AcDbEntity
  8
0
100
AcDbBlockBegin
  2
*Paper_Space
 70
0
 10
0.0
 20
0.0
 30
0.0
  3
*Paper_Space
  1

  0
ENDBLK
  5
1D
100
AcDbEntity
  8
0
100
AcDbBlockEnd
  0
BLOCK
  5
214
100
AcDbEntity
  8
0
100
AcDbBlockBegin
  2
_FILLED
 70
64
 10
0.0
 20
0.0
  3
_FILLED
  1

  0
SOLID
  5
215
100
AcDbEntity
  8
0
  6
BYBLOCK
 62
0
100
AcDbTrace
 10
0.0
 20
0.0
 11
-1.0
 21
0.25
 12
-1.0
 22
-0.25
 13
-1.0
 23
-0.25
  0
ENDBLK
  5
216
100
AcDbEntity
  8
0
  6
BYBLOCK
 62
0
100
AcDbBlockEnd
  0
ENDSEC
  0
SECTION
  2
ENTITIES
  0
LINE
  5
217
100
AcDbEntity
  8
0
100
AcDbLine
 62
7
  6
CONTINUOUS
 10
170.4342647528
 20
1261.318412189
 11
328.0477171333
 21
1352.3160550964
  0
LINE
  5
218
100
AcDbEntity
  8
0
100
AcDbLine
 62
7
  6
CONTINUOUS
 10
164.5887510803
 20
1255.2136417805
 11
156.7171845114
 21
1250.6689966667
  0
LINE
  5
219
100
AcDbEntity
  8
0
100
AcDbLine
 62
7
  6
CONTINUOUS
 10
719.2229708658
 20
113.0853201933
 11
717.7256894013
 21
112.8127582484
  0
LINE
  5
21A
100
AcDbEntity
  8
0
100
AcDbLine
 62
7
  6
CONTINUOUS
 10
157.7778490991
 20
1251.2813891607
 11
157.3057636808
 21
1250.4169433927
  0
LINE
  5
21B
100
AcDbEntity
  8
0
100
AcDbLine
 62
7
  6
CONTINUOUS
 10
717.7256894013
 20
112.8127582484
 11
710.728503467
 21
113.5250612526
  0
LINE
  5
21C
100
AcDbEntity
  8
0
100
AcDbLine
 62
7
  6
CONTINUOUS
 10
717.465223285
 20
113.1846549086
 11
712.5777157438
 21
113.6821958254
  0
LINE
  5
21D
100
AcDbEntity
  8
0
100
AcDbLine
 62
7
  6
CONTINUOUS
 10
708.0770685054
 20
114.4705283207
 11
712.5777157439
 21
113.6821958253
  0
LINE
  5
21E
100
AcDbEntity
  8
0
100
AcDbLine
 62
7
  6
CONTINUOUS
 10
707.9365018813
 20
114.0547745627
 11
707.6715891372
 21
114.2077185468
  0
LINE
  5
21F
100
AcDbEntity
  8
0
100
AcDbLine
 62
7
  6
CONTINUOUS
 10
707.0327567007
 20
114.5765402821
 11
158.1316404566
 21
431.4775782447
  0
LINE
  5
220
100
AcDbEntity
  8
0
100
AcDbLine
 62
7
  6
CONTINUOUS
 10
706.3699972744
 20
116.0414559551
 11
158.3726262108
 21
432.4207281984
  0
LINE
  5
221
100
AcDbEntity
  8
0
100
AcDbLine
 62
7
  6
CONTINUOUS
 10
733.2225043355
 20
119.8964513678
 11
727.5924509019
 21
123.1468906984
  0
LINE
  5
222
100
AcDbEntity
  8
0
100
AcDbLine
 62
7
  6
CONTINUOUS
 10
156.6903722996
 20
434.6166426947
 11
157.4839759938
 21
432.3484071377
  0
LINE
  5
223
100
AcDbEntity
  8
0
100
AcDbLine
 62
7
  6
CONTINUOUS
 10
156.6903722996
 20
434.6166426946
 11
155.8285531357
 21
437.4384020061
  0
LINE
  5
224
100
AcDbEntity
  8
0
100
AcDbLine
 62
7
  6
CONTINUOUS
 10
732.0208255396
 20
121.5710414953
 11
727.5924509019
 21
124.127706945
  0
LINE
  5
225
100
AcDbEntity
  8
0
100
AcDbLine
 62
7
  6
CONTINUOUS
 10
707.9365015997
 20
114.0547747253
 11
707.4180402178
 21
114.4102456565
  0
LINE
  5
226
100
AcDbEntity
  8
0
100
AcDbLine
 62
7
  6
CONTINUOUS
 10
155.8285531357
 20
437.4384020061
 11
155.7806212556
 21
437.7592244614
  0
LINE
  5
227
100
AcDbEntity
  8
0
100
AcDbLine
 62
7
  6
CONTINUOUS
 10
155.7799356318
 20
1249.3626262523
 11
155.7799356318
 21
437.7592236255
  0
LINE
  5
228
100
AcDbEntity
  8
0
100
AcDbLine
 62
7
  6
CONTINUOUS
 10
155.8285531357
 20
437.4384020061
 11
155.8285531357
 21
1249.0418046329
  0
LINE
  5
229
100
AcDbEntity
  8
0
100
AcDbLine
 62
7
  6
CONTINUOUS
 10
157.3057636808
 20
1249.192189767
 11
157.3057636808
 21
1250.4169433927
  0
LINE
  5
22A
100
AcDbEntity
  8
0
100
AcDbLine
 62
7
  6
CONTINUOUS
 10
157.4839759938
 20
1243.2914630135
 11
157.4839759938
 21
432.3484071377
  0
LINE
  5
22B
100
AcDbEntity
  8
0
100
AcDbLine
 62
7
  6
CONTINUOUS
 10
158.3726262108
 20
432.4207281984
 11
158.3726262108
 21
1241.2480226069
  0
LINE
  5
22C
100
AcDbEntity
  8
0
100
AcDbLine
 62
7
  6
CONTINUOUS
 10
169.5848829558
 20
1259.4404906258
 11
169.5848829558
 21
1252.9041146566
  0
LINE
  5
22D
100
AcDbEntity
  8
0
100
AcDbLine
 62
7
  6
CONTINUOUS
 10
170.4342818278
 20
1252.4137250832
 11
170.4342818278
 21
1257.5625518456
  0
LINE
  5
22E
100
AcDbEntity
  8
0
100
AcDbLine
 62
7
  6
CONTINUOUS
 10
158.1430042813
 20
431.5271613704
 11
158.1316412463
 21
431.4775777888
  0
LINE
  5
22F
100
AcDbEntity
  8
0
100
AcDbLine
 62
7
  6
CONTINUOUS
 10
155.7806212556
 20
1249.3626270882
 11
155.8285531357
 21
1249.0418046329
  0
LINE
  5
230
100
AcDbEntity
  8
0
100
AcDbLine
 62
7
  6
CONTINUOUS
 10
157.3057636808
 20
1249.192189767
 11
157.2802998694
 21
1249.3626266964
  0
LWPOLYLINE
  5
231
100
AcDbEntity
  8
0
100
AcDbPolyline
 62
7
  6
CONTINUOUS
 90
4
 70
0
 10
685.8707867519
 20
509.3344238709
 10
686.5802245337
 20
509.4342560824
 10
687.0504547204
 20
509.5696785456
 10
687.865863035
 20
509.8936454319
  0
LINE
  5
232
100
AcDbEntity
  8
0
100
AcDbLine
 62
7
  6
CONTINUOUS
 10
673.9778751455
 20
543.5168101738
 11
673.9909342733
 21
543.5192309833
  0
LINE
  5
233
100
AcDbEntity
  8
0
100
AcDbLine
 62
7
  6
CONTINUOUS
 10
672.7645309558
 20
543.651773114
 11
671.8184670459
 21
543.5255230941
  0
LINE
  5
234
100
AcDbEntity
  8
0
100
AcDbLine
 62
7
  6
CONTINUOUS
 10
685.8681221173
 20
509.3343258191
 11
685.8708678187
 21
509.3344111018
  0
LINE
  5
235
100
AcDbEntity
  8
0
100
AcDbLine
 62
7
  6
CONTINUOUS
 10
685.5412806403
 20
509.3290505073
 11
685.8681221173
 21
509.3343258191
  0
LINE
  5
236
100
AcDbEntity
  8
0
100
AcDbLine
 62
7
  6
CONTINUOUS
 10
677.265795035
 20
539.4568661643
 11
677.2564641268
 21
539.4569243218
  0
LINE
  5
237
100
AcDbEntity
  8
0
100
AcDbLine
 62
7
  6
CONTINUOUS
 10
155.8285531357
 20
1249.0418046329
 11
156.6903722996
 21
1246.2200453214
  0
LINE
  5
238
100
AcDbEntity
  8
0
100
AcDbLine
 62
7
  6
CONTINUOUS
 10
158.3625542013
 20
1245.7320572747
 11
157.3057636808
 21
1249.192189767
  0
LINE
  5
239
100
AcDbEntity
  8
0
100
AcDbLine
 62
7
  6
CONTINUOUS
 10
157.3057636808
 20
1250.4169433927
 11
158.5395845763
 21
1246.3771798941
  0
LINE
  5
23A
100
AcDbEntity
  8
0
100
AcDbLine
 62
7
  6
CONTINUOUS
 10
157.4839759938
 20
1243.2914630135
 11
156.6903722996
 21
1246.2200453215
  0
LINE
  5
23B
100
AcDbEntity
  8
0
100
AcDbLine
 62
7
  6
CONTINUOUS
 10
158.1675828446
 20
1246.3704304556
 11
158.3514944212
 21
1245.6917539409
  0
LWPOLYLINE
  5
23C
100
AcDbEntity
  8
0
100
AcDbPolyline
 62
7
  6
CONTINUOUS
 90
3
 70
0
 10
677.2657782927
 20
539.4568361827
 10
677.4076605532
 20
539.441010469
 10
677.5006573216
 20
539.4055800795
  0
LINE
  5
23D
100
AcDbEntity
  8
0
100
AcDbLine
 62
7
  6
CONTINUOUS
 10
677.4378437607
 20
537.9019774434
 11
678.933587248
 21
537.0384290745
  0
LINE
  5
23E
100
AcDbEntity
  8
0
100
AcDbLine
 62
7
  6
CONTINUOUS
 10
678.8059218857
 20
537.5977201159
 11
677.6463807886
 21
538.2671663357
  0
LINE
  5
23F
100
AcDbEntity
  8
0
100
AcDbLine
 62
7
  6
CONTINUOUS
 10
678.3859757068
 20
538.8944526701
 11
677.5007026068
 21
539.40555377
  0
LINE
  5
240
100
AcDbEntity
  8
0
100
AcDbLine
 62
7
  6
CONTINUOUS
 10
678.3135081235
 20
539.0378796871
 11
677.4385689337
 21
539.5430146362
  0
LINE
  5
241
100
AcDbEntity
  8
0
100
AcDbLine
 62
7
  6
CONTINUOUS
 10
732.0208255396
 20
121.5710414953
 11
727.5924509019
 21
129.2411687841
  0
LINE
  5
242
100
AcDbEntity
  8
0
100
AcDbLine
 62
7
  6
CONTINUOUS
 10
707.5168135853
 20
925.5621946842
 11
707.1328901505
 21
925.3092041419
  0
LINE
  5
243
100
AcDbEntity
  8
0
100
AcDbLine
 62
7
  6
CONTINUOUS
 10
727.5924509019
 20
929.5271517149
 11
727.0945374347
 21
929.2333679339
  0
LINE
  5
244
100
AcDbEntity
  8
0
100
AcDbLine
 62
7
  6
CONTINUOUS
 10
707.1328901505
 20
925.3092041419
 11
706.3699972746
 21
924.8687503638
  0
LINE
  5
245
100
AcDbEntity
  8
0
100
AcDbLine
 62
7
  6
CONTINUOUS
 10
726.033872847
 20
931.0704826914
 11
719.2229708658
 21
927.1382300715
  0
LINE
  5
246
100
AcDbEntity
  8
0
100
AcDbLine
 62
7
  6
CONTINUOUS
 10
735.2735132002
 20
936.1955003788
 11
892.0384339106
 21
1026.7032292921
  0
LINE
  5
247
100
AcDbEntity
  8
0
100
AcDbLine
 62
7
  6
CONTINUOUS
 10
735.2735132003
 20
935.2156974782
 11
892.0384339106
 21
1025.7234263915
  0
LINE
  5
248
100
AcDbEntity
  8
0
100
AcDbLine
 62
7
  6
CONTINUOUS
 10
732.8693501442
 20
933.8276375902
 11
732.0208255405
 21
933.3377446061
  0
LINE
  5
249
100
AcDbEntity
  8
0
100
AcDbLine
 62
7
  6
CONTINUOUS
 10
892.4118718888
 20
1025.9390056359
 11
892.8869485057
 21
1026.2132896113
  0
LINE
  5
24A
100
AcDbEntity
  8
0
100
AcDbLine
 62
7
  6
CONTINUOUS
 10
732.0208255396
 20
933.3377446056
 11
726.1684336964
 21
929.9587679925
  0
LINE
  5
24B
100
AcDbEntity
  8
0
100
AcDbLine
 62
7
  6
CONTINUOUS
 10
726.033872847
 20
929.8457290657
 11
719.2229708658
 21
925.9134764458
  0
LINE
  5
24C
100
AcDbEntity
  8
0
100
AcDbLine
 62
7
  6
CONTINUOUS
 10
736.1220448695
 20
934.7258085733
 11
892.8869655798
 21
1025.2335374866
  0
LINE
  5
24D
100
AcDbEntity
  8
0
100
AcDbLine
 62
7
  6
CONTINUOUS
 10
727.0945374347
 20
929.2333679339
 11
720.2836354535
 21
925.3011153141
  0
LINE
  5
24E
100
AcDbEntity
  8
0
100
AcDbLine
 62
7
  6
CONTINUOUS
 10
726.033872847
 20
931.0704826914
 11
726.5372587621
 21
931.3547849768
  0
LINE
  5
24F
100
AcDbEntity
  8
0
100
AcDbLine
 62
7
  6
CONTINUOUS
 10
170.4342818279
 20
1257.5625518456
 11
174.8932832961
 21
1249.8393776248
  0
LINE
  5
250
100
AcDbEntity
  8
0
100
AcDbLine
 62
7
  6
CONTINUOUS
 10
707.6694461691
 20
925.6832940618
 11
707.5168135853
 21
925.5621946842
  0
LINE
  5
251
100
AcDbEntity
  8
0
100
AcDbLine
 62
7
  6
CONTINUOUS
 10
728.6518048062
 20
878.2619026334
 11
728.7932255737
 21
878.3435514642
  0
LINE
  5
252
100
AcDbEntity
  8
0
100
AcDbLine
 62
7
  6
CONTINUOUS
 10
667.5730604334
 20
519.5812292761
 11
667.5733197263
 21
519.5809043354
  0
LINE
  5
253
100
AcDbEntity
  8
0
100
AcDbLine
 62
7
  6
CONTINUOUS
 10
666.2959944984
 20
523.0600260522
 11
665.9010776999
 21
523.7171270401
  0
LWPOLYLINE
  5
254
100
AcDbEntity
  8
0
100
AcDbPolyline
 62
7
  6
CONTINUOUS
 90
3
 70
0
 10
665.9010668558
 20
523.717095228
 10
666.7329034176
 20
520.9184259704
 10
667.5729404096
 20
519.5813652393
  0
LINE
  5
255
100
AcDbEntity
  8
0
100
AcDbLine
 62
7
  6
CONTINUOUS
 10
669.3103259144
 20
534.0244592768
 11
669.3046473452
 21
519.5117962658
  0
LINE
  5
256
100
AcDbEntity
  8
0
100
AcDbLine
 62
7
  6
CONTINUOUS
 10
669.2294965725
 20
546.972979654
 11
669.2267378513
 21
540.0927691993
  0
LINE
  5
257
100
AcDbEntity
  8
0
100
AcDbLine
 62
7
  6
CONTINUOUS
 10
669.2244093612
 20
534.2763221185
 11
669.2185069791
 21
519.5558670192
  0
LINE
  5
258
100
AcDbEntity
  8
0
100
AcDbLine
 62
7
  6
CONTINUOUS
 10
669.3155993746
 20
546.9232658055
 11
669.3129218135
 21
540.2454674419
  0
LINE
  5
259
100
AcDbEntity
  8
0
100
AcDbLine
 62
7
  6
CONTINUOUS
 10
672.7655120049
 20
546.0984950284
 11
672.7645309558
 21
543.6517728835
  0
LINE
  5
25A
100
AcDbEntity
  8
0
100
AcDbLine
 62
7
  6
CONTINUOUS
 10
672.7577052741
 20
526.6349355692
 11
672.7535805715
 21
516.3479872519
  0
LINE
  5
25B
100
AcDbEntity
  8
0
100
AcDbLine
 62
7
  6
CONTINUOUS
 10
672.8516176482
 20
546.0487807545
 11
672.850654576
 21
543.6468925552
  0
LINE
  5
25C
100
AcDbEntity
  8
0
100
AcDbLine
 62
7
  6
CONTINUOUS
 10
672.8437953107
 20
526.5403835183
 11
672.8396885865
 21
516.2982729976
  0
LINE
  5
25D
100
AcDbEntity
  8
0
100
AcDbLine
 62
7
  6
CONTINUOUS
 10
708.0770685054
 20
925.4135841966
 11
708.3375346217
 21
926.2664411622
  0
LINE
  5
25E
100
AcDbEntity
  8
0
100
AcDbLine
 62
7
  6
CONTINUOUS
 10
712.8381818601
 20
926.1384554177
 11
712.5777157438
 21
925.2855984522
  0
LINE
  5
25F
100
AcDbEntity
  8
0
100
AcDbLine
 62
7
  6
CONTINUOUS
 10
706.3699972744
 20
924.8687503637
 11
706.3699972744
 21
116.0414559551
  0
LINE
  5
260
100
AcDbEntity
  8
0
100
AcDbLine
 62
7
  6
CONTINUOUS
 10
708.0770685054
 20
114.4705283207
 11
708.0770685054
 21
925.4135841965
  0
LINE
  5
261
100
AcDbEntity
  8
0
100
AcDbLine
 62
7
  6
CONTINUOUS
 10
710.728503467
 20
113.525061253
 11
710.728503467
 21
114.0061034883
  0
LINE
  5
262
100
AcDbEntity
  8
0
100
AcDbLine
 62
7
  6
CONTINUOUS
 10
710.728503467
 20
926.3532175051
 11
710.728503467
 21
927.5779711305
  0
LINE
  5
263
100
AcDbEntity
  8
0
100
AcDbLine
 62
7
  6
CONTINUOUS
 10
717.465223285
 20
924.7880575354
 11
717.465223285
 21
113.1846549085
  0
LINE
  5
264
100
AcDbEntity
  8
0
100
AcDbLine
 62
7
  6
CONTINUOUS
 10
717.7256894013
 20
113.1846549086
 11
717.7256894013
 21
112.8127582484
  0
LINE
  5
265
100
AcDbEntity
  8
0
100
AcDbLine
 62
7
  6
CONTINUOUS
 10
717.7256894013
 20
925.6409145009
 11
717.7256894013
 21
926.8656681266
  0
LINE
  5
266
100
AcDbEntity
  8
0
100
AcDbLine
 62
7
  6
CONTINUOUS
 10
719.2229708658
 20
113.3105156273
 11
719.2229708658
 21
113.0853201933
  0
LINE
  5
267
100
AcDbEntity
  8
0
100
AcDbLine
 62
7
  6
CONTINUOUS
 10
719.2229708658
 20
925.9134764458
 11
719.2229708658
 21
927.1382300715
  0
LINE
  5
268
100
AcDbEntity
  8
0
100
AcDbLine
 62
7
  6
CONTINUOUS
 10
720.2836354535
 20
113.6977126872
 11
720.2836354535
 21
925.3011153141
  0
LINE
  5
269
100
AcDbEntity
  8
0
100
AcDbLine
 62
7
  6
CONTINUOUS
 10
676.2891353136
 20
514.3067655292
 11
676.2932420433
 21
524.5488896076
  0
LINE
  5
26A
100
AcDbEntity
  8
0
100
AcDbLine
 62
7
  6
CONTINUOUS
 10
676.3000986828
 20
541.6554028675
 11
676.301061752
 21
544.0572835361
  0
LINE
  5
26B
100
AcDbEntity
  8
0
100
AcDbLine
 62
7
  6
CONTINUOUS
 10
676.3861732388
 20
541.5608665019
 11
676.3871542848
 21
544.0075810276
  0
LINE
  5
26C
100
AcDbEntity
  8
0
100
AcDbLine
 62
7
  6
CONTINUOUS
 10
676.3752437003
 20
514.2570517457
 11
676.3793684074
 21
524.5440111872
  0
LINE
  5
26D
100
AcDbEntity
  8
0
100
AcDbLine
 62
7
  6
CONTINUOUS
 10
679.8251524412
 20
513.4322786105
 11
679.8309736602
 21
527.950314319
  0
LINE
  5
26E
100
AcDbEntity
  8
0
100
AcDbLine
 62
7
  6
CONTINUOUS
 10
679.8336429647
 20
534.1707902767
 11
679.836315694
 21
540.8365384605
  0
LINE
  5
26F
100
AcDbEntity
  8
0
100
AcDbLine
 62
7
  6
CONTINUOUS
 10
679.9112583186
 20
513.3825665359
 11
679.9171606978
 21
528.1030143355
  0
LINE
  5
270
100
AcDbEntity
  8
0
100
AcDbLine
 62
7
  6
CONTINUOUS
 10
679.9194857141
 20
533.9194594125
 11
679.9222444382
 21
540.799677167
  0
LINE
  5
271
100
AcDbEntity
  8
0
100
AcDbLine
 62
7
  6
CONTINUOUS
 10
726.033872847
 20
930.191827557
 11
726.0677584043
 21
930.475615191
  0
LINE
  5
272
100
AcDbEntity
  8
0
100
AcDbLine
 62
7
  6
CONTINUOUS
 10
719.2229708658
 20
925.9134764458
 11
717.7256894013
 21
925.6409145009
  0
LINE
  5
273
100
AcDbEntity
  8
0
100
AcDbLine
 62
7
  6
CONTINUOUS
 10
717.7256894013
 20
926.8656681266
 11
719.2229708658
 21
927.1382300715
  0
LINE
  5
274
100
AcDbEntity
  8
0
100
AcDbLine
 62
7
  6
CONTINUOUS
 10
712.5777157439
 20
925.2855984522
 11
708.0770685054
 21
925.4135841965
  0
LINE
  5
275
100
AcDbEntity
  8
0
100
AcDbLine
 62
7
  6
CONTINUOUS
 10
708.3375346217
 20
926.266441162
 11
712.8381818602
 21
926.1384554177
  0
LINE
  5
276
100
AcDbEntity
  8
0
100
AcDbLine
 62
7
  6
CONTINUOUS
 10
726.033872847
 20
931.0704826914
 11
726.033872847
 21
929.8457290657
  0
LINE
  5
277
100
AcDbEntity
  8
0
100
AcDbLine
 62
7
  6
CONTINUOUS
 10
727.0945374347
 20
929.2333679339
 11
727.0945374347
 21
117.6299653071
  0
LINE
  5
278
100
AcDbEntity
  8
0
100
AcDbLine
 62
7
  6
CONTINUOUS
 10
727.5924509019
 20
929.5271123054
 11
727.5924509019
 21
118.7242395009
  0
LINE
  5
279
100
AcDbEntity
  8
0
100
AcDbLine
 62
7
  6
CONTINUOUS
 10
732.0208255396
 20
933.3377446056
 11
732.0208255396
 21
121.5710414953
  0
LINE
  5
27A
100
AcDbEntity
  8
0
100
AcDbLine
 62
7
  6
CONTINUOUS
 10
735.2735132003
 20
119.6930832503
 11
735.2735132003
 21
120.1829972443
  0
LINE
  5
27B
100
AcDbEntity
  8
0
100
AcDbLine
 62
7
  6
CONTINUOUS
 10
735.2735132002
 20
935.2156974782
 11
735.2735132003
 21
936.1955003777
  0
LINE
  5
27C
100
AcDbEntity
  8
0
100
AcDbLine
 62
7
  6
CONTINUOUS
 10
736.1220448704
 20
120.1829972443
 11
736.1220448704
 21
934.7258085728
  0
LWPOLYLINE
  5
27D
100
AcDbEntity
  8
0
100
AcDbPolyline
 62
7
  6
CONTINUOUS
 90
4
 70
0
 10
669.196803655
 20
554.9160868166
 10
668.0338286411
 20
553.5516102709
 10
666.7341601547
 20
551.3018678001
 10
665.9280674643
 20
548.6787156395
  0
LINE
  5
27E
100
AcDbEntity
  8
0
100
AcDbLine
 62
7
  6
CONTINUOUS
 10
669.196803655
 20
554.9160868166
 11
669.1976244568
 21
554.9169052183
  0
LWPOLYLINE
  5
27F
100
AcDbEntity
  8
0
100
AcDbPolyline
 62
7
  6
CONTINUOUS
 90
3
 70
0
 10
669.5967064609
 20
555.259714116
 10
669.2873310979
 20
555.0027824176
 10
669.1975664099
 20
554.9168670774
  0
LINE
  5
280
100
AcDbEntity
  8
0
100
AcDbLine
 62
7
  6
CONTINUOUS
 10
673.028326603
 20
539.1965208632
 11
672.8855279173
 21
539.1093416539
  0
LINE
  5
281
100
AcDbEntity
  8
0
100
AcDbLine
 62
7
  6
CONTINUOUS
 10
673.0269832996
 20
539.1914379785
 11
672.9002931445
 21
539.1142323585
  0
LINE
  5
282
100
AcDbEntity
  8
0
100
AcDbLine
 62
7
  6
CONTINUOUS
 10
673.0269791376
 20
539.1914481758
 11
672.9002931445
 21
539.1142323585
  0
LINE
  5
283
100
AcDbEntity
  8
0
100
AcDbLine
 62
7
  6
CONTINUOUS
 10
674.4262162873
 20
543.0412597699
 11
674.7111874093
 21
543.2138417985
  0
LINE
  5
284
100
AcDbEntity
  8
0
100
AcDbLine
 62
7
  6
CONTINUOUS
 10
728.6518048062
 20
572.0734962098
 11
728.7932255737
 21
572.1551450406
  0
LINE
  5
285
100
AcDbEntity
  8
0
100
AcDbLine
 62
7
  6
CONTINUOUS
 10
670.5085058683
 20
531.9975894269
 11
673.5796255163
 21
533.740147818
  0
LINE
  5
286
100
AcDbEntity
  8
0
100
AcDbLine
 62
7
  6
CONTINUOUS
 10
673.5833633647
 20
543.0809258766
 11
670.5122719651
 21
541.394911498
  0
LINE
  5
287
100
AcDbEntity
  8
0
100
AcDbLine
 62
7
  6
CONTINUOUS
 10
673.960529399
 20
543.293741687
 11
673.9612315718
 21
543.2941268878
  0
LWPOLYLINE
  5
288
100
AcDbEntity
  8
0
100
AcDbPolyline
 62
7
  6
CONTINUOUS
 90
3
 70
0
 10
673.961224116
 20
543.2941227815
 10
674.0760122955
 20
543.3552819907
 10
674.2010144719
 20
543.4158394865
  0
LINE
  5
289
100
AcDbEntity
  8
0
100
AcDbLine
 62
7
  6
CONTINUOUS
 10
674.2010251123
 20
543.4158447843
 11
674.2008027156
 21
543.4157454539
  0
LINE
  5
28A
100
AcDbEntity
  8
0
100
AcDbLine
 62
7
  6
CONTINUOUS
 10
673.9778751455
 20
543.5168101738
 11
673.989479591
 21
543.5219748673
  0
LINE
  5
28B
100
AcDbEntity
  8
0
100
AcDbLine
 62
7
  6
CONTINUOUS
 10
672.9002325835
 20
539.1143854152
 11
672.8855261564
 21
539.1093446489
  0
LINE
  5
28C
100
AcDbEntity
  8
0
100
AcDbLine
 62
7
  6
CONTINUOUS
 10
672.9723652277
 20
539.1385326472
 11
672.9002325835
 21
539.1143854152
  0
LINE
  5
28D
100
AcDbEntity
  8
0
100
AcDbLine
 62
7
  6
CONTINUOUS
 10
712.5777157438
 20
925.2855984522
 11
717.465223285
 21
924.7880575354
  0
LINE
  5
28E
100
AcDbEntity
  8
0
100
AcDbLine
 62
7
  6
CONTINUOUS
 10
717.7256894013
 20
925.6409145009
 11
710.728503467
 21
926.3532175051
  0
LINE
  5
28F
100
AcDbEntity
  8
0
100
AcDbLine
 62
7
  6
CONTINUOUS
 10
710.728503467
 20
927.5779711308
 11
717.7256894013
 21
926.8656681266
  0
LINE
  5
290
100
AcDbEntity
  8
0
100
AcDbLine
 62
7
  6
CONTINUOUS
 10
708.2868785489
 20
926.0339611936
 11
707.4180402177
 21
926.2348299639
  0
LINE
  5
291
100
AcDbEntity
  8
0
100
AcDbLine
 62
7
  6
CONTINUOUS
 10
726.591011327
 20
929.5616873385
 11
726.3332771051
 21
929.6728718473
  0
LINE
  5
292
100
AcDbEntity
  8
0
100
AcDbLine
 62
7
  6
CONTINUOUS
 10
158.3726262108
 20
1241.2480226069
 11
706.3699972744
 21
924.8687503637
  0
LINE
  5
293
100
AcDbEntity
  8
0
100
AcDbLine
 62
7
  6
CONTINUOUS
 10
710.728503467
 20
927.5779711308
 11
158.5395845763
 21
1246.3771798941
  0
LINE
  5
294
100
AcDbEntity
  8
0
100
AcDbLine
 62
7
  6
CONTINUOUS
 10
726.033872847
 20
929.8457290657
 11
727.0945374347
 21
929.2333679339
  0
LINE
  5
295
100
AcDbEntity
  8
0
100
AcDbLine
 62
7
  6
CONTINUOUS
 10
164.5887510803
 20
1255.2136417805
 11
726.033872847
 21
931.0704826914
  0
LINE
  5
296
100
AcDbEntity
  8
0
100
AcDbLine
 62
7
  6
CONTINUOUS
 10
165.7853713803
 20
1255.0977140616
 11
726.5372237029
 21
931.3548052178
  0
LINE
  5
297
100
AcDbEntity
  8
0
100
AcDbLine
 62
7
  6
CONTINUOUS
 10
170.4342818279
 20
1257.5625518456
 11
732.0208255396
 21
933.3377446056
  0
LINE
  5
298
100
AcDbEntity
  8
0
100
AcDbLine
 62
7
  6
CONTINUOUS
 10
736.1220448695
 20
934.7258085733
 11
735.2735132003
 21
935.2156974782
  0
LINE
  5
299
100
AcDbEntity
  8
0
100
AcDbLine
 62
7
  6
CONTINUOUS
 10
170.8585341208
 20
1261.0734656967
 11
170.4342647538
 21
1261.3184121885
  0
LINE
  5
29A
100
AcDbEntity
  8
0
100
AcDbLine
 62
7
  6
CONTINUOUS
 10
735.2735132002
 20
936.1955003788
 11
171.282796423
 21
1261.8083261842
  0
LINE
  5
29B
100
AcDbEntity
  8
0
100
AcDbLine
 62
7
  6
CONTINUOUS
 10
892.0384339106
 20
1026.703229291
 11
892.0384339106
 21
1025.7234263915
  0
LINE
  5
29C
100
AcDbEntity
  8
0
100
AcDbLine
 62
7
  6
CONTINUOUS
 10
892.8869655807
 20
1025.2335374861
 11
892.8869655807
 21
210.6907261577
  0
LINE
  5
29D
100
AcDbEntity
  8
0
100
AcDbLine
 62
7
  6
CONTINUOUS
 10
893.7363473778
 20
212.5686477208
 11
893.7363473778
 21
1025.7234122991
  0
LINE
  5
29E
100
AcDbEntity
  8
0
100
AcDbLine
 62
7
  6
CONTINUOUS
 10
892.8873758302
 20
1027.1938591475
 11
892.8869485057
 21
1026.2132896113
  0
LINE
  5
29F
100
AcDbEntity
  8
0
100
AcDbLine
 62
7
  6
CONTINUOUS
 10
892.8869485057
 20
1026.2132896113
 11
893.7363473778
 21
1025.7234123104
  0
LINE
  5
2A0
100
AcDbEntity
  8
0
100
AcDbLine
 62
7
  6
CONTINUOUS
 10
892.0384339106
 20
1025.7234263915
 11
892.8869655798
 21
1025.2335374866
  0
LINE
  5
2A1
100
AcDbEntity
  8
0
100
AcDbLine
 62
7
  6
CONTINUOUS
 10
328.0477171333
 20
1352.3160550975
 11
892.0384339106
 21
1026.7032292921
  0
LINE
  5
2A2
100
AcDbEntity
  8
0
100
AcDbLine
 62
7
  6
CONTINUOUS
 10
892.8873758414
 20
1027.1938591411
 11
330.0987259981
 21
1352.1126869789
  0
LINE
  5
2A3
100
AcDbEntity
  8
0
100
AcDbLine
 62
7
  6
CONTINUOUS
 10
164.5887510802
 20
1255.2136417805
 11
165.7853732377
 21
1255.0977129893
  0
LINE
  5
2A4
100
AcDbEntity
  8
0
100
AcDbLine
 62
7
  6
CONTINUOUS
 10
707.6722868979
 20
114.7626025682
 11
707.4180402179
 21
114.4102456565
  0
LINE
  5
2A5
100
AcDbEntity
  8
0
100
AcDbLine
 62
7
  6
CONTINUOUS
 10
157.4839759938
 20
1243.2914630136
 11
158.1423182431
 21
1243.3584845277
  0
LINE
  5
2A6
100
AcDbEntity
  8
0
100
AcDbLine
 62
7
  6
CONTINUOUS
 10
158.1675828447
 20
1246.3704304556
 11
156.6903722996
 21
1246.2200453215
  0
LINE
  5
2A7
100
AcDbEntity
  8
0
100
AcDbLine
 62
7
  6
CONTINUOUS
 10
728.6518048062
 20
174.4368190677
 11
728.7932255737
 21
174.5184678985
  0
LINE
  5
2A8
100
AcDbEntity
  8
0
100
AcDbLine
 62
7
  6
CONTINUOUS
 10
727.0945374347
 20
117.6299653071
 11
720.2836354535
 21
113.6977126872
  0
LINE
  5
2A9
100
AcDbEntity
  8
0
100
AcDbLine
 62
7
  6
CONTINUOUS
 10
735.2735132003
 20
119.6930832503
 11
892.8869655807
 21
210.6907261577
  0
ARC
  5
2AA
100
AcDbEntity
  8
0
100
AcDbCircle
 62
7
  6
CONTINUOUS
 10
157.3121974091
 20
438.0489415828
 40
5.7272414951
100
AcDbArc
 50
278.5213918108
 51
280.6701836459
  0
ARC
  5
2AB
100
AcDbEntity
  8
0
100
AcDbCircle
 62
7
  6
CONTINUOUS
 10
157.424969335
 20
437.2989037353
 40
4.9687732315
100
AcDbArc
 50
276.7734210929
 51
278.5169247357
  0
ARC
  5
2AC
100
AcDbEntity
  8
0
100
AcDbCircle
 62
7
  6
CONTINUOUS
 10
166.2986744401
 20
1243.8191784962
 40
8.1690543626
100
AcDbArc
 50
175.084038351
 51
183.2802528476
  0
ARC
  5
2AD
100
AcDbEntity
  8
0
100
AcDbCircle
 62
7
  6
CONTINUOUS
 10
164.394020087
 20
1242.8957312816
 40
6.2676269618
100
AcDbArc
 50
175.8276382564
 51
182.378464552
  0
ARC
  5
2AE
100
AcDbEntity
  8
0
100
AcDbCircle
 62
7
  6
CONTINUOUS
 10
175.9671429812
 20
1258.6471937523
 40
5.6801954648
100
AcDbArc
 50
166.937004278
 51
171.7469014213
  0
ARC
  5
2AF
100
AcDbEntity
  8
0
100
AcDbCircle
 62
7
  6
CONTINUOUS
 10
163.1765876711
 20
1242.7777802447
 40
5.0425670447
100
AcDbArc
 50
189.721354653
 51
193.7975573729
  0
ARC
  5
2B0
100
AcDbEntity
  8
0
100
AcDbCircle
 62
7
  6
CONTINUOUS
 10
162.8007960102
 20
1242.6850175379
 40
4.6554959138
100
AcDbArc
 50
193.791863335
 51
197.97887692
  0
ARC
  5
2B1
100
AcDbEntity
  8
0
100
AcDbCircle
 62
7
  6
CONTINUOUS
 10
161.6951264309
 20
1243.9610945705
 40
4.2643574825
100
AcDbArc
 50
191.8484060387
 51
198.93197389
  0
ARC
  5
2B2
100
AcDbEntity
  8
0
100
AcDbCircle
 62
7
  6
CONTINUOUS
 10
161.5401463611
 20
1243.9265703816
 40
4.1055912385
100
AcDbArc
 50
188.8990078396
 51
191.820946294
  0
ARC
  5
2B3
100
AcDbEntity
  8
0
100
AcDbCircle
 62
7
  6
CONTINUOUS
 10
328.9558895168
 20
1350.1280308643
 40
2.2901823323
100
AcDbArc
 50
60.0651126045
 51
71.7203645538
  0
ARC
  5
2B4
100
AcDbEntity
  8
0
100
AcDbCircle
 62
7
  6
CONTINUOUS
 10
171.8750268681
 20
1259.437910373
 40
2.2901453657
100
AcDbArc
 50
168.2798501985
 51
179.9354462338
  0
ARC
  5
2B5
100
AcDbEntity
  8
0
100
AcDbCircle
 62
7
  6
CONTINUOUS
 10
171.8749812337
 20
1259.4430670415
 40
2.290099727
100
AcDbArc
 50
180.0644591554
 51
191.720384378
  0
ARC
  5
2B6
100
AcDbEntity
  8
0
100
AcDbCircle
 62
7
  6
CONTINUOUS
 10
685.5125806681
 20
521.2348744962
 40
11.9058585804
100
AcDbArc
 50
270.138138859
 51
271.7112628473
  0
ARC
  5
2B7
100
AcDbEntity
  8
0
100
AcDbCircle
 62
7
  6
CONTINUOUS
 10
683.725833325
 20
517.9779166752
 40
9.004883096
100
AcDbArc
 50
297.159084914
 51
299.4958260384
  0
ARC
  5
2B8
100
AcDbEntity
  8
0
100
AcDbCircle
 62
7
  6
CONTINUOUS
 10
681.8324329483
 20
539.9445940382
 40
8.8686854721
100
AcDbArc
 50
184.0119183216
 51
184.5526422048
  0
ARC
  5
2B9
100
AcDbEntity
  8
0
100
AcDbCircle
 62
7
  6
CONTINUOUS
 10
681.6948225791
 20
539.9349311651
 40
8.7307362616
100
AcDbArc
 50
183.5020304204
 51
184.011843342
  0
ARC
  5
2BA
100
AcDbEntity
  8
0
100
AcDbCircle
 62
7
  6
CONTINUOUS
 10
686.2044489168
 20
531.8593027932
 40
8.6159741368
100
AcDbArc
 50
114.6978711254
 51
115.0353161303
  0
ARC
  5
2BB
100
AcDbEntity
  8
0
100
AcDbCircle
 62
7
  6
CONTINUOUS
 10
681.5393002076
 20
539.9254921687
 40
8.5749277368
100
AcDbArc
 50
182.8204262354
 51
183.5025552364
  0
ARC
  5
2BC
100
AcDbEntity
  8
0
100
AcDbCircle
 62
7
  6
CONTINUOUS
 10
676.627465274
 20
521.9365858391
 40
7.8601064145
100
AcDbArc
 50
208.360187534
 51
213.6126302742
  0
ARC
  5
2BD
100
AcDbEntity
  8
0
100
AcDbCircle
 62
7
  6
CONTINUOUS
 10
681.9432280923
 20
536.0498690006
 40
7.7095969533
100
AcDbArc
 50
239.9992529328
 51
240.7212839559
  0
ARC
  5
2BE
100
AcDbEntity
  8
0
100
AcDbCircle
 62
7
  6
CONTINUOUS
 10
712.1887926303
 20
120.7868706542
 40
7.5367403931
100
AcDbArc
 50
233.1207587288
 51
236.9372407125
  0
ARC
  5
2BF
100
AcDbEntity
  8
0
100
AcDbCircle
 62
7
  6
CONTINUOUS
 10
711.982247702
 20
120.5098640136
 40
7.1912083591
100
AcDbArc
 50
230.9446948427
 51
233.1125969249
  0
ARC
  5
2C0
100
AcDbEntity
  8
0
100
AcDbCircle
 62
7
  6
CONTINUOUS
 10
718.0208376325
 20
118.7023600279
 40
5.5456835519
100
AcDbArc
 50
266.9517863187
 51
274.7967548203
  0
ARC
  5
2C1
100
AcDbEntity
  8
0
100
AcDbCircle
 62
7
  6
CONTINUOUS
 10
674.3228988698
 20
540.7072981017
 40
5.5292129859
100
AcDbArc
 50
9.3107993546
 51
16.3792550693
  0
ARC
  5
2C2
100
AcDbEntity
  8
0
100
AcDbCircle
 62
7
  6
CONTINUOUS
 10
718.0112829028
 20
118.5580355049
 40
5.4010554653
100
AcDbArc
 50
264.1973454618
 51
266.9715873824
  0
ARC
  5
2C3
100
AcDbEntity
  8
0
100
AcDbCircle
 62
7
  6
CONTINUOUS
 10
681.6501547295
 20
534.1631121352
 40
5.1852472419
100
AcDbArc
 50
252.6159658903
 51
255.4655814339
  0
ARC
  5
2C4
100
AcDbEntity
  8
0
100
AcDbCircle
 62
7
  6
CONTINUOUS
 10
677.5733614
 20
539.817022641
 40
4.6917008944
100
AcDbArc
 50
162.1481170515
 51
167.0520072837
  0
ARC
  5
2C5
100
AcDbEntity
  8
0
100
AcDbCircle
 62
7
  6
CONTINUOUS
 10
673.5459568703
 20
520.2783994607
 40
4.3624908366
100
AcDbArc
 50
190.0891055945
 51
199.8117554792
  0
ARC
  5
2C6
100
AcDbEntity
  8
0
100
AcDbCircle
 62
7
  6
CONTINUOUS
 10
680.9110434494
 20
533.355740523
 40
4.186962435
100
AcDbArc
 50
258.8246755506
 51
262.478695315
  0
ARC
  5
2C7
100
AcDbEntity
  8
0
100
AcDbCircle
 62
7
  6
CONTINUOUS
 10
681.7008938548
 20
537.1092288191
 40
3.6769802547
100
AcDbArc
 50
239.9985079652
 51
240.9264697177
  0
ARC
  5
2C8
100
AcDbEntity
  8
0
100
AcDbCircle
 62
7
  6
CONTINUOUS
 10
681.6719035519
 20
537.0573430309
 40
3.6175449374
100
AcDbArc
 50
240.9284413491
 51
241.1289524061
  0
ARC
  5
2C9
100
AcDbEntity
  8
0
100
AcDbCircle
 62
7
  6
CONTINUOUS
 10
685.8394004626
 20
512.5635937843
 40
3.2298114306
100
AcDbArc
 50
264.7549300873
 51
269.9191445112
  0
ARC
  5
2CA
100
AcDbEntity
  8
0
100
AcDbCircle
 62
7
  6
CONTINUOUS
 10
709.5059084331
 20
116.8388859791
 40
3.2033863907
100
AcDbArc
 50
217.9806709854
 51
224.5113620206
  0
ARC
  5
2CB
100
AcDbEntity
  8
0
100
AcDbCircle
 62
7
  6
CONTINUOUS
 10
709.3932792613
 20
116.7293555234
 40
3.0462829569
100
AcDbArc
 50
224.5273743397
 51
229.578202153
  0
ARC
  5
2CC
100
AcDbEntity
  8
0
100
AcDbCircle
 62
7
  6
CONTINUOUS
 10
676.0958958275
 20
541.2418549793
 40
2.8267152759
100
AcDbArc
 50
128.2367942229
 51
130.8160872238
  0
ARC
  5
2CD
100
AcDbEntity
  8
0
100
AcDbCircle
 62
7
  6
CONTINUOUS
 10
675.290019162
 20
540.9832450244
 40
2.6652297521
100
AcDbArc
 50
111.5759447803
 51
114.1164758468
  0
ARC
  5
2CE
100
AcDbEntity
  8
0
100
AcDbCircle
 62
7
  6
CONTINUOUS
 10
675.7827200502
 20
540.8000375314
 40
2.6197647075
100
AcDbArc
 50
113.3584488766
 51
121.1844985227
  0
ARC
  5
2CF
100
AcDbEntity
  8
0
100
AcDbCircle
 62
7
  6
CONTINUOUS
 10
734.3698082255
 20
121.8785250813
 40
2.290179561
100
AcDbArc
 50
228.2804718394
 51
239.9360174159
  0
ARC
  5
2D0
100
AcDbEntity
  8
0
100
AcDbCircle
 62
7
  6
CONTINUOUS
 10
734.3653215796
 20
121.8810667996
 40
2.2901374773
100
AcDbArc
 50
240.065021815
 51
251.7205085171
  0
ARC
  5
2D1
100
AcDbEntity
  8
0
100
AcDbCircle
 62
7
  6
CONTINUOUS
 10
891.4462482223
 20
212.571224265
 40
2.2901006047
100
AcDbArc
 50
348.2797075459
 51
359.9355376982
  0
ARC
  5
2D2
100
AcDbEntity
  8
0
100
AcDbCircle
 62
7
  6
CONTINUOUS
 10
685.7786736832
 20
511.3660594968
 40
2.033044545
100
AcDbArc
 50
271.5829204769
 51
272.3950102781
  0
ARC
  5
2D3
100
AcDbEntity
  8
0
100
AcDbCircle
 62
7
  6
CONTINUOUS
 10
725.6865992178
 20
119.0384542047
 40
1.9915147495
100
AcDbArc
 50
314.9887972672
 51
322.1224307215
  0
ARC
  5
2D4
100
AcDbEntity
  8
0
100
AcDbCircle
 62
7
  6
CONTINUOUS
 10
727.8146042766
 20
175.8864279455
 40
1.6739958494
100
AcDbArc
 50
300.0079573516
 51
305.5698003717
  0
ARC
  5
2D5
100
AcDbEntity
  8
0
100
AcDbCircle
 62
7
  6
CONTINUOUS
 10
727.8146042765
 20
573.5231050877
 40
1.6739958495
100
AcDbArc
 50
300.0079573518
 51
305.5698003715
  0
ARC
  5
2D6
100
AcDbEntity
  8
0
100
AcDbCircle
 62
7
  6
CONTINUOUS
 10
673.7105102843
 20
538.3005008935
 40
1.1963543305
100
AcDbArc
 50
3.2178519571
 51
6.8209961054
  0
ARC
  5
2D7
100
AcDbEntity
  8
0
100
AcDbCircle
 62
7
  6
CONTINUOUS
 10
673.8240716251
 20
538.3070795591
 40
1.082602779
100
AcDbArc
 50
0.0008120264
 51
3.2075952211
  0
ARC
  5
2D8
100
AcDbEntity
  8
0
100
AcDbCircle
 62
7
  6
CONTINUOUS
 10
674.5232113257
 20
539.1967542461
 40
0.8846517802
100
AcDbArc
 50
180.0008120261
 51
183.2075952209
  0
ARC
  5
2D9
100
AcDbEntity
  8
0
100
AcDbCircle
 62
7
  6
CONTINUOUS
 10
682.7543478338
 20
512.1046656215
 40
0.2330644994
100
AcDbArc
 50
207.3177594492
 51
226.291138743
  0
ARC
  5
2DA
100
AcDbEntity
  8
0
100
AcDbCircle
 62
7
  6
CONTINUOUS
 10
699.1878958832
 20
936.1488245478
 40
13.4679987882
100
AcDbArc
 50
310.8951643153
 51
311.9535036717
  0
ARC
  5
2DB
100
AcDbEntity
  8
0
100
AcDbCircle
 62
7
  6
CONTINUOUS
 10
700.8033015683
 20
934.3486002803
 40
11.0492517265
100
AcDbArc
 50
311.9646106448
 51
312.9905103885
  0
ARC
  5
2DC
100
AcDbEntity
  8
0
100
AcDbCircle
 62
7
  6
CONTINUOUS
 10
704.6992389867
 20
932.9554091608
 40
8.2637071614
100
AcDbArc
 50
289.4526400405
 51
294.126633843
  0
ARC
  5
2DD
100
AcDbEntity
  8
0
100
AcDbCircle
 62
7
  6
CONTINUOUS
 10
712.2021675988
 20
919.5530247522
 40
8.2179313506
100
AcDbArc
 50
117.5126821121
 51
125.602407577
  0
ARC
  5
2DE
100
AcDbEntity
  8
0
100
AcDbCircle
 62
7
  6
CONTINUOUS
 10
704.8510419813
 20
932.5159647618
 40
7.7987936057
100
AcDbArc
 50
285.0364698598
 51
289.4762191565
  0
ARC
  5
2DF
100
AcDbEntity
  8
0
100
AcDbCircle
 62
7
  6
CONTINUOUS
 10
705.1033729539
 20
931.5612191089
 40
6.8112755836
100
AcDbArc
 50
280.7171034589
 51
285.0701337084
  0
ARC
  5
2E0
100
AcDbEntity
  8
0
100
AcDbCircle
 62
7
  6
CONTINUOUS
 10
712.0403592517
 20
921.4952825039
 40
6.6203582513
100
AcDbArc
 50
134.2825850452
 51
136.3469868854
  0
ARC
  5
2E1
100
AcDbEntity
  8
0
100
AcDbCircle
 62
7
  6
CONTINUOUS
 10
711.9063756514
 20
921.6217904972
 40
6.4360895887
100
AcDbArc
 50
136.3384881061
 51
139.0889286036
  0
ARC
  5
2E2
100
AcDbEntity
  8
0
100
AcDbCircle
 62
7
  6
CONTINUOUS
 10
711.3693331504
 20
921.956781453
 40
5.6575998513
100
AcDbArc
 50
96.5037835407
 51
99.1405330169
  0
ARC
  5
2E3
100
AcDbEntity
  8
0
100
AcDbCircle
 62
7
  6
CONTINUOUS
 10
718.0209842655
 20
930.2747857193
 40
5.5148033901
100
AcDbArc
 50
264.2161302009
 51
274.8221488763
  0
ARC
  5
2E4
100
AcDbEntity
  8
0
100
AcDbCircle
 62
7
  6
CONTINUOUS
 10
718.2484095867
 20
929.1216271638
 40
4.3369259796
100
AcDbArc
 50
286.1829697397
 51
288.282039858
  0
ARC
  5
2E5
100
AcDbEntity
  8
0
100
AcDbCircle
 62
7
  6
CONTINUOUS
 10
727.8146042766
 20
879.7115115112
 40
1.6739958494
100
AcDbArc
 50
300.0079573517
 51
305.5698003717
  0
SPLINE
  5
2E6
100
AcDbEntity
  8
0
100
AcDbSpline
 62
7
  6
CONTINUOUS
 70
0
 71
3
 72
9
 73
5
 74
0
 42
0.0000001
 43
0.0000001
 44
0.0000000001
 40
0.0
 40
0.0
 40
0.0
 40
0.0
 40
0.5147838082
 40
1.0
 40
1.0
 40
1.0
 40
1.0
 10
727.6037284132
 20
174.2063275376
 30
0.0
 10
727.7895648653
 20
174.1956824415
 30
0.0
 10
728.1555339641
 20
174.2183491085
 30
0.0
 10
728.4998623739
 20
174.3490916588
 30
0.0
 10
728.6518035336
 20
174.436821272
 30
0.0
  0
SPLINE
  5
2E7
100
AcDbEntity
  8
0
100
AcDbSpline
 62
7
  6
CONTINUOUS
 70
0
 71
3
 72
11
 73
7
 74
0
 42
0.0000001
 43
0.0000001
 44
0.0000000001
 40
0.0
 40
0.0
 40
0.0
 40
0.0
 40
0.2460250624
 40
0.4989372739
 40
0.7523917812
 40
1.0
 40
1.0
 40
1.0
 40
1.0
 10
727.598067013
 20
181.8895792523
 30
0.0
 10
727.8169013155
 20
181.6628914383
 30
0.0
 10
728.231624744
 20
181.174386947
 30
0.0
 10
728.7678688533
 20
180.3714691575
 30
0.0
 10
729.2122413849
 20
179.5120085894
 30
0.0
 10
729.4407958054
 20
178.9104781319
 30
0.0
 10
729.5346254501
 20
178.6075695759
 30
0.0
  0
SPLINE
  5
2E8
100
AcDbEntity
  8
0
100
AcDbSpline
 62
7
  6
CONTINUOUS
 70
0
 71
3
 72
9
 73
5
 74
0
 42
0.0000001
 43
0.0000001
 44
0.0000000001
 40
0.0
 40
0.0
 40
0.0
 40
0.0
 40
0.5195704711
 40
1.0
 40
1.0
 40
1.0
 40
1.0
 10
729.5346254501
 20
178.6075695759
 30
0.0
 10
729.628358448
 20
178.3049730228
 30
0.0
 10
729.772572568
 20
177.7105212835
 30
0.0
 10
729.8287853916
 20
177.1003149645
 30
0.0
 10
729.8287853916
 20
176.8073976066
 30
0.0
  0
SPLINE
  5
2E9
100
AcDbEntity
  8
0
100
AcDbSpline
 62
7
  6
CONTINUOUS
 70
0
 71
3
 72
9
 73
5
 74
0
 42
0.0000001
 43
0.0000001
 44
0.0000000001
 40
0.0
 40
0.0
 40
0.0
 40
0.0
 40
0.2727195743
 40
1.0
 40
1.0
 40
1.0
 40
1.0
 10
729.8287853916
 20
176.8073976066
 30
0.0
 10
729.8287853916
 20
176.6716113366
 30
0.0
 10
729.8075199097
 20
176.1748011148
 30
0.0
 10
729.6927340546
 20
175.6757051475
 30
0.0
 10
729.5358173992
 20
175.3493596614
 30
0.0
  0
SPLINE
  5
2EA
100
AcDbEntity
  8
0
100
AcDbSpline
 62
7
  6
CONTINUOUS
 70
0
 71
3
 72
9
 73
5
 74
0
 42
0.0000001
 43
0.0000001
 44
0.0000000001
 40
0.0
 40
0.0
 40
0.0
 40
0.0
 40
0.5157665712
 40
1.0
 40
1.0
 40
1.0
 40
1.0
 10
729.5358173992
 20
175.3493596614
 30
0.0
 10
729.4518362929
 20
175.1747009874
 30
0.0
 10
729.2462587328
 20
174.8535385134
 30
0.0
 10
728.9507954623
 20
174.6094517828
 30
0.0
 10
728.7932236635
 20
174.5184712008
 30
0.0
  0
SPLINE
  5
2EB
100
AcDbEntity
  8
0
100
AcDbSpline
 62
7
  6
CONTINUOUS
 70
0
 71
3
 72
9
 73
5
 74
0
 42
0.0000001
 43
0.0000001
 44
0.0000000001
 40
0.0
 40
0.0
 40
0.0
 40
0.0
 40
0.4804724667
 40
1.0
 40
1.0
 40
1.0
 40
1.0
 10
729.6873646242
 20
176.7257487758
 30
0.0
 10
729.6873646242
 20
177.0176156226
 30
0.0
 10
729.6315552616
 20
177.6255777496
 30
0.0
 10
729.4883068614
 20
178.2179395641
 30
0.0
 10
729.3951962199
 20
178.5194825769
 30
0.0
  0
SPLINE
  5
2EC
100
AcDbEntity
  8
0
100
AcDbSpline
 62
7
  6
CONTINUOUS
 70
0
 71
3
 72
9
 73
5
 74
0
 42
0.0000001
 43
0.0000001
 44
0.0000000001
 40
0.0
 40
0.0
 40
0.0
 40
0.0
 40
0.4995758939
 40
1.0
 40
1.0
 40
1.0
 40
1.0
 10
729.3951962199
 20
178.5194825769
 30
0.0
 10
729.2169205182
 20
179.0968364792
 30
0.0
 10
728.7228356184
 20
180.2124364262
 30
0.0
 10
728.011488354
 20
181.2036038011
 30
0.0
 10
727.6038133189
 20
181.650998169
 30
0.0
  0
SPLINE
  5
2ED
100
AcDbEntity
  8
0
100
AcDbSpline
 62
7
  6
CONTINUOUS
 70
0
 71
3
 72
11
 73
7
 74
0
 42
0.0000001
 43
0.0000001
 44
0.0000000001
 40
0.0
 40
0.0
 40
0.0
 40
0.0
 40
0.2254764443
 40
0.4633940083
 40
0.7203132854
 40
1.0
 40
1.0
 40
1.0
 40
1.0
 10
728.7883581501
 20
174.5247872082
 30
0.0
 10
728.9060965825
 20
174.6089768599
 30
0.0
 10
729.1261802736
 20
174.814519278
 30
0.0
 10
729.3814222087
 20
175.2044832913
 30
0.0
 10
729.563477447
 20
175.6703300981
 30
0.0
 10
729.6314968332
 20
176.0097474684
 30
0.0
 10
729.65430331
 20
176.1878346797
 30
0.0
  0
SPLINE
  5
2EE
100
AcDbEntity
  8
0
100
AcDbSpline
 62
7
  6
CONTINUOUS
 70
0
 71
3
 72
9
 73
5
 74
0
 42
0.0000001
 43
0.0000001
 44
0.0000000001
 40
0.0
 40
0.0
 40
0.0
 40
0.0
 40
0.2432991862
 40
1.0
 40
1.0
 40
1.0
 40
1.0
 10
729.65430331
 20
176.1878346797
 30
0.0
 10
729.6598573853
 20
176.2312043669
 30
0.0
 10
729.6795946229
 20
176.4098502562
 30
0.0
 10
729.6873646242
 20
176.5897602644
 30
0.0
 10
729.6873646242
 20
176.7257487758
 30
0.0
  0
SPLINE
  5
2EF
100
AcDbEntity
  8
0
100
AcDbSpline
 62
7
  6
CONTINUOUS
 70
0
 71
3
 72
9
 73
5
 74
0
 42
0.0000001
 43
0.0000001
 44
0.0000000001
 40
0.0
 40
0.0
 40
0.0
 40
0.0
 40
0.5147838082
 40
1.0
 40
1.0
 40
1.0
 40
1.0
 10
727.6037284132
 20
571.8430046797
 30
0.0
 10
727.7895648653
 20
571.8323595836
 30
0.0
 10
728.1555339641
 20
571.8550262506
 30
0.0
 10
728.4998623739
 20
571.9857688009
 30
0.0
 10
728.6518035336
 20
572.0734984141
 30
0.0
  0
SPLINE
  5
2F0
100
AcDbEntity
  8
0
100
AcDbSpline
 62
7
  6
CONTINUOUS
 70
0
 71
3
 72
11
 73
7
 74
0
 42
0.0000001
 43
0.0000001
 44
0.0000000001
 40
0.0
 40
0.0
 40
0.0
 40
0.0
 40
0.2460250624
 40
0.4989372739
 40
0.7523917812
 40
1.0
 40
1.0
 40
1.0
 40
1.0
 10
727.598067013
 20
579.5262563944
 30
0.0
 10
727.8169013155
 20
579.2995685804
 30
0.0
 10
728.231624744
 20
578.8110640891
 30
0.0
 10
728.7678688533
 20
578.0081462996
 30
0.0
 10
729.2122413849
 20
577.1486857315
 30
0.0
 10
729.4407958054
 20
576.547155274
 30
0.0
 10
729.5346254501
 20
576.244246718
 30
0.0
  0
SPLINE
  5
2F1
100
AcDbEntity
  8
0
100
AcDbSpline
 62
7
  6
CONTINUOUS
 70
0
 71
3
 72
9
 73
5
 74
0
 42
0.0000001
 43
0.0000001
 44
0.0000000001
 40
0.0
 40
0.0
 40
0.0
 40
0.0
 40
0.5195704711
 40
1.0
 40
1.0
 40
1.0
 40
1.0
 10
729.5346254501
 20
576.244246718
 30
0.0
 10
729.628358448
 20
575.9416501649
 30
0.0
 10
729.772572568
 20
575.3471984256
 30
0.0
 10
729.8287853916
 20
574.7369921066
 30
0.0
 10
729.8287853916
 20
574.4440747487
 30
0.0
  0
SPLINE
  5
2F2
100
AcDbEntity
  8
0
100
AcDbSpline
 62
7
  6
CONTINUOUS
 70
0
 71
3
 72
9
 73
5
 74
0
 42
0.0000001
 43
0.0000001
 44
0.0000000001
 40
0.0
 40
0.0
 40
0.0
 40
0.0
 40
0.2727195743
 40
1.0
 40
1.0
 40
1.0
 40
1.0
 10
729.8287853916
 20
574.4440747487
 30
0.0
 10
729.8287853916
 20
574.3082884787
 30
0.0
 10
729.8075199097
 20
573.8114782569
 30
0.0
 10
729.6927340546
 20
573.3123822896
 30
0.0
 10
729.5358173992
 20
572.9860368035
 30
0.0
  0
SPLINE
  5
2F3
100
AcDbEntity
  8
0
100
AcDbSpline
 62
7
  6
CONTINUOUS
 70
0
 71
3
 72
9
 73
5
 74
0
 42
0.0000001
 43
0.0000001
 44
0.0000000001
 40
0.0
 40
0.0
 40
0.0
 40
0.0
 40
0.5157665712
 40
1.0
 40
1.0
 40
1.0
 40
1.0
 10
729.5358173992
 20
572.9860368035
 30
0.0
 10
729.4518362929
 20
572.8113781295
 30
0.0
 10
729.2462587328
 20
572.4902156555
 30
0.0
 10
728.9507954623
 20
572.2461289249
 30
0.0
 10
728.7932236635
 20
572.1551483429
 30
0.0
  0
SPLINE
  5
2F4
100
AcDbEntity
  8
0
100
AcDbSpline
 62
7
  6
CONTINUOUS
 70
0
 71
3
 72
9
 73
5
 74
0
 42
0.0000001
 43
0.0000001
 44
0.0000000001
 40
0.0
 40
0.0
 40
0.0
 40
0.0
 40
0.4804724667
 40
1.0
 40
1.0
 40
1.0
 40
1.0
 10
729.6873646242
 20
574.3624259179
 30
0.0
 10
729.6873646242
 20
574.6542927647
 30
0.0
 10
729.6315552616
 20
575.2622548917
 30
0.0
 10
729.4883068614
 20
575.8546167063
 30
0.0
 10
729.3951962199
 20
576.156159719
 30
0.0
  0
SPLINE
  5
2F5
100
AcDbEntity
  8
0
100
AcDbSpline
 62
7
  6
CONTINUOUS
 70
0
 71
3
 72
9
 73
5
 74
0
 42
0.0000001
 43
0.0000001
 44
0.0000000001
 40
0.0
 40
0.0
 40
0.0
 40
0.0
 40
0.4995758939
 40
1.0
 40
1.0
 40
1.0
 40
1.0
 10
729.3951962199
 20
576.156159719
 30
0.0
 10
729.2169205182
 20
576.7335136213
 30
0.0
 10
728.7228356184
 20
577.8491135683
 30
0.0
 10
728.011488354
 20
578.8402809432
 30
0.0
 10
727.6038133189
 20
579.2876753111
 30
0.0
  0
SPLINE
  5
2F6
100
AcDbEntity
  8
0
100
AcDbSpline
 62
7
  6
CONTINUOUS
 70
0
 71
3
 72
11
 73
7
 74
0
 42
0.0000001
 43
0.0000001
 44
0.0000000001
 40
0.0
 40
0.0
 40
0.0
 40
0.0
 40
0.2254764443
 40
0.4633940083
 40
0.7203132854
 40
1.0
 40
1.0
 40
1.0
 40
1.0
 10
728.7883581501
 20
572.1614643503
 30
0.0
 10
728.9060965825
 20
572.245654002
 30
0.0
 10
729.1261802736
 20
572.4511964201
 30
0.0
 10
729.3814222087
 20
572.8411604334
 30
0.0
 10
729.563477447
 20
573.3070072402
 30
0.0
 10
729.6314968332
 20
573.6464246105
 30
0.0
 10
729.65430331
 20
573.8245118218
 30
0.0
  0
SPLINE
  5
2F7
100
AcDbEntity
  8
0
100
AcDbSpline
 62
7
  6
CONTINUOUS
 70
0
 71
3
 72
9
 73
5
 74
0
 42
0.0000001
 43
0.0000001
 44
0.0000000001
 40
0.0
 40
0.0
 40
0.0
 40
0.0
 40
0.2432991862
 40
1.0
 40
1.0
 40
1.0
 40
1.0
 10
729.65430331
 20
573.8245118218
 30
0.0
 10
729.6598573853
 20
573.867881509
 30
0.0
 10
729.6795946229
 20
574.0465273984
 30
0.0
 10
729.6873646242
 20
574.2264374065
 30
0.0
 10
729.6873646242
 20
574.3624259179
 30
0.0
  0
SPLINE
  5
2F8
100
AcDbEntity
  8
0
100
AcDbSpline
 62
7
  6
CONTINUOUS
 70
0
 71
3
 72
9
 73
5
 74
0
 42
0.0000001
 43
0.0000001
 44
0.0000000001
 40
0.0
 40
0.0
 40
0.0
 40
0.0
 40
0.5147838082
 40
1.0
 40
1.0
 40
1.0
 40
1.0
 10
727.6037284132
 20
878.0314111033
 30
0.0
 10
727.7895648653
 20
878.0207660072
 30
0.0
 10
728.1555339641
 20
878.0434326742
 30
0.0
 10
728.4998623739
 20
878.1741752245
 30
0.0
 10
728.6518035336
 20
878.2619048377
 30
0.0
  0
SPLINE
  5
2F9
100
AcDbEntity
  8
0
100
AcDbSpline
 62
7
  6
CONTINUOUS
 70
0
 71
3
 72
11
 73
7
 74
0
 42
0.0000001
 43
0.0000001
 44
0.0000000001
 40
0.0
 40
0.0
 40
0.0
 40
0.0
 40
0.2460250624
 40
0.4989372739
 40
0.7523917812
 40
1.0
 40
1.0
 40
1.0
 40
1.0
 10
727.598067013
 20
885.714662818
 30
0.0
 10
727.8169013155
 20
885.487975004
 30
0.0
 10
728.231624744
 20
884.9994705127
 30
0.0
 10
728.7678688533
 20
884.1965527232
 30
0.0
 10
729.2122413849
 20
883.3370921551
 30
0.0
 10
729.4407958054
 20
882.7355616976
 30
0.0
 10
729.5346254501
 20
882.4326531416
 30
0.0
  0
SPLINE
  5
2FA
100
AcDbEntity
  8
0
100
AcDbSpline
 62
7
  6
CONTINUOUS
 70
0
 71
3
 72
9
 73
5
 74
0
 42
0.0000001
 43
0.0000001
 44
0.0000000001
 40
0.0
 40
0.0
 40
0.0
 40
0.0
 40
0.5195704711
 40
1.0
 40
1.0
 40
1.0
 40
1.0
 10
729.5346254501
 20
882.4326531416
 30
0.0
 10
729.628358448
 20
882.1300565884
 30
0.0
 10
729.772572568
 20
881.5356048492
 30
0.0
 10
729.8287853916
 20
880.9253985302
 30
0.0
 10
729.8287853916
 20
880.6324811723
 30
0.0
  0
SPLINE
  5
2FB
100
AcDbEntity
  8
0
100
AcDbSpline
 62
7
  6
CONTINUOUS
 70
0
 71
3
 72
9
 73
5
 74
0
 42
0.0000001
 43
0.0000001
 44
0.0000000001
 40
0.0
 40
0.0
 40
0.0
 40
0.0
 40
0.2727195743
 40
1.0
 40
1.0
 40
1.0
 40
1.0
 10
729.8287853916
 20
880.6324811723
 30
0.0
 10
729.8287853916
 20
880.4966949023
 30
0.0
 10
729.8075199097
 20
879.9998846805
 30
0.0
 10
729.6927340546
 20
879.5007887132
 30
0.0
 10
729.5358173992
 20
879.1744432271
 30
0.0
  0
SPLINE
  5
2FC
100
AcDbEntity
  8
0
100
AcDbSpline
 62
7
  6
CONTINUOUS
 70
0
 71
3
 72
9
 73
5
 74
0
 42
0.0000001
 43
0.0000001
 44
0.0000000001
 40
0.0
 40
0.0
 40
0.0
 40
0.0
 40
0.5157665712
 40
1.0
 40
1.0
 40
1.0
 40
1.0
 10
729.5358173992
 20
879.1744432271
 30
0.0
 10
729.4518362929
 20
878.9997845531
 30
0.0
 10
729.2462587328
 20
878.6786220791
 30
0.0
 10
728.9507954623
 20
878.4345353485
 30
0.0
 10
728.7932236635
 20
878.3435547665
 30
0.0
  0
SPLINE
  5
2FD
100
AcDbEntity
  8
0
100
AcDbSpline
 62
7
  6
CONTINUOUS
 70
0
 71
3
 72
9
 73
5
 74
0
 42
0.0000001
 43
0.0000001
 44
0.0000000001
 40
0.0
 40
0.0
 40
0.0
 40
0.0
 40
0.4804724667
 40
1.0
 40
1.0
 40
1.0
 40
1.0
 10
729.6873646242
 20
880.5508323415
 30
0.0
 10
729.6873646242
 20
880.8426991883
 30
0.0
 10
729.6315552616
 20
881.4506613153
 30
0.0
 10
729.4883068614
 20
882.0430231298
 30
0.0
 10
729.3951962199
 20
882.3445661426
 30
0.0
  0
SPLINE
  5
2FE
100
AcDbEntity
  8
0
100
AcDbSpline
 62
7
  6
CONTINUOUS
 70
0
 71
3
 72
9
 73
5
 74
0
 42
0.0000001
 43
0.0000001
 44
0.0000000001
 40
0.0
 40
0.0
 40
0.0
 40
0.0
 40
0.4995758939
 40
1.0
 40
1.0
 40
1.0
 40
1.0
 10
729.3951962199
 20
882.3445661426
 30
0.0
 10
729.2169205182
 20
882.9219200449
 30
0.0
 10
728.7228356184
 20
884.0375199919
 30
0.0
 10
728.011488354
 20
885.0286873668
 30
0.0
 10
727.6038133189
 20
885.4760817347
 30
0.0
  0
SPLINE
  5
2FF
100
AcDbEntity
  8
0
100
AcDbSpline
 62
7
  6
CONTINUOUS
 70
0
 71
3
 72
11
 73
7
 74
0
 42
0.0000001
 43
0.0000001
 44
0.0000000001
 40
0.0
 40
0.0
 40
0.0
 40
0.0
 40
0.2254764443
 40
0.4633940083
 40
0.7203132854
 40
1.0
 40
1.0
 40
1.0
 40
1.0
 10
728.7883581501
 20
878.3498707739
 30
0.0
 10
728.9060965825
 20
878.4340604256
 30
0.0
 10
729.1261802736
 20
878.6396028437
 30
0.0
 10
729.3814222087
 20
879.029566857
 30
0.0
 10
729.563477447
 20
879.4954136638
 30
0.0
 10
729.6314968332
 20
879.8348310341
 30
0.0
 10
729.65430331
 20
880.0129182454
 30
0.0
  0
SPLINE
  5
300
100
AcDbEntity
  8
0
100
AcDbSpline
 62
7
  6
CONTINUOUS
 70
0
 71
3
 72
9
 73
5
 74
0
 42
0.0000001
 43
0.0000001
 44
0.0000000001
 40
0.0
 40
0.0
 40
0.0
 40
0.0
 40
0.2432991862
 40
1.0
 40
1.0
 40
1.0
 40
1.0
 10
729.65430331
 20
880.0129182454
 30
0.0
 10
729.6598573853
 20
880.0562879326
 30
0.0
 10
729.6795946229
 20
880.2349338219
 30
0.0
 10
729.6873646242
 20
880.4148438301
 30
0.0
 10
729.6873646242
 20
880.5508323415
 30
0.0
  0
SPLINE
  5
301
100
AcDbEntity
  8
0
100
AcDbSpline
 62
7
  6
CONTINUOUS
 70
0
 71
3
 72
9
 73
5
 74
0
 42
0.0000001
 43
0.0000001
 44
0.0000000001
 40
0.0
 40
0.0
 40
0.0
 40
0.0
 40
0.226322287
 40
1.0
 40
1.0
 40
1.0
 40
1.0
 10
672.86602161
 20
539.9107222556
 30
0.0
 10
672.8656530948
 20
539.9030672498
 30
0.0
 10
672.8685415349
 20
539.8691039244
 30
0.0
 10
672.8842539142
 20
539.836939727
 30
0.0
 10
672.9005381707
 20
539.8164166017
 30
0.0
  0
SPLINE
  5
302
100
AcDbEntity
  8
0
100
AcDbSpline
 62
7
  6
CONTINUOUS
 70
0
 71
3
 72
15
 73
11
 74
0
 42
0.0000001
 43
0.0000001
 44
0.0000000001
 40
0.0
 40
0.0
 40
0.0
 40
0.0
 40
0.1177371391
 40
0.2437395675
 40
0.37521668
 40
0.5088985012
 40
0.6413408521
 40
0.7691984644
 40
0.8895075249
 40
1.0
 40
1.0
 40
1.0
 40
1.0
 10
672.865645366
 20
539.0599817028
 30
0.0
 10
672.8907392176
 20
538.6091112809
 30
0.0
 10
673.0198909526
 20
537.6791661354
 30
0.0
 10
673.4083922675
 20
536.2898377942
 30
0.0
 10
673.9847346079
 20
534.9009186692
 30
0.0
 10
674.7271596015
 20
533.5651953133
 30
0.0
 10
675.6075515395
 20
532.3330168482
 30
0.0
 10
676.5929368795
 20
531.250833875
 30
0.0
 10
677.6459309962
 20
530.359517919
 30
0.0
 10
678.4037757707
 20
529.8925533307
 30
0.0
 10
678.7841491846
 20
529.7057183624
 30
0.0
  0
SPLINE
  5
303
100
AcDbEntity
  8
0
100
AcDbSpline
 62
7
  6
CONTINUOUS
 70
0
 71
3
 72
9
 73
5
 74
0
 42
0.0000001
 43
0.0000001
 44
0.0000000001
 40
0.0
 40
0.0
 40
0.0
 40
0.0
 40
0.2633025912
 40
1.0
 40
1.0
 40
1.0
 40
1.0
 10
678.7841491846
 20
529.7057183624
 30
0.0
 10
678.8940329819
 20
529.6517447274
 30
0.0
 10
679.316855357
 20
529.4585139192
 30
0.0
 10
679.7635093842
 20
529.3144802591
 30
0.0
 10
680.0995604484
 20
529.2481682751
 30
0.0
  0
SPLINE
  5
304
100
AcDbEntity
  8
0
100
AcDbSpline
 62
7
  6
CONTINUOUS
 70
0
 71
3
 72
9
 73
5
 74
0
 42
0.0000001
 43
0.0000001
 44
0.0000000001
 40
0.0
 40
0.0
 40
0.0
 40
0.0
 40
0.2608481238
 40
1.0
 40
1.0
 40
1.0
 40
1.0
 10
673.0730422368
 20
539.3657189784
 30
0.0
 10
673.0730390088
 20
539.3584141646
 30
0.0
 10
673.072368232
 20
539.3304196774
 30
0.0
 10
673.0689942575
 20
539.3024482954
 30
0.0
 10
673.0646261612
 20
539.2822151601
 30
0.0
  0
SPLINE
  5
305
100
AcDbEntity
  8
0
100
AcDbSpline
 62
7
  6
CONTINUOUS
 70
0
 71
3
 72
9
 73
5
 74
0
 42
0.0000001
 43
0.0000001
 44
0.0000000001
 40
0.0
 40
0.0
 40
0.0
 40
0.0
 40
0.2658081011
 40
1.0
 40
1.0
 40
1.0
 40
1.0
 10
673.0646261612
 20
539.2822151601
 30
0.0
 10
673.0628624223
 20
539.274045476
 30
0.0
 10
673.0550770655
 20
539.2435932821
 30
0.0
 10
673.0422653218
 20
539.2142491145
 30
0.0
 10
673.0296598089
 20
539.1949090088
 30
0.0
  0
SPLINE
  5
306
100
AcDbEntity
  8
0
100
AcDbSpline
 62
7
  6
CONTINUOUS
 70
0
 71
3
 72
9
 73
5
 74
0
 42
0.0000001
 43
0.0000001
 44
0.0000000001
 40
0.0
 40
0.0
 40
0.0
 40
0.0
 40
0.258754375
 40
1.0
 40
1.0
 40
1.0
 40
1.0
 10
673.0296598089
 20
539.1949090088
 30
0.0
 10
673.0258564584
 20
539.189073689
 30
0.0
 10
673.0100504794
 20
539.1672736681
 30
0.0
 10
672.9894170272
 20
539.1488949833
 30
0.0
 10
672.9723651339
 20
539.1385328069
 30
0.0
  0
SPLINE
  5
307
100
AcDbEntity
  8
0
100
AcDbSpline
 62
7
  6
CONTINUOUS
 70
0
 71
3
 72
9
 73
5
 74
0
 42
0.0000001
 43
0.0000001
 44
0.0000000001
 40
0.0
 40
0.0
 40
0.0
 40
0.0
 40
0.5107401477
 40
1.0
 40
1.0
 40
1.0
 40
1.0
 10
672.9005381707
 20
539.8164166017
 30
0.0
 10
672.9422571055
 20
539.7636333531
 30
0.0
 10
673.0114376414
 20
539.6500503795
 30
0.0
 10
673.0534714269
 20
539.5234890311
 30
0.0
 10
673.0645145185
 20
539.4599921777
 30
0.0
  0
SPLINE
  5
308
100
AcDbEntity
  8
0
100
AcDbSpline
 62
7
  6
CONTINUOUS
 70
0
 71
3
 72
9
 73
5
 74
0
 42
0.0000001
 43
0.0000001
 44
0.0000000001
 40
0.0
 40
0.0
 40
0.0
 40
0.0
 40
0.2592960674
 40
1.0
 40
1.0
 40
1.0
 40
1.0
 10
673.0645145185
 20
539.4599921777
 30
0.0
 10
673.0659173115
 20
539.4519262351
 30
0.0
 10
673.0707186465
 20
539.4207200307
 30
0.0
 10
673.0730525715
 20
539.3891059727
 30
0.0
 10
673.0730422368
 20
539.3657189784
 30
0.0
  0
SPLINE
  5
309
100
AcDbEntity
  8
0
100
AcDbSpline
 62
7
  6
CONTINUOUS
 70
0
 71
3
 72
11
 73
7
 74
0
 42
0.0000001
 43
0.0000001
 44
0.0000000001
 40
0.0
 40
0.0
 40
0.0
 40
0.0
 40
0.2859630379
 40
0.5438733049
 40
0.7789180205
 40
1.0
 40
1.0
 40
1.0
 40
1.0
 10
677.895720637
 20
539.8848847167
 30
0.0
 10
677.7708035427
 20
539.9294652088
 30
0.0
 10
677.5263951959
 20
539.9971242058
 30
0.0
 10
677.164224867
 20
540.0293174826
 30
0.0
 10
676.8328944268
 20
539.9871939635
 30
0.0
 10
676.6333280406
 20
539.9093780808
 30
0.0
 10
676.543427146
 20
539.8600579374
 30
0.0
  0
SPLINE
  5
30A
100
AcDbEntity
  8
0
100
AcDbSpline
 62
7
  6
CONTINUOUS
 70
0
 71
3
 72
9
 73
5
 74
0
 42
0.0000001
 43
0.0000001
 44
0.0000000001
 40
0.0
 40
0.0
 40
0.0
 40
0.0
 40
0.4457485871
 40
1.0
 40
1.0
 40
1.0
 40
1.0
 10
672.8855087608
 20
539.109374036
 30
0.0
 10
672.8785515688
 20
539.1050405299
 30
0.0
 10
672.8667675552
 20
539.0891007131
 30
0.0
 10
672.8651762523
 20
539.0701625068
 30
0.0
 10
672.865645366
 20
539.0599817028
 30
0.0
  0
SPLINE
  5
30B
100
AcDbEntity
  8
0
100
AcDbSpline
 62
7
  6
CONTINUOUS
 70
0
 71
3
 72
9
 73
5
 74
0
 42
0.0000001
 43
0.0000001
 44
0.0000000001
 40
0.0
 40
0.0
 40
0.0
 40
0.0
 40
0.482868844
 40
1.0
 40
1.0
 40
1.0
 40
1.0
 10
674.42621749
 20
543.0412577185
 30
0.0
 10
674.1777391954
 20
542.8907815833
 30
0.0
 10
673.7141313092
 20
542.4883456812
 30
0.0
 10
673.3986982755
 20
541.9656452051
 30
0.0
 10
673.2710756057
 20
541.6819253282
 30
0.0
  0
SPLINE
  5
30C
100
AcDbEntity
  8
0
100
AcDbSpline
 62
7
  6
CONTINUOUS
 70
0
 71
3
 72
9
 73
5
 74
0
 42
0.0000001
 43
0.0000001
 44
0.0000000001
 40
0.0
 40
0.0
 40
0.0
 40
0.0
 40
0.2454977855
 40
1.0
 40
1.0
 40
1.0
 40
1.0
 10
673.2710756057
 20
541.6819253282
 30
0.0
 10
673.2557333135
 20
541.6478176477
 30
0.0
 10
673.19526624
 20
541.5079782353
 30
0.0
 10
673.1428413815
 20
541.3646898195
 30
0.0
 10
673.1075556444
 20
541.2552980792
 30
0.0
  0
SPLINE
  5
30D
100
AcDbEntity
  8
0
100
AcDbSpline
 62
7
  6
CONTINUOUS
 70
0
 71
3
 72
9
 73
5
 74
0
 42
0.0000001
 43
0.0000001
 44
0.0000000001
 40
0.0
 40
0.0
 40
0.0
 40
0.0
 40
0.2415619182
 40
1.0
 40
1.0
 40
1.0
 40
1.0
 10
673.0009523913
 20
540.8682757695
 30
0.0
 10
672.9833938393
 20
540.7923635475
 30
0.0
 10
672.9180012277
 20
540.4764367493
 30
0.0
 10
672.8807773224
 20
540.154912994
 30
0.0
 10
672.86602161
 20
539.9107222556
 30
0.0
  0
SPLINE
  5
30E
100
AcDbEntity
  8
0
100
AcDbSpline
 62
7
  6
CONTINUOUS
 70
0
 71
3
 72
14
 73
10
 74
0
 42
0.0000001
 43
0.0000001
 44
0.0000000001
 40
0.0
 40
0.0
 40
0.0
 40
0.0
 40
0.1378285675
 40
0.2916591369
 40
0.4513280705
 40
0.6064983017
 40
0.7469593815
 40
0.8630351085
 40
1.0
 40
1.0
 40
1.0
 40
1.0
 10
674.8467082235
 20
538.4381185672
 30
0.0
 10
674.8423780243
 20
538.5160066212
 30
0.0
 10
674.8131562889
 20
538.6798579316
 30
0.0
 10
674.7243477937
 20
538.9204529707
 30
0.0
 10
674.5934469152
 20
539.1525917024
 30
0.0
 10
674.4329991378
 20
539.3551433337
 30
0.0
 10
674.2557924031
 20
539.5110384191
 30
0.0
 10
674.065878737
 20
539.6205133976
 30
0.0
 10
673.9038339063
 20
539.6478186625
 30
0.0
 10
673.8350883531
 20
539.6119951683
 30
0.0
  0
SPLINE
  5
30F
100
AcDbEntity
  8
0
100
AcDbSpline
 62
7
  6
CONTINUOUS
 70
0
 71
3
 72
10
 73
6
 74
0
 42
0.0000001
 43
0.0000001
 44
0.0000000001
 40
0.0
 40
0.0
 40
0.0
 40
0.0
 40
0.3661128453
 40
0.6492988639
 40
1.0
 40
1.0
 40
1.0
 40
1.0
 10
674.7273872125
 20
538.0648996862
 30
0.0
 10
674.7691564552
 20
538.0914327204
 30
0.0
 10
674.8192745478
 20
538.1725811066
 30
0.0
 10
674.8474701997
 20
538.3042617603
 30
0.0
 10
674.8493394266
 20
538.3907906552
 30
0.0
 10
674.8467082235
 20
538.4381185672
 30
0.0
  0
SPLINE
  5
310
100
AcDbEntity
  8
0
100
AcDbSpline
 62
7
  6
CONTINUOUS
 70
0
 71
3
 72
16
 73
12
 74
0
 42
0.0000001
 43
0.0000001
 44
0.0000000001
 40
0.0
 40
0.0
 40
0.0
 40
0.0
 40
0.0433029981
 40
0.0889789139
 40
0.1901041996
 40
0.3065053796
 40
0.4368107652
 40
0.5770179971
 40
0.7216362329
 40
0.8645807069
 40
1.0
 40
1.0
 40
1.0
 40
1.0
 10
680.2525706177
 20
532.806993087
 30
0.0
 10
680.1569678507
 20
532.7760453398
 30
0.0
 10
679.9530715637
 20
532.7338114902
 30
0.0
 10
679.5096369095
 20
532.7304514575
 30
0.0
 10
678.90893412
 20
532.8889155702
 30
0.0
 10
678.2001866063
 20
533.2871557804
 30
0.0
 10
677.5133207527
 20
533.8728023052
 30
0.0
 10
676.8886550266
 20
534.6109988398
 30
0.0
 10
676.3631406404
 20
535.4573030434
 30
0.0
 10
675.9689659642
 20
536.359786427
 30
0.0
 10
675.8030301104
 20
536.9877778851
 30
0.0
 10
675.7513557202
 20
537.2977483346
 30
0.0
  0
SPLINE
  5
311
100
AcDbEntity
  8
0
100
AcDbSpline
 62
7
  6
CONTINUOUS
 70
0
 71
3
 72
9
 73
5
 74
0
 42
0.0000001
 43
0.0000001
 44
0.0000000001
 40
0.0
 40
0.0
 40
0.0
 40
0.0
 40
0.2586835582
 40
1.0
 40
1.0
 40
1.0
 40
1.0
 10
675.474111351
 20
537.2633219865
 30
0.0
 10
675.4633745246
 20
537.3277271763
 30
0.0
 10
675.4265424397
 20
537.5774324066
 30
0.0
 10
675.4088660224
 20
537.8301501984
 30
0.0
 10
675.4089541843
 20
538.017264985
 30
0.0
  0
SPLINE
  5
312
100
AcDbEntity
  8
0
100
AcDbSpline
 62
7
  6
CONTINUOUS
 70
0
 71
3
 72
17
 73
13
 74
0
 42
0.0000001
 43
0.0000001
 44
0.0000000001
 40
0.0
 40
0.0
 40
0.0
 40
0.0
 40
0.0429890043
 40
0.0880068036
 40
0.1360514286
 40
0.1877642816
 40
0.3028711513
 40
0.4327344818
 40
0.5733706541
 40
0.7190549931
 40
0.8633445081
 40
1.0
 40
1.0
 40
1.0
 40
1.0
 10
680.3232948813
 20
532.5938511104
 30
0.0
 10
680.2252389173
 20
532.551923771
 30
0.0
 10
680.0141054307
 20
532.4887692458
 30
0.0
 10
679.6755898352
 20
532.4616312851
 30
0.0
 10
679.3166277152
 20
532.4998527292
 30
0.0
 10
678.8007422785
 20
532.6412057734
 30
0.0
 10
678.1406162715
 20
532.9846075651
 30
0.0
 10
677.396486546
 20
533.5934282433
 30
0.0
 10
676.7156233349
 20
534.3754366142
 30
0.0
 10
676.1414849152
 20
535.2809347771
 30
0.0
 10
675.7106106061
 20
536.2516331409
 30
0.0
 10
675.5298565405
 20
536.9289327198
 30
0.0
 10
675.474111351
 20
537.2633219865
 30
0.0
  0
SPLINE
  5
313
100
AcDbEntity
  8
0
100
AcDbSpline
 62
7
  6
CONTINUOUS
 70
0
 71
3
 72
15
 73
11
 74
0
 42
0.0000001
 43
0.0000001
 44
0.0000000001
 40
0.0
 40
0.0
 40
0.0
 40
0.0
 40
0.1488693235
 40
0.2838323317
 40
0.4062865779
 40
0.5197930409
 40
0.6299611699
 40
0.7432872158
 40
0.8654227761
 40
1.0
 40
1.0
 40
1.0
 40
1.0
 10
675.4089541843
 20
538.017264985
 30
0.0
 10
675.4090436034
 20
538.2070481561
 30
0.0
 10
675.4350277044
 20
538.5698210165
 30
0.0
 10
675.564618485
 20
539.0746932636
 30
0.0
 10
675.7816667442
 20
539.5000835196
 30
0.0
 10
676.0832082485
 20
539.8305748159
 30
0.0
 10
676.460296121
 20
540.0503248426
 30
0.0
 10
676.8960052982
 20
540.1493167559
 30
0.0
 10
677.3718407549
 20
540.127634855
 30
0.0
 10
677.6898928625
 20
540.0404084995
 30
0.0
 10
677.8508551965
 20
539.9810363415
 30
0.0
  0
SPLINE
  5
314
100
AcDbEntity
  8
0
100
AcDbSpline
 62
7
  6
CONTINUOUS
 70
0
 71
3
 72
19
 73
15
 74
0
 42
0.0000001
 43
0.0000001
 44
0.0000000001
 40
0.0
 40
0.0
 40
0.0
 40
0.0
 40
0.0628220028
 40
0.1193935224
 40
0.170139077
 40
0.2166967953
 40
0.2617924798
 40
0.308628182
 40
0.3598530844
 40
0.4169727771
 40
0.5490903995
 40
0.699338846
 40
0.8545429846
 40
1.0
 40
1.0
 40
1.0
 40
1.0
 10
673.3624352985
 20
539.1390603304
 30
0.0
 10
673.3593256538
 20
539.1949940562
 30
0.0
 10
673.3611986727
 20
539.3020261325
 30
0.0
 10
673.392091235
 20
539.4516416397
 30
0.0
 10
673.4508104357
 20
539.5773793097
 30
0.0
 10
673.5366420552
 20
539.6738248382
 30
0.0
 10
673.64665344
 20
539.7350290135
 30
0.0
 10
673.7744176564
 20
539.7575529532
 30
0.0
 10
673.9134539729
 20
539.7420945095
 30
0.0
 10
674.1169656122
 20
539.6701275213
 30
0.0
 10
674.3677655582
 20
539.4911272398
 30
0.0
 10
674.6216103014
 20
539.1909428925
 30
0.0
 10
674.8115348546
 20
538.8332875613
 30
0.0
 10
674.8830701214
 20
538.5713885929
 30
0.0
 10
674.8983968812
 20
538.4425893056
 30
0.0
  0
SPLINE
  5
315
100
AcDbEntity
  8
0
100
AcDbSpline
 62
7
  6
CONTINUOUS
 70
0
 71
3
 72
19
 73
15
 74
0
 42
0.0000001
 43
0.0000001
 44
0.0000000001
 40
0.0
 40
0.0
 40
0.0
 40
0.0
 40
0.0605677452
 40
0.114904148
 40
0.1638381489
 40
0.2094520337
 40
0.254775935
 40
0.3029427164
 40
0.3562239612
 40
0.4156813193
 40
0.5519672093
 40
0.704193851
 40
0.8583968584
 40
1.0
 40
1.0
 40
1.0
 40
1.0
 10
674.906674404
 20
538.3070949024
 30
0.0
 10
674.9066504066
 20
538.2527899227
 30
0.0
 10
674.8985384509
 20
538.1494307448
 30
0.0
 10
674.8575649203
 20
538.0071029083
 30
0.0
 10
674.7886411268
 20
537.8906934736
 30
0.0
 10
674.6930058453
 20
537.806031677
 30
0.0
 10
674.5750427907
 20
537.7587215913
 30
0.0
 10
674.4418048657
 20
537.7505809663
 30
0.0
 10
674.2991993483
 20
537.77998044
 30
0.0
 10
674.0936516549
 20
537.8703599373
 30
0.0
 10
673.8459896449
 20
538.0680551089
 30
0.0
 10
673.6014360158
 20
538.3844385232
 30
0.0
 10
673.4272456396
 20
538.749579181
 30
0.0
 10
673.3694828471
 20
539.0122948368
 30
0.0
 10
673.3624352985
 20
539.1390603304
 30
0.0
  0
SPLINE
  5
316
100
AcDbEntity
  8
0
100
AcDbSpline
 62
7
  6
CONTINUOUS
 70
0
 71
3
 72
9
 73
5
 74
0
 42
0.0000001
 43
0.0000001
 44
0.0000000001
 40
0.0
 40
0.0
 40
0.0
 40
0.0
 40
0.4680236492
 40
1.0
 40
1.0
 40
1.0
 40
1.0
 10
677.5006468162
 20
539.4055867645
 30
0.0
 10
677.4795610286
 20
539.4177593829
 30
0.0
 10
677.4451779244
 20
539.4623503625
 30
0.0
 10
677.4385562419
 20
539.515340434
 30
0.0
 10
677.4385684254
 20
539.5430144625
 30
0.0
  0
SPLINE
  5
317
100
AcDbEntity
  8
0
100
AcDbSpline
 62
7
  6
CONTINUOUS
 70
0
 71
3
 72
15
 73
11
 74
0
 42
0.0000001
 43
0.0000001
 44
0.0000000001
 40
0.0
 40
0.0
 40
0.0
 40
0.0
 40
0.0866151418
 40
0.1845882507
 40
0.2999780233
 40
0.4320449469
 40
0.5756968849
 40
0.7235451408
 40
0.8674473742
 40
1.0
 40
1.0
 40
1.0
 40
1.0
 10
674.7273859681
 20
538.0649018353
 30
0.0
 10
674.6849426193
 20
538.0379504421
 30
0.0
 10
674.5777475
 20
538.0047296562
 30
0.0
 10
674.4016916242
 20
538.0322217263
 30
0.0
 10
674.2205391919
 20
538.123293358
 30
0.0
 10
674.0449622071
 20
538.2696791492
 30
0.0
 10
673.8874178638
 20
538.4600113266
 30
0.0
 10
673.7600007341
 20
538.6796298408
 30
0.0
 10
673.672693992
 20
538.9110920051
 30
0.0
 10
673.6442165247
 20
539.0704305378
 30
0.0
 10
673.6399454802
 20
539.1472545648
 30
0.0
  0
SPLINE
  5
318
100
AcDbEntity
  8
0
100
AcDbSpline
 62
7
  6
CONTINUOUS
 70
0
 71
3
 72
11
 73
7
 74
0
 42
0.0000001
 43
0.0000001
 44
0.0000000001
 40
0.0
 40
0.0
 40
0.0
 40
0.0
 40
0.2905089148
 40
0.5495555861
 40
0.7820541614
 40
1.0
 40
1.0
 40
1.0
 40
1.0
 10
673.6385595456
 20
539.1967417084
 30
0.0
 10
673.6385801554
 20
539.2433806955
 30
0.0
 10
673.645867166
 20
539.3319304037
 30
0.0
 10
673.683021143
 20
539.4531301389
 30
0.0
 10
673.7455811886
 20
539.5503689896
 30
0.0
 10
673.8040608029
 20
539.5958228063
 30
0.0
 10
673.835091263
 20
539.6119900157
 30
0.0
  0
SPLINE
  5
319
100
AcDbEntity
  8
0
100
AcDbSpline
 62
7
  6
CONTINUOUS
 70
0
 71
3
 72
9
 73
5
 74
0
 42
0.0000001
 43
0.0000001
 44
0.0000000001
 40
0.0
 40
0.0
 40
0.0
 40
0.0
 40
0.2394493522
 40
1.0
 40
1.0
 40
1.0
 40
1.0
 10
677.3411674741
 20
540.0270977665
 30
0.0
 10
677.3194798351
 20
539.9878361881
 30
0.0
 10
677.2351395078
 20
539.8204424784
 30
0.0
 10
677.1754080111
 20
539.6411580998
 30
0.0
 10
677.1419159818
 20
539.5026853857
 30
0.0
  0
SPLINE
  5
31A
100
AcDbEntity
  8
0
100
AcDbSpline
 62
7
  6
CONTINUOUS
 70
0
 71
3
 72
11
 73
7
 74
0
 42
0.0000001
 43
0.0000001
 44
0.0000000001
 40
0.0
 40
0.0
 40
0.0
 40
0.0
 40
0.2901763379
 40
0.5492871758
 40
0.7821492433
 40
1.0
 40
1.0
 40
1.0
 40
1.0
 10
675.6893043397
 20
538.015617995
 30
0.0
 10
675.6893952404
 20
538.2213223299
 30
0.0
 10
675.7210603871
 20
538.6120948196
 30
0.0
 10
675.8824571736
 20
539.1479076146
 30
0.0
 10
676.1536972171
 20
539.5803141266
 30
0.0
 10
676.4080347315
 20
539.7857713925
 30
0.0
 10
676.5434276524
 20
539.8600570471
 30
0.0
  0
SPLINE
  5
31B
100
AcDbEntity
  8
0
100
AcDbSpline
 62
7
  6
CONTINUOUS
 70
0
 71
3
 72
9
 73
5
 74
0
 42
0.0000001
 43
0.0000001
 44
0.0000000001
 40
0.0
 40
0.0
 40
0.0
 40
0.0
 40
0.2586816966
 40
1.0
 40
1.0
 40
1.0
 40
1.0
 10
675.7513557202
 20
537.2977483346
 30
0.0
 10
675.7411326724
 20
537.3590716072
 30
0.0
 10
675.7060619445
 20
537.5968295019
 30
0.0
 10
675.6892256096
 20
537.8374552935
 30
0.0
 10
675.6893043397
 20
538.015617995
 30
0.0
  0
LINE
  5
31C
100
AcDbEntity
  8
0
100
AcDbLine
 62
7
  6
CONTINUOUS
 10
677.4081950098
 20
538.3456226297
 11
678.370176132
 21
538.9035743757
  0
SPLINE
  5
31D
100
AcDbEntity
  8
0
100
AcDbSpline
 62
7
  6
CONTINUOUS
 70
0
 71
3
 72
9
 73
5
 74
0
 42
0.0000001
 43
0.0000001
 44
0.0000000001
 40
0.0
 40
0.0
 40
0.0
 40
0.0
 40
0.5224018971
 40
1.0
 40
1.0
 40
1.0
 40
1.0
 10
677.1412360763
 20
537.9640891838
 30
0.0
 10
677.1682097493
 20
538.0418280743
 30
0.0
 10
677.232406495
 20
538.1866019751
 30
0.0
 10
677.3431222407
 20
538.3078749001
 30
0.0
 10
677.4081947063
 20
538.3456224553
 30
0.0
  0
SPLINE
  5
31E
100
AcDbEntity
  8
0
100
AcDbSpline
 62
7
  6
CONTINUOUS
 70
0
 71
3
 72
11
 73
7
 74
0
 42
0.0000001
 43
0.0000001
 44
0.0000000001
 40
0.0
 40
0.0
 40
0.0
 40
0.0
 40
0.2504676335
 40
0.5130062773
 40
0.7686403363
 40
1.0
 40
1.0
 40
1.0
 40
1.0
 10
677.1412360763
 20
537.9640891838
 30
0.0
 10
677.2184453814
 20
537.5541949746
 30
0.0
 10
677.4777851507
 20
536.7322995055
 30
0.0
 10
678.0922319248
 20
535.6013103684
 30
0.0
 10
678.8867291666
 20
534.6293492396
 30
0.0
 10
679.5286547948
 20
534.1175561891
 30
0.0
 10
679.8623208045
 20
533.9249183864
 30
0.0
  0
SPLINE
  5
31F
100
AcDbEntity
  8
0
100
AcDbSpline
 62
7
  6
CONTINUOUS
 70
0
 71
3
 72
9
 73
5
 74
0
 42
0.0000001
 43
0.0000001
 44
0.0000000001
 40
0.0
 40
0.0
 40
0.0
 40
0.0
 40
0.5126962466
 40
1.0
 40
1.0
 40
1.0
 40
1.0
 10
677.4378437648
 20
537.9019774168
 30
0.0
 10
677.3990336276
 20
537.9400071
 30
0.0
 10
677.3037193654
 20
537.9952254159
 30
0.0
 10
677.1853949657
 20
537.990870913
 30
0.0
 10
677.1412360758
 20
537.9640891866
 30
0.0
  0
SPLINE
  5
320
100
AcDbEntity
  8
0
100
AcDbSpline
 62
7
  6
CONTINUOUS
 70
0
 71
3
 72
11
 73
7
 74
0
 42
0.0000001
 43
0.0000001
 44
0.0000000001
 40
0.0
 40
0.0
 40
0.0
 40
0.0
 40
0.249354258
 40
0.5095591344
 40
0.7647428555
 40
1.0
 40
1.0
 40
1.0
 40
1.0
 10
677.4378437607
 20
537.9019774434
 30
0.0
 10
677.5130063493
 20
537.5445395719
 30
0.0
 10
677.7455765379
 20
536.8295558619
 30
0.0
 10
678.2766786373
 20
535.837257186
 30
0.0
 10
678.9576033395
 20
534.9671068995
 30
0.0
 10
679.5045592163
 20
534.4910633906
 30
0.0
 10
679.7909849179
 20
534.2994562533
 30
0.0
  0
SPLINE
  5
321
100
AcDbEntity
  8
0
100
AcDbSpline
 62
7
  6
CONTINUOUS
 70
0
 71
3
 72
9
 73
5
 74
0
 42
0.0000001
 43
0.0000001
 44
0.0000000001
 40
0.0
 40
0.0
 40
0.0
 40
0.0
 40
0.5299244471
 40
1.0
 40
1.0
 40
1.0
 40
1.0
 10
677.2564641268
 20
539.4569243218
 30
0.0
 10
677.2343367773
 20
539.4576329168
 30
0.0
 10
677.1921835853
 20
539.4662005853
 30
0.0
 10
677.1567300312
 20
539.4897931422
 30
0.0
 10
677.1419159818
 20
539.5026853857
 30
0.0
  0
SPLINE
  5
322
100
AcDbEntity
  8
0
100
AcDbSpline
 62
7
  6
CONTINUOUS
 70
0
 71
3
 72
9
 73
5
 74
0
 42
0.0000001
 43
0.0000001
 44
0.0000000001
 40
0.0
 40
0.0
 40
0.0
 40
0.0
 40
0.4989419678
 40
1.0
 40
1.0
 40
1.0
 40
1.0
 10
677.4378431764
 20
537.9019772736
 30
0.0
 10
677.4378750513
 20
537.9738429612
 30
0.0
 10
677.4866634872
 20
538.1161192667
 30
0.0
 10
677.584410727
 20
538.2301748388
 30
0.0
 10
677.6463807401
 20
538.2671653283
 30
0.0
  0
SPLINE
  5
323
100
AcDbEntity
  8
0
100
AcDbSpline
 62
7
  6
CONTINUOUS
 70
0
 71
3
 72
9
 73
5
 74
0
 42
0.0000001
 43
0.0000001
 44
0.0000000001
 40
0.0
 40
0.0
 40
0.0
 40
0.0
 40
0.2326124423
 40
1.0
 40
1.0
 40
1.0
 40
1.0
 10
677.6463807886
 20
538.2671663357
 30
0.0
 10
677.6294850811
 20
538.2769237691
 30
0.0
 10
677.5543934763
 20
538.3145851175
 30
0.0
 10
677.4718913291
 20
538.3363608752
 30
0.0
 10
677.4081950098
 20
538.3456226297
 30
0.0
  0
SPLINE
  5
324
100
AcDbEntity
  8
0
100
AcDbSpline
 62
7
  6
CONTINUOUS
 70
0
 71
3
 72
9
 73
5
 74
0
 42
0.0000001
 43
0.0000001
 44
0.0000000001
 40
0.0
 40
0.0
 40
0.0
 40
0.0
 40
0.5047785595
 40
1.0
 40
1.0
 40
1.0
 40
1.0
 10
677.1419169986
 20
539.5026842307
 30
0.0
 10
677.1869573197
 20
539.5263825134
 30
0.0
 10
677.2874617357
 20
539.5496202614
 30
0.0
 10
677.389382949
 20
539.5516044083
 30
0.0
 10
677.4385689746
 20
539.543012607
 30
0.0
  0
SPLINE
  5
325
100
AcDbEntity
  8
0
100
AcDbSpline
 62
7
  6
CONTINUOUS
 70
0
 71
3
 72
9
 73
5
 74
0
 42
0.0000001
 43
0.0000001
 44
0.0000000001
 40
0.0
 40
0.0
 40
0.0
 40
0.0
 40
0.2411943804
 40
1.0
 40
1.0
 40
1.0
 40
1.0
 10
677.603517735
 20
539.9556023181
 30
0.0
 10
677.5863738149
 20
539.9242101315
 30
0.0
 10
677.5194356551
 20
539.7918086566
 30
0.0
 10
677.4687997063
 20
539.6514066665
 30
0.0
 10
677.4385689337
 20
539.5430146362
 30
0.0
  0
SPLINE
  5
326
100
AcDbEntity
  8
0
100
AcDbSpline
 62
7
  6
CONTINUOUS
 70
0
 71
3
 72
9
 73
5
 74
0
 42
0.0000001
 43
0.0000001
 44
0.0000000001
 40
0.0
 40
0.0
 40
0.0
 40
0.0
 40
0.2487180272
 40
1.0
 40
1.0
 40
1.0
 40
1.0
 10
679.8336429647
 20
534.1707902767
 30
0.0
 10
679.7896313381
 20
534.3653642966
 30
0.0
 10
679.5961123435
 20
535.1436146273
 30
0.0
 10
679.3284885219
 20
535.905192803
 30
0.0
 10
679.0745704775
 20
536.4516634043
 30
0.0
  0
SPLINE
  5
327
100
AcDbEntity
  8
0
100
AcDbSpline
 62
7
  6
CONTINUOUS
 70
0
 71
3
 72
9
 73
5
 74
0
 42
0.0000001
 43
0.0000001
 44
0.0000000001
 40
0.0
 40
0.0
 40
0.0
 40
0.0
 40
0.2450125402
 40
1.0
 40
1.0
 40
1.0
 40
1.0
 10
679.9194857141
 20
533.9194594125
 30
0.0
 10
679.9103965095
 20
533.9391768961
 30
0.0
 10
679.8754779742
 20
534.0206281257
 30
0.0
 10
679.8484538443
 20
534.1055488997
 30
0.0
 10
679.8336435201
 20
534.1707916014
 30
0.0
  0
SPLINE
  5
328
100
AcDbEntity
  8
0
100
AcDbSpline
 62
7
  6
CONTINUOUS
 70
0
 71
3
 72
11
 73
7
 74
0
 42
0.0000001
 43
0.0000001
 44
0.0000000001
 40
0.0
 40
0.0
 40
0.0
 40
0.0
 40
0.2240025224
 40
0.4625096426
 40
0.7220063343
 40
1.0
 40
1.0
 40
1.0
 40
1.0
 10
679.9171606977
 20
528.1030143765
 30
0.0
 10
680.1591287437
 20
528.4831130907
 30
0.0
 10
680.5265734989
 20
529.3576673551
 30
0.0
 10
680.68329269
 20
530.8162829172
 30
0.0
 10
680.5006660533
 20
532.3773786244
 30
0.0
 10
680.1535819255
 20
533.4116342691
 30
0.0
 10
679.9194857141
 20
533.9194594408
 30
0.0
  0
SPLINE
  5
329
100
AcDbEntity
  8
0
100
AcDbSpline
 62
7
  6
CONTINUOUS
 70
0
 71
3
 72
9
 73
5
 74
0
 42
0.0000001
 43
0.0000001
 44
0.0000000001
 40
0.0
 40
0.0
 40
0.0
 40
0.0
 40
0.2185717754
 40
1.0
 40
1.0
 40
1.0
 40
1.0
 10
679.8309729407
 20
527.950312499
 30
0.0
 10
679.8363174459
 20
527.9619221349
 30
0.0
 10
679.8624521003
 20
528.0142577916
 30
0.0
 10
679.8926226316
 20
528.0644689429
 30
0.0
 10
679.9171606978
 20
528.1030143355
 30
0.0
  0
SPLINE
  5
32A
100
AcDbEntity
  8
0
100
AcDbSpline
 62
7
  6
CONTINUOUS
 70
0
 71
3
 72
9
 73
5
 74
0
 42
0.0000001
 43
0.0000001
 44
0.0000000001
 40
0.0
 40
0.0
 40
0.0
 40
0.0
 40
0.4940855217
 40
1.0
 40
1.0
 40
1.0
 40
1.0
 10
679.0708049184
 20
527.0541917491
 30
0.0
 10
679.2353802654
 20
527.1599474625
 30
0.0
 10
679.539396033
 20
527.4247064675
 30
0.0
 10
679.7472107682
 20
527.7683597954
 30
0.0
 10
679.8309736602
 20
527.950314319
 30
0.0
  0
SPLINE
  5
32B
100
AcDbEntity
  8
0
100
AcDbSpline
 62
7
  6
CONTINUOUS
 70
0
 71
3
 72
9
 73
5
 74
0
 42
0.0000001
 43
0.0000001
 44
0.0000000001
 40
0.0
 40
0.0
 40
0.0
 40
0.0
 40
0.2958830955
 40
1.0
 40
1.0
 40
1.0
 40
1.0
 10
679.0382933704
 20
526.9915803785
 30
0.0
 10
679.0392241044
 20
526.998592821
 30
0.0
 10
679.0437123449
 20
527.021839129
 30
0.0
 10
679.0566719033
 20
527.045164316
 30
0.0
 10
679.0708585659
 20
527.0542263443
 30
0.0
  0
SPLINE
  5
32C
100
AcDbEntity
  8
0
100
AcDbSpline
 62
7
  6
CONTINUOUS
 70
0
 71
3
 72
11
 73
7
 74
0
 42
0.0000001
 43
0.0000001
 44
0.0000000001
 40
0.0
 40
0.0
 40
0.0
 40
0.0
 40
0.2615202672
 40
0.5109842698
 40
0.7546513539
 40
1.0
 40
1.0
 40
1.0
 40
1.0
 10
676.3000986828
 20
541.6554028675
 30
0.0
 10
676.1253723632
 20
541.979087446
 30
0.0
 10
675.7137944768
 20
542.578852032
 30
0.0
 10
674.8801564597
 20
543.2624272828
 30
0.0
 10
673.8928189865
 20
543.6386212516
 30
0.0
 10
673.1946453865
 20
543.6743784367
 30
0.0
 10
672.850654576
 20
543.6468925552
 30
0.0
  0
SPLINE
  5
32D
100
AcDbEntity
  8
0
100
AcDbSpline
 62
7
  6
CONTINUOUS
 70
0
 71
3
 72
9
 73
5
 74
0
 42
0.0000001
 43
0.0000001
 44
0.0000000001
 40
0.0
 40
0.0
 40
0.0
 40
0.0
 40
0.2601062099
 40
1.0
 40
1.0
 40
1.0
 40
1.0
 10
676.3861732388
 20
541.5608665019
 30
0.0
 10
676.3770911312
 20
541.5673110004
 30
0.0
 10
676.3435140957
 20
541.5938510181
 30
0.0
 10
676.3151486529
 20
541.6275238284
 30
0.0
 10
676.3001011199
 20
541.6553997729
 30
0.0
  0
SPLINE
  5
32E
100
AcDbEntity
  8
0
100
AcDbSpline
 62
7
  6
CONTINUOUS
 70
0
 71
3
 72
11
 73
7
 74
0
 42
0.0000001
 43
0.0000001
 44
0.0000000001
 40
0.0
 40
0.0
 40
0.0
 40
0.0
 40
0.2373704363
 40
0.4884740364
 40
0.7444370149
 40
1.0
 40
1.0
 40
1.0
 40
1.0
 10
679.0421308607
 20
536.5629087836
 30
0.0
 10
678.9914272483
 20
537.0201606149
 30
0.0
 10
678.8088232322
 20
537.9538280466
 30
0.0
 10
678.3031106838
 20
539.3130011252
 30
0.0
 10
677.5176974274
 20
540.5790615776
 30
0.0
 10
676.7901369305
 20
541.2742502717
 30
0.0
 10
676.3861732389
 20
541.5608671614
 30
0.0
  0
SPLINE
  5
32F
100
AcDbEntity
  8
0
100
AcDbSpline
 62
7
  6
CONTINUOUS
 70
0
 71
3
 72
9
 73
5
 74
0
 42
0.0000001
 43
0.0000001
 44
0.0000000001
 40
0.0
 40
0.0
 40
0.0
 40
0.0
 40
0.3064634507
 40
1.0
 40
1.0
 40
1.0
 40
1.0
 10
672.8506541345
 20
543.6468926856
 30
0.0
 10
672.8418478194
 20
543.6461890348
 30
0.0
 10
672.8131735722
 20
543.6448072517
 30
0.0
 10
672.783565782
 20
543.6456593747
 30
0.0
 10
672.7645309558
 20
543.6517728835
 30
0.0
  0
SPLINE
  5
330
100
AcDbEntity
  8
0
100
AcDbSpline
 62
7
  6
CONTINUOUS
 70
0
 71
3
 72
9
 73
5
 74
0
 42
0.0000001
 43
0.0000001
 44
0.0000000001
 40
0.0
 40
0.0
 40
0.0
 40
0.0
 40
0.2596664099
 40
1.0
 40
1.0
 40
1.0
 40
1.0
 10
679.0746251565
 20
536.4515486764
 30
0.0
 10
679.0703781794
 20
536.4606727432
 30
0.0
 10
679.0553256307
 20
536.4963761499
 30
0.0
 10
679.0452732916
 20
536.5343875451
 30
0.0
 10
679.0421311622
 20
536.5629085904
 30
0.0
  0
SPLINE
  5
331
100
AcDbEntity
  8
0
100
AcDbSpline
 62
7
  6
CONTINUOUS
 70
0
 71
3
 72
9
 73
5
 74
0
 42
0.0000001
 43
0.0000001
 44
0.0000000001
 40
0.0
 40
0.0
 40
0.0
 40
0.0
 40
0.5196278345
 40
1.0
 40
1.0
 40
1.0
 40
1.0
 10
665.9010776999
 20
523.7171270401
 30
0.0
 10
665.2898243
 20
528.0103624014
 30
0.0
 10
664.6314164631
 20
536.3586644864
 30
0.0
 10
665.2510357779
 20
544.7276095443
 30
0.0
 10
665.9281163111
 20
548.6789431957
 30
0.0
  0
SPLINE
  5
332
100
AcDbEntity
  8
0
100
AcDbSpline
 62
7
  6
CONTINUOUS
 70
0
 71
3
 72
9
 73
5
 74
0
 42
0.0000001
 43
0.0000001
 44
0.0000000001
 40
0.0
 40
0.0
 40
0.0
 40
0.0
 40
0.5614881725
 40
1.0
 40
1.0
 40
1.0
 40
1.0
 10
675.4104330153
 20
515.5063409788
 30
0.0
 10
675.4104018194
 20
515.4285388487
 30
0.0
 10
675.3955968291
 20
515.2878292243
 30
0.0
 10
675.3123952753
 20
515.1647547911
 30
0.0
 10
675.2618873006
 20
515.1309765751
 30
0.0
  0
SPLINE
  5
333
100
AcDbEntity
  8
0
100
AcDbSpline
 62
7
  6
CONTINUOUS
 70
0
 71
3
 72
9
 73
5
 74
0
 42
0.0000001
 43
0.0000001
 44
0.0000000001
 40
0.0
 40
0.0
 40
0.0
 40
0.0
 40
0.2471511568
 40
1.0
 40
1.0
 40
1.0
 40
1.0
 10
669.5967177666
 20
555.2596962956
 30
0.0
 10
669.6236628148
 20
555.2801951159
 30
0.0
 10
669.7386578072
 20
555.3552933453
 30
0.0
 10
669.8758144466
 20
555.3937481227
 30
0.0
 10
669.9785438666
 20
555.4028219818
 30
0.0
  0
SPLINE
  5
334
100
AcDbEntity
  8
0
100
AcDbSpline
 62
7
  6
CONTINUOUS
 70
0
 71
3
 72
13
 73
9
 74
0
 42
0.0000001
 43
0.0000001
 44
0.0000000001
 40
0.0
 40
0.0
 40
0.0
 40
0.0
 40
0.0924876765
 40
0.1953944765
 40
0.3131729718
 40
0.4453368866
 40
0.7322295019
 40
1.0
 40
1.0
 40
1.0
 40
1.0
 10
674.4043211122
 20
516.6233346377
 30
0.0
 10
674.4514965099
 20
516.646721788
 30
0.0
 10
674.5645600691
 20
516.6713716884
 30
0.0
 10
674.7428357996
 20
516.6343851016
 30
0.0
 10
674.9194337738
 20
516.5333747047
 30
0.0
 10
675.1418790175
 20
516.3203651922
 30
0.0
 10
675.3381357758
 20
515.9738119045
 30
0.0
 10
675.4104941403
 20
515.6587858418
 30
0.0
 10
675.4104330153
 20
515.5063409788
 30
0.0
  0
SPLINE
  5
335
100
AcDbEntity
  8
0
100
AcDbSpline
 62
7
  6
CONTINUOUS
 70
0
 71
3
 72
11
 73
7
 74
0
 42
0.0000001
 43
0.0000001
 44
0.0000000001
 40
0.0
 40
0.0
 40
0.0
 40
0.0
 40
0.2373664436
 40
0.4732141431
 40
0.7239491554
 40
1.0
 40
1.0
 40
1.0
 40
1.0
 10
677.8943321965
 20
524.9981848155
 30
0.0
 10
678.0552382708
 20
525.0956570743
 30
0.0
 10
678.3541553571
 20
525.3306840283
 30
0.0
 10
678.6957902683
 20
525.7996334476
 30
0.0
 10
678.9258357675
 20
526.3635209938
 30
0.0
 10
679.0092868992
 20
526.7747257662
 30
0.0
 10
679.0382930694
 20
526.9915806396
 30
0.0
  0
SPLINE
  5
336
100
AcDbEntity
  8
0
100
AcDbSpline
 62
7
  6
CONTINUOUS
 70
0
 71
3
 72
9
 73
5
 74
0
 42
0.0000001
 43
0.0000001
 44
0.0000000001
 40
0.0
 40
0.0
 40
0.0
 40
0.0
 40
0.2488546879
 40
1.0
 40
1.0
 40
1.0
 40
1.0
 10
687.6337439907
 20
545.2098178358
 30
0.0
 10
687.6898548412
 20
545.1400519658
 30
0.0
 10
687.9043581263
 20
544.8511061276
 30
0.0
 10
688.0757629124
 20
544.5297448322
 30
0.0
 10
688.1731317661
 20
544.2776560724
 30
0.0
  0
SPLINE
  5
337
100
AcDbEntity
  8
0
100
AcDbSpline
 62
7
  6
CONTINUOUS
 70
0
 71
3
 72
9
 73
5
 74
0
 42
0.0000001
 43
0.0000001
 44
0.0000000001
 40
0.0
 40
0.0
 40
0.0
 40
0.0
 40
0.2584260039
 40
1.0
 40
1.0
 40
1.0
 40
1.0
 10
688.1594362183
 20
510.1400703422
 30
0.0
 10
688.1403933161
 20
510.1128191073
 30
0.0
 10
688.0604697468
 20
510.0118830066
 30
0.0
 10
687.9528931681
 20
509.9327199099
 30
0.0
 10
687.865855503
 20
509.8936595705
 30
0.0
  0
SPLINE
  5
338
100
AcDbEntity
  8
0
100
AcDbSpline
 62
7
  6
CONTINUOUS
 70
0
 71
3
 72
9
 73
5
 74
0
 42
0.0000001
 43
0.0000001
 44
0.0000000001
 40
0.0
 40
0.0
 40
0.0
 40
0.0
 40
0.2659060054
 40
1.0
 40
1.0
 40
1.0
 40
1.0
 10
688.4968371749
 20
510.9431942613
 30
0.0
 10
688.4794442025
 20
510.8677123678
 30
0.0
 10
688.4041012254
 20
510.5865760439
 30
0.0
 10
688.2819250337
 20
510.315359893
 30
0.0
 10
688.1594362183
 20
510.1400703422
 30
0.0
  0
SPLINE
  5
339
100
AcDbEntity
  8
0
100
AcDbSpline
 62
7
  6
CONTINUOUS
 70
0
 71
3
 72
11
 73
7
 74
0
 42
0.0000001
 43
0.0000001
 44
0.0000000001
 40
0.0
 40
0.0
 40
0.0
 40
0.0
 40
0.2708641213
 40
0.5284568661
 40
0.7716654736
 40
1.0
 40
1.0
 40
1.0
 40
1.0
 10
688.5097250497
 20
543.0854255526
 30
0.0
 10
689.0308576829
 20
540.2119365152
 30
0.0
 10
689.8252564748
 20
534.5619185934
 30
0.0
 10
690.2467166172
 20
526.2407138091
 30
0.0
 10
689.8647780268
 20
518.3752045465
 30
0.0
 10
689.049619003
 20
513.342153798
 30
0.0
 10
688.4968371749
 20
510.9431942613
 30
0.0
  0
SPLINE
  5
33A
100
AcDbEntity
  8
0
100
AcDbSpline
 62
7
  6
CONTINUOUS
 70
0
 71
3
 72
9
 73
5
 74
0
 42
0.0000001
 43
0.0000001
 44
0.0000000001
 40
0.0
 40
0.0
 40
0.0
 40
0.0
 40
0.2573213711
 40
1.0
 40
1.0
 40
1.0
 40
1.0
 10
688.1731317661
 20
544.2776560724
 30
0.0
 10
688.211450123
 20
544.1784497428
 30
0.0
 10
688.3513589896
 20
543.7895042032
 30
0.0
 10
688.4549513991
 20
543.3874435389
 30
0.0
 10
688.5097250497
 20
543.0854255526
 30
0.0
  0
SPLINE
  5
33B
100
AcDbEntity
  8
0
100
AcDbSpline
 62
7
  6
CONTINUOUS
 70
0
 71
3
 72
12
 73
8
 74
0
 42
0.0000001
 43
0.0000001
 44
0.0000000001
 40
0.0
 40
0.0
 40
0.0
 40
0.0
 40
0.2673742867
 40
0.5222764902
 40
0.764697998
 40
0.8829010613
 40
1.0
 40
1.0
 40
1.0
 40
1.0
 10
667.5728705568
 20
519.5814910761
 30
0.0
 10
668.7597436132
 20
518.0944394463
 30
0.0
 10
671.3089751872
 20
515.3623273203
 30
0.0
 10
675.6853066398
 20
512.0780545293
 30
0.0
 10
679.7097427377
 20
510.2316252089
 30
0.0
 10
683.0306245049
 20
509.4603975517
 30
0.0
 10
684.7079991707
 20
509.3269990559
 30
0.0
 10
685.5412690845
 20
509.3290504788
 30
0.0
  0
SPLINE
  5
33C
100
AcDbEntity
  8
0
100
AcDbSpline
 62
7
  6
CONTINUOUS
 70
0
 71
3
 72
9
 73
5
 74
0
 42
0.0000001
 43
0.0000001
 44
0.0000000001
 40
0.0
 40
0.0
 40
0.0
 40
0.0
 40
0.4776122375
 40
1.0
 40
1.0
 40
1.0
 40
1.0
 10
674.2482610923
 20
543.3811457816
 30
0.0
 10
674.0111999609
 20
543.1764287464
 30
0.0
 10
673.5852404496
 20
542.662360573
 30
0.0
 10
673.3216568329
 20
542.0535722688
 30
0.0
 10
673.2195872933
 20
541.7265464077
 30
0.0
  0
SPLINE
  5
33D
100
AcDbEntity
  8
0
100
AcDbSpline
 62
7
  6
CONTINUOUS
 70
0
 71
3
 72
9
 73
5
 74
0
 42
0.0000001
 43
0.0000001
 44
0.0000000001
 40
0.0
 40
0.0
 40
0.0
 40
0.0
 40
0.2456102075
 40
1.0
 40
1.0
 40
1.0
 40
1.0
 10
673.2195872933
 20
541.7265464077
 30
0.0
 10
673.2078251468
 20
541.6888610602
 30
0.0
 10
673.1618418302
 20
541.5348345855
 30
0.0
 10
673.1233725482
 20
541.3785845842
 30
0.0
 10
673.0982907806
 20
541.2599498143
 30
0.0
  0
SPLINE
  5
33E
100
AcDbEntity
  8
0
100
AcDbSpline
 62
7
  6
CONTINUOUS
 70
0
 71
3
 72
9
 73
5
 74
0
 42
0.0000001
 43
0.0000001
 44
0.0000000001
 40
0.0
 40
0.0
 40
0.0
 40
0.0
 40
0.2437234849
 40
1.0
 40
1.0
 40
1.0
 40
1.0
 10
679.8775447266
 20
540.8342797838
 30
0.0
 10
679.8713761885
 20
540.896850823
 30
0.0
 10
679.8446662124
 20
541.1534282576
 30
0.0
 10
679.8112394528
 20
541.4094065031
 30
0.0
 10
679.7792657966
 20
541.6018685033
 30
0.0
  0
SPLINE
  5
33F
100
AcDbEntity
  8
0
100
AcDbSpline
 62
7
  6
CONTINUOUS
 70
0
 71
3
 72
9
 73
5
 74
0
 42
0.0000001
 43
0.0000001
 44
0.0000000001
 40
0.0
 40
0.0
 40
0.0
 40
0.0
 40
0.529024842
 40
1.0
 40
1.0
 40
1.0
 40
1.0
 10
679.836317752
 20
540.8402873097
 30
0.0
 10
679.8367634328
 20
540.8420970397
 30
0.0
 10
679.8361400225
 20
540.8488261562
 30
0.0
 10
679.8396610802
 20
540.8433399441
 30
0.0
 10
679.8401798588
 20
540.8417638408
 30
0.0
  0
SPLINE
  5
340
100
AcDbEntity
  8
0
100
AcDbSpline
 62
7
  6
CONTINUOUS
 70
0
 71
3
 72
19
 73
15
 74
0
 42
0.0000001
 43
0.0000001
 44
0.0000000001
 40
0.0
 40
0.0
 40
0.0
 40
0.0
 40
0.0534513358
 40
0.1044532274
 40
0.1546625859
 40
0.2061377091
 40
0.2608131148
 40
0.3192869378
 40
0.3818229339
 40
0.4476736108
 40
0.5856391926
 40
0.7275338199
 40
0.8677898757
 40
1.0
 40
1.0
 40
1.0
 40
1.0
 10
676.3871542501
 20
544.0074948595
 30
0.0
 10
676.4126955359
 20
544.1202663809
 30
0.0
 10
676.481687972
 20
544.3383351484
 30
0.0
 10
676.6814727929
 20
544.6152204234
 30
0.0
 10
676.9624701224
 20
544.8016481485
 30
0.0
 10
677.2983744797
 20
544.8825787597
 30
0.0
 10
677.6577681931
 20
544.840460094
 30
0.0
 10
678.014980665
 20
544.700428821
 30
0.0
 10
678.3480197744
 20
544.4659123841
 30
0.0
 10
678.7565740219
 20
544.0568064914
 30
0.0
 10
679.166894705
 20
543.422115392
 30
0.0
 10
679.5097247993
 20
542.5771330712
 30
0.0
 10
679.7349525075
 20
541.707283769
 30
0.0
 10
679.8150892881
 20
541.1217510923
 30
0.0
 10
679.836315694
 20
540.8365384605
 30
0.0
  0
SPLINE
  5
341
100
AcDbEntity
  8
0
100
AcDbSpline
 62
7
  6
CONTINUOUS
 70
0
 71
3
 72
9
 73
5
 74
0
 42
0.0000001
 43
0.0000001
 44
0.0000000001
 40
0.0
 40
0.0
 40
0.0
 40
0.0
 40
0.5021949996
 40
1.0
 40
1.0
 40
1.0
 40
1.0
 10
669.5273013437
 20
554.6103333672
 30
0.0
 10
668.8338338227
 20
553.7721205518
 30
0.0
 10
667.7086937074
 20
551.8825007659
 30
0.0
 10
667.1314918532
 20
549.7601367156
 30
0.0
 10
667.0135864039
 20
548.6882247393
 30
0.0
  0
SPLINE
  5
342
100
AcDbEntity
  8
0
100
AcDbSpline
 62
7
  6
CONTINUOUS
 70
0
 71
3
 72
13
 73
9
 74
0
 42
0.0000001
 43
0.0000001
 44
0.0000000001
 40
0.0
 40
0.0
 40
0.0
 40
0.0
 40
0.2906422981
 40
0.4275320302
 40
0.5574330598
 40
0.6797196365
 40
0.7941308613
 40
1.0
 40
1.0
 40
1.0
 40
1.0
 10
685.84921309
 20
545.1870902165
 30
0.0
 10
684.6362197962
 20
546.6243649484
 30
0.0
 10
682.695911096
 20
548.6179614491
 30
0.0
 10
679.866486456
 20
550.8614241683
 30
0.0
 10
677.7536272947
 20
552.237699477
 30
0.0
 10
675.6363422669
 20
553.3209009278
 30
0.0
 10
672.9492917066
 20
554.3172991027
 30
0.0
 10
670.8588663407
 20
554.6501863004
 30
0.0
 10
669.5273013437
 20
554.6103333672
 30
0.0
  0
SPLINE
  5
343
100
AcDbEntity
  8
0
100
AcDbSpline
 62
7
  6
CONTINUOUS
 70
0
 71
3
 72
9
 73
5
 74
0
 42
0.0000001
 43
0.0000001
 44
0.0000000001
 40
0.0
 40
0.0
 40
0.0
 40
0.0
 40
0.488627872
 40
1.0
 40
1.0
 40
1.0
 40
1.0
 10
682.6044079474
 20
539.6871195594
 30
0.0
 10
682.9439844383
 20
540.6760799767
 30
0.0
 10
683.8388571552
 20
542.6336403545
 30
0.0
 10
685.0972813085
 20
544.3920382641
 30
0.0
 10
685.84921309
 20
545.1870902165
 30
0.0
  0
SPLINE
  5
344
100
AcDbEntity
  8
0
100
AcDbSpline
 62
7
  6
CONTINUOUS
 70
0
 71
3
 72
15
 73
11
 74
0
 42
0.0000001
 43
0.0000001
 44
0.0000000001
 40
0.0
 40
0.0
 40
0.0
 40
0.0
 40
0.1517801752
 40
0.3117699875
 40
0.4625476168
 40
0.5902848302
 40
0.6986951387
 40
0.7987615199
 40
0.8980714042
 40
1.0
 40
1.0
 40
1.0
 40
1.0
 10
669.2629632458
 20
546.9540966935
 30
0.0
 10
669.246428095
 20
547.135008848
 30
0.0
 10
669.1898300914
 20
547.5050185734
 30
0.0
 10
669.0275023043
 20
548.0369617372
 30
0.0
 10
668.7725174436
 20
548.502102979
 30
0.0
 10
668.4316247923
 20
548.8299339016
 30
0.0
 10
668.0483567502
 20
548.9829374496
 30
0.0
 10
667.6728838918
 20
548.9847173339
 30
0.0
 10
667.3239639302
 20
548.8791728388
 30
0.0
 10
667.1135661261
 20
548.7581370936
 30
0.0
 10
667.0135864039
 20
548.6882247393
 30
0.0
  0
SPLINE
  5
345
100
AcDbEntity
  8
0
100
AcDbSpline
 62
7
  6
CONTINUOUS
 70
0
 71
3
 72
8
 73
4
 74
0
 42
0.0000001
 43
0.0000001
 44
0.0000000001
 40
0.0
 40
0.0
 40
0.0
 40
0.0
 40
1.0
 40
1.0
 40
1.0
 40
1.0
 10
667.0135861453
 20
548.688224702
 30
0.0
 10
667.0216212839
 20
548.6640673097
 30
0.0
 10
667.0335840461
 20
548.6409446032
 30
0.0
 10
667.048417034
 20
548.6202534088
 30
0.0
  0
SPLINE
  5
346
100
AcDbEntity
  8
0
100
AcDbSpline
 62
7
  6
CONTINUOUS
 70
0
 71
3
 72
9
 73
5
 74
0
 42
0.0000001
 43
0.0000001
 44
0.0000000001
 40
0.0
 40
0.0
 40
0.0
 40
0.0
 40
0.2218981575
 40
1.0
 40
1.0
 40
1.0
 40
1.0
 10
669.2294965725
 20
546.972979654
 30
0.0
 10
669.2344339271
 20
546.9674562229
 30
0.0
 10
669.259143906
 20
546.9447569953
 30
0.0
 10
669.2907030099
 20
546.9306819285
 30
0.0
 10
669.3156007686
 20
546.9232671126
 30
0.0
  0
SPLINE
  5
347
100
AcDbEntity
  8
0
100
AcDbSpline
 62
7
  6
CONTINUOUS
 70
0
 71
3
 72
8
 73
4
 74
0
 42
0.0000001
 43
0.0000001
 44
0.0000000001
 40
0.0
 40
0.0
 40
0.0
 40
0.0
 40
1.0
 40
1.0
 40
1.0
 40
1.0
 10
669.2629640437
 20
546.9540875354
 30
0.0
 10
669.2510983727
 20
546.9588495335
 30
0.0
 10
669.2394684038
 20
546.9648534458
 30
0.0
 10
669.2295492939
 20
546.9729207893
 30
0.0
  0
SPLINE
  5
348
100
AcDbEntity
  8
0
100
AcDbSpline
 62
7
  6
CONTINUOUS
 70
0
 71
3
 72
8
 73
4
 74
0
 42
0.0000001
 43
0.0000001
 44
0.0000000001
 40
0.0
 40
0.0
 40
0.0
 40
0.0
 40
1.0
 40
1.0
 40
1.0
 40
1.0
 10
669.3156074229
 20
546.9232650743
 30
0.0
 10
669.2969621878
 20
546.9313791662
 30
0.0
 10
669.2790037298
 20
546.9415890656
 30
0.0
 10
669.2629640437
 20
546.9540875354
 30
0.0
  0
SPLINE
  5
349
100
AcDbEntity
  8
0
100
AcDbSpline
 62
7
  6
CONTINUOUS
 70
0
 71
3
 72
16
 73
12
 74
0
 42
0.0000001
 43
0.0000001
 44
0.0000000001
 40
0.0
 40
0.0
 40
0.0
 40
0.0
 40
0.1518007504
 40
0.3064934219
 40
0.4414916998
 40
0.5007358686
 40
0.55615599
 40
0.6617331592
 40
0.7687221849
 40
0.8808276089
 40
1.0
 40
1.0
 40
1.0
 40
1.0
 10
672.8010444239
 20
546.0790645423
 30
0.0
 10
672.7744079677
 20
546.3801282147
 30
0.0
 10
672.6594448338
 20
546.9840049474
 30
0.0
 10
672.3151155373
 20
547.8022803091
 30
0.0
 10
671.8337368087
 20
548.3351032647
 30
0.0
 10
671.3834549483
 20
548.5579331668
 30
0.0
 10
670.9499359857
 20
548.6485952141
 30
0.0
 10
670.4032170469
 20
548.5550700212
 30
0.0
 10
669.8551157117
 20
548.1848716
 30
0.0
 10
669.447950858
 20
547.6346504848
 30
0.0
 10
669.3003392082
 20
547.1884101372
 30
0.0
 10
669.2629632458
 20
546.9540966935
 30
0.0
  0
SPLINE
  5
34A
100
AcDbEntity
  8
0
100
AcDbSpline
 62
7
  6
CONTINUOUS
 70
0
 71
3
 72
19
 73
15
 74
0
 42
0.0000001
 43
0.0000001
 44
0.0000000001
 40
0.0
 40
0.0
 40
0.0
 40
0.0
 40
0.1189020564
 40
0.2307078117
 40
0.2848061411
 40
0.3379048664
 40
0.4433478846
 40
0.4985702981
 40
0.5575981732
 40
0.6924000833
 40
0.7687486071
 40
0.8477569646
 40
0.9259128979
 40
1.0
 40
1.0
 40
1.0
 40
1.0
 10
669.3155993746
 20
546.9232658055
 30
0.0
 10
669.3551853919
 20
547.1502874577
 30
0.0
 10
669.494742122
 20
547.5839546778
 30
0.0
 10
669.8318701148
 20
548.0344538828
 30
0.0
 10
670.1634338194
 20
548.302338597
 30
0.0
 10
670.5253845848
 20
548.5032290902
 30
0.0
 10
670.9501347751
 20
548.5802124221
 30
0.0
 10
671.3723631724
 20
548.5001227914
 30
0.0
 10
671.8128602585
 20
548.2902899989
 30
0.0
 10
672.1816812373
 20
547.8921406551
 30
0.0
 10
672.4480595689
 20
547.3963487583
 30
0.0
 10
672.606030288
 20
546.9705964504
 30
0.0
 10
672.7126977754
 20
546.5343771871
 30
0.0
 10
672.751223297
 20
546.2413753162
 30
0.0
 10
672.7655120059
 20
546.0984979018
 30
0.0
  0
SPLINE
  5
34B
100
AcDbEntity
  8
0
100
AcDbSpline
 62
7
  6
CONTINUOUS
 70
0
 71
3
 72
9
 73
5
 74
0
 42
0.0000001
 43
0.0000001
 44
0.0000000001
 40
0.0
 40
0.0
 40
0.0
 40
0.0
 40
0.2218948931
 40
1.0
 40
1.0
 40
1.0
 40
1.0
 10
672.7655120049
 20
546.0984950284
 30
0.0
 10
672.7704481383
 20
546.0929704926
 30
0.0
 10
672.7951605477
 20
546.0702724481
 30
0.0
 10
672.826719027
 20
546.0561966041
 30
0.0
 10
672.851617207
 20
546.0487813607
 30
0.0
  0
SPLINE
  5
34C
100
AcDbEntity
  8
0
100
AcDbSpline
 62
7
  6
CONTINUOUS
 70
0
 71
3
 72
8
 73
4
 74
0
 42
0.0000001
 43
0.0000001
 44
0.0000000001
 40
0.0
 40
0.0
 40
0.0
 40
0.0
 40
1.0
 40
1.0
 40
1.0
 40
1.0
 10
672.8010445994
 20
546.0790629275
 30
0.0
 10
672.7884383315
 20
546.0838633355
 30
0.0
 10
672.7760525018
 20
546.0900256242
 30
0.0
 10
672.7655346923
 20
546.0984717825
 30
0.0
  0
SPLINE
  5
34D
100
AcDbEntity
  8
0
100
AcDbSpline
 62
7
  6
CONTINUOUS
 70
0
 71
3
 72
11
 73
7
 74
0
 42
0.0000001
 43
0.0000001
 44
0.0000000001
 40
0.0
 40
0.0
 40
0.0
 40
0.0
 40
0.255465558
 40
0.522727725
 40
0.7760484452
 40
1.0
 40
1.0
 40
1.0
 40
1.0
 10
676.338661993
 20
544.0366813832
 30
0.0
 10
676.3136694941
 20
544.3499357838
 30
0.0
 10
676.2027591873
 20
544.9867558714
 30
0.0
 10
675.88303988
 20
545.8927364413
 30
0.0
 10
675.3782826693
 20
546.6698439057
 30
0.0
 10
674.8908009217
 20
547.0351490624
 30
0.0
 10
674.6344532957
 20
547.1360324549
 30
0.0
  0
SPLINE
  5
34E
100
AcDbEntity
  8
0
100
AcDbSpline
 62
7
  6
CONTINUOUS
 70
0
 71
3
 72
11
 73
7
 74
0
 42
0.0000001
 43
0.0000001
 44
0.0000000001
 40
0.0
 40
0.0
 40
0.0
 40
0.0
 40
0.2568798132
 40
0.4989169286
 40
0.7423881066
 40
1.0
 40
1.0
 40
1.0
 40
1.0
 10
674.6344532957
 20
547.1360324549
 30
0.0
 10
674.4418089562
 20
547.2118459697
 30
0.0
 10
674.0299656825
 20
547.2861995707
 30
0.0
 10
673.4378097914
 20
547.0998951886
 30
0.0
 10
672.9922091736
 20
546.6713775023
 30
0.0
 10
672.8393239919
 20
546.2831205237
 30
0.0
 10
672.8010444239
 20
546.0790645423
 30
0.0
  0
SPLINE
  5
34F
100
AcDbEntity
  8
0
100
AcDbSpline
 62
7
  6
CONTINUOUS
 70
0
 71
3
 72
11
 73
7
 74
0
 42
0.0000001
 43
0.0000001
 44
0.0000000001
 40
0.0
 40
0.0
 40
0.0
 40
0.0
 40
0.2624563451
 40
0.5120146569
 40
0.7552277725
 40
1.0
 40
1.0
 40
1.0
 40
1.0
 10
672.8516176482
 20
546.0487807545
 30
0.0
 10
672.8797013192
 20
546.196467416
 30
0.0
 10
672.9757546175
 20
546.4789239077
 30
0.0
 10
673.2359085398
 20
546.8331436325
 30
0.0
 10
673.5883746306
 20
547.080345238
 30
0.0
 10
673.8651088668
 20
547.1531851947
 30
0.0
 10
674.0047065465
 20
547.1662076741
 30
0.0
  0
SPLINE
  5
350
100
AcDbEntity
  8
0
100
AcDbSpline
 62
7
  6
CONTINUOUS
 70
0
 71
3
 72
13
 73
9
 74
0
 42
0.0000001
 43
0.0000001
 44
0.0000000001
 40
0.0
 40
0.0
 40
0.0
 40
0.0
 40
0.1014826649
 40
0.2104523143
 40
0.3298110743
 40
0.4586259495
 40
0.7328657829
 40
1.0
 40
1.0
 40
1.0
 40
1.0
 10
674.0047065465
 20
547.1662076741
 30
0.0
 10
674.1473906896
 20
547.1795180766
 30
0.0
 10
674.4498593464
 20
547.1568673524
 30
0.0
 10
674.8865039589
 20
546.9752151833
 30
0.0
 10
675.2811032063
 20
546.6521623209
 30
0.0
 10
675.7414312087
 20
546.070268663
 30
0.0
 10
676.1222778697
 20
545.1885935123
 30
0.0
 10
676.2696408042
 20
544.4331927678
 30
0.0
 10
676.301061752
 20
544.0572835361
 30
0.0
  0
SPLINE
  5
351
100
AcDbEntity
  8
0
100
AcDbSpline
 62
7
  6
CONTINUOUS
 70
0
 71
3
 72
8
 73
4
 74
0
 42
0.0000001
 43
0.0000001
 44
0.0000000001
 40
0.0
 40
0.0
 40
0.0
 40
0.0
 40
1.0
 40
1.0
 40
1.0
 40
1.0
 10
672.8010487971
 20
546.0790654116
 30
0.0
 10
672.8165100387
 20
546.066941575
 30
0.0
 10
672.8337248893
 20
546.0568978817
 30
0.0
 10
672.8516185171
 20
546.0487827423
 30
0.0
  0
SPLINE
  5
352
100
AcDbEntity
  8
0
100
AcDbSpline
 62
7
  6
CONTINUOUS
 70
0
 71
3
 72
9
 73
5
 74
0
 42
0.0000001
 43
0.0000001
 44
0.0000000001
 40
0.0
 40
0.0
 40
0.0
 40
0.0
 40
0.2218974939
 40
1.0
 40
1.0
 40
1.0
 40
1.0
 10
676.3010641919
 20
544.057287269
 30
0.0
 10
676.3059993124
 20
544.0517634091
 30
0.0
 10
676.3307089916
 20
544.0290707228
 30
0.0
 10
676.362260725
 20
544.0149959311
 30
0.0
 10
676.3871542848
 20
544.0075810276
 30
0.0
  0
SPLINE
  5
353
100
AcDbEntity
  8
0
100
AcDbSpline
 62
7
  6
CONTINUOUS
 70
0
 71
3
 72
9
 73
5
 74
0
 42
0.0000001
 43
0.0000001
 44
0.0000000001
 40
0.0
 40
0.0
 40
0.0
 40
0.0
 40
0.2745840763
 40
1.0
 40
1.0
 40
1.0
 40
1.0
 10
676.3386658512
 20
544.0366793086
 30
0.0
 10
676.3349858889
 20
544.0380655047
 30
0.0
 10
676.321761576
 20
544.0435293402
 30
0.0
 10
676.3091193037
 20
544.0507109643
 30
0.0
 10
676.3010747819
 20
544.0572847067
 30
0.0
  0
SPLINE
  5
354
100
AcDbEntity
  8
0
100
AcDbSpline
 62
7
  6
CONTINUOUS
 70
0
 71
3
 72
8
 73
4
 74
0
 42
0.0000001
 43
0.0000001
 44
0.0000000001
 40
0.0
 40
0.0
 40
0.0
 40
0.0
 40
1.0
 40
1.0
 40
1.0
 40
1.0
 10
676.3871570705
 20
544.0075697262
 30
0.0
 10
676.3700330246
 20
544.0154579424
 30
0.0
 10
676.3535691585
 20
544.0251358538
 30
0.0
 10
676.3386612013
 20
544.0366775051
 30
0.0
  0
SPLINE
  5
355
100
AcDbEntity
  8
0
100
AcDbSpline
 62
7
  6
CONTINUOUS
 70
0
 71
3
 72
11
 73
7
 74
0
 42
0.0000001
 43
0.0000001
 44
0.0000000001
 40
0.0
 40
0.0
 40
0.0
 40
0.0
 40
0.2217219797
 40
0.4721964705
 40
0.7344965357
 40
1.0
 40
1.0
 40
1.0
 40
1.0
 10
673.5795654963
 20
533.7402560785
 30
0.0
 10
673.6295813472
 20
533.7727198986
 30
0.0
 10
673.7771142622
 20
533.7560817586
 30
0.0
 10
673.9378571132
 20
533.6446922292
 30
0.0
 10
674.0870944052
 20
533.4948203572
 30
0.0
 10
674.1673636876
 20
533.377469543
 30
0.0
 10
674.2065984182
 20
533.3178130844
 30
0.0
  0
LINE
  5
356
100
AcDbEntity
  8
0
100
AcDbLine
 62
7
  6
CONTINUOUS
 10
670.5545025962
 20
541.4631326038
 11
673.6207243187
 21
543.1467289443
  0
SPLINE
  5
357
100
AcDbEntity
  8
0
100
AcDbSpline
 62
7
  6
CONTINUOUS
 70
0
 71
3
 72
9
 73
5
 74
0
 42
0.0000001
 43
0.0000001
 44
0.0000000001
 40
0.0
 40
0.0
 40
0.0
 40
0.0
 40
0.2443878496
 40
1.0
 40
1.0
 40
1.0
 40
1.0
 10
669.3103259144
 20
534.0244592768
 30
0.0
 10
669.3961999758
 20
533.8528555849
 30
0.0
 10
669.7634082262
 20
533.1585520267
 30
0.0
 10
670.1813264572
 20
532.4923697501
 30
0.0
 10
670.5085746358
 20
531.9974828089
 30
0.0
  0
SPLINE
  5
358
100
AcDbEntity
  8
0
100
AcDbSpline
 62
7
  6
CONTINUOUS
 70
0
 71
3
 72
8
 73
4
 74
0
 42
0.0000001
 43
0.0000001
 44
0.0000000001
 40
0.0
 40
0.0
 40
0.0
 40
0.0
 40
1.0
 40
1.0
 40
1.0
 40
1.0
 10
669.2244093612
 20
534.2763221185
 30
0.0
 10
669.2426777358
 20
534.1895011916
 30
0.0
 10
669.2706420125
 20
534.1037562291
 30
0.0
 10
669.3103257849
 20
534.0244038186
 30
0.0
  0
SPLINE
  5
359
100
AcDbEntity
  8
0
100
AcDbSpline
 62
7
  6
CONTINUOUS
 70
0
 71
3
 72
10
 73
6
 74
0
 42
0.0000001
 43
0.0000001
 44
0.0000000001
 40
0.0
 40
0.0
 40
0.0
 40
0.0
 40
0.1949885584
 40
0.4321730107
 40
1.0
 40
1.0
 40
1.0
 40
1.0
 10
669.2267378512
 20
540.0927691579
 30
0.0
 10
669.0847938954
 20
539.7374448938
 30
0.0
 10
668.872025608
 20
538.9088416487
 30
0.0
 10
668.7358805682
 20
536.9432230138
 30
0.0
 10
668.9949842391
 20
535.3666965356
 30
0.0
 10
669.2244093612
 20
534.27632209
 30
0.0
  0
SPLINE
  5
35A
100
AcDbEntity
  8
0
100
AcDbSpline
 62
7
  6
CONTINUOUS
 70
0
 71
3
 72
9
 73
5
 74
0
 42
0.0000001
 43
0.0000001
 44
0.0000000001
 40
0.0
 40
0.0
 40
0.0
 40
0.0
 40
0.2772814446
 40
1.0
 40
1.0
 40
1.0
 40
1.0
 10
669.3129232079
 20
540.2454696511
 30
0.0
 10
669.3034916433
 20
540.2322654093
 30
0.0
 10
669.2707121864
 20
540.1838134196
 30
0.0
 10
669.2424272667
 20
540.1320454975
 30
0.0
 10
669.2267378513
 20
540.0927691993
 30
0.0
  0
SPLINE
  5
35B
100
AcDbEntity
  8
0
100
AcDbSpline
 62
7
  6
CONTINUOUS
 70
0
 71
3
 72
9
 73
5
 74
0
 42
0.0000001
 43
0.0000001
 44
0.0000000001
 40
0.0
 40
0.0
 40
0.0
 40
0.0
 40
0.2395500001
 40
1.0
 40
1.0
 40
1.0
 40
1.0
 10
670.512339412
 20
541.3949540529
 30
0.0
 10
670.3995555233
 20
541.3242176455
 30
0.0
 10
669.945092129
 20
541.0032101952
 30
0.0
 10
669.5585660113
 20
540.5893706263
 30
0.0
 10
669.3129218135
 20
540.2454674419
 30
0.0
  0
SPLINE
  5
35C
100
AcDbEntity
  8
0
100
AcDbSpline
 62
7
  6
CONTINUOUS
 70
0
 71
3
 72
9
 73
5
 74
0
 42
0.0000001
 43
0.0000001
 44
0.0000000001
 40
0.0
 40
0.0
 40
0.0
 40
0.0
 40
0.2358375588
 40
1.0
 40
1.0
 40
1.0
 40
1.0
 10
673.9778751457
 20
543.5168101741
 30
0.0
 10
673.9704435504
 20
543.5078612793
 30
0.0
 10
673.9388174041
 20
543.4700116811
 30
0.0
 10
673.9069440858
 20
543.4323669203
 30
0.0
 10
673.8823208567
 20
543.4038305922
 30
0.0
  0
SPLINE
  5
35D
100
AcDbEntity
  8
0
100
AcDbSpline
 62
7
  6
CONTINUOUS
 70
0
 71
3
 72
9
 73
5
 74
0
 42
0.0000001
 43
0.0000001
 44
0.0000000001
 40
0.0
 40
0.0
 40
0.0
 40
0.0
 40
0.2162371511
 40
1.0
 40
1.0
 40
1.0
 40
1.0
 10
673.8823208567
 20
543.4038305922
 30
0.0
 10
673.8650363775
 20
543.3837992808
 30
0.0
 10
673.7844547597
 20
543.2920895387
 30
0.0
 10
673.700499149
 20
543.1999621737
 30
0.0
 10
673.620731295
 20
543.1467330254
 30
0.0
  0
SPLINE
  5
35E
100
AcDbEntity
  8
0
100
AcDbSpline
 62
7
  6
CONTINUOUS
 70
0
 71
3
 72
9
 73
5
 74
0
 42
0.0000001
 43
0.0000001
 44
0.0000000001
 40
0.0
 40
0.0
 40
0.0
 40
0.0
 40
0.4886405756
 40
1.0
 40
1.0
 40
1.0
 40
1.0
 10
665.9281781243
 20
548.6788659775
 30
0.0
 10
665.8843138583
 20
548.4210386633
 30
0.0
 10
665.9141593469
 20
547.8679483105
 30
0.0
 10
666.1527803064
 20
547.375769791
 30
0.0
 10
666.3056303483
 20
547.1487367445
 30
0.0
  0
SPLINE
  5
35F
100
AcDbEntity
  8
0
100
AcDbSpline
 62
7
  6
CONTINUOUS
 70
0
 71
3
 72
9
 73
5
 74
0
 42
0.0000001
 43
0.0000001
 44
0.0000000001
 40
0.0
 40
0.0
 40
0.0
 40
0.0
 40
0.2464264888
 40
1.0
 40
1.0
 40
1.0
 40
1.0
 10
673.5833049033
 20
543.080889143
 30
0.0
 10
673.6145254246
 20
543.0979493053
 30
0.0
 10
673.7401862331
 20
543.1690482236
 30
0.0
 10
673.86513642
 20
543.2414035262
 30
0.0
 10
673.9605197184
 20
543.2937365396
 30
0.0
  0
SPLINE
  5
360
100
AcDbEntity
  8
0
100
AcDbSpline
 62
7
  6
CONTINUOUS
 70
0
 71
3
 72
9
 73
5
 74
0
 42
0.0000001
 43
0.0000001
 44
0.0000000001
 40
0.0
 40
0.0
 40
0.0
 40
0.0
 40
0.2681306204
 40
1.0
 40
1.0
 40
1.0
 40
1.0
 10
673.6207244617
 20
543.1467278674
 30
0.0
 10
673.6196883954
 20
543.1399418932
 30
0.0
 10
673.6141131395
 20
543.1151140614
 30
0.0
 10
673.5991781276
 20
543.0909755134
 30
0.0
 10
673.5833608845
 20
543.0809308696
 30
0.0
  0
SPLINE
  5
361
100
AcDbEntity
  8
0
100
AcDbSpline
 62
7
  6
CONTINUOUS
 70
0
 71
3
 72
9
 73
5
 74
0
 42
0.0000001
 43
0.0000001
 44
0.0000000001
 40
0.0
 40
0.0
 40
0.0
 40
0.0
 40
0.2721705148
 40
1.0
 40
1.0
 40
1.0
 40
1.0
 10
670.5545025962
 20
541.4631326038
 30
0.0
 10
670.5532819275
 20
541.455831452
 30
0.0
 10
670.5468149225
 20
541.429433724
 30
0.0
 10
670.5290641292
 20
541.4053940954
 30
0.0
 10
670.5122719651
 20
541.394911498
 30
0.0
  0
SPLINE
  5
362
100
AcDbEntity
  8
0
100
AcDbSpline
 62
7
  6
CONTINUOUS
 70
0
 71
3
 72
12
 73
8
 74
0
 42
0.0000001
 43
0.0000001
 44
0.0000000001
 40
0.0
 40
0.0
 40
0.0
 40
0.0
 40
0.2353717918
 40
0.4793525765
 40
0.7341903271
 40
0.8656007309
 40
1.0
 40
1.0
 40
1.0
 40
1.0
 10
666.3673981335
 20
523.0235055478
 30
0.0
 10
666.3893831822
 20
522.8528314019
 30
0.0
 10
666.4403010191
 20
522.5057833363
 30
0.0
 10
666.5693486682
 20
521.983615562
 30
0.0
 10
666.7311814647
 20
521.5510811617
 30
0.0
 10
666.8885207
 20
521.2046395947
 30
0.0
 10
666.9814817769
 20
521.0330300149
 30
0.0
 10
667.0373225531
 20
520.9521773968
 30
0.0
  0
SPLINE
  5
363
100
AcDbEntity
  8
0
100
AcDbSpline
 62
7
  6
CONTINUOUS
 70
0
 71
3
 72
13
 73
9
 74
0
 42
0.0000001
 43
0.0000001
 44
0.0000000001
 40
0.0
 40
0.0
 40
0.0
 40
0.0
 40
0.2439791308
 40
0.3679518591
 40
0.4926536098
 40
0.6179603291
 40
0.7439927109
 40
1.0
 40
1.0
 40
1.0
 40
1.0
 10
666.3768183539
 20
547.0940657777
 30
0.0
 10
666.1524972877
 20
545.1466984629
 30
0.0
 10
665.9560205822
 20
542.193213012
 30
0.0
 10
665.8554538367
 20
538.2364612903
 30
0.0
 10
665.8314766375
 20
535.2316155419
 30
0.0
 10
665.8533312961
 20
532.2102500119
 30
0.0
 10
665.9522615483
 20
528.1352210378
 30
0.0
 10
666.1512762976
 20
525.0690896018
 30
0.0
 10
666.3671670839
 20
523.0235662452
 30
0.0
  0
SPLINE
  5
364
100
AcDbEntity
  8
0
100
AcDbSpline
 62
7
  6
CONTINUOUS
 70
0
 71
3
 72
13
 73
9
 74
0
 42
0.0000001
 43
0.0000001
 44
0.0000000001
 40
0.0
 40
0.0
 40
0.0
 40
0.0
 40
0.1130559397
 40
0.2309780578
 40
0.3513174902
 40
0.4748482706
 40
0.7320132122
 40
1.0
 40
1.0
 40
1.0
 40
1.0
 10
667.0484158337
 20
548.6202525259
 30
0.0
 10
666.9914994678
 20
548.590095955
 30
0.0
 10
666.8933820087
 20
548.49698596
 30
0.0
 10
666.7779918953
 20
548.3339718673
 30
0.0
 10
666.6728249352
 20
548.1561299389
 30
0.0
 10
666.5532686621
 20
547.896491541
 30
0.0
 10
666.4458479501
 20
547.5409112119
 30
0.0
 10
666.3986643302
 20
547.2451012609
 30
0.0
 10
666.3770494542
 20
547.0939576317
 30
0.0
  0
SPLINE
  5
365
100
AcDbEntity
  8
0
100
AcDbSpline
 62
7
  6
CONTINUOUS
 70
0
 71
3
 72
15
 73
11
 74
0
 42
0.0000001
 43
0.0000001
 44
0.0000000001
 40
0.0
 40
0.0
 40
0.0
 40
0.0
 40
0.1521952897
 40
0.3129176726
 40
0.4640367211
 40
0.5912949146
 40
0.6991307828
 40
0.7988550488
 40
0.8979954375
 40
1.0
 40
1.0
 40
1.0
 40
1.0
 10
669.2294965681
 20
546.9729689793
 30
0.0
 10
669.2109754316
 20
547.1484235159
 30
0.0
 10
669.1625561018
 20
547.5088683821
 30
0.0
 10
669.0033064068
 20
548.0258050617
 30
0.0
 10
668.7535947872
 20
548.4759912965
 30
0.0
 10
668.4176917468
 20
548.7869917832
 30
0.0
 10
668.0442539318
 20
548.9255793468
 30
0.0
 10
667.6823067886
 20
548.917178568
 30
0.0
 10
667.3463048513
 20
548.8088828923
 30
0.0
 10
667.1477307497
 20
548.6844307691
 30
0.0
 10
667.0484158337
 20
548.6202525259
 30
0.0
  0
SPLINE
  5
366
100
AcDbEntity
  8
0
100
AcDbSpline
 62
7
  6
CONTINUOUS
 70
0
 71
3
 72
8
 73
4
 74
0
 42
0.0000001
 43
0.0000001
 44
0.0000000001
 40
0.0
 40
0.0
 40
0.0
 40
0.0
 40
1.0
 40
1.0
 40
1.0
 40
1.0
 10
669.2922208112
 20
519.5102151919
 30
0.0
 10
669.2955722086
 20
519.5078076548
 30
0.0
 10
669.301424268
 20
519.5089913965
 30
0.0
 10
669.3045067177
 20
519.511734862
 30
0.0
  0
SPLINE
  5
367
100
AcDbEntity
  8
0
100
AcDbSpline
 62
7
  6
CONTINUOUS
 70
0
 71
3
 72
9
 73
5
 74
0
 42
0.0000001
 43
0.0000001
 44
0.0000000001
 40
0.0
 40
0.0
 40
0.0
 40
0.0
 40
0.2289705517
 40
1.0
 40
1.0
 40
1.0
 40
1.0
 10
672.7104448345
 20
515.9582366425
 30
0.0
 10
672.719800646
 20
515.9842438114
 30
0.0
 10
672.7551885156
 20
516.0997997507
 30
0.0
 10
672.7755442094
 20
516.219249837
 30
0.0
 10
672.7891104308
 20
516.3113260198
 30
0.0
  0
SPLINE
  5
368
100
AcDbEntity
  8
0
100
AcDbSpline
 62
7
  6
CONTINUOUS
 70
0
 71
3
 72
15
 73
11
 74
0
 42
0.0000001
 43
0.0000001
 44
0.0000000001
 40
0.0
 40
0.0
 40
0.0
 40
0.0
 40
0.3407195387
 40
0.4980153345
 40
0.6372430916
 40
0.7515925249
 40
0.8392429683
 40
0.8768919079
 40
0.914343764
 40
1.0
 40
1.0
 40
1.0
 40
1.0
 10
670.4439923713
 20
517.0962790992
 30
0.0
 10
670.654213263
 20
516.8346563155
 30
0.0
 10
670.9859668763
 20
516.4704096606
 30
0.0
 10
671.4584366321
 20
516.0564434526
 30
0.0
 10
671.7895986253
 20
515.8214506623
 30
0.0
 10
672.090340826
 20
515.6693960208
 30
0.0
 10
672.3321654986
 20
515.6277627582
 30
0.0
 10
672.4885329002
 20
515.6744370027
 30
0.0
 10
672.6198590735
 20
515.7673639936
 30
0.0
 10
672.6807318658
 20
515.8792679446
 30
0.0
 10
672.7104448345
 20
515.9582366425
 30
0.0
  0
SPLINE
  5
369
100
AcDbEntity
  8
0
100
AcDbSpline
 62
7
  6
CONTINUOUS
 70
0
 71
3
 72
9
 73
5
 74
0
 42
0.0000001
 43
0.0000001
 44
0.0000000001
 40
0.0
 40
0.0
 40
0.0
 40
0.0
 40
0.4986069276
 40
1.0
 40
1.0
 40
1.0
 40
1.0
 10
670.0815746972
 20
517.5854262922
 30
0.0
 10
670.1383783578
 20
517.5016511535
 30
0.0
 10
670.2527809527
 20
517.3337916363
 30
0.0
 10
670.3801292632
 20
517.1755334206
 30
0.0
 10
670.4439923713
 20
517.0962790992
 30
0.0
  0
SPLINE
  5
36A
100
AcDbEntity
  8
0
100
AcDbSpline
 62
7
  6
CONTINUOUS
 70
0
 71
3
 72
9
 73
5
 74
0
 42
0.0000001
 43
0.0000001
 44
0.0000000001
 40
0.0
 40
0.0
 40
0.0
 40
0.0
 40
0.2442227208
 40
1.0
 40
1.0
 40
1.0
 40
1.0
 10
669.4416764146
 20
518.7998162738
 30
0.0
 10
669.4596780781
 20
518.7496173933
 30
0.0
 10
669.5376217504
 20
518.5455884553
 30
0.0
 10
669.6325124845
 20
518.3482503423
 30
0.0
 10
669.7107378543
 20
518.2029341884
 30
0.0
  0
SPLINE
  5
36B
100
AcDbEntity
  8
0
100
AcDbSpline
 62
7
  6
CONTINUOUS
 70
0
 71
3
 72
19
 73
15
 74
0
 42
0.0000001
 43
0.0000001
 44
0.0000000001
 40
0.0
 40
0.0
 40
0.0
 40
0.0
 40
0.0511387427
 40
0.0920246181
 40
0.1259401579
 40
0.1622124525
 40
0.2085702895
 40
0.2658543152
 40
0.3324549426
 40
0.4052154712
 40
0.4814374992
 40
0.5591965317
 40
0.7138856872
 40
1.0
 40
1.0
 40
1.0
 40
1.0
 10
672.7535805756
 20
516.3479984261
 30
0.0
 10
672.7413357139
 20
516.2479115316
 30
0.0
 10
672.7106183745
 20
516.0687854954
 30
0.0
 10
672.6102852208
 20
515.8351114166
 30
0.0
 10
672.4261892065
 20
515.6941974716
 30
0.0
 10
672.1850155918
 20
515.688379099
 30
0.0
 10
671.9260702927
 20
515.7910221604
 30
0.0
 10
671.6369266992
 20
515.9631752161
 30
0.0
 10
671.33343493
 20
516.2059470095
 30
0.0
 10
671.0223815533
 20
516.4959791348
 30
0.0
 10
670.715722304
 20
516.8216853879
 30
0.0
 10
670.3262021706
 20
517.2902108241
 30
0.0
 10
669.7471795393
 20
518.131600172
 30
0.0
 10
669.3915317776
 20
518.9543792188
 30
0.0
 10
669.3046473452
 20
519.5117962658
 30
0.0
  0
SPLINE
  5
36C
100
AcDbEntity
  8
0
100
AcDbSpline
 62
7
  6
CONTINUOUS
 70
0
 71
3
 72
8
 73
4
 74
0
 42
0.0000001
 43
0.0000001
 44
0.0000000001
 40
0.0
 40
0.0
 40
0.0
 40
0.0
 40
1.0
 40
1.0
 40
1.0
 40
1.0
 10
669.2426339557
 20
519.5348813908
 30
0.0
 10
669.2578102436
 20
519.5243700203
 30
0.0
 10
669.2748043553
 20
519.5163369309
 30
0.0
 10
669.2922208112
 20
519.5102151919
 30
0.0
  0
SPLINE
  5
36D
100
AcDbEntity
  8
0
100
AcDbSpline
 62
7
  6
CONTINUOUS
 70
0
 71
3
 72
9
 73
5
 74
0
 42
0.0000001
 43
0.0000001
 44
0.0000000001
 40
0.0
 40
0.0
 40
0.0
 40
0.0
 40
0.4393197785
 40
1.0
 40
1.0
 40
1.0
 40
1.0
 10
669.2511013404
 20
519.5142913662
 30
0.0
 10
669.2559433975
 20
519.5179509928
 30
0.0
 10
669.2718829612
 20
519.5128598888
 30
0.0
 10
669.2845065507
 20
519.5109055746
 30
0.0
 10
669.2922208134
 20
519.5102036661
 30
0.0
  0
SPLINE
  5
36E
100
AcDbEntity
  8
0
100
AcDbSpline
 62
7
  6
CONTINUOUS
 70
0
 71
3
 72
8
 73
4
 74
0
 42
0.0000001
 43
0.0000001
 44
0.0000000001
 40
0.0
 40
0.0
 40
0.0
 40
0.0
 40
1.0
 40
1.0
 40
1.0
 40
1.0
 10
669.2426339557
 20
519.5348813908
 30
0.0
 10
669.2338715717
 20
519.540950376
 30
0.0
 10
669.225608438
 20
519.5479183566
 30
0.0
 10
669.2185069791
 20
519.5558670192
 30
0.0
  0
SPLINE
  5
36F
100
AcDbEntity
  8
0
100
AcDbSpline
 62
7
  6
CONTINUOUS
 70
0
 71
3
 72
8
 73
4
 74
0
 42
0.0000001
 43
0.0000001
 44
0.0000000001
 40
0.0
 40
0.0
 40
0.0
 40
0.0
 40
1.0
 40
1.0
 40
1.0
 40
1.0
 10
672.7535977444
 20
516.3479677718
 30
0.0
 10
672.7633223682
 20
516.3340114826
 30
0.0
 10
672.7756323122
 20
516.3216982544
 30
0.0
 10
672.7891111423
 20
516.3113219616
 30
0.0
  0
SPLINE
  5
370
100
AcDbEntity
  8
0
100
AcDbSpline
 62
7
  6
CONTINUOUS
 70
0
 71
3
 72
9
 73
5
 74
0
 42
0.0000001
 43
0.0000001
 44
0.0000000001
 40
0.0
 40
0.0
 40
0.0
 40
0.0
 40
0.2789303431
 40
1.0
 40
1.0
 40
1.0
 40
1.0
 10
672.839688304
 20
516.2982707512
 30
0.0
 10
672.830772085
 20
516.3009262221
 30
0.0
 10
672.7994209792
 20
516.3120089704
 30
0.0
 10
672.7696036669
 20
516.3300522041
 30
0.0
 10
672.7535805715
 20
516.3479872519
 30
0.0
  0
SPLINE
  5
371
100
AcDbEntity
  8
0
100
AcDbSpline
 62
7
  6
CONTINUOUS
 70
0
 71
3
 72
8
 73
4
 74
0
 42
0.0000001
 43
0.0000001
 44
0.0000000001
 40
0.0
 40
0.0
 40
0.0
 40
0.0
 40
1.0
 40
1.0
 40
1.0
 40
1.0
 10
672.7891111423
 20
516.3113219616
 30
0.0
 10
672.8052401689
 20
516.3047658487
 30
0.0
 10
672.8224483949
 20
516.3007147437
 30
0.0
 10
672.8396872528
 20
516.2982755037
 30
0.0
  0
SPLINE
  5
372
100
AcDbEntity
  8
0
100
AcDbSpline
 62
7
  6
CONTINUOUS
 70
0
 71
3
 72
9
 73
5
 74
0
 42
0.0000001
 43
0.0000001
 44
0.0000000001
 40
0.0
 40
0.0
 40
0.0
 40
0.0
 40
0.5399008166
 40
1.0
 40
1.0
 40
1.0
 40
1.0
 10
674.1906740325
 20
516.2105532245
 30
0.0
 10
674.1907089407
 20
516.2976137873
 30
0.0
 10
674.2184493234
 20
516.4637743941
 30
0.0
 10
674.3378488313
 20
516.5903810791
 30
0.0
 10
674.4043211122
 20
516.6233346377
 30
0.0
  0
SPLINE
  5
373
100
AcDbEntity
  8
0
100
AcDbSpline
 62
7
  6
CONTINUOUS
 70
0
 71
3
 72
19
 73
15
 74
0
 42
0.0000001
 43
0.0000001
 44
0.0000000001
 40
0.0
 40
0.0
 40
0.0
 40
0.0
 40
0.055431562
 40
0.1025660815
 40
0.1428092765
 40
0.179638034
 40
0.2622001432
 40
0.3157709994
 40
0.3785364427
 40
0.4496960447
 40
0.526934605
 40
0.689805628
 40
0.8509184746
 40
1.0
 40
1.0
 40
1.0
 40
1.0
 10
676.2891353136
 20
514.3067655292
 30
0.0
 10
676.2787930043
 20
514.2072796157
 30
0.0
 10
676.2489860411
 20
514.0238771732
 30
0.0
 10
676.1643532984
 20
513.7786671944
 30
0.0
 10
676.0385579519
 20
513.5889356139
 30
0.0
 10
675.7954864046
 20
513.418448861
 30
0.0
 10
675.4579387394
 20
513.4304619105
 30
0.0
 10
675.1196002097
 20
513.5431784827
 30
0.0
 10
674.8152457985
 20
513.6955040694
 30
0.0
 10
674.4980692015
 20
513.9074661407
 30
0.0
 10
674.0603608222
 20
514.2602579343
 30
0.0
 10
673.5524787882
 20
514.7817932003
 30
0.0
 10
673.0781180123
 20
515.4976114227
 30
0.0
 10
672.8847778418
 20
516.0330724109
 30
0.0
 10
672.8396885865
 20
516.2982729976
 30
0.0
  0
SPLINE
  5
374
100
AcDbEntity
  8
0
100
AcDbSpline
 62
7
  6
CONTINUOUS
 70
0
 71
3
 72
8
 73
4
 74
0
 42
0.0000001
 43
0.0000001
 44
0.0000000001
 40
0.0
 40
0.0
 40
0.0
 40
0.0
 40
1.0
 40
1.0
 40
1.0
 40
1.0
 10
676.3266947393
 20
514.2689395035
 30
0.0
 10
676.3124255684
 20
514.2795284368
 30
0.0
 10
676.299360116
 20
514.2922345636
 30
0.0
 10
676.2891356793
 20
514.3067671353
 30
0.0
  0
SPLINE
  5
375
100
AcDbEntity
  8
0
100
AcDbSpline
 62
7
  6
CONTINUOUS
 70
0
 71
3
 72
9
 73
5
 74
0
 42
0.0000001
 43
0.0000001
 44
0.0000000001
 40
0.0
 40
0.0
 40
0.0
 40
0.0
 40
0.2789267962
 40
1.0
 40
1.0
 40
1.0
 40
1.0
 10
676.3752437003
 20
514.2570517457
 30
0.0
 10
676.3663279124
 20
514.2597075982
 30
0.0
 10
676.3349772275
 20
514.2707885534
 30
0.0
 10
676.3051574636
 20
514.2888280648
 30
0.0
 10
676.2891352836
 20
514.3067634445
 30
0.0
  0
SPLINE
  5
376
100
AcDbEntity
  8
0
100
AcDbSpline
 62
7
  6
CONTINUOUS
 70
0
 71
3
 72
8
 73
4
 74
0
 42
0.0000001
 43
0.0000001
 44
0.0000000001
 40
0.0
 40
0.0
 40
0.0
 40
0.0
 40
1.0
 40
1.0
 40
1.0
 40
1.0
 10
676.3266947393
 20
514.2689395035
 30
0.0
 10
676.3422354793
 20
514.262969697
 30
0.0
 10
676.3587077816
 20
514.2592919125
 30
0.0
 10
676.3752057802
 20
514.2570627356
 30
0.0
  0
SPLINE
  5
377
100
AcDbEntity
  8
0
100
AcDbSpline
 62
7
  6
CONTINUOUS
 70
0
 71
3
 72
9
 73
5
 74
0
 42
0.0000001
 43
0.0000001
 44
0.0000000001
 40
0.0
 40
0.0
 40
0.0
 40
0.0
 40
0.1957600904
 40
1.0
 40
1.0
 40
1.0
 40
1.0
 10
676.2932420141
 20
524.5488895858
 30
0.0
 10
676.2985204298
 20
524.5468482428
 30
0.0
 10
676.3267371682
 20
524.5397650206
 30
0.0
 10
676.3562669268
 20
524.5413833908
 30
0.0
 10
676.3793684074
 20
524.5440111872
 30
0.0
  0
SPLINE
  5
378
100
AcDbEntity
  8
0
100
AcDbSpline
 62
7
  6
CONTINUOUS
 70
0
 71
3
 72
11
 73
7
 74
0
 42
0.0000001
 43
0.0000001
 44
0.0000000001
 40
0.0
 40
0.0
 40
0.0
 40
0.0
 40
0.3091092612
 40
0.5903069934
 40
0.8245530941
 40
1.0
 40
1.0
 40
1.0
 40
1.0
 10
672.8437953107
 20
526.5403835183
 30
0.0
 10
673.1843065038
 20
526.3103128238
 30
0.0
 10
673.8421257028
 20
525.8820620231
 30
0.0
 10
674.7799290323
 20
525.3138084177
 30
0.0
 10
675.5833572575
 20
524.8686601963
 30
0.0
 10
676.0756931467
 20
524.6330231752
 30
0.0
 10
676.2932420433
 20
524.5488896076
 30
0.0
  0
SPLINE
  5
379
100
AcDbEntity
  8
0
100
AcDbSpline
 62
7
  6
CONTINUOUS
 70
0
 71
3
 72
9
 73
5
 74
0
 42
0.0000001
 43
0.0000001
 44
0.0000000001
 40
0.0
 40
0.0
 40
0.0
 40
0.0
 40
0.2415293902
 40
1.0
 40
1.0
 40
1.0
 40
1.0
 10
672.7577052741
 20
526.6349355692
 30
0.0
 10
672.762491458
 20
526.6257533077
 30
0.0
 10
672.7849267608
 20
526.5891276673
 30
0.0
 10
672.8168516876
 20
526.5585881464
 30
0.0
 10
672.8437950291
 20
526.5403835381
 30
0.0
  0
SPLINE
  5
37A
100
AcDbEntity
  8
0
100
AcDbSpline
 62
7
  6
CONTINUOUS
 70
0
 71
3
 72
11
 73
7
 74
0
 42
0.0000001
 43
0.0000001
 44
0.0000000001
 40
0.0
 40
0.0
 40
0.0
 40
0.0
 40
0.2373675671
 40
0.4913908979
 40
0.7513936381
 40
1.0
 40
1.0
 40
1.0
 40
1.0
 10
670.5506651857
 20
531.8918042446
 30
0.0
 10
670.6159944638
 20
531.4432988158
 30
0.0
 10
670.8511122976
 20
530.5288216215
 30
0.0
 10
671.4031825254
 20
529.2020029163
 30
0.0
 10
672.0712059437
 20
527.9073153954
 30
0.0
 10
672.5382654242
 20
527.0558686275
 30
0.0
 10
672.7577052738
 20
526.6349357459
 30
0.0
  0
LINE
  5
37B
100
AcDbEntity
  8
0
100
AcDbLine
 62
7
  6
CONTINUOUS
 10
673.6169146511
 20
533.6312513809
 11
670.5506647963
 21
531.8918043872
  0
SPLINE
  5
37C
100
AcDbEntity
  8
0
100
AcDbSpline
 62
7
  6
CONTINUOUS
 70
0
 71
3
 72
11
 73
7
 74
0
 42
0.0000001
 43
0.0000001
 44
0.0000000001
 40
0.0
 40
0.0
 40
0.0
 40
0.0
 40
0.216554551
 40
0.3417225345
 40
0.470130116
 40
1.0
 40
1.0
 40
1.0
 40
1.0
 10
673.6169156603
 20
533.6312513303
 30
0.0
 10
673.6571913515
 20
533.6482275269
 30
0.0
 10
673.7311070638
 20
533.5922276688
 30
0.0
 10
673.7858403574
 20
533.5210994682
 30
0.0
 10
673.8748603736
 20
533.3878554803
 30
0.0
 10
673.9320219476
 20
533.268200745
 30
0.0
 10
673.9737263349
 20
533.1697238308
 30
0.0
  0
SPLINE
  5
37D
100
AcDbEntity
  8
0
100
AcDbSpline
 62
7
  6
CONTINUOUS
 70
0
 71
3
 72
9
 73
5
 74
0
 42
0.0000001
 43
0.0000001
 44
0.0000000001
 40
0.0
 40
0.0
 40
0.0
 40
0.0
 40
0.2781175234
 40
1.0
 40
1.0
 40
1.0
 40
1.0
 10
676.3793684073
 20
524.5440110575
 30
0.0
 10
676.5256135827
 20
524.5606441498
 30
0.0
 10
677.0480689565
 20
524.6370904913
 30
0.0
 10
677.5675691835
 20
524.800241207
 30
0.0
 10
677.8943321965
 20
524.9981848155
 30
0.0
  0
SPLINE
  5
37E
100
AcDbEntity
  8
0
100
AcDbSpline
 62
7
  6
CONTINUOUS
 70
0
 71
3
 72
9
 73
5
 74
0
 42
0.0000001
 43
0.0000001
 44
0.0000000001
 40
0.0
 40
0.0
 40
0.0
 40
0.0
 40
0.2619775817
 40
1.0
 40
1.0
 40
1.0
 40
1.0
 10
670.5085058683
 20
531.9975894269
 30
0.0
 10
670.514021841
 20
531.9892637801
 30
0.0
 10
670.5334587528
 20
531.9564872696
 30
0.0
 10
670.546635675
 20
531.9196492829
 30
0.0
 10
670.5506647963
 20
531.8918043872
 30
0.0
  0
SPLINE
  5
37F
100
AcDbEntity
  8
0
100
AcDbSpline
 62
7
  6
CONTINUOUS
 70
0
 71
3
 72
9
 73
5
 74
0
 42
0.0000001
 43
0.0000001
 44
0.0000000001
 40
0.0
 40
0.0
 40
0.0
 40
0.0
 40
0.2226166769
 40
1.0
 40
1.0
 40
1.0
 40
1.0
 10
673.6169107749
 20
533.6312470165
 30
0.0
 10
673.6158032778
 20
533.6397430708
 30
0.0
 10
673.6085931846
 20
533.6775922027
 30
0.0
 10
673.5940961264
 20
533.7139608244
 30
0.0
 10
673.5796236794
 20
533.7401471154
 30
0.0
  0
SPLINE
  5
380
100
AcDbEntity
  8
0
100
AcDbSpline
 62
7
  6
CONTINUOUS
 70
0
 71
3
 72
9
 73
5
 74
0
 42
0.0000001
 43
0.0000001
 44
0.0000000001
 40
0.0
 40
0.0
 40
0.0
 40
0.0
 40
0.1936448358
 40
1.0
 40
1.0
 40
1.0
 40
1.0
 10
673.9737262874
 20
533.1697243013
 30
0.0
 10
673.9881618852
 20
533.1801666468
 30
0.0
 10
674.0642297173
 20
533.2319533009
 30
0.0
 10
674.1423800204
 20
533.2806630995
 30
0.0
 10
674.2065984168
 20
533.3178129813
 30
0.0
  0
SPLINE
  5
381
100
AcDbEntity
  8
0
100
AcDbSpline
 62
7
  6
CONTINUOUS
 70
0
 71
3
 72
12
 73
8
 74
0
 42
0.0000001
 43
0.0000001
 44
0.0000000001
 40
0.0
 40
0.0
 40
0.0
 40
0.0
 40
0.2564444996
 40
0.5283396151
 40
0.660471744
 40
0.7849594288
 40
1.0
 40
1.0
 40
1.0
 40
1.0
 10
673.6169156462
 20
533.6312514425
 30
0.0
 10
673.7150075587
 20
532.8462790173
 30
0.0
 10
674.182520473
 20
531.2599799651
 30
0.0
 10
675.2123915944
 20
529.4808498583
 30
0.0
 10
676.2777410574
 20
528.2391933027
 30
0.0
 10
677.3654173589
 20
527.2735365772
 30
0.0
 10
678.3114440862
 20
526.746688492
 30
0.0
 10
678.9543988684
 20
526.5834427447
 30
0.0
  0
SPLINE
  5
382
100
AcDbEntity
  8
0
100
AcDbSpline
 62
7
  6
CONTINUOUS
 70
0
 71
3
 72
9
 73
5
 74
0
 42
0.0000001
 43
0.0000001
 44
0.0000000001
 40
0.0
 40
0.0
 40
0.0
 40
0.0
 40
0.4736687386
 40
1.0
 40
1.0
 40
1.0
 40
1.0
 10
678.0358079928
 20
529.0805406571
 30
0.0
 10
677.2360725787
 20
529.5289165506
 30
0.0
 10
675.7081654577
 20
530.7635351499
 30
0.0
 10
674.5128939526
 20
532.3053010802
 30
0.0
 10
673.9737263414
 20
533.1697238381
 30
0.0
  0
SPLINE
  5
383
100
AcDbEntity
  8
0
100
AcDbSpline
 62
7
  6
CONTINUOUS
 70
0
 71
3
 72
9
 73
5
 74
0
 42
0.0000001
 43
0.0000001
 44
0.0000000001
 40
0.0
 40
0.0
 40
0.0
 40
0.0
 40
0.2326778815
 40
1.0
 40
1.0
 40
1.0
 40
1.0
 10
680.0241863747
 20
528.3602255086
 30
0.0
 10
679.8614807637
 20
528.3847654569
 30
0.0
 10
679.1680779299
 20
528.5292492536
 30
0.0
 10
678.5091298112
 20
528.8151702739
 30
0.0
 10
678.0358079928
 20
529.0805406571
 30
0.0
  0
SPLINE
  5
384
100
AcDbEntity
  8
0
100
AcDbSpline
 62
7
  6
CONTINUOUS
 70
0
 71
3
 72
11
 73
7
 74
0
 42
0.0000001
 43
0.0000001
 44
0.0000000001
 40
0.0
 40
0.0
 40
0.0
 40
0.0
 40
0.2613897688
 40
0.5325389727
 40
0.7858633953
 40
1.0
 40
1.0
 40
1.0
 40
1.0
 10
673.9737263414
 20
533.1697238381
 30
0.0
 10
674.1145622931
 20
532.4495810699
 30
0.0
 10
674.6101694647
 20
531.0202402392
 30
0.0
 10
675.7847371748
 20
529.1320944123
 30
0.0
 10
677.2593632802
 20
527.6503340844
 30
0.0
 10
678.4428656538
 20
527.0041861373
 30
0.0
 10
679.0241406438
 20
526.8509503345
 30
0.0
  0
SPLINE
  5
385
100
AcDbEntity
  8
0
100
AcDbSpline
 62
7
  6
CONTINUOUS
 70
0
 71
3
 72
9
 73
5
 74
0
 42
0.0000001
 43
0.0000001
 44
0.0000000001
 40
0.0
 40
0.0
 40
0.0
 40
0.0
 40
0.4746033772
 40
1.0
 40
1.0
 40
1.0
 40
1.0
 10
678.0883425578
 20
529.3732124473
 30
0.0
 10
677.324714999
 20
529.8140830501
 30
0.0
 10
675.8675159575
 20
531.008083737
 30
0.0
 10
674.7231872972
 20
532.4895897757
 30
0.0
 10
674.2065984182
 20
533.3178130844
 30
0.0
  0
SPLINE
  5
386
100
AcDbEntity
  8
0
100
AcDbSpline
 62
7
  6
CONTINUOUS
 70
0
 71
3
 72
13
 73
9
 74
0
 42
0.0000001
 43
0.0000001
 44
0.0000000001
 40
0.0
 40
0.0
 40
0.0
 40
0.0
 40
0.0814829052
 40
0.177673072
 40
0.2951577713
 40
0.4313232378
 40
0.7275853139
 40
1.0
 40
1.0
 40
1.0
 40
1.0
 10
675.2618873006
 20
515.1309765751
 30
0.0
 10
675.2232718778
 20
515.1051517406
 30
0.0
 10
675.1203948303
 20
515.0752390134
 30
0.0
 10
674.9517569077
 20
515.1096333692
 30
0.0
 10
674.7738443955
 20
515.2034056369
 30
0.0
 10
674.5307491028
 20
515.4040923309
 30
0.0
 10
674.2893678582
 20
515.7327818524
 30
0.0
 10
674.190611759
 20
516.0552440761
 30
0.0
 10
674.1906740325
 20
516.2105532245
 30
0.0
  0
SPLINE
  5
387
100
AcDbEntity
  8
0
100
AcDbSpline
 62
7
  6
CONTINUOUS
 70
0
 71
3
 72
17
 73
13
 74
0
 42
0.0000001
 43
0.0000001
 44
0.0000000001
 40
0.0
 40
0.0
 40
0.0
 40
0.0
 40
0.1588881491
 40
0.3304777762
 40
0.4903741397
 40
0.558642168
 40
0.6177152634
 40
0.7123033236
 40
0.7534179298
 40
0.7943512518
 40
0.8855670035
 40
1.0
 40
1.0
 40
1.0
 40
1.0
 10
676.3266951973
 20
514.268942516
 30
0.0
 10
676.3782024586
 20
513.9848776348
 30
0.0
 10
676.6163190308
 20
513.4153601651
 30
0.0
 10
677.2117766509
 20
512.738290093
 30
0.0
 10
677.8191254459
 20
512.3244051774
 30
0.0
 10
678.3035259079
 20
512.1244367337
 30
0.0
 10
678.6952334106
 20
512.0285093075
 30
0.0
 10
679.064760635
 20
512.0380426085
 30
0.0
 10
679.3559881686
 20
512.1831477144
 30
0.0
 10
679.5900087865
 20
512.3994708746
 30
0.0
 10
679.7888179846
 20
512.8152946255
 30
0.0
 10
679.8480615704
 20
513.1866869833
 30
0.0
 10
679.8647680829
 20
513.3939373485
 30
0.0
  0
SPLINE
  5
388
100
AcDbEntity
  8
0
100
AcDbSpline
 62
7
  6
CONTINUOUS
 70
0
 71
3
 72
18
 73
14
 74
0
 42
0.0000001
 43
0.0000001
 44
0.0000000001
 40
0.0
 40
0.0
 40
0.0
 40
0.0
 40
0.1144969016
 40
0.2060817939
 40
0.2473705504
 40
0.2887118901
 40
0.3830357998
 40
0.5088897984
 40
0.6681727453
 40
0.7545499295
 40
0.8403340648
 40
0.9225776765
 40
1.0
 40
1.0
 40
1.0
 40
1.0
 10
679.8251524412
 20
513.4322786105
 30
0.0
 10
679.8060228306
 20
513.2303170762
 30
0.0
 10
679.747514645
 20
512.8673373427
 30
0.0
 10
679.5482360205
 20
512.4631996111
 30
0.0
 10
679.3204855771
 20
512.2502693779
 30
0.0
 10
679.0400167764
 20
512.1006065982
 30
0.0
 10
678.5567518016
 20
512.081728123
 30
0.0
 10
677.914368591
 20
512.3056705005
 30
0.0
 10
677.3611358485
 20
512.6773181638
 30
0.0
 10
676.9454991917
 20
513.0944358196
 30
0.0
 10
676.6763281989
 20
513.4581969213
 30
0.0
 10
676.4776036984
 20
513.8481003167
 30
0.0
 10
676.4028496835
 20
514.1226815985
 30
0.0
 10
676.3752437003
 20
514.2570519081
 30
0.0
  0
SPLINE
  5
389
100
AcDbEntity
  8
0
100
AcDbSpline
 62
7
  6
CONTINUOUS
 70
0
 71
3
 72
18
 73
14
 74
0
 42
0.0000001
 43
0.0000001
 44
0.0000000001
 40
0.0
 40
0.0
 40
0.0
 40
0.0
 40
0.0555290704
 40
0.1025603187
 40
0.1426077091
 40
0.1792242909
 40
0.2614030724
 40
0.3151262017
 40
0.3781282335
 40
0.5263644286
 40
0.6895559052
 40
0.8509024826
 40
1.0
 40
1.0
 40
1.0
 40
1.0
 10
676.3266951973
 20
514.268942516
 30
0.0
 10
676.316565313
 20
514.1667250807
 30
0.0
 10
676.2870579095
 20
513.9785566088
 30
0.0
 10
676.2015907832
 20
513.7271016916
 30
0.0
 10
676.0737002386
 20
513.5329981511
 30
0.0
 10
675.8263745864
 20
513.3584055306
 30
0.0
 10
675.4807177851
 20
513.369008666
 30
0.0
 10
675.134884312
 20
513.4883371011
 30
0.0
 10
674.6960999474
 20
513.7121525359
 30
0.0
 10
674.1374101696
 20
514.1279144357
 30
0.0
 10
673.5245551102
 20
514.7574801997
 30
0.0
 10
673.0346017661
 20
515.4901331284
 30
0.0
 10
672.8349736777
 20
516.0393641967
 30
0.0
 10
672.7891104308
 20
516.3113260198
 30
0.0
  0
SPLINE
  5
38A
100
AcDbEntity
  8
0
100
AcDbSpline
 62
7
  6
CONTINUOUS
 70
0
 71
3
 72
9
 73
5
 74
0
 42
0.0000001
 43
0.0000001
 44
0.0000000001
 40
0.0
 40
0.0
 40
0.0
 40
0.0
 40
0.4685976907
 40
1.0
 40
1.0
 40
1.0
 40
1.0
 10
674.200800275
 20
543.4157509478
 30
0.0
 10
674.1633176598
 20
543.3990878092
 30
0.0
 10
674.063724411
 20
543.4060544056
 30
0.0
 10
673.9997257629
 20
543.4757442544
 30
0.0
 10
673.9778753191
 20
543.5168102772
 30
0.0
  0
SPLINE
  5
38B
100
AcDbEntity
  8
0
100
AcDbSpline
 62
7
  6
CONTINUOUS
 70
0
 71
3
 72
11
 73
7
 74
0
 42
0.0000001
 43
0.0000001
 44
0.0000000001
 40
0.0
 40
0.0
 40
0.0
 40
0.0
 40
0.2363808692
 40
0.4726344915
 40
0.7241737805
 40
1.0
 40
1.0
 40
1.0
 40
1.0
 10
685.5441442371
 20
509.347306229
 30
0.0
 10
685.2200997153
 20
509.3771922429
 30
0.0
 10
684.5757004268
 20
509.5422605633
 30
0.0
 10
683.7344913201
 20
510.1075440804
 30
0.0
 10
683.0600179242
 20
510.9288460659
 30
0.0
 10
682.7341814102
 20
511.5835702255
 30
0.0
 10
682.5933017952
 20
511.9361927677
 30
0.0
  0
SPLINE
  5
38C
100
AcDbEntity
  8
0
100
AcDbSpline
 62
7
  6
CONTINUOUS
 70
0
 71
3
 72
9
 73
5
 74
0
 42
0.0000001
 43
0.0000001
 44
0.0000000001
 40
0.0
 40
0.0
 40
0.0
 40
0.0
 40
0.5200596807
 40
1.0
 40
1.0
 40
1.0
 40
1.0
 10
667.0024932281
 20
520.9373054325
 30
0.0
 10
667.0452211218
 20
520.6837978576
 30
0.0
 10
667.1758650839
 20
520.2022544632
 30
0.0
 10
667.4250268976
 20
519.7667449085
 30
0.0
 10
667.5730025825
 20
519.5812964036
 30
0.0
  0
SPLINE
  5
38D
100
AcDbEntity
  8
0
100
AcDbSpline
 62
7
  6
CONTINUOUS
 70
0
 71
3
 72
19
 73
15
 74
0
 42
0.0000001
 43
0.0000001
 44
0.0000000001
 40
0.0
 40
0.0
 40
0.0
 40
0.0
 40
0.1635096344
 40
0.3261930772
 40
0.4835730175
 40
0.6270658459
 40
0.6894271765
 40
0.742670595
 40
0.78593645
 40
0.8216194542
 40
0.8563806226
 40
0.8965935193
 40
0.9447131164
 40
1.0
 40
1.0
 40
1.0
 40
1.0
 10
667.0024932281
 20
520.9373054325
 30
0.0
 10
667.105378821
 20
520.7752614728
 30
0.0
 10
667.3158925532
 20
520.4552428669
 30
0.0
 10
667.6530156817
 20
519.9980410377
 30
0.0
 10
668.0030680021
 20
519.5810814821
 30
0.0
 10
668.3039468045
 20
519.2771967293
 30
0.0
 10
668.5440030384
 20
519.0894805545
 30
0.0
 10
668.7055875586
 20
518.9948828051
 30
0.0
 10
668.8552622984
 20
518.9462603935
 30
0.0
 10
668.993921603
 20
518.9586976453
 30
0.0
 10
669.1018730192
 20
519.0403402317
 30
0.0
 10
669.1752656406
 20
519.1673136983
 30
0.0
 10
669.2232311131
 20
519.3298213041
 30
0.0
 10
669.2422069219
 20
519.4498662969
 30
0.0
 10
669.2509253803
 20
519.5141803825
 30
0.0
  0
SPLINE
  5
38E
100
AcDbEntity
  8
0
100
AcDbSpline
 62
7
  6
CONTINUOUS
 70
0
 71
3
 72
9
 73
5
 74
0
 42
0.0000001
 43
0.0000001
 44
0.0000000001
 40
0.0
 40
0.0
 40
0.0
 40
0.0
 40
0.3120552393
 40
1.0
 40
1.0
 40
1.0
 40
1.0
 10
667.0373231022
 20
520.9521777878
 30
0.0
 10
667.0337857876
 20
520.9504402383
 30
0.0
 10
667.0223921128
 20
520.9450161976
 30
0.0
 10
667.0108030586
 20
520.9398411037
 30
0.0
 10
667.0024931086
 20
520.9373053525
 30
0.0
  0
SPLINE
  5
38F
100
AcDbEntity
  8
0
100
AcDbSpline
 62
7
  6
CONTINUOUS
 70
0
 71
3
 72
20
 73
16
 74
0
 42
0.0000001
 43
0.0000001
 44
0.0000000001
 40
0.0
 40
0.0
 40
0.0
 40
0.0
 40
0.0552456389
 40
0.1039861048
 40
0.1446365599
 40
0.1794937317
 40
0.2151524792
 40
0.2585995124
 40
0.3122289851
 40
0.3748653229
 40
0.44439386
 40
0.5187293751
 40
0.6757439595
 40
0.8375528153
 40
1.0
 40
1.0
 40
1.0
 40
1.0
 10
669.2185069808
 20
519.5558711964
 30
0.0
 10
669.2103991732
 20
519.4928244643
 30
0.0
 10
669.1922157539
 20
519.3744336752
 30
0.0
 10
669.1476983271
 20
519.2133946557
 30
0.0
 10
669.0785160115
 20
519.0858215226
 30
0.0
 10
668.973324295
 20
519.0035491619
 30
0.0
 10
668.8368989434
 20
518.9907960566
 30
0.0
 10
668.6898667066
 20
519.0399352397
 30
0.0
 10
668.5317303083
 20
519.1348747347
 30
0.0
 10
668.363903484
 20
519.2679371392
 30
0.0
 10
668.1906825539
 20
519.430830593
 30
0.0
 10
667.953151993
 20
519.6828956523
 30
0.0
 10
667.6657343766
 20
520.0327767294
 30
0.0
 10
667.3387391335
 20
520.4800427728
 30
0.0
 10
667.1373512343
 20
520.794283188
 30
0.0
 10
667.0373225531
 20
520.9521773968
 30
0.0
  0
SPLINE
  5
390
100
AcDbEntity
  8
0
100
AcDbSpline
 62
7
  6
CONTINUOUS
 70
0
 71
3
 72
9
 73
5
 74
0
 42
0.0000001
 43
0.0000001
 44
0.0000000001
 40
0.0
 40
0.0
 40
0.0
 40
0.0
 40
0.2842903984
 40
1.0
 40
1.0
 40
1.0
 40
1.0
 10
669.2511013404
 20
519.5142913662
 30
0.0
 10
669.2483126939
 20
519.5184533962
 30
0.0
 10
669.2390712476
 20
519.5335118186
 30
0.0
 10
669.2264580053
 20
519.5460420291
 30
0.0
 10
669.2185247587
 20
519.5558471431
 30
0.0
  0
SPLINE
  5
391
100
AcDbEntity
  8
0
100
AcDbSpline
 62
7
  6
CONTINUOUS
 70
0
 71
3
 72
8
 73
4
 74
0
 42
0.0000001
 43
0.0000001
 44
0.0000000001
 40
0.0
 40
0.0
 40
0.0
 40
0.0
 40
1.0
 40
1.0
 40
1.0
 40
1.0
 10
666.3778501843
 20
522.5444098201
 30
0.0
 10
666.3436685123
 20
522.7150422768
 30
0.0
 10
666.3168988817
 20
522.8872569783
 30
0.0
 10
666.2959718134
 20
523.0600165795
 30
0.0
  0
SPLINE
  5
392
100
AcDbEntity
  8
0
100
AcDbSpline
 62
7
  6
CONTINUOUS
 70
0
 71
3
 72
12
 73
8
 74
0
 42
0.0000001
 43
0.0000001
 44
0.0000000001
 40
0.0
 40
0.0
 40
0.0
 40
0.0
 40
0.1320540456
 40
0.2616394099
 40
0.5157151666
 40
0.7627918571
 40
1.0
 40
1.0
 40
1.0
 40
1.0
 10
667.0024824803
 20
520.9372982424
 30
0.0
 10
666.9587519232
 20
520.999797745
 30
0.0
 10
666.8844839971
 20
521.1319214194
 30
0.0
 10
666.7484522441
 20
521.3968543928
 30
0.0
 10
666.6073446943
 20
521.7333695615
 30
0.0
 10
666.4699904867
 20
522.1376002454
 30
0.0
 10
666.4054519667
 20
522.4101982967
 30
0.0
 10
666.3778501843
 20
522.5444098201
 30
0.0
  0
SPLINE
  5
393
100
AcDbEntity
  8
0
100
AcDbSpline
 62
7
  6
CONTINUOUS
 70
0
 71
3
 72
9
 73
5
 74
0
 42
0.0000001
 43
0.0000001
 44
0.0000000001
 40
0.0
 40
0.0
 40
0.0
 40
0.0
 40
0.4522778848
 40
1.0
 40
1.0
 40
1.0
 40
1.0
 10
671.8183102818
 20
543.5258413591
 30
0.0
 10
671.4907909724
 20
543.3461013231
 30
0.0
 10
670.8992824986
 20
542.7110304482
 30
0.0
 10
670.6296623968
 20
541.9092842163
 30
0.0
 10
670.5545029848
 20
541.4631323931
 30
0.0
  0
SPLINE
  5
394
100
AcDbEntity
  8
0
100
AcDbSpline
 62
7
  6
CONTINUOUS
 70
0
 71
3
 72
9
 73
5
 74
0
 42
0.0000001
 43
0.0000001
 44
0.0000000001
 40
0.0
 40
0.0
 40
0.0
 40
0.0
 40
0.2450028786
 40
1.0
 40
1.0
 40
1.0
 40
1.0
 10
673.7042893938
 20
543.5652501807
 30
0.0
 10
673.6956320123
 20
543.5314791487
 30
0.0
 10
673.6622180074
 20
543.3931513896
 30
0.0
 10
673.6363535504
 20
543.2530235465
 30
0.0
 10
673.6207311459
 20
543.1467320111
 30
0.0
  0
SPLINE
  5
395
100
AcDbEntity
  8
0
100
AcDbSpline
 62
7
  6
CONTINUOUS
 70
0
 71
3
 72
9
 73
5
 74
0
 42
0.0000001
 43
0.0000001
 44
0.0000000001
 40
0.0
 40
0.0
 40
0.0
 40
0.0
 40
0.2326208504
 40
1.0
 40
1.0
 40
1.0
 40
1.0
 10
680.1205501424
 20
528.6209024413
 30
0.0
 10
679.9612023617
 20
528.6446949768
 30
0.0
 10
679.2819111474
 20
528.7853774913
 30
0.0
 10
678.6363833002
 20
529.0652461458
 30
0.0
 10
678.1727844331
 20
529.3251653049
 30
0.0
  0
SPLINE
  5
396
100
AcDbEntity
  8
0
100
AcDbSpline
 62
7
  6
CONTINUOUS
 70
0
 71
3
 72
9
 73
5
 74
0
 42
0.0000001
 43
0.0000001
 44
0.0000000001
 40
0.0
 40
0.0
 40
0.0
 40
0.0
 40
0.2575489906
 40
1.0
 40
1.0
 40
1.0
 40
1.0
 10
682.7603090451
 20
512.1048177808
 30
0.0
 10
682.7488057931
 20
512.0878966082
 30
0.0
 10
682.7026842981
 20
512.023881172
 30
0.0
 10
682.6464175271
 20
511.9618161982
 30
0.0
 10
682.5932942201
 20
511.936183752
 30
0.0
  0
SPLINE
  5
397
100
AcDbEntity
  8
0
100
AcDbSpline
 62
7
  6
CONTINUOUS
 70
0
 71
3
 72
11
 73
7
 74
0
 42
0.0000001
 43
0.0000001
 44
0.0000000001
 40
0.0
 40
0.0
 40
0.0
 40
0.0
 40
0.2793149033
 40
0.5415903618
 40
0.781424363
 40
1.0
 40
1.0
 40
1.0
 40
1.0
 10
683.0989903671
 20
513.35901037
 30
0.0
 10
683.0852395898
 20
513.2376488444
 30
0.0
 10
683.0598793897
 20
513.0022767971
 30
0.0
 10
683.0061451456
 20
512.6641101443
 30
0.0
 10
682.905611921
 20
512.3634277438
 30
0.0
 10
682.8091013259
 20
512.1870035256
 30
0.0
 10
682.7603090451
 20
512.1048177808
 30
0.0
  0
SPLINE
  5
398
100
AcDbEntity
  8
0
100
AcDbSpline
 62
7
  6
CONTINUOUS
 70
0
 71
3
 72
11
 73
7
 74
0
 42
0.0000001
 43
0.0000001
 44
0.0000000001
 40
0.0
 40
0.0
 40
0.0
 40
0.0
 40
0.2207530195
 40
0.4754759239
 40
0.7438983538
 40
1.0
 40
1.0
 40
1.0
 40
1.0
 10
687.5822555293
 20
513.3584858349
 30
0.0
 10
687.2823030281
 20
513.1990403355
 30
0.0
 10
686.583718453
 20
512.9514331101
 30
0.0
 10
685.4366056198
 20
512.829664791
 30
0.0
 10
684.2357795949
 20
512.9553991476
 30
0.0
 10
683.4597531682
 20
513.2003946656
 30
0.0
 10
683.0989903011
 20
513.359010399
 30
0.0
  0
SPLINE
  5
399
100
AcDbEntity
  8
0
100
AcDbSpline
 62
7
  6
CONTINUOUS
 70
0
 71
3
 72
10
 73
6
 74
0
 42
0.0000001
 43
0.0000001
 44
0.0000000001
 40
0.0
 40
0.0
 40
0.0
 40
0.0
 40
0.2141665092
 40
0.4615552108
 40
1.0
 40
1.0
 40
1.0
 40
1.0
 10
685.8636318557
 20
509.3347908709
 30
0.0
 10
686.0122867801
 20
509.3409967984
 30
0.0
 10
686.3313905592
 20
509.3858339686
 30
0.0
 10
687.0023707716
 20
509.5702676289
 30
0.0
 10
687.5034395511
 20
509.7950745658
 30
0.0
 10
687.8362263573
 20
509.9658889236
 30
0.0
  0
SPLINE
  5
39A
100
AcDbEntity
  8
0
100
AcDbSpline
 62
7
  6
CONTINUOUS
 70
0
 71
3
 72
9
 73
5
 74
0
 42
0.0000001
 43
0.0000001
 44
0.0000000001
 40
0.0
 40
0.0
 40
0.0
 40
0.0
 40
0.2673586395
 40
1.0
 40
1.0
 40
1.0
 40
1.0
 10
683.0989894322
 20
513.3590090228
 30
0.0
 10
683.091125672
 20
513.3619421339
 30
0.0
 10
683.0623492465
 20
513.3743955452
 30
0.0
 10
683.0355519883
 20
513.392502672
 30
0.0
 10
683.0199303081
 20
513.4093824251
 30
0.0
  0
SPLINE
  5
39B
100
AcDbEntity
  8
0
100
AcDbSpline
 62
7
  6
CONTINUOUS
 70
0
 71
3
 72
14
 73
10
 74
0
 42
0.0000001
 43
0.0000001
 44
0.0000000001
 40
0.0
 40
0.0
 40
0.0
 40
0.0
 40
0.1443736227
 40
0.300257951
 40
0.4584740692
 40
0.6027245993
 40
0.8267927082
 40
0.9168404559
 40
1.0
 40
1.0
 40
1.0
 40
1.0
 10
679.8647680829
 20
513.3939373485
 30
0.0
 10
679.8957330901
 20
513.2232643647
 30
0.0
 10
680.0067681347
 20
512.8749831447
 30
0.0
 10
680.3115901185
 20
512.4083224094
 30
0.0
 10
680.7287178688
 20
512.03824931
 30
0.0
 10
681.2923942853
 20
511.7438319064
 30
0.0
 10
681.8620900639
 20
511.6538136204
 30
0.0
 10
682.3290486103
 20
511.7739506735
 30
0.0
 10
682.5127693868
 20
511.8770563037
 30
0.0
 10
682.5933017952
 20
511.9361927677
 30
0.0
  0
SPLINE
  5
39C
100
AcDbEntity
  8
0
100
AcDbSpline
 62
7
  6
CONTINUOUS
 70
0
 71
3
 72
9
 73
5
 74
0
 42
0.0000001
 43
0.0000001
 44
0.0000000001
 40
0.0
 40
0.0
 40
0.0
 40
0.0
 40
0.27892511
 40
1.0
 40
1.0
 40
1.0
 40
1.0
 10
679.9112583186
 20
513.3825665359
 30
0.0
 10
679.9023430779
 20
513.3852233867
 30
0.0
 10
679.8709928107
 20
513.3963029662
 30
0.0
 10
679.8411731423
 20
513.4143421936
 30
0.0
 10
679.825151722
 20
513.4322776927
 30
0.0
  0
SPLINE
  5
39D
100
AcDbEntity
  8
0
100
AcDbSpline
 62
7
  6
CONTINUOUS
 70
0
 71
3
 72
8
 73
4
 74
0
 42
0.0000001
 43
0.0000001
 44
0.0000000001
 40
0.0
 40
0.0
 40
0.0
 40
0.0
 40
1.0
 40
1.0
 40
1.0
 40
1.0
 10
679.8647665412
 20
513.3939460776
 30
0.0
 10
679.879673895
 20
513.3883610141
 30
0.0
 10
679.8953916102
 20
513.3848108702
 30
0.0
 10
679.9111561382
 20
513.3825968721
 30
0.0
  0
SPLINE
  5
39E
100
AcDbEntity
  8
0
100
AcDbSpline
 62
7
  6
CONTINUOUS
 70
0
 71
3
 72
8
 73
4
 74
0
 42
0.0000001
 43
0.0000001
 44
0.0000000001
 40
0.0
 40
0.0
 40
0.0
 40
0.0
 40
1.0
 40
1.0
 40
1.0
 40
1.0
 10
679.825148291
 20
513.4322815902
 30
0.0
 10
679.8359004725
 20
513.4173791943
 30
0.0
 10
679.8497376065
 20
513.4045206664
 30
0.0
 10
679.8647665412
 20
513.3939460776
 30
0.0
  0
SPLINE
  5
39F
100
AcDbEntity
  8
0
100
AcDbSpline
 62
7
  6
CONTINUOUS
 70
0
 71
3
 72
12
 73
8
 74
0
 42
0.0000001
 43
0.0000001
 44
0.0000000001
 40
0.0
 40
0.0
 40
0.0
 40
0.0
 40
0.2355786656
 40
0.480989443
 40
0.736658161
 40
0.8675404194
 40
1.0
 40
1.0
 40
1.0
 40
1.0
 10
683.0295793748
 20
537.4798329397
 30
0.0
 10
683.0157206616
 20
537.6556949746
 30
0.0
 10
682.9833153645
 20
538.0145394019
 30
0.0
 10
682.8992643625
 20
538.5602204183
 30
0.0
 10
682.7881372592
 20
539.0209760763
 30
0.0
 10
682.673158737
 20
539.3921241936
 30
0.0
 10
682.6025718335
 20
539.5769864766
 30
0.0
 10
682.5583677443
 20
539.6657810253
 30
0.0
  0
SPLINE
  5
3A0
100
AcDbEntity
  8
0
100
AcDbSpline
 62
7
  6
CONTINUOUS
 70
0
 71
3
 72
11
 73
7
 74
0
 42
0.0000001
 43
0.0000001
 44
0.0000000001
 40
0.0
 40
0.0
 40
0.0
 40
0.0
 40
0.2395313658
 40
0.4872414279
 40
0.7399238778
 40
1.0
 40
1.0
 40
1.0
 40
1.0
 10
683.0200741631
 20
513.4092236857
 30
0.0
 10
683.1629849286
 20
515.3266714686
 30
0.0
 10
683.3043196453
 20
519.2375260961
 30
0.0
 10
683.3460017775
 20
525.1767432848
 30
0.0
 10
683.3070132501
 20
531.281191843
 30
0.0
 10
683.1648630103
 20
535.3964187224
 30
0.0
 10
683.0297256085
 20
537.4797233194
 30
0.0
  0
SPLINE
  5
3A1
100
AcDbEntity
  8
0
100
AcDbSpline
 62
7
  6
CONTINUOUS
 70
0
 71
3
 72
13
 73
9
 74
0
 42
0.0000001
 43
0.0000001
 44
0.0000000001
 40
0.0
 40
0.0
 40
0.0
 40
0.0
 40
0.1010366296
 40
0.2113473007
 40
0.3267182744
 40
0.4485215687
 40
0.713141636
 40
1.0
 40
1.0
 40
1.0
 40
1.0
 10
682.5472743251
 20
511.9977058164
 30
0.0
 10
682.5928828044
 20
512.0212782159
 30
0.0
 10
682.6687121314
 20
512.103673293
 30
0.0
 10
682.7512070847
 20
512.246813278
 30
0.0
 10
682.8256206065
 20
512.4075793754
 30
0.0
 10
682.9080373275
 20
512.6491714827
 30
0.0
 10
682.9774727049
 20
512.9854229788
 30
0.0
 10
683.006423245
 20
513.2642458375
 30
0.0
 10
683.0199280246
 20
513.4093808387
 30
0.0
  0
SPLINE
  5
3A2
100
AcDbEntity
  8
0
100
AcDbSpline
 62
7
  6
CONTINUOUS
 70
0
 71
3
 72
15
 73
11
 74
0
 42
0.0000001
 43
0.0000001
 44
0.0000000001
 40
0.0
 40
0.0
 40
0.0
 40
0.0
 40
0.1445082236
 40
0.3008002357
 40
0.4592441089
 40
0.6028856471
 40
0.7242678376
 40
0.8265955825
 40
0.9164238486
 40
1.0
 40
1.0
 40
1.0
 40
1.0
 10
679.9112583228
 20
513.3825772106
 30
0.0
 10
679.9470605512
 20
513.2179961533
 30
0.0
 10
680.0424149102
 20
512.8768200688
 30
0.0
 10
680.3407396992
 20
512.4223358242
 30
0.0
 10
680.7446446115
 20
512.0636458557
 30
0.0
 10
681.1897177159
 20
511.8386246955
 30
0.0
 10
681.6108525906
 20
511.7402597467
 30
0.0
 10
681.9797447511
 20
511.748151469
 30
0.0
 10
682.2934980161
 20
511.8357292569
 30
0.0
 10
682.4661761969
 20
511.9437422077
 30
0.0
 10
682.5472743251
 20
511.9977058164
 30
0.0
  0
SPLINE
  5
3A3
100
AcDbEntity
  8
0
100
AcDbSpline
 62
7
  6
CONTINUOUS
 70
0
 71
3
 72
9
 73
5
 74
0
 42
0.0000001
 43
0.0000001
 44
0.0000000001
 40
0.0
 40
0.0
 40
0.0
 40
0.0
 40
0.2461952512
 40
1.0
 40
1.0
 40
1.0
 40
1.0
 10
676.4886630976
 20
544.4309325604
 30
0.0
 10
676.4713080509
 20
544.400895605
 30
0.0
 10
676.4068313016
 20
544.2754022945
 30
0.0
 10
676.3634431737
 20
544.1399653925
 30
0.0
 10
676.338661993
 20
544.0366813832
 30
0.0
  0
SPLINE
  5
3A4
100
AcDbEntity
  8
0
100
AcDbSpline
 62
7
  6
CONTINUOUS
 70
0
 71
3
 72
14
 73
10
 74
0
 42
0.0000001
 43
0.0000001
 44
0.0000000001
 40
0.0
 40
0.0
 40
0.0
 40
0.0
 40
0.2897851267
 40
0.4263842285
 40
0.554783053
 40
0.6741824043
 40
0.7855652762
 40
0.8925372508
 40
1.0
 40
1.0
 40
1.0
 40
1.0
 10
679.138374876
 20
543.5140001782
 30
0.0
 10
678.9817472956
 20
543.8034043217
 30
0.0
 10
678.7044739068
 20
544.2103317479
 30
0.0
 10
678.2281851059
 20
544.6279173489
 30
0.0
 10
677.8425052211
 20
544.84112688
 30
0.0
 10
677.4401649645
 20
544.9388335875
 30
0.0
 10
677.0498783369
 20
544.9004579702
 30
0.0
 10
676.7136487887
 20
544.7256549241
 30
0.0
 10
676.5509462465
 20
544.5358723426
 30
0.0
 10
676.4886630976
 20
544.4309325604
 30
0.0
  0
SPLINE
  5
3A5
100
AcDbEntity
  8
0
100
AcDbSpline
 62
7
  6
CONTINUOUS
 70
0
 71
3
 72
9
 73
5
 74
0
 42
0.0000001
 43
0.0000001
 44
0.0000000001
 40
0.0
 40
0.0
 40
0.0
 40
0.0
 40
0.5020120241
 40
1.0
 40
1.0
 40
1.0
 40
1.0
 10
679.3957924849
 20
542.9641892556
 30
0.0
 10
679.3579839483
 20
543.0585833901
 30
0.0
 10
679.2854009513
 20
543.2481102359
 30
0.0
 10
679.1866695694
 20
543.4254436332
 30
0.0
 10
679.138374876
 20
543.5140001782
 30
0.0
  0
SPLINE
  5
3A6
100
AcDbEntity
  8
0
100
AcDbSpline
 62
7
  6
CONTINUOUS
 70
0
 71
3
 72
8
 73
4
 74
0
 42
0.0000001
 43
0.0000001
 44
0.0000000001
 40
0.0
 40
0.0
 40
0.0
 40
0.0
 40
1.0
 40
1.0
 40
1.0
 40
1.0
 10
679.6277150404
 20
542.2665035529
 30
0.0
 10
679.5586926259
 20
542.5016575375
 30
0.0
 10
679.482305701
 20
542.7348926058
 30
0.0
 10
679.3957924849
 20
542.9641892556
 30
0.0
  0
SPLINE
  5
3A7
100
AcDbEntity
  8
0
100
AcDbSpline
 62
7
  6
CONTINUOUS
 70
0
 71
3
 72
9
 73
5
 74
0
 42
0.0000001
 43
0.0000001
 44
0.0000000001
 40
0.0
 40
0.0
 40
0.0
 40
0.0
 40
0.2534420528
 40
1.0
 40
1.0
 40
1.0
 40
1.0
 10
683.0556559019
 20
537.9799987919
 30
0.0
 10
683.0607094072
 20
537.9350930464
 30
0.0
 10
683.0797427814
 20
537.7578065061
 30
0.0
 10
683.0960834962
 20
537.5802489043
 30
0.0
 10
683.1086488833
 20
537.4477305913
 30
0.0
  0
SPLINE
  5
3A8
100
AcDbEntity
  8
0
100
AcDbSpline
 62
7
  6
CONTINUOUS
 70
0
 71
3
 72
12
 73
8
 74
0
 42
0.0000001
 43
0.0000001
 44
0.0000000001
 40
0.0
 40
0.0
 40
0.0
 40
0.0
 40
0.1297907273
 40
0.2585382022
 40
0.5126969072
 40
0.7605548107
 40
1.0
 40
1.0
 40
1.0
 40
1.0
 10
682.6044003711
 20
539.68711618
 30
0.0
 10
682.6448176966
 20
539.6219466276
 30
0.0
 10
682.6983470257
 20
539.4772597736
 30
0.0
 10
682.8002803974
 20
539.1926821072
 30
0.0
 10
682.8987569704
 20
538.8325952568
 30
0.0
 10
683.0007264221
 20
538.4062530991
 30
0.0
 10
683.038106461
 20
538.1203793622
 30
0.0
 10
683.0556559019
 20
537.9799987919
 30
0.0
  0
SPLINE
  5
3A9
100
AcDbEntity
  8
0
100
AcDbSpline
 62
7
  6
CONTINUOUS
 70
0
 71
3
 72
12
 73
8
 74
0
 42
0.0000001
 43
0.0000001
 44
0.0000000001
 40
0.0
 40
0.0
 40
0.0
 40
0.0
 40
0.2318230107
 40
0.4798445513
 40
0.7395629012
 40
0.8706790394
 40
1.0
 40
1.0
 40
1.0
 40
1.0
 10
688.1731743016
 20
544.2775351131
 30
0.0
 10
687.9754224588
 20
544.2746785757
 30
0.0
 10
687.5638783265
 20
544.2958447992
 30
0.0
 10
686.9515554701
 20
544.4656160969
 30
0.0
 10
686.4592623316
 20
544.7079444815
 30
0.0
 10
686.0952264301
 20
544.9626166662
 30
0.0
 10
685.9264610531
 20
545.1083179743
 30
0.0
 10
685.8492042579
 20
545.1870785838
 30
0.0
  0
SPLINE
  5
3AA
100
AcDbEntity
  8
0
100
AcDbSpline
 62
7
  6
CONTINUOUS
 70
0
 71
3
 72
11
 73
7
 74
0
 42
0.0000001
 43
0.0000001
 44
0.0000000001
 40
0.0
 40
0.0
 40
0.0
 40
0.0
 40
0.2443605318
 40
0.5129485969
 40
0.7742667448
 40
1.0
 40
1.0
 40
1.0
 40
1.0
 10
683.1086488071
 20
537.4477306012
 30
0.0
 10
683.4813815306
 20
537.3993421657
 30
0.0
 10
684.2736050739
 20
537.3683956501
 30
0.0
 10
685.461732642
 20
537.4937989004
 30
0.0
 10
686.592745763
 20
537.777543159
 30
0.0
 10
687.2874039969
 20
538.069356475
 30
0.0
 10
687.5922301995
 20
538.2355948333
 30
0.0
  0
SPLINE
  5
3AB
100
AcDbEntity
  8
0
100
AcDbSpline
 62
7
  6
CONTINUOUS
 70
0
 71
3
 72
9
 73
5
 74
0
 42
0.0000001
 43
0.0000001
 44
0.0000000001
 40
0.0
 40
0.0
 40
0.0
 40
0.0
 40
0.2778723405
 40
1.0
 40
1.0
 40
1.0
 40
1.0
 10
683.108660701
 20
537.4477398498
 30
0.0
 10
683.1008995284
 20
537.4493137648
 30
0.0
 10
683.0733039571
 20
537.4561785386
 30
0.0
 10
683.0462364456
 20
537.4674400537
 30
0.0
 10
683.029725477
 20
537.4797253469
 30
0.0
  0
SPLINE
  5
3AC
100
AcDbEntity
  8
0
100
AcDbSpline
 62
7
  6
CONTINUOUS
 70
0
 71
3
 72
17
 73
13
 74
0
 42
0.0000001
 43
0.0000001
 44
0.0000000001
 40
0.0
 40
0.0
 40
0.0
 40
0.0
 40
0.0659526105
 40
0.1312422226
 40
0.2600223228
 40
0.5125905756
 40
0.6371619347
 40
0.7603762069
 40
0.8815981279
 40
0.9411893126
 40
0.9706891393
 40
1.0
 40
1.0
 40
1.0
 40
1.0
 10
683.108660598
 20
537.4477409607
 30
0.0
 10
683.1390701795
 20
536.9188075971
 30
0.0
 10
683.1993251264
 20
535.8662173423
 30
0.0
 10
683.2849667492
 20
533.7790992648
 30
0.0
 10
683.3724717159
 20
530.192070465
 30
0.0
 10
683.3937269085
 20
526.1277571522
 30
0.0
 10
683.3809712786
 20
522.1083492921
 30
0.0
 10
683.3435619697
 20
519.1442566139
 30
0.0
 10
683.2801352514
 20
516.7025950831
 30
0.0
 10
683.2018385286
 20
515.0148693177
 30
0.0
 10
683.1465056285
 20
514.0653262227
 30
0.0
 10
683.1139088791
 20
513.5940119469
 30
0.0
 10
683.099002052
 20
513.3590259378
 30
0.0
  0
SPLINE
  5
3AD
100
AcDbEntity
  8
0
100
AcDbSpline
 62
7
  6
CONTINUOUS
 70
0
 71
3
 72
9
 73
5
 74
0
 42
0.0000001
 43
0.0000001
 44
0.0000000001
 40
0.0
 40
0.0
 40
0.0
 40
0.0
 40
0.4778728153
 40
1.0
 40
1.0
 40
1.0
 40
1.0
 10
687.5822554531
 20
513.3584746448
 30
0.0
 10
688.2535239621
 20
517.2758886466
 30
0.0
 10
688.8642338392
 20
525.6170026424
 30
0.0
 10
688.2043360786
 20
533.9363840418
 30
0.0
 10
687.5922301146
 20
538.2356060913
 30
0.0
  0
SPLINE
  5
3AE
100
AcDbEntity
  8
0
100
AcDbSpline
 62
7
  6
CONTINUOUS
 70
0
 71
3
 72
13
 73
9
 74
0
 42
0.0000001
 43
0.0000001
 44
0.0000000001
 40
0.0
 40
0.0
 40
0.0
 40
0.0
 40
0.3268061124
 40
0.4669090539
 40
0.5908692897
 40
0.7970117104
 40
0.8941529548
 40
1.0
 40
1.0
 40
1.0
 40
1.0
 10
687.5822529588
 20
513.3584755201
 30
0.0
 10
687.5279963588
 20
513.0418305161
 30
0.0
 10
687.4764035035
 20
512.5827545566
 30
0.0
 10
687.5117322497
 20
512.0004943146
 30
0.0
 10
687.6057113901
 20
511.5491116299
 30
0.0
 10
687.8255471077
 20
511.156893409
 30
0.0
 10
688.1904453495
 20
510.9650520731
 30
0.0
 10
688.3928059649
 20
510.9412324965
 30
0.0
 10
688.496838124
 20
510.9431954218
 30
0.0
  0
SPLINE
  5
3AF
100
AcDbEntity
  8
0
100
AcDbSpline
 62
7
  6
CONTINUOUS
 70
0
 71
3
 72
10
 73
6
 74
0
 42
0.0000001
 43
0.0000001
 44
0.0000000001
 40
0.0
 40
0.0
 40
0.0
 40
0.0
 40
0.2372072673
 40
0.4908209768
 40
1.0
 40
1.0
 40
1.0
 40
1.0
 10
688.5097260273
 20
543.0854250402
 30
0.0
 10
688.273603201
 20
542.7649347383
 30
0.0
 10
687.8937803916
 20
542.0203167952
 30
0.0
 10
687.4725379788
 20
540.3891280362
 30
0.0
 10
687.4717863279
 20
539.0815781277
 30
0.0
 10
687.5922276169
 20
538.2356062593
 30
0.0
  0
SPLINE
  5
3B0
100
AcDbEntity
  8
0
100
AcDbSpline
 62
7
  6
CONTINUOUS
 70
0
 71
3
 72
15
 73
11
 74
0
 42
0.0000001
 43
0.0000001
 44
0.0000000001
 40
0.0
 40
0.0
 40
0.0
 40
0.0
 40
0.1443571805
 40
0.2873538945
 40
0.4270785208
 40
0.5602914155
 40
0.6823042795
 40
0.7904261171
 40
0.8927537637
 40
1.0
 40
1.0
 40
1.0
 40
1.0
 10
682.6044079474
 20
539.6871195594
 30
0.0
 10
682.5227550964
 20
539.8607042324
 30
0.0
 10
682.3532149173
 20
540.2033524896
 30
0.0
 10
682.0453049272
 20
540.6819623578
 30
0.0
 10
681.6798080463
 20
541.1000894179
 30
0.0
 10
681.2599306259
 20
541.4223777758
 30
0.0
 10
680.7973804602
 20
541.5971052339
 30
0.0
 10
680.3343987443
 20
541.5421811957
 30
0.0
 10
680.002618783
 20
541.2435739826
 30
0.0
 10
679.9092468107
 20
540.9732240546
 30
0.0
 10
679.8775447266
 20
540.8342797838
 30
0.0
  0
SPLINE
  5
3B1
100
AcDbEntity
  8
0
100
AcDbSpline
 62
7
  6
CONTINUOUS
 70
0
 71
3
 72
15
 73
11
 74
0
 42
0.0000001
 43
0.0000001
 44
0.0000000001
 40
0.0
 40
0.0
 40
0.0
 40
0.0
 40
0.107503974
 40
0.2095561395
 40
0.317314373
 40
0.4394853396
 40
0.5730596991
 40
0.7129510804
 40
0.8558673812
 40
1.0
 40
1.0
 40
1.0
 40
1.0
 10
679.9222444365
 20
540.7996729565
 30
0.0
 10
679.9538565334
 20
540.9354599894
 30
0.0
 10
680.0374197485
 20
541.2008624501
 30
0.0
 10
680.356748055
 20
541.499215426
 30
0.0
 10
680.8100925174
 20
541.5495089585
 30
0.0
 10
681.258500836
 20
541.370758252
 30
0.0
 10
681.6648683787
 20
541.0506229582
 30
0.0
 10
682.0163509129
 20
540.6374585219
 30
0.0
 10
682.3158001259
 20
540.1701735716
 30
0.0
 10
682.4803003102
 20
539.8356186298
 30
0.0
 10
682.5583677443
 20
539.6657810253
 30
0.0
  0
SPLINE
  5
3B2
100
AcDbEntity
  8
0
100
AcDbSpline
 62
7
  6
CONTINUOUS
 70
0
 71
3
 72
9
 73
5
 74
0
 42
0.0000001
 43
0.0000001
 44
0.0000000001
 40
0.0
 40
0.0
 40
0.0
 40
0.0
 40
0.2616731454
 40
1.0
 40
1.0
 40
1.0
 40
1.0
 10
679.8777106908
 20
540.8343660261
 30
0.0
 10
679.8802224544
 20
540.8300089922
 30
0.0
 10
679.8903300621
 20
540.813373793
 30
0.0
 10
679.909053202
 20
540.8043965711
 30
0.0
 10
679.9224068048
 20
540.7995963866
 30
0.0
  0
SPLINE
  5
3B3
100
AcDbEntity
  8
0
100
AcDbSpline
 62
7
  6
CONTINUOUS
 70
0
 71
3
 72
8
 73
4
 74
0
 42
0.0000001
 43
0.0000001
 44
0.0000000001
 40
0.0
 40
0.0
 40
0.0
 40
0.0
 40
1.0
 40
1.0
 40
1.0
 40
1.0
 10
679.8858539805
 20
540.8135890711
 30
0.0
 10
679.8704015107
 20
540.8210240402
 30
0.0
 10
679.8555481695
 20
540.8304056127
 30
0.0
 10
679.8430981304
 20
540.8421977334
 30
0.0
  0
SPLINE
  5
3B4
100
AcDbEntity
  8
0
100
AcDbSpline
 62
7
  6
CONTINUOUS
 70
0
 71
3
 72
9
 73
5
 74
0
 42
0.0000001
 43
0.0000001
 44
0.0000000001
 40
0.0
 40
0.0
 40
0.0
 40
0.0
 40
0.7611424286
 40
1.0
 40
1.0
 40
1.0
 40
1.0
 10
679.8777106908
 20
540.8343660261
 30
0.0
 10
679.8703193274
 20
540.8291102439
 30
0.0
 10
679.8560737496
 20
540.8364068214
 30
0.0
 10
679.8456237533
 20
540.8408971186
 30
0.0
 10
679.8430981312
 20
540.8422092616
 30
0.0
  0
SPLINE
  5
3B5
100
AcDbEntity
  8
0
100
AcDbSpline
 62
7
  6
CONTINUOUS
 70
0
 71
3
 72
8
 73
4
 74
0
 42
0.0000001
 43
0.0000001
 44
0.0000000001
 40
0.0
 40
0.0
 40
0.0
 40
0.0
 40
1.0
 40
1.0
 40
1.0
 40
1.0
 10
679.8858539805
 20
540.8135890711
 30
0.0
 10
679.8975562112
 20
540.8079585328
 30
0.0
 10
679.909797053
 20
540.8033795673
 30
0.0
 10
679.9222444382
 20
540.799677167
 30
0.0
  0
SPLINE
  5
3B6
100
AcDbEntity
  8
0
100
AcDbSpline
 62
7
  6
CONTINUOUS
 70
0
 71
3
 72
9
 73
5
 74
0
 42
0.0000001
 43
0.0000001
 44
0.0000000001
 40
0.0
 40
0.0
 40
0.0
 40
0.0
 40
0.2773521769
 40
1.0
 40
1.0
 40
1.0
 40
1.0
 10
678.2142399542
 20
552.6682482292
 30
0.0
 10
677.5242153809
 20
553.0666250899
 30
0.0
 10
674.97431401
 20
554.374525579
 30
0.0
 10
672.0710873021
 20
555.1314914645
 30
0.0
 10
669.9960201137
 20
555.0693860748
 30
0.0
  0
SPLINE
  5
3B7
100
AcDbEntity
  8
0
100
AcDbSpline
 62
7
  6
CONTINUOUS
 70
0
 71
3
 72
9
 73
5
 74
0
 42
0.0000001
 43
0.0000001
 44
0.0000000001
 40
0.0
 40
0.0
 40
0.0
 40
0.0
 40
0.521668112
 40
1.0
 40
1.0
 40
1.0
 40
1.0
 10
686.4305735874
 20
545.5811112817
 30
0.0
 10
685.2092095539
 20
547.0283042354
 30
0.0
 10
682.666722558
 20
549.6405506759
 30
0.0
 10
679.7180022135
 20
551.8000703248
 30
0.0
 10
678.2142399542
 20
552.6682482292
 30
0.0
  0
SPLINE
  5
3B8
100
AcDbEntity
  8
0
100
AcDbSpline
 62
7
  6
CONTINUOUS
 70
0
 71
3
 72
9
 73
5
 74
0
 42
0.0000001
 43
0.0000001
 44
0.0000000001
 40
0.0
 40
0.0
 40
0.0
 40
0.0
 40
0.2642667654
 40
1.0
 40
1.0
 40
1.0
 40
1.0
 10
685.8492298028
 20
545.1870646739
 30
0.0
 10
685.8986056885
 20
545.2243659657
 30
0.0
 10
686.0872175766
 20
545.3631231121
 30
0.0
 10
686.2824149508
 20
545.4931846791
 30
0.0
 10
686.4305649386
 20
545.5811212615
 30
0.0
  0
SPLINE
  5
3B9
100
AcDbEntity
  8
0
100
AcDbSpline
 62
7
  6
CONTINUOUS
 70
0
 71
3
 72
9
 73
5
 74
0
 42
0.0000001
 43
0.0000001
 44
0.0000000001
 40
0.0
 40
0.0
 40
0.0
 40
0.0
 40
0.2603498518
 40
1.0
 40
1.0
 40
1.0
 40
1.0
 10
669.5272930386
 20
554.6103215094
 30
0.0
 10
669.5597340744
 20
554.657368889
 30
0.0
 10
669.6926552278
 20
554.832048095
 30
0.0
 10
669.8587961899
 20
554.9826339838
 30
0.0
 10
669.9960317572
 20
555.0693861503
 30
0.0
  0
SPLINE
  5
3BA
100
AcDbEntity
  8
0
100
AcDbSpline
 62
7
  6
CONTINUOUS
 70
0
 71
3
 72
9
 73
5
 74
0
 42
0.0000001
 43
0.0000001
 44
0.0000000001
 40
0.0
 40
0.0
 40
0.0
 40
0.0
 40
0.5101968471
 40
1.0
 40
1.0
 40
1.0
 40
1.0
 10
666.7970658938
 20
548.4910398802
 30
0.0
 10
666.8286225554
 20
548.5298847804
 30
0.0
 10
666.8930637082
 20
548.6036278196
 30
0.0
 10
666.9705216371
 20
548.6668957116
 30
0.0
 10
667.0135756631
 20
548.6882231901
 30
0.0
  0
SPLINE
  5
3BB
100
AcDbEntity
  8
0
100
AcDbSpline
 62
7
  6
CONTINUOUS
 70
0
 71
3
 72
11
 73
7
 74
0
 42
0.0000001
 43
0.0000001
 44
0.0000000001
 40
0.0
 40
0.0
 40
0.0
 40
0.0
 40
0.2641139041
 40
0.5220510774
 40
0.765485254
 40
1.0
 40
1.0
 40
1.0
 40
1.0
 10
666.3056303158
 20
547.1487367928
 30
0.0
 10
666.3231046421
 20
547.2748819365
 30
0.0
 10
666.364511354
 20
547.5233426849
 30
0.0
 10
666.4571306803
 20
547.8816112383
 30
0.0
 10
666.6003254234
 20
548.2083888515
 30
0.0
 10
666.7293919095
 20
548.4004485348
 30
0.0
 10
666.7970658938
 20
548.4910398802
 30
0.0
  0
SPLINE
  5
3BC
100
AcDbEntity
  8
0
100
AcDbSpline
 62
7
  6
CONTINUOUS
 70
0
 71
3
 72
15
 73
11
 74
0
 42
0.0000001
 43
0.0000001
 44
0.0000000001
 40
0.0
 40
0.0
 40
0.0
 40
0.0
 40
0.2141322209
 40
0.3897126613
 40
0.5285664608
 40
0.634266405
 40
0.7161562011
 40
0.7928080512
 40
0.8835874319
 40
1.0
 40
1.0
 40
1.0
 40
1.0
 10
669.5272958382
 20
554.6103199392
 30
0.0
 10
669.4832547709
 20
554.613196673
 30
0.0
 10
669.4032463352
 20
554.6221151396
 30
0.0
 10
669.2967852916
 20
554.6464100372
 30
0.0
 10
669.2153545083
 20
554.6767986615
 30
0.0
 10
669.1576873029
 20
554.7129874288
 30
0.0
 10
669.1248840535
 20
554.75958542
 30
0.0
 10
669.1243875537
 20
554.8137031551
 30
0.0
 10
669.1515461532
 20
554.8669451268
 30
0.0
 10
669.179922413
 20
554.8991236735
 30
0.0
 10
669.1968797587
 20
554.9160987715
 30
0.0
  0
SPLINE
  5
3BD
100
AcDbEntity
  8
0
100
AcDbSpline
 62
7
  6
CONTINUOUS
 70
0
 71
3
 72
9
 73
5
 74
0
 42
0.0000001
 43
0.0000001
 44
0.0000000001
 40
0.0
 40
0.0
 40
0.0
 40
0.0
 40
0.2277494214
 40
1.0
 40
1.0
 40
1.0
 40
1.0
 10
666.3056283887
 20
547.1487364927
 30
0.0
 10
666.3097607979
 20
547.1432467907
 30
0.0
 10
666.329948901
 20
547.1206976072
 30
0.0
 10
666.3559662334
 20
547.1038717195
 30
0.0
 10
666.377050765
 20
547.093958122
 30
0.0
  0
SPLINE
  5
3BE
100
AcDbEntity
  8
0
100
AcDbSpline
 62
7
  6
CONTINUOUS
 70
0
 71
3
 72
9
 73
5
 74
0
 42
0.0000001
 43
0.0000001
 44
0.0000000001
 40
0.0
 40
0.0
 40
0.0
 40
0.0
 40
0.2186804303
 40
1.0
 40
1.0
 40
1.0
 40
1.0
 10
666.2959944517
 20
523.0600271957
 30
0.0
 10
666.3001682518
 20
523.0559036889
 30
0.0
 10
666.3211733315
 20
523.0390057579
 30
0.0
 10
666.3468828198
 20
523.0288537206
 30
0.0
 10
666.3671672931
 20
523.0235642626
 30
0.0
  0
SPLINE
  5
3BF
100
AcDbEntity
  8
0
100
AcDbSpline
 62
7
  6
CONTINUOUS
 70
0
 71
3
 72
16
 73
12
 74
0
 42
0.0000001
 43
0.0000001
 44
0.0000000001
 40
0.0
 40
0.0
 40
0.0
 40
0.0
 40
0.1286890353
 40
0.2556396071
 40
0.3815395786
 40
0.5067652638
 40
0.6314987261
 40
0.7555689548
 40
0.8786252797
 40
0.9395538502
 40
1.0
 40
1.0
 40
1.0
 40
1.0
 10
666.2959944984
 20
523.0600260522
 30
0.0
 10
666.1889840928
 20
524.0892804963
 30
0.0
 10
666.0101546821
 20
526.1376824148
 30
0.0
 10
665.8595475401
 20
529.2025035164
 30
0.0
 10
665.7863360751
 20
532.2419754499
 30
0.0
 10
665.7678894037
 20
535.2643503585
 30
0.0
 10
665.7886213302
 20
538.2719946834
 30
0.0
 10
665.8632647059
 20
541.261438542
 30
0.0
 10
665.9909157021
 20
543.7357373561
 30
0.0
 10
666.1492591543
 20
545.6950183556
 30
0.0
 10
666.2519993491
 20
546.6656574677
 30
0.0
 10
666.3056530271
 20
547.1487410651
 30
0.0
  0
SPLINE
  5
3C0
100
AcDbEntity
  8
0
100
AcDbSpline
 62
7
  6
CONTINUOUS
 70
0
 71
3
 72
14
 73
10
 74
0
 42
0.0000001
 43
0.0000001
 44
0.0000000001
 40
0.0
 40
0.0
 40
0.0
 40
0.0
 40
0.3480473959
 40
0.4707478152
 40
0.5593116773
 40
0.6294373778
 40
0.7147736003
 40
0.8369994935
 40
1.0
 40
1.0
 40
1.0
 40
1.0
 10
669.9785449303
 20
555.4028222224
 30
0.0
 10
669.9262288273
 20
555.3593596582
 30
0.0
 10
669.8559334197
 20
555.2980677137
 30
0.0
 10
669.7913564087
 20
555.2103691443
 30
0.0
 10
669.7693522973
 20
555.1572130818
 30
0.0
 10
669.7856972606
 20
555.1075948783
 30
0.0
 10
669.8369643698
 20
555.0812725103
 30
0.0
 10
669.9080891882
 20
555.0692395821
 30
0.0
 10
669.9641941368
 20
555.0684456024
 30
0.0
 10
669.9960331323
 20
555.0693939664
 30
0.0
  0
SPLINE
  5
3C1
100
AcDbEntity
  8
0
100
AcDbSpline
 62
7
  6
CONTINUOUS
 70
0
 71
3
 72
11
 73
7
 74
0
 42
0.0000001
 43
0.0000001
 44
0.0000000001
 40
0.0
 40
0.0
 40
0.0
 40
0.0
 40
0.2514070335
 40
0.5017391183
 40
0.7498400121
 40
1.0
 40
1.0
 40
1.0
 40
1.0
 10
686.4305868171
 20
545.5811190357
 30
0.0
 10
686.5021427477
 20
545.4963661121
 30
0.0
 10
686.6694351132
 20
545.3460048026
 30
0.0
 10
686.9739910226
 20
545.2045143924
 30
0.0
 10
687.3056563172
 20
545.1594385373
 30
0.0
 10
687.525859184
 20
545.1865260671
 30
0.0
 10
687.6337432893
 20
545.2098193381
 30
0.0
  0
SPLINE
  5
3C2
100
AcDbEntity
  8
0
100
AcDbSpline
 62
7
  6
CONTINUOUS
 70
0
 71
3
 72
8
 73
4
 74
0
 42
0.0000001
 43
0.0000001
 44
0.0000000001
 40
0.0
 40
0.0
 40
0.0
 40
0.0
 40
1.0
 40
1.0
 40
1.0
 40
1.0
 10
710.728503467
 20
113.5250612526
 30
0.0
 10
709.7873260759
 20
113.4179790426
 30
0.0
 10
708.7569282184
 20
113.5812988276
 30
0.0
 10
707.9365922918
 20
114.0549341819
 30
0.0
  0
SPLINE
  5
3C3
100
AcDbEntity
  8
0
100
AcDbSpline
 62
7
  6
CONTINUOUS
 70
0
 71
3
 72
9
 73
5
 74
0
 42
0.0000001
 43
0.0000001
 44
0.0000000001
 40
0.0
 40
0.0
 40
0.0
 40
0.0
 40
0.3016561041
 40
1.0
 40
1.0
 40
1.0
 40
1.0
 10
158.3726262108
 20
432.4207281984
 30
0.0
 10
158.3389542243
 20
432.3560414358
 30
0.0
 10
158.2346232395
 20
432.1386158049
 30
0.0
 10
158.1513923106
 20
431.9062548466
 30
0.0
 10
158.1317926915
 20
431.7385706338
 30
0.0
  0
SPLINE
  5
3C4
100
AcDbEntity
  8
0
100
AcDbSpline
 62
7
  6
CONTINUOUS
 70
0
 71
3
 72
9
 73
5
 74
0
 42
0.0000001
 43
0.0000001
 44
0.0000000001
 40
0.0
 40
0.0
 40
0.0
 40
0.0
 40
0.5559096165
 40
1.0
 40
1.0
 40
1.0
 40
1.0
 10
158.1317926915
 20
431.7385706338
 30
0.0
 10
158.1272141485
 20
431.6993989865
 30
0.0
 10
158.1232950474
 20
431.62831268
 30
0.0
 10
158.1333966392
 20
431.5571661383
 30
0.0
 10
158.1430042813
 20
431.5271613704
 30
0.0
  0
SPLINE
  5
3C5
100
AcDbEntity
  8
0
100
AcDbSpline
 62
7
  6
CONTINUOUS
 70
0
 71
3
 72
8
 73
4
 74
0
 42
0.0000001
 43
0.0000001
 44
0.0000000001
 40
0.0
 40
0.0
 40
0.0
 40
0.0
 40
1.0
 40
1.0
 40
1.0
 40
1.0
 10
706.3699972744
 20
116.0414559551
 30
0.0
 10
706.6793665875
 20
115.6260727777
 30
0.0
 10
707.0491312819
 20
115.2520025736
 30
0.0
 10
707.4512813008
 20
114.9256164246
 30
0.0
  0
SPLINE
  5
3C6
100
AcDbEntity
  8
0
100
AcDbSpline
 62
7
  6
CONTINUOUS
 70
0
 71
3
 72
8
 73
4
 74
0
 42
0.0000001
 43
0.0000001
 44
0.0000000001
 40
0.0
 40
0.0
 40
0.0
 40
0.0
 40
1.0
 40
1.0
 40
1.0
 40
1.0
 10
158.1317926915
 20
1242.6356240356
 30
0.0
 10
158.141869059
 20
1242.3980939431
 30
0.0
 10
158.1661890473
 20
1242.1606223129
 30
0.0
 10
158.2064288479
 20
1241.9263087698
 30
0.0
  0
SPLINE
  5
3C7
100
AcDbEntity
  8
0
100
AcDbSpline
 62
7
  6
CONTINUOUS
 70
0
 71
3
 72
8
 73
4
 74
0
 42
0.0000001
 43
0.0000001
 44
0.0000000001
 40
0.0
 40
0.0
 40
0.0
 40
0.0
 40
1.0
 40
1.0
 40
1.0
 40
1.0
 10
158.5395845763
 20
1246.3771798941
 30
0.0
 10
158.4694115771
 20
1246.1715862943
 30
0.0
 10
158.4096591512
 20
1245.9622490085
 30
0.0
 10
158.3586116313
 20
1245.7510923632
 30
0.0
  0
SPLINE
  5
3C8
100
AcDbEntity
  8
0
100
AcDbSpline
 62
7
  6
CONTINUOUS
 70
0
 71
3
 72
9
 73
5
 74
0
 42
0.0000001
 43
0.0000001
 44
0.0000000001
 40
0.0
 40
0.0
 40
0.0
 40
0.0
 40
0.2310853544
 40
1.0
 40
1.0
 40
1.0
 40
1.0
 10
158.3586116313
 20
1245.7510923632
 30
0.0
 10
158.336013739
 20
1245.6576168109
 30
0.0
 10
158.245795797
 20
1245.2513205554
 30
0.0
 10
158.1868067205
 20
1244.8380596339
 30
0.0
 10
158.159670256
 20
1244.5192214028
 30
0.0
  0
SPLINE
  5
3C9
100
AcDbEntity
  8
0
100
AcDbSpline
 62
7
  6
CONTINUOUS
 70
0
 71
3
 72
9
 73
5
 74
0
 42
0.0000001
 43
0.0000001
 44
0.0000000001
 40
0.0
 40
0.0
 40
0.0
 40
0.0
 40
0.1499638367
 40
1.0
 40
1.0
 40
1.0
 40
1.0
 10
157.4839759938
 20
432.3484071377
 30
0.0
 10
157.5100463834
 20
432.3442949311
 30
0.0
 10
157.6859685543
 20
432.3317769758
 30
0.0
 10
157.8624390637
 20
432.3472249999
 30
0.0
 10
158.0110029928
 20
432.3648109131
 30
0.0
  0
SPLINE
  5
3CA
100
AcDbEntity
  8
0
100
AcDbSpline
 62
7
  6
CONTINUOUS
 70
0
 71
3
 72
9
 73
5
 74
0
 42
0.0000001
 43
0.0000001
 44
0.0000000001
 40
0.0
 40
0.0
 40
0.0
 40
0.0
 40
0.2303288428
 40
1.0
 40
1.0
 40
1.0
 40
1.0
 10
720.2836354535
 20
113.6977126872
 30
0.0
 10
720.1585215722
 20
113.6254785854
 30
0.0
 10
719.5927507553
 20
113.3513646034
 30
0.0
 10
718.9656307069
 20
113.2166322631
 30
0.0
 10
718.4845754704
 20
113.1760996943
 30
0.0
  0
SPLINE
  5
3CB
100
AcDbEntity
  8
0
100
AcDbSpline
 62
7
  6
CONTINUOUS
 70
0
 71
3
 72
9
 73
5
 74
0
 42
0.0000001
 43
0.0000001
 44
0.0000000001
 40
0.0
 40
0.0
 40
0.0
 40
0.0
 40
0.3252894024
 40
1.0
 40
1.0
 40
1.0
 40
1.0
 10
726.5371778298
 20
931.3547174623
 30
0.0
 10
726.6681508502
 20
931.2789785664
 30
0.0
 10
726.5643466212
 20
930.6529510675
 30
0.0
 10
726.3201633932
 20
930.3268929949
 30
0.0
 10
726.1196947814
 20
930.0854554471
 30
0.0
  0
SPLINE
  5
3CC
100
AcDbEntity
  8
0
100
AcDbSpline
 62
7
  6
CONTINUOUS
 70
0
 71
3
 72
9
 73
5
 74
0
 42
0.0000001
 43
0.0000001
 44
0.0000000001
 40
0.0
 40
0.0
 40
0.0
 40
0.0
 40
0.6172869615
 40
1.0
 40
1.0
 40
1.0
 40
1.0
 10
726.3328234864
 20
929.808053409
 30
0.0
 10
726.5839592369
 20
929.8469848833
 30
0.0
 10
726.9889515637
 20
929.8627224286
 30
0.0
 10
727.4232641013
 20
929.758561629
 30
0.0
 10
727.5348570656
 20
929.6473286115
 30
0.0
  0
SPLINE
  5
3CD
100
AcDbEntity
  8
0
100
AcDbSpline
 62
7
  6
CONTINUOUS
 70
0
 71
3
 72
9
 73
5
 74
0
 42
0.0000001
 43
0.0000001
 44
0.0000000001
 40
0.0
 40
0.0
 40
0.0
 40
0.0
 40
0.5374718779
 40
1.0
 40
1.0
 40
1.0
 40
1.0
 10
727.5348570656
 20
929.6473286115
 30
0.0
 10
727.55210628
 20
929.630135035
 30
0.0
 10
727.5806873424
 20
929.5937052334
 30
0.0
 10
727.5923379032
 20
929.5480737934
 30
0.0
 10
727.5923525819
 20
929.5271150039
 30
0.0
  0
SPLINE
  5
3CE
100
AcDbEntity
  8
0
100
AcDbSpline
 62
7
  6
CONTINUOUS
 70
0
 71
3
 72
9
 73
5
 74
0
 42
0.0000001
 43
0.0000001
 44
0.0000000001
 40
0.0
 40
0.0
 40
0.0
 40
0.0
 40
0.2288360724
 40
1.0
 40
1.0
 40
1.0
 40
1.0
 10
719.2229708658
 20
925.9134764458
 30
0.0
 10
719.1215382324
 20
925.8549146372
 30
0.0
 10
718.6509018128
 20
925.6477677929
 30
0.0
 10
718.118361406
 20
925.6009410814
 30
0.0
 10
717.7256894013
 20
925.6409145009
 30
0.0
  0
SPLINE
  5
3CF
100
AcDbEntity
  8
0
100
AcDbSpline
 62
7
  6
CONTINUOUS
 70
0
 71
3
 72
8
 73
4
 74
0
 42
0.0000001
 43
0.0000001
 44
0.0000000001
 40
0.0
 40
0.0
 40
0.0
 40
0.0
 40
1.0
 40
1.0
 40
1.0
 40
1.0
 10
727.5923457807
 20
118.7242546298
 30
0.0
 10
727.5923685314
 20
118.5194525397
 30
0.0
 10
727.5409507878
 20
118.3106019238
 30
0.0
 10
727.4521330222
 20
118.1260611393
 30
0.0
  0
SPLINE
  5
3D0
100
AcDbEntity
  8
0
100
AcDbSpline
 62
7
  6
CONTINUOUS
 70
0
 71
3
 72
8
 73
4
 74
0
 42
0.0000001
 43
0.0000001
 44
0.0000000001
 40
0.0
 40
0.0
 40
0.0
 40
0.0
 40
1.0
 40
1.0
 40
1.0
 40
1.0
 10
727.4521330222
 20
118.1260611393
 30
0.0
 10
727.3992571256
 20
118.0161984403
 30
0.0
 10
727.3333149407
 20
117.9120233146
 30
0.0
 10
727.2585506232
 20
117.8157114778
 30
0.0
  0
SPLINE
  5
3D1
100
AcDbEntity
  8
0
100
AcDbSpline
 62
7
  6
CONTINUOUS
 70
0
 71
3
 72
8
 73
4
 74
0
 42
0.0000001
 43
0.0000001
 44
0.0000000001
 40
0.0
 40
0.0
 40
0.0
 40
0.0
 40
1.0
 40
1.0
 40
1.0
 40
1.0
 10
710.728503467
 20
926.3532175052
 30
0.0
 10
710.2054507894
 20
926.3882645989
 30
0.0
 10
709.6744730952
 20
926.3455908548
 30
0.0
 10
709.1593171313
 20
926.2484994793
 30
0.0
  0
SPLINE
  5
3D2
100
AcDbEntity
  8
0
100
AcDbSpline
 62
7
  6
CONTINUOUS
 70
0
 71
3
 72
8
 73
4
 74
0
 42
0.0000001
 43
0.0000001
 44
0.0000000001
 40
0.0
 40
0.0
 40
0.0
 40
0.0
 40
1.0
 40
1.0
 40
1.0
 40
1.0
 10
709.1593171313
 20
926.2484994793
 30
0.0
 10
708.8650218033
 20
926.1930336782
 30
0.0
 10
708.573843959
 20
926.1196177661
 30
0.0
 10
708.2868785485
 20
926.0339611936
 30
0.0
  0
SPLINE
  5
3D3
100
AcDbEntity
  8
0
100
AcDbSpline
 62
7
  6
CONTINUOUS
 70
0
 71
3
 72
8
 73
4
 74
0
 42
0.0000001
 43
0.0000001
 44
0.0000000001
 40
0.0
 40
0.0
 40
0.0
 40
0.0
 40
1.0
 40
1.0
 40
1.0
 40
1.0
 10
707.6694480653
 20
925.6832950874
 30
0.0
 10
707.7818623721
 20
925.7776448675
 30
0.0
 10
707.8941865952
 20
925.8721199409
 30
0.0
 10
708.0050851736
 20
925.9682467461
 30
0.0
  0
SPLINE
  5
3D4
100
AcDbEntity
  8
0
100
AcDbSpline
 62
7
  6
CONTINUOUS
 70
0
 71
3
 72
8
 73
4
 74
0
 42
0.0000001
 43
0.0000001
 44
0.0000000001
 40
0.0
 40
0.0
 40
0.0
 40
0.0
 40
1.0
 40
1.0
 40
1.0
 40
1.0
 10
156.7171845114
 20
1250.6689966667
 30
0.0
 10
156.4966006897
 20
1250.5416432981
 30
0.0
 10
156.2876630183
 20
1250.3838858127
 30
0.0
 10
156.1203696951
 20
1250.1918205975
 30
0.0
  0
SPLINE
  5
3D5
100
AcDbEntity
  8
0
100
AcDbSpline
 62
7
  6
CONTINUOUS
 70
0
 71
3
 72
8
 73
4
 74
0
 42
0.0000001
 43
0.0000001
 44
0.0000000001
 40
0.0
 40
0.0
 40
0.0
 40
0.0
 40
1.0
 40
1.0
 40
1.0
 40
1.0
 10
156.1203696951
 20
1250.1918205975
 30
0.0
 10
156.0495014507
 20
1250.1104585663
 30
0.0
 10
155.9857005856
 20
1250.0219840677
 30
0.0
 10
155.9332373986
 20
1249.9276988505
 30
0.0
  0
SPLINE
  5
3D6
100
AcDbEntity
  8
0
100
AcDbSpline
 62
7
  6
CONTINUOUS
 70
0
 71
3
 72
8
 73
4
 74
0
 42
0.0000001
 43
0.0000001
 44
0.0000000001
 40
0.0
 40
0.0
 40
0.0
 40
0.0
 40
1.0
 40
1.0
 40
1.0
 40
1.0
 10
155.9332373986
 20
1249.9276988505
 30
0.0
 10
155.8383524309
 20
1249.7571745209
 30
0.0
 10
155.7801769772
 20
1249.5577724334
 30
0.0
 10
155.7801712527
 20
1249.3626270926
 30
0.0
  0
SPLINE
  5
3D7
100
AcDbEntity
  8
0
100
AcDbSpline
 62
7
  6
CONTINUOUS
 70
0
 71
3
 72
8
 73
4
 74
0
 42
0.0000001
 43
0.0000001
 44
0.0000000001
 40
0.0
 40
0.0
 40
0.0
 40
0.0
 40
1.0
 40
1.0
 40
1.0
 40
1.0
 10
708.4059358189
 20
926.8415787896
 30
0.0
 10
708.7669746802
 20
927.0292624601
 30
0.0
 10
709.1440011931
 20
927.1896986495
 30
0.0
 10
709.531190316
 20
927.314833787
 30
0.0
  0
SPLINE
  5
3D8
100
AcDbEntity
  8
0
100
AcDbSpline
 62
7
  6
CONTINUOUS
 70
0
 71
3
 72
8
 73
4
 74
0
 42
0.0000001
 43
0.0000001
 44
0.0000000001
 40
0.0
 40
0.0
 40
0.0
 40
0.0
 40
1.0
 40
1.0
 40
1.0
 40
1.0
 10
709.531190316
 20
927.314833787
 30
0.0
 10
709.8377761654
 20
927.4139188597
 30
0.0
 10
710.152466683
 20
927.491425284
 30
0.0
 10
710.4705863097
 20
927.5425392524
 30
0.0
  0
SPLINE
  5
3D9
100
AcDbEntity
  8
0
100
AcDbSpline
 62
7
  6
CONTINUOUS
 70
0
 71
3
 72
8
 73
4
 74
0
 42
0.0000001
 43
0.0000001
 44
0.0000000001
 40
0.0
 40
0.0
 40
0.0
 40
0.0
 40
1.0
 40
1.0
 40
1.0
 40
1.0
 10
718.4845754704
 20
924.7795023211
 30
0.0
 10
718.8129262784
 20
924.8071683783
 30
0.0
 10
719.1406889943
 20
924.8646683667
 30
0.0
 10
719.4571354114
 20
924.9565450718
 30
0.0
  0
SPLINE
  5
3DA
100
AcDbEntity
  8
0
100
AcDbSpline
 62
7
  6
CONTINUOUS
 70
0
 71
3
 72
8
 73
4
 74
0
 42
0.0000001
 43
0.0000001
 44
0.0000000001
 40
0.0
 40
0.0
 40
0.0
 40
0.0
 40
1.0
 40
1.0
 40
1.0
 40
1.0
 10
719.6088808454
 20
925.0036124836
 30
0.0
 10
719.8422728267
 20
925.0807525893
 30
0.0
 10
720.0707576838
 20
925.17821101
 30
0.0
 10
720.2836354535
 20
925.3011153141
 30
0.0
  0
SPLINE
  5
3DB
100
AcDbEntity
  8
0
100
AcDbSpline
 62
7
  6
CONTINUOUS
 70
0
 71
3
 72
9
 73
5
 74
0
 42
0.0000001
 43
0.0000001
 44
0.0000000001
 40
0.0
 40
0.0
 40
0.0
 40
0.0
 40
0.2211724821
 40
1.0
 40
1.0
 40
1.0
 40
1.0
 10
706.3699972744
 20
924.8687503637
 30
0.0
 10
706.4101680705
 20
924.9459218947
 30
0.0
 10
706.6042726519
 20
925.2882983342
 30
0.0
 10
706.8418624262
 20
925.6051369286
 30
0.0
 10
707.042449374
 20
925.8367009781
 30
0.0
  0
SPLINE
  5
3DC
100
AcDbEntity
  8
0
100
AcDbSpline
 62
7
  6
CONTINUOUS
 70
0
 71
3
 72
8
 73
4
 74
0
 42
0.0000001
 43
0.0000001
 44
0.0000000001
 40
0.0
 40
0.0
 40
0.0
 40
0.0
 40
1.0
 40
1.0
 40
1.0
 40
1.0
 10
158.3726262108
 20
1241.2480226069
 30
0.0
 10
158.2205691504
 20
1241.4521861818
 30
0.0
 10
158.0822338109
 20
1241.6675316327
 30
0.0
 10
157.9618042451
 20
1241.8918101082
 30
0.0
  0
SPLINE
  5
3DD
100
AcDbEntity
  8
0
100
AcDbSpline
 62
7
  6
CONTINUOUS
 70
0
 71
3
 72
8
 73
4
 74
0
 42
0.0000001
 43
0.0000001
 44
0.0000000001
 40
0.0
 40
0.0
 40
0.0
 40
0.0
 40
1.0
 40
1.0
 40
1.0
 40
1.0
 10
157.9618042451
 20
1241.8918101082
 30
0.0
 10
157.8437515275
 20
1242.1116621298
 30
0.0
 10
157.7423068525
 20
1242.3414636228
 30
0.0
 10
157.6614517138
 20
1242.5775436983
 30
0.0
  0
SPLINE
  5
3DE
100
AcDbEntity
  8
0
100
AcDbSpline
 62
7
  6
CONTINUOUS
 70
0
 71
3
 72
8
 73
4
 74
0
 42
0.0000001
 43
0.0000001
 44
0.0000000001
 40
0.0
 40
0.0
 40
0.0
 40
0.0
 40
1.0
 40
1.0
 40
1.0
 40
1.0
 10
706.9809403209
 20
114.8675360861
 30
0.0
 10
706.8470566104
 20
115.0388472648
 30
0.0
 10
706.7297772314
 20
115.2241336174
 30
0.0
 10
706.6296882187
 20
115.4171480144
 30
0.0
  0
SPLINE
  5
3DF
100
AcDbEntity
  8
0
100
AcDbSpline
 62
7
  6
CONTINUOUS
 70
0
 71
3
 72
8
 73
4
 74
0
 42
0.0000001
 43
0.0000001
 44
0.0000000001
 40
0.0
 40
0.0
 40
0.0
 40
0.0
 40
1.0
 40
1.0
 40
1.0
 40
1.0
 10
706.6296882187
 20
115.4171480144
 30
0.0
 10
706.5259319169
 20
115.6172345123
 30
0.0
 10
706.4396855496
 20
115.8271115567
 30
0.0
 10
706.3699972744
 20
116.0414559551
 30
0.0
  0
SPLINE
  5
3E0
100
AcDbEntity
  8
0
100
AcDbSpline
 62
7
  6
CONTINUOUS
 70
0
 71
3
 72
9
 73
5
 74
0
 42
0.0000001
 43
0.0000001
 44
0.0000000001
 40
0.0
 40
0.0
 40
0.0
 40
0.0
 40
0.4969370061
 40
1.0
 40
1.0
 40
1.0
 40
1.0
 10
157.2800608054
 20
1249.3626266987
 30
0.0
 10
157.2800615774
 20
1249.3889437152
 30
0.0
 10
157.283734173
 20
1249.4419649602
 30
0.0
 10
157.2946432191
 20
1249.4939742497
 30
0.0
 10
157.3018268437
 20
1249.5196289146
 30
0.0
  0
SPLINE
  5
3E1
100
AcDbEntity
  8
0
100
AcDbSpline
 62
7
  6
CONTINUOUS
 70
0
 71
3
 72
9
 73
5
 74
0
 42
0.0000001
 43
0.0000001
 44
0.0000000001
 40
0.0
 40
0.0
 40
0.0
 40
0.0
 40
0.2997966699
 40
1.0
 40
1.0
 40
1.0
 40
1.0
 10
892.2874076626
 20
1026.1546607047
 30
0.0
 10
892.2818877221
 20
1026.1578477159
 30
0.0
 10
892.2593036245
 20
1026.1417151306
 30
0.0
 10
892.247976267
 20
1026.1275042278
 30
0.0
 10
892.2387752884
 20
1026.1158011902
 30
0.0
  0
SPLINE
  5
3E2
100
AcDbEntity
  8
0
100
AcDbSpline
 62
7
  6
CONTINUOUS
 70
0
 71
3
 72
9
 73
5
 74
0
 42
0.0000001
 43
0.0000001
 44
0.0000000001
 40
0.0
 40
0.0
 40
0.0
 40
0.0
 40
0.4240303106
 40
1.0
 40
1.0
 40
1.0
 40
1.0
 10
892.2387752884
 20
1026.1158011902
 30
0.0
 10
892.2244140092
 20
1026.0975345908
 30
0.0
 10
892.1938515805
 20
1026.0519020667
 30
0.0
 10
892.1668222183
 20
1026.0042051534
 30
0.0
 10
892.1520282842
 20
1025.97632499
 30
0.0
  0
SPLINE
  5
3E3
100
AcDbEntity
  8
0
100
AcDbSpline
 62
7
  6
CONTINUOUS
 70
0
 71
3
 72
8
 73
4
 74
0
 42
0.0000001
 43
0.0000001
 44
0.0000000001
 40
0.0
 40
0.0
 40
0.0
 40
0.0
 40
1.0
 40
1.0
 40
1.0
 40
1.0
 10
892.1520282842
 20
1025.97632499
 30
0.0
 10
892.1087120091
 20
1025.8946925579
 30
0.0
 10
892.0716045764
 20
1025.8096810179
 30
0.0
 10
892.0384339106
 20
1025.7234263915
 30
0.0
  0
SPLINE
  5
3E4
100
AcDbEntity
  8
0
100
AcDbSpline
 62
7
  6
CONTINUOUS
 70
0
 71
3
 72
8
 73
4
 74
0
 42
0.0000001
 43
0.0000001
 44
0.0000000001
 40
0.0
 40
0.0
 40
0.0
 40
0.0
 40
1.0
 40
1.0
 40
1.0
 40
1.0
 10
892.8869655807
 20
210.6907261576
 30
0.0
 10
893.2687664011
 20
211.0756865445
 30
0.0
 10
893.5787828443
 20
211.5750785061
 30
0.0
 10
893.6886023547
 20
212.1060267532
 30
0.0
  0
SPLINE
  5
3E5
100
AcDbEntity
  8
0
100
AcDbSpline
 62
7
  6
CONTINUOUS
 70
0
 71
3
 72
8
 73
4
 74
0
 42
0.0000001
 43
0.0000001
 44
0.0000000001
 40
0.0
 40
0.0
 40
0.0
 40
0.0
 40
1.0
 40
1.0
 40
1.0
 40
1.0
 10
735.2735132003
 20
119.6930832492
 30
0.0
 10
734.7492290671
 20
119.55491475
 30
0.0
 10
734.161737359
 20
119.536129596
 30
0.0
 10
733.6470140114
 20
119.7064946802
 30
0.0
  0
SPLINE
  5
3E6
100
AcDbEntity
  8
0
100
AcDbSpline
 62
7
  6
CONTINUOUS
 70
0
 71
3
 72
8
 73
4
 74
0
 42
0.0000001
 43
0.0000001
 44
0.0000000001
 40
0.0
 40
0.0
 40
0.0
 40
0.0
 40
1.0
 40
1.0
 40
1.0
 40
1.0
 10
329.6742166179
 20
1352.3026437704
 30
0.0
 10
329.1594934679
 20
1352.4730097643
 30
0.0
 10
328.5720013615
 20
1352.4542236217
 30
0.0
 10
328.0477171333
 20
1352.3160550975
 30
0.0
  0
SPLINE
  5
3E7
100
AcDbEntity
  8
0
100
AcDbSpline
 62
7
  6
CONTINUOUS
 70
0
 71
3
 72
9
 73
5
 74
0
 42
0.0000001
 43
0.0000001
 44
0.0000000001
 40
0.0
 40
0.0
 40
0.0
 40
0.0
 40
0.3328661193
 40
1.0
 40
1.0
 40
1.0
 40
1.0
 10
892.0384339106
 20
1025.7234263916
 30
0.0
 10
892.0867816167
 20
1025.7157987342
 30
0.0
 10
892.2323215953
 20
1025.6975370065
 30
0.0
 10
892.3812062741
 20
1025.6867962507
 30
0.0
 10
892.4783113681
 20
1025.7007146482
 30
0.0
  0
SPLINE
  5
3E8
100
AcDbEntity
  8
0
100
AcDbSpline
 62
7
  6
CONTINUOUS
 70
0
 71
3
 72
9
 73
5
 74
0
 42
0.0000001
 43
0.0000001
 44
0.0000000001
 40
0.0
 40
0.0
 40
0.0
 40
0.0
 40
0.7002894288
 40
1.0
 40
1.0
 40
1.0
 40
1.0
 10
892.4783113681
 20
1025.7007146482
 30
0.0
 10
892.4930742214
 20
1025.7028306573
 30
0.0
 10
892.5110696777
 20
1025.7055358196
 30
0.0
 10
892.5363909179
 20
1025.7170297045
 30
0.0
 10
892.5363910334
 20
1025.7234124975
 30
0.0
  0
SPLINE
  5
3E9
100
AcDbEntity
  8
0
100
AcDbSpline
 62
7
  6
CONTINUOUS
 70
0
 71
3
 72
9
 73
5
 74
0
 42
0.0000001
 43
0.0000001
 44
0.0000000001
 40
0.0
 40
0.0
 40
0.0
 40
0.0
 40
0.2142050985
 40
1.0
 40
1.0
 40
1.0
 40
1.0
 10
732.8693501442
 20
933.8276375902
 30
0.0
 10
732.9250990576
 20
933.8364331063
 30
0.0
 10
733.1840917739
 20
933.8852272658
 30
0.0
 10
733.4376713687
 20
933.9620974495
 30
0.0
 10
733.6310211065
 20
934.0361348423
 30
0.0
  0
SPLINE
  5
3EA
100
AcDbEntity
  8
0
100
AcDbSpline
 62
7
  6
CONTINUOUS
 70
0
 71
3
 72
9
 73
5
 74
0
 42
0.0000001
 43
0.0000001
 44
0.0000000001
 40
0.0
 40
0.0
 40
0.0
 40
0.0
 40
0.2371378439
 40
1.0
 40
1.0
 40
1.0
 40
1.0
 10
733.6310211065
 20
934.0361348423
 30
0.0
 10
733.7812266255
 20
934.0936514707
 30
0.0
 10
734.3992301917
 20
934.3711445151
 30
0.0
 10
734.9599290196
 20
934.8041306805
 30
0.0
 10
735.2735132003
 20
935.2156974783
 30
0.0
  0
SPLINE
  5
3EB
100
AcDbEntity
  8
0
100
AcDbSpline
 62
7
  6
CONTINUOUS
 70
0
 71
3
 72
8
 73
4
 74
0
 42
0.0000001
 43
0.0000001
 44
0.0000000001
 40
0.0
 40
0.0
 40
0.0
 40
0.0
 40
1.0
 40
1.0
 40
1.0
 40
1.0
 10
732.0208255396
 20
121.5710414953
 30
0.0
 10
732.1286645703
 20
121.4623114739
 30
0.0
 10
732.24353261
 20
121.3602508922
 30
0.0
 10
732.363272541
 20
121.2647845472
 30
0.0
  0
SPLINE
  5
3EC
100
AcDbEntity
  8
0
100
AcDbSpline
 62
7
  6
CONTINUOUS
 70
0
 71
3
 72
8
 73
4
 74
0
 42
0.0000001
 43
0.0000001
 44
0.0000000001
 40
0.0
 40
0.0
 40
0.0
 40
0.0
 40
1.0
 40
1.0
 40
1.0
 40
1.0
 10
732.363272541
 20
121.2647845472
 30
0.0
 10
732.8637615185
 20
120.8657543073
 30
0.0
 10
733.458758981
 20
120.573353374
 30
0.0
 10
734.0710446969
 20
120.3867507185
 30
0.0
  0
SPLINE
  5
3ED
100
AcDbEntity
  8
0
100
AcDbSpline
 62
7
  6
CONTINUOUS
 70
0
 71
3
 72
9
 73
5
 74
0
 42
0.0000001
 43
0.0000001
 44
0.0000000001
 40
0.0
 40
0.0
 40
0.0
 40
0.0
 40
0.281670157
 40
1.0
 40
1.0
 40
1.0
 40
1.0
 10
734.0710446969
 20
120.3867507185
 30
0.0
 10
734.2569271754
 20
120.3301004274
 30
0.0
 10
734.9257266315
 20
120.1638996109
 30
0.0
 10
735.6316996802
 20
120.1112017772
 30
0.0
 10
736.1220448704
 20
120.1829972443
 30
0.0
  0
SPLINE
  5
3EE
100
AcDbEntity
  8
0
100
AcDbSpline
 62
7
  6
CONTINUOUS
 70
0
 71
3
 72
8
 73
4
 74
0
 42
0.0000001
 43
0.0000001
 44
0.0000000001
 40
0.0
 40
0.0
 40
0.0
 40
0.0
 40
1.0
 40
1.0
 40
1.0
 40
1.0
 10
169.6326277498
 20
1259.9031113942
 30
0.0
 10
169.7424463812
 20
1260.4340599205
 30
0.0
 10
170.0524638653
 20
1260.9334517344
 30
0.0
 10
170.4342647528
 20
1261.3184121891
 30
0.0
  0
SPLINE
  5
3EF
100
AcDbEntity
  8
0
100
AcDbSpline
 62
7
  6
CONTINUOUS
 70
0
 71
3
 72
9
 73
5
 74
0
 42
0.0000001
 43
0.0000001
 44
0.0000000001
 40
0.0
 40
0.0
 40
0.0
 40
0.0
 40
0.2789297257
 40
1.0
 40
1.0
 40
1.0
 40
1.0
 10
735.2735132003
 20
935.2156974782
 30
0.0
 10
735.0139035476
 20
935.1824180356
 30
0.0
 10
734.1027719442
 20
934.9335559219
 30
0.0
 10
733.2948321953
 20
934.3537323478
 30
0.0
 10
732.8693501442
 20
933.8276375902
 30
0.0
  0
SPLINE
  5
3F0
100
AcDbEntity
  8
0
100
AcDbSpline
 62
7
  6
CONTINUOUS
 70
0
 71
3
 72
8
 73
4
 74
0
 42
0.0000001
 43
0.0000001
 44
0.0000000001
 40
0.0
 40
0.0
 40
0.0
 40
0.0
 40
1.0
 40
1.0
 40
1.0
 40
1.0
 10
171.282796423
 20
1261.8083261842
 30
0.0
 10
171.1387688919
 20
1261.6261552474
 30
0.0
 10
171.0153733783
 20
1261.4270510011
 30
0.0
 10
170.9072130644
 20
1261.2215478955
 30
0.0
  0
SPLINE
  5
3F1
100
AcDbEntity
  8
0
100
AcDbSpline
 62
7
  6
CONTINUOUS
 70
0
 71
3
 72
8
 73
4
 74
0
 42
0.0000001
 43
0.0000001
 44
0.0000000001
 40
0.0
 40
0.0
 40
0.0
 40
0.0
 40
1.0
 40
1.0
 40
1.0
 40
1.0
 10
170.9072130644
 20
1261.2215478955
 30
0.0
 10
170.6938145561
 20
1260.8160936708
 30
0.0
 10
170.537465281
 20
1260.3773784584
 30
0.0
 10
170.4339387848
 20
1259.9310441484
 30
0.0
  0
SPLINE
  5
3F2
100
AcDbEntity
  8
0
100
AcDbSpline
 62
7
  6
CONTINUOUS
 70
0
 71
3
 72
8
 73
4
 74
0
 42
0.0000001
 43
0.0000001
 44
0.0000000001
 40
0.0
 40
0.0
 40
0.0
 40
0.0
 40
1.0
 40
1.0
 40
1.0
 40
1.0
 10
170.3457737494
 20
1259.4625639001
 30
0.0
 10
170.2764326471
 20
1258.9841340114
 30
0.0
 10
170.2682775821
 20
1258.4903261558
 30
0.0
 10
170.3402705254
 20
1258.0122881207
 30
0.0
  0
SPLINE
  5
3F3
100
AcDbEntity
  8
0
100
AcDbSpline
 62
7
  6
CONTINUOUS
 70
0
 71
3
 72
8
 73
4
 74
0
 42
0.0000001
 43
0.0000001
 44
0.0000000001
 40
0.0
 40
0.0
 40
0.0
 40
0.0
 40
1.0
 40
1.0
 40
1.0
 40
1.0
 10
170.3402705254
 20
1258.0122881207
 30
0.0
 10
170.3630782096
 20
1257.8608435478
 30
0.0
 10
170.3940338985
 20
1257.7103211026
 30
0.0
 10
170.4342818278
 20
1257.5625518456
 30
0.0
  0
SPLINE
  5
3F4
100
AcDbEntity
  8
0
100
AcDbSpline
 62
7
  6
CONTINUOUS
 70
0
 71
3
 72
9
 73
5
 74
0
 42
0.0000001
 43
0.0000001
 44
0.0000000001
 40
0.0
 40
0.0
 40
0.0
 40
0.0
 40
0.2997716348
 40
1.0
 40
1.0
 40
1.0
 40
1.0
 10
892.5363910334
 20
1025.7234124975
 30
0.0
 10
892.5363911488
 20
1025.7297864643
 30
0.0
 10
892.5111214451
 20
1025.7412751701
 30
0.0
 10
892.4931506765
 20
1025.7439790112
 30
0.0
 10
892.4784130436
 20
1025.7460950889
 30
0.0
  0
SPLINE
  5
3F5
100
AcDbEntity
  8
0
100
AcDbSpline
 62
7
  6
CONTINUOUS
 70
0
 71
3
 72
9
 73
5
 74
0
 42
0.0000001
 43
0.0000001
 44
0.0000000001
 40
0.0
 40
0.0
 40
0.0
 40
0.0
 40
0.4351896307
 40
1.0
 40
1.0
 40
1.0
 40
1.0
 10
892.4784130436
 20
1025.7460950889
 30
0.0
 10
892.4609569346
 20
1025.7486014943
 30
0.0
 10
892.4205093741
 20
1025.7519410103
 30
0.0
 10
892.3799742958
 20
1025.7526047439
 30
0.0
 10
892.3570872499
 20
1025.7524273404
 30
0.0
  0
SPLINE
  5
3F6
100
AcDbEntity
  8
0
100
AcDbSpline
 62
7
  6
CONTINUOUS
 70
0
 71
3
 72
8
 73
4
 74
0
 42
0.0000001
 43
0.0000001
 44
0.0000000001
 40
0.0
 40
0.0
 40
0.0
 40
0.0
 40
1.0
 40
1.0
 40
1.0
 40
1.0
 10
892.3570872499
 20
1025.7524273404
 30
0.0
 10
892.2504294581
 20
1025.7516006084
 30
0.0
 10
892.1437817034
 20
1025.7400189461
 30
0.0
 10
892.0384239011
 20
1025.7233966267
 30
0.0
  0
SPLINE
  5
3F7
100
AcDbEntity
  8
0
100
AcDbSpline
 62
7
  6
CONTINUOUS
 70
0
 71
3
 72
9
 73
5
 74
0
 42
0.0000001
 43
0.0000001
 44
0.0000000001
 40
0.0
 40
0.0
 40
0.0
 40
0.0
 40
0.2928899548
 40
1.0
 40
1.0
 40
1.0
 40
1.0
 10
892.0384339106
 20
1026.7032292921
 30
0.0
 10
892.078376474
 20
1026.7537500095
 30
0.0
 10
892.2204732611
 20
1026.9208814626
 30
0.0
 10
892.3862157975
 20
1027.0731533778
 30
0.0
 10
892.5218809087
 20
1027.14911788
 30
0.0
  0
SPLINE
  5
3F8
100
AcDbEntity
  8
0
100
AcDbSpline
 62
7
  6
CONTINUOUS
 70
0
 71
3
 72
8
 73
4
 74
0
 42
0.0000001
 43
0.0000001
 44
0.0000000001
 40
0.0
 40
0.0
 40
0.0
 40
0.0
 40
1.0
 40
1.0
 40
1.0
 40
1.0
 10
892.5218809087
 20
1027.14911788
 30
0.0
 10
892.6289759067
 20
1027.2090847951
 30
0.0
 10
892.7810785706
 20
1027.2552290032
 30
0.0
 10
892.8873758404
 20
1027.1938591415
 30
0.0
  0
SPLINE
  5
3F9
100
AcDbEntity
  8
0
100
AcDbSpline
 62
7
  6
CONTINUOUS
 70
0
 71
3
 72
8
 73
4
 74
0
 42
0.0000001
 43
0.0000001
 44
0.0000000001
 40
0.0
 40
0.0
 40
0.0
 40
0.0
 40
1.0
 40
1.0
 40
1.0
 40
1.0
 10
736.1220448704
 20
934.7258085728
 30
0.0
 10
736.0142057731
 20
934.6170770605
 30
0.0
 10
735.899337468
 20
934.5150150861
 30
0.0
 10
735.7795971452
 20
934.4195474593
 30
0.0
  0
SPLINE
  5
3FA
100
AcDbEntity
  8
0
100
AcDbSpline
 62
7
  6
CONTINUOUS
 70
0
 71
3
 72
8
 73
4
 74
0
 42
0.0000001
 43
0.0000001
 44
0.0000000001
 40
0.0
 40
0.0
 40
0.0
 40
0.0
 40
1.0
 40
1.0
 40
1.0
 40
1.0
 10
735.7795971452
 20
934.4195474593
 30
0.0
 10
735.2791112718
 20
934.0205156422
 30
0.0
 10
734.6841162997
 20
933.7281128678
 30
0.0
 10
734.0718327858
 20
933.5415079398
 30
0.0
  0
SPLINE
  5
3FB
100
AcDbEntity
  8
0
100
AcDbSpline
 62
7
  6
CONTINUOUS
 70
0
 71
3
 72
9
 73
5
 74
0
 42
0.0000001
 43
0.0000001
 44
0.0000000001
 40
0.0
 40
0.0
 40
0.0
 40
0.0
 40
0.2816696024
 40
1.0
 40
1.0
 40
1.0
 40
1.0
 10
734.0718327858
 20
933.5415079398
 30
0.0
 10
733.885950203
 20
933.4848567231
 30
0.0
 10
733.2171488335
 20
933.3186523564
 30
0.0
 10
732.5111734302
 20
933.2659516981
 30
0.0
 10
732.0208255396
 20
933.3377446055
 30
0.0
  0
SPLINE
  5
3FC
100
AcDbEntity
  8
0
100
AcDbSpline
 62
7
  6
CONTINUOUS
 70
0
 71
3
 72
9
 73
5
 74
0
 42
0.0000001
 43
0.0000001
 44
0.0000000001
 40
0.0
 40
0.0
 40
0.0
 40
0.0
 40
0.3328620766
 40
1.0
 40
1.0
 40
1.0
 40
1.0
 10
892.0384239011
 20
1025.7233966267
 30
0.0
 10
892.0692032345
 20
1025.7614542743
 30
0.0
 10
892.1577882981
 20
1025.8783696257
 30
0.0
 10
892.2415315774
 20
1026.0019429824
 30
0.0
 10
892.2780277723
 20
1026.0930021976
 30
0.0
  0
SPLINE
  5
3FD
100
AcDbEntity
  8
0
100
AcDbSpline
 62
7
  6
CONTINUOUS
 70
0
 71
3
 72
9
 73
5
 74
0
 42
0.0000001
 43
0.0000001
 44
0.0000000001
 40
0.0
 40
0.0
 40
0.0
 40
0.0
 40
0.7002751534
 40
1.0
 40
1.0
 40
1.0
 40
1.0
 10
892.2780277723
 20
1026.0930021976
 30
0.0
 10
892.2835769465
 20
1026.106847571
 30
0.0
 10
892.2902330489
 20
1026.1237886376
 30
0.0
 10
892.2929365177
 20
1026.1514685465
 30
0.0
 10
892.2874076626
 20
1026.1546607047
 30
0.0
  0
SPLINE
  5
3FE
100
AcDbEntity
  8
0
100
AcDbSpline
 62
7
  6
CONTINUOUS
 70
0
 71
3
 72
9
 73
5
 74
0
 42
0.0000001
 43
0.0000001
 44
0.0000000001
 40
0.0
 40
0.0
 40
0.0
 40
0.0
 40
0.2127173736
 40
1.0
 40
1.0
 40
1.0
 40
1.0
 10
732.0208255396
 20
933.3377446056
 30
0.0
 10
732.0749980287
 20
933.4740859454
 30
0.0
 10
732.3775545428
 20
934.0954696333
 30
0.0
 10
732.8254452726
 20
934.6408230059
 30
0.0
 10
733.2221749865
 20
935.0115451198
 30
0.0
  0
SPLINE
  5
3FF
100
AcDbEntity
  8
0
100
AcDbSpline
 62
7
  6
CONTINUOUS
 70
0
 71
3
 72
8
 73
4
 74
0
 42
0.0000001
 43
0.0000001
 44
0.0000000001
 40
0.0
 40
0.0
 40
0.0
 40
0.0
 40
1.0
 40
1.0
 40
1.0
 40
1.0
 10
733.2221749865
 20
935.0115451198
 30
0.0
 10
733.6900412534
 20
935.4487404328
 30
0.0
 10
734.2409666336
 20
935.8180255503
 30
0.0
 10
734.8370151131
 20
936.0520443435
 30
0.0
  0
SPLINE
  5
400
100
AcDbEntity
  8
0
100
AcDbSpline
 62
7
  6
CONTINUOUS
 70
0
 71
3
 72
8
 73
4
 74
0
 42
0.0000001
 43
0.0000001
 44
0.0000000001
 40
0.0
 40
0.0
 40
0.0
 40
0.0
 40
1.0
 40
1.0
 40
1.0
 40
1.0
 10
734.8370151131
 20
936.0520443435
 30
0.0
 10
734.9795767225
 20
936.1080164614
 30
0.0
 10
735.1254139966
 20
936.1564706935
 30
0.0
 10
735.2735132003
 20
936.1955003788
 30
0.0
  0
SPLINE
  5
401
100
AcDbEntity
  8
0
100
AcDbSpline
 62
7
  6
CONTINUOUS
 70
0
 71
3
 72
8
 73
4
 74
0
 42
0.0000001
 43
0.0000001
 44
0.0000000001
 40
0.0
 40
0.0
 40
0.0
 40
0.0
 40
1.0
 40
1.0
 40
1.0
 40
1.0
 10
732.8457285539
 20
120.1691089307
 30
0.0
 10
732.4408051369
 20
120.5296968975
 30
0.0
 10
732.1633152887
 20
121.0478939762
 30
0.0
 10
732.0208255396
 20
121.5710414953
 30
0.0
  0
SPLINE
  5
402
100
AcDbEntity
  8
0
100
AcDbSpline
 62
7
  6
CONTINUOUS
 70
0
 71
3
 72
8
 73
4
 74
0
 42
0.0000001
 43
0.0000001
 44
0.0000000001
 40
0.0
 40
0.0
 40
0.0
 40
0.0
 40
1.0
 40
1.0
 40
1.0
 40
1.0
 10
170.4342818278
 20
1257.5625518456
 30
0.0
 10
170.0524738041
 20
1257.9475144544
 30
0.0
 10
169.7424504029
 20
1258.4469115245
 30
0.0
 10
169.6326287071
 20
1258.9778661104
 30
0.0
  0
SPLINE
  5
403
100
AcDbEntity
  8
0
100
AcDbSpline
 62
7
  6
CONTINUOUS
 70
0
 71
3
 72
8
 73
4
 74
0
 42
0.0000001
 43
0.0000001
 44
0.0000000001
 40
0.0
 40
0.0
 40
0.0
 40
0.0
 40
1.0
 40
1.0
 40
1.0
 40
1.0
 10
893.7363473776
 20
1025.7234122969
 30
0.0
 10
893.7363468791
 20
1025.600665389
 30
0.0
 10
893.6203177161
 20
1025.4920117938
 30
0.0
 10
893.5148288003
 20
1025.4292512008
 30
0.0
  0
SPLINE
  5
404
100
AcDbEntity
  8
0
100
AcDbSpline
 62
7
  6
CONTINUOUS
 70
0
 71
3
 72
9
 73
5
 74
0
 42
0.0000001
 43
0.0000001
 44
0.0000000001
 40
0.0
 40
0.0
 40
0.0
 40
0.0
 40
0.2071857778
 40
1.0
 40
1.0
 40
1.0
 40
1.0
 10
893.5148288003
 20
1025.4292512008
 30
0.0
 10
893.4756557957
 20
1025.4059452356
 30
0.0
 10
893.2777099194
 20
1025.3084805679
 30
0.0
 10
893.0595477965
 20
1025.258806666
 30
0.0
 10
892.8869655807
 20
1025.2335374861
 30
0.0
  0
ENDSEC
  0
SECTION
  2
OBJECTS
  0
DICTIONARY
  5
C
100
AcDbDictionary
280
0
281
1
  3
ACAD_GROUP
350
D
  3
ACAD_MLINESTYLE
350
17
  3
ACAD_LAYOUT
350
1A
  3
ACAD_PLOTSETTINGS
350
19
  3
ACAD_PLOTSTYLENAME
350
E
  0
DICTIONARY
  5
D
102
{ACAD_REACTORS
330
C
102
}
100
AcDbDictionary
280
0
281
1
  0
ACDBDICTIONARYWDFLT
  5
E
102
{ACAD_REACTORS
330
C
102
}
100
AcDbDictionary
281
1
  3
Normal
350
F
100
AcDbDictionaryWithDefault
340
F
  0
DICTIONARY
  5
17
102
{ACAD_REACTORS
330
C
102
}
100
AcDbDictionary
280
0
281
1
  3
Standard
350
18
  0
DICTIONARY
  5
19
102
{ACAD_REACTORS
330
C
102
}
100
AcDbDictionary
281
1
  0
DICTIONARY
  5
1A
102
{ACAD_REACTORS
330
C
102
}
100
AcDbDictionary
281
1
  3
Model
350
405
  3
Layout1
350
406
  0
ACDBPLACEHOLDER
  5
F
102
{ACAD_REACTORS
330
E
102
}
  0
MLINESTYLE
  5
18
102
{ACAD_REACTORS
330
17
102
}
100
AcDbMlineStyle
  2
STANDARD
 70
0
  3

 62
256
 51
90.0
 52
90.0
 71
2
 49
0.5
 62
256
  6
BYLAYER
 49
-0.5
 62
256
  6
BYLAYER
  0
LAYOUT
  5
405
102
{ACAD_REACTORS
330
1A
102
}
100
AcDbPlotSettings
  1

  2
none_device
  4

  6

 40
0.0
 41
0.0
 42
0.0
 43
0.0
 44
210.0
 45
297.0
 46
0.0
 47
0.0
 48
0.0
 49
0.0
140
0.0
141
0.0
142
1.0
143
1.0
 70
1024
 72
1
 73
0
 74
0
  7

 75
0
147
1.0
148
0.0
149
0.0
100
AcDbLayout
  1
Model
 70
0
 71
0
 10
0.0
 20
0.0
 11
210.0
 21
297.0
 12
0.0
 22
0.0
 32
0.0
 14
0.0
 24
0.0
 34
0.0
 15
0.0
 25
0.0
 35
0.0
146
0.0
 13
0.0
 23
0.0
 33
0.0
 16
1.0
 26
0.0
 36
0.0
 17
0.0
 27
1.0
 37
0.0
 76
0
330
210
345
0
346
0
  0
LAYOUT
  5
406
102
{ACAD_REACTORS
330
1A
102
}
100
AcDbPlotSettings
  1

  2
none_device
  4

  6

 40
0.0
 41
0.0
 42
0.0
 43
0.0
 44
210.0
 45
297.0
 46
0.0
 47
0.0
 48
0.0
 49
0.0
140
0.0
141
0.0
142
1.0
143
1.0
 70
0
 72
1
 73
0
 74
0
  7

 75
0
147
1.0
148
0.0
149
0.0
100
AcDbLayout
  1
Layout1
 70
0
 71
1
 10
0.0
 20
0.0
 11
210.0
 21
297.0
 12
0.0
 22
0.0
 32
0.0
 14
0.0
 24
0.0
 34
0.0
 15
0.0
 25
0.0
 35
0.0
146
0.0
 13
0.0
 23
0.0
 33
0.0
 16
1.0
 26
0.0
 36
0.0
 17
0.0
 27
1.0
 37
0.0
 76
0
330
211
345
0
346
0
  0
ENDSEC
  0
EOF
