999
DXF file: C:\Users\sesa63760\Dev\_Creo\CAD\MCADUE0001371_3D-CAD\drw0001_7.dxf
999
Pro/ENGINEER 2019471 by Parametric Technology Corporation
  0
SECTION
  2
HEADER
  9
$ACADVER
  1
AC1024
  9
$DWGCODEPAGE
  3
ANSI_1252
  9
$EXTMAX
 10
1011.2503591716
 20
1430.1969365428
 30
0.0
  9
$EXTMIN
 10
0.0
 20
0.0
 30
0.0
  9
$LIMMIN
 10
0.0
 20
0.0
  9
$LIMMAX
 10
1011.2503591716
 20
1430.1969365428
  9
$VIEWCTR
 10
505.6251795858
 20
715.0984682714
  9
$VIEWSIZE
 40
1430.1969365428
  9
$CLAYER
  8
0
  9
$LTSCALE
 40
93.2276521598
  9
$CELTYPE
  6
BYLAYER
  9
$DIMSCALE
 40
1.0
  9
$DIMASZ
 40
12.038694752
  9
$DIMEXO
 40
1.0
  9
$DIMDLI
 40
64.4118324013
  9
$DIMEXE
 40
1.0
  9
$DIMCEN
 40
15.2554339898
  9
$DIMLFAC
 40
1.0
  9
$DIMBLK
  1
_FILLED
  9
$DIMALT
 70
0
  9
$DIMALTF
 40
0.0393700787
  9
$DIMTXT
 40
16.8541726529
  9
$DIMTOL
 70
1
  9
$DIMLIM
 70
0
  9
$DIMTFAC
 40
1.0
  9
$DIMTP
 40
0.01
  9
$DIMTM
 40
0.01
  9
$DIMGAP
 40
0.625
  9
$DIMDSEP
 70
46
  9
$AUNITS
 70
0
  9
$PDMODE
 70
3
  9
$PDSIZE
 40
0.3125
  9
$HANDSEED
  5
27D
  9
$TILEMODE
 70
1
  9
$MEASUREMENT
 70
1
  9
$INSUNITS
 70
4
  0
ENDSEC
  0
SECTION
  2
CLASSES
  0
CLASS
  1
ACDBDICTIONARYWDFLT
  2
AcDbDictionaryWithDefault
  3
AutoCAD 2000
 90
0
 91
1
280
0
281
0
  0
CLASS
  1
ACDBPLACEHOLDER
  2
AcDbPlaceHolder
  3
AutoCAD 2000
 90
0
 91
1
280
0
281
0
  0
CLASS
  1
LAYOUT
  2
AcDbLayout
  3
AutoCAD 2000
 90
0
 91
0
280
0
281
0
  0
ENDSEC
  0
SECTION
  2
TABLES
  0
TABLE
  2
VPORT
  5
8
100
AcDbSymbolTable
 70
2
  0
VPORT
  5
1F4
100
AcDbSymbolTableRecord
100
AcDbViewportTableRecord
  2
*ACTIVE
 70
0
 10
0.0
 20
0.0
 11
1.0
 21
1.0
 12
505.6251795858
 22
715.0984682714
 13
0.0
 23
0.0
 14
1.0
 24
1.0
 15
0.0
 25
0.0
 16
0.0
 26
0.0
 36
1.0
 17
0.0
 27
0.0
 37
0.0
 40
1430.1969365428
 41
0.7070707071
 42
50.0
 43
0.0
 44
0.0
 50
0.0
 51
0.0
 71
0
 72
100
 73
1
 74
1
 75
0
 76
0
 77
0
 78
0
  0
ENDTAB
  0
TABLE
  2
LTYPE
  5
5
100
AcDbSymbolTable
 70
6
  0
LTYPE
  5
14
100
AcDbSymbolTableRecord
100
AcDbLinetypeTableRecord
  2
BYBLOCK
 70
0
  3

 72
65
 73
0
 40
0.0
  0
LTYPE
  5
15
100
AcDbSymbolTableRecord
100
AcDbLinetypeTableRecord
  2
BYLAYER
 70
0
  3

 72
65
 73
0
 40
0.0
  0
LTYPE
  5
16
100
AcDbSymbolTableRecord
100
AcDbLinetypeTableRecord
  2
CONTINUOUS
 70
64
  3
Solid line
 72
65
 73
0
 40
0.0
  0
LTYPE
  5
1F5
100
AcDbSymbolTableRecord
100
AcDbLinetypeTableRecord
  2
CENTER
 70
64
  3
____ _ ____ _ ____ _ ____ _ ____ _ ____ _ ____
 72
65
 73
4
 40
0.6
 49
0.375
 74
0
 49
-0.075
 74
0
 49
0.075
 74
0
 49
-0.075
 74
0
  0
LTYPE
  5
1F6
100
AcDbSymbolTableRecord
100
AcDbLinetypeTableRecord
  2
HIDDEN
 70
64
  3
- - - - - - - - - - - - - - - - - - - -
 72
65
 73
2
 40
0.2
 49
0.1
 74
0
 49
-0.1
 74
0
  0
LTYPE
  5
1F7
100
AcDbSymbolTableRecord
100
AcDbLinetypeTableRecord
  2
PHANTOM
 70
64
  3
_____ _ _ _____ _ _ _____ _ _ _____
 72
65
 73
6
 40
0.8
 49
0.45
 74
0
 49
-0.05
 74
0
 49
0.1
 74
0
 49
-0.05
 74
0
 49
0.1
 74
0
 49
-0.05
 74
0
  0
LTYPE
  5
1F8
100
AcDbSymbolTableRecord
100
AcDbLinetypeTableRecord
  2
DOT
 70
64
  3
. . . . . . . . . . . . . . . . . . . .
 72
65
 73
2
 40
0.2
 49
0.1
 74
0
 49
-0.1
 74
0
  0
LTYPE
  5
1F9
100
AcDbSymbolTableRecord
100
AcDbLinetypeTableRecord
  2
DASHED
 70
64
  3
- - - - - - - - - - - - - - - - - - - -
 72
65
 73
2
 40
0.2
 49
0.1
 74
0
 49
-0.1
 74
0
  0
ENDTAB
  0
TABLE
  2
LAYER
  5
2
100
AcDbSymbolTable
 70
36
  0
LAYER
  5
10
100
AcDbSymbolTableRecord
100
AcDbLayerTableRecord
  2
0
 70
0
 62
7
  6
CONTINUOUS
370
-3
390
F
  0
LAYER
  5
1FA
100
AcDbSymbolTableRecord
100
AcDbLayerTableRecord
  2
DEFAULT_1
 70
0
 62
7
  6
CENTER
370
-3
390
F
  0
LAYER
  5
1FB
100
AcDbSymbolTableRecord
100
AcDbLayerTableRecord
  2
DEFAULT_2
 70
0
 62
8
  6
HIDDEN
370
-3
390
F
  0
LAYER
  5
1FC
100
AcDbSymbolTableRecord
100
AcDbLayerTableRecord
  2
DEFAULT_3
 70
0
 62
7
  6
PHANTOM
370
-3
390
F
  0
LAYER
  5
1FD
100
AcDbSymbolTableRecord
100
AcDbLayerTableRecord
  2
00_COMPONENTS
 70
0
 62
7
  6
CONTINUOUS
370
-3
390
F
  0
LAYER
  5
1FE
100
AcDbSymbolTableRecord
100
AcDbLayerTableRecord
  2
01_1_DEFAULT_DATUMS
 70
0
 62
7
  6
CONTINUOUS
370
-3
390
F
  0
LAYER
  5
1FF
100
AcDbSymbolTableRecord
100
AcDbLayerTableRecord
  2
01_PLANES
 70
0
 62
7
  6
CONTINUOUS
370
-3
390
F
  0
LAYER
  5
200
100
AcDbSymbolTableRecord
100
AcDbLayerTableRecord
  2
02_COORD_SYS
 70
0
 62
7
  6
CONTINUOUS
370
-3
390
F
  0
LAYER
  5
201
100
AcDbSymbolTableRecord
100
AcDbLayerTableRecord
  2
03_AXES
 70
0
 62
7
  6
CONTINUOUS
370
-3
390
F
  0
LAYER
  5
202
100
AcDbSymbolTableRecord
100
AcDbLayerTableRecord
  2
04_POINTS
 70
0
 62
7
  6
CONTINUOUS
370
-3
390
F
  0
LAYER
  5
203
100
AcDbSymbolTableRecord
100
AcDbLayerTableRecord
  2
05_CURVES
 70
0
 62
7
  6
CONTINUOUS
370
-3
390
F
  0
LAYER
  5
204
100
AcDbSymbolTableRecord
100
AcDbLayerTableRecord
  2
06_SURFS
 70
0
 62
7
  6
CONTINUOUS
370
-3
390
F
  0
LAYER
  5
205
100
AcDbSymbolTableRecord
100
AcDbLayerTableRecord
  2
07_COSMETICS
 70
0
 62
7
  6
CONTINUOUS
370
-3
390
F
  0
LAYER
  5
206
100
AcDbSymbolTableRecord
100
AcDbLayerTableRecord
  2
10_NOTES
 70
0
 62
7
  6
CONTINUOUS
370
-3
390
F
  0
LAYER
  5
207
100
AcDbSymbolTableRecord
100
AcDbLayerTableRecord
  2
11_NOTES_PUB
 70
0
 62
7
  6
CONTINUOUS
370
-3
390
F
  0
LAYER
  5
208
100
AcDbSymbolTableRecord
100
AcDbLayerTableRecord
  2
13_REF_GTOL
 70
0
 62
7
  6
CONTINUOUS
370
-3
390
F
  0
LAYER
  5
209
100
AcDbSymbolTableRecord
100
AcDbLayerTableRecord
  2
16_MISC
 70
0
 62
7
  6
CONTINUOUS
370
-3
390
F
  0
LAYER
  5
20A
100
AcDbSymbolTableRecord
100
AcDbLayerTableRecord
  2
17_NO_PRINT
 70
0
 62
7
  6
CONTINUOUS
370
-3
390
F
  0
LAYER
  5
20B
100
AcDbSymbolTableRecord
100
AcDbLayerTableRecord
  2
18_DATUM_CAMS_JOINTS
 70
0
 62
7
  6
CONTINUOUS
370
-3
390
F
  0
LAYER
  5
20C
100
AcDbSymbolTableRecord
100
AcDbLayerTableRecord
  2
19_DATUM_FUNCTIONAL
 70
0
 62
7
  6
CONTINUOUS
370
-3
390
F
  0
LAYER
  5
20D
100
AcDbSymbolTableRecord
100
AcDbLayerTableRecord
  2
20_DATUM_KINEMATIC_SCHEME
 70
0
 62
7
  6
CONTINUOUS
370
-3
390
F
  0
ENDTAB
  0
TABLE
  2
STYLE
  5
3
100
AcDbSymbolTable
 70
1
  0
STYLE
  5
11
100
AcDbSymbolTableRecord
100
AcDbTextStyleTableRecord
  2
STANDARD
 70
0
 40
0.0
 41
0.8
 50
0.0
 71
0
 42
0.2
  3
txt
  4

  0
STYLE
  5
20E
100
AcDbSymbolTableRecord
100
AcDbTextStyleTableRecord
  2
TEXTSTYLE_1
 70
0
 40
0.0
 41
0.8
 50
0.0
 71
0
 42
0.2
  3
gdt
  4

  0
ENDTAB
  0
TABLE
  2
VIEW
  5
6
100
AcDbSymbolTable
 70
0
  0
ENDTAB
  0
TABLE
  2
UCS
  5
7
100
AcDbSymbolTable
 70
0
  0
ENDTAB
  0
TABLE
  2
APPID
  5
9
100
AcDbSymbolTable
 70
1
  0
APPID
  5
20F
100
AcDbSymbolTableRecord
100
AcDbRegAppTableRecord
  2
ACAD
 70
0
  0
ENDTAB
  0
TABLE
  2
BLOCK_RECORD
  5
1
100
AcDbSymbolTable
 70
0
  0
BLOCK_RECORD
  5
210
100
AcDbSymbolTableRecord
100
AcDbBlockTableRecord
  2
*Model_Space
  0
BLOCK_RECORD
  5
211
100
AcDbSymbolTableRecord
100
AcDbBlockTableRecord
  2
*Paper_Space
  0
BLOCK_RECORD
  5
212
100
AcDbSymbolTableRecord
100
AcDbBlockTableRecord
  2
_FILLED
  0
ENDTAB
  0
TABLE
  2
DIMSTYLE
  5
A
100
AcDbSymbolTable
 70
1
100
AcDbDimStyleTable
 71
0
  0
DIMSTYLE
105
213
100
AcDbSymbolTableRecord
100
AcDbDimStyleTableRecord
  2
STANDARD
 70
0
  3

  4

 40
1.0
 41
12.038694752
 42
1.0
 43
0.38
 44
1.0
 45
0.0
 46
0.0
 47
0.01
 48
0.01
140
16.8541726529
141
0.09
142
0.0
143
25.4
144
1.0
145
0.0
146
1.0
147
0.625
 71
1
 72
0
 73
0
 74
0
 75
0
 76
0
 77
1
 78
8
 79
2
170
0
171
1
172
0
173
0
174
0
175
0
176
0
177
0
178
0
270
2
179
2
271
2
272
2
273
2
274
2
275
0
280
0
281
0
282
0
283
1
284
8
285
0
286
0
287
3
288
0
340
11
278
46
341
212
342
212
343
212
344
212
  0
ENDTAB
  0
ENDSEC
  0
SECTION
  2
BLOCKS
  0
BLOCK
  5
20
100
AcDbEntity
  8
0
100
AcDbBlockBegin
  2
*Model_Space
 70
0
 10
0.0
 20
0.0
 30
0.0
  3
*Model_Space
  1

  0
ENDBLK
  5
21
100
AcDbEntity
  8
0
100
AcDbBlockEnd
  0
BLOCK
  5
1C
100
AcDbEntity
  8
0
100
AcDbBlockBegin
  2
*Paper_Space
 70
0
 10
0.0
 20
0.0
 30
0.0
  3
*Paper_Space
  1

  0
ENDBLK
  5
1D
100
AcDbEntity
  8
0
100
AcDbBlockEnd
  0
BLOCK
  5
214
100
AcDbEntity
  8
0
100
AcDbBlockBegin
  2
_FILLED
 70
64
 10
0.0
 20
0.0
  3
_FILLED
  1

  0
SOLID
  5
215
100
AcDbEntity
  8
0
  6
BYBLOCK
 62
0
100
AcDbTrace
 10
0.0
 20
0.0
 11
-1.0
 21
0.25
 12
-1.0
 22
-0.25
 13
-1.0
 23
-0.25
  0
ENDBLK
  5
216
100
AcDbEntity
  8
0
  6
BYBLOCK
 62
0
100
AcDbBlockEnd
  0
ENDSEC
  0
SECTION
  2
ENTITIES
  0
LINE
  5
217
100
AcDbEntity
  8
0
100
AcDbLine
 62
7
  6
CONTINUOUS
 10
107.3757266318
 20
869.7201128956
 11
107.3757266318
 21
594.7201128956
  0
LINE
  5
218
100
AcDbEntity
  8
0
100
AcDbLine
 62
7
  6
CONTINUOUS
 10
108.8757266318
 20
869.7201128956
 11
108.8757266318
 21
594.7201128956
  0
LINE
  5
219
100
AcDbEntity
  8
0
100
AcDbLine
 62
7
  6
CONTINUOUS
 10
109.8757266318
 20
572.7201128956
 11
109.8757266318
 21
586.7201128956
  0
LINE
  5
21A
100
AcDbEntity
  8
0
100
AcDbLine
 62
7
  6
CONTINUOUS
 10
135.9147923482
 20
568.3511473091
 11
135.8495266318
 21
570.2201128956
  0
LINE
  5
21B
100
AcDbEntity
  8
0
100
AcDbLine
 62
7
  6
CONTINUOUS
 10
111.3757266318
 20
572.7201128956
 11
111.3757266318
 21
586.7201128956
  0
LINE
  5
21C
100
AcDbEntity
  8
0
100
AcDbLine
 62
7
  6
CONTINUOUS
 10
113.1757266318
 20
592.2201128956
 11
113.1757266318
 21
592.0201128956
  0
LINE
  5
21D
100
AcDbEntity
  8
0
100
AcDbLine
 62
7
  6
CONTINUOUS
 10
124.1757266318
 20
592.2201128956
 11
124.1757266318
 21
592.0201128956
  0
LINE
  5
21E
100
AcDbEntity
  8
0
100
AcDbLine
 62
7
  6
CONTINUOUS
 10
127.6757266318
 20
591.2201128956
 11
127.6757266318
 21
586.7201128956
  0
LINE
  5
21F
100
AcDbEntity
  8
0
100
AcDbLine
 62
7
  6
CONTINUOUS
 10
129.1757266318
 20
591.2201128956
 11
129.1757266318
 21
586.7201128956
  0
LINE
  5
220
100
AcDbEntity
  8
0
100
AcDbLine
 62
7
  6
CONTINUOUS
 10
163.7366609153
 20
568.3511473091
 11
163.8019266318
 21
570.2201128956
  0
LINE
  5
221
100
AcDbEntity
  8
0
100
AcDbLine
 62
7
  6
CONTINUOUS
 10
113.1757266318
 20
592.0201128956
 11
114.6451699339
 21
591.1712560165
  0
LINE
  5
222
100
AcDbEntity
  8
0
100
AcDbLine
 62
7
  6
CONTINUOUS
 10
893.3757266318
 20
589.7201128956
 11
894.2323817076
 21
589.93040497
  0
LINE
  5
223
100
AcDbEntity
  8
0
100
AcDbLine
 62
7
  6
CONTINUOUS
 10
160.2447301255
 20
564.9790378956
 11
139.406723138
 21
564.9790378956
  0
LINE
  5
224
100
AcDbEntity
  8
0
100
AcDbLine
 62
7
  6
CONTINUOUS
 10
163.7366609099
 20
568.3511471536
 11
162.5509793027
 21
568.3511471536
  0
LINE
  5
225
100
AcDbEntity
  8
0
100
AcDbLine
 62
7
  6
CONTINUOUS
 10
137.1004739609
 20
568.3511471536
 11
135.9147923536
 21
568.3511471536
  0
LINE
  5
226
100
AcDbEntity
  8
0
100
AcDbLine
 62
7
  6
CONTINUOUS
 10
139.7442528791
 20
568.8390309587
 11
159.9071854757
 21
568.8390309587
  0
LINE
  5
227
100
AcDbEntity
  8
0
100
AcDbLine
 62
7
  6
CONTINUOUS
 10
159.9766740984
 20
569.4875719658
 11
139.6747788849
 21
569.4875719658
  0
LINE
  5
228
100
AcDbEntity
  8
0
100
AcDbLine
 62
7
  6
CONTINUOUS
 10
112.3757266318
 20
570.2201128956
 11
902.3757266318
 21
570.2201128956
  0
LINE
  5
229
100
AcDbEntity
  8
0
100
AcDbLine
 62
7
  6
CONTINUOUS
 10
904.8757266318
 20
572.7201128956
 11
109.8757266318
 21
572.7201128956
  0
LINE
  5
22A
100
AcDbEntity
  8
0
100
AcDbLine
 62
7
  6
CONTINUOUS
 10
109.8757266318
 20
586.7201128956
 11
904.8757266318
 21
586.7201128956
  0
LINE
  5
22B
100
AcDbEntity
  8
0
100
AcDbLine
 62
7
  6
CONTINUOUS
 10
900.6005678559
 20
589.7201128956
 11
891.5508854076
 21
589.7201128956
  0
LINE
  5
22C
100
AcDbEntity
  8
0
100
AcDbLine
 62
7
  6
CONTINUOUS
 10
894.2323817076
 20
589.93040497
 11
892.519071556
 21
589.93040497
  0
LINE
  5
22D
100
AcDbEntity
  8
0
100
AcDbLine
 62
7
  6
CONTINUOUS
 10
900.8522977453
 20
590.0201128956
 11
894.404090019
 21
590.0201128956
  0
LINE
  5
22E
100
AcDbEntity
  8
0
100
AcDbLine
 62
7
  6
CONTINUOUS
 10
892.3473632446
 20
590.0201128956
 11
891.2991555183
 21
590.0201128956
  0
LINE
  5
22F
100
AcDbEntity
  8
0
100
AcDbLine
 62
7
  6
CONTINUOUS
 10
903.8757266318
 20
590.7201128956
 11
894.6439810122
 21
590.7201128956
  0
LINE
  5
230
100
AcDbEntity
  8
0
100
AcDbLine
 62
7
  6
CONTINUOUS
 10
892.1074722514
 20
590.7201128956
 11
889.8757266318
 21
590.7201128956
  0
LINE
  5
231
100
AcDbEntity
  8
0
100
AcDbLine
 62
7
  6
CONTINUOUS
 10
121.9559695236
 20
590.9701128956
 11
115.39548374
 21
590.9701128956
  0
LINE
  5
232
100
AcDbEntity
  8
0
100
AcDbLine
 62
7
  6
CONTINUOUS
 10
122.7062833296
 20
591.1712560165
 11
114.6451699339
 21
591.1712560165
  0
LINE
  5
233
100
AcDbEntity
  8
0
100
AcDbLine
 62
7
  6
CONTINUOUS
 10
127.6757266318
 20
591.2201128956
 11
887.0757266318
 21
591.2201128956
  0
LINE
  5
234
100
AcDbEntity
  8
0
100
AcDbLine
 62
7
  6
CONTINUOUS
 10
124.1757266318
 20
592.0201128956
 11
113.1757266318
 21
592.0201128956
  0
LINE
  5
235
100
AcDbEntity
  8
0
100
AcDbLine
 62
7
  6
CONTINUOUS
 10
109.8757266318
 20
592.2201128956
 11
904.8757266318
 21
592.2201128956
  0
LINE
  5
236
100
AcDbEntity
  8
0
100
AcDbLine
 62
7
  6
CONTINUOUS
 10
907.3757266318
 20
594.7201128956
 11
107.3757266318
 21
594.7201128956
  0
LINE
  5
237
100
AcDbEntity
  8
0
100
AcDbLine
 62
7
  6
CONTINUOUS
 10
124.1757266318
 20
592.0201128956
 11
122.7062833296
 21
591.1712560165
  0
LINE
  5
238
100
AcDbEntity
  8
0
100
AcDbLine
 62
7
  6
CONTINUOUS
 10
893.3757266318
 20
589.7201128956
 11
892.519071556
 21
589.93040497
  0
LINE
  5
239
100
AcDbEntity
  8
0
100
AcDbLine
 62
7
  6
CONTINUOUS
 10
892.519071556
 20
589.93040497
 11
891.0075059551
 21
590.7201128956
  0
LINE
  5
23A
100
AcDbEntity
  8
0
100
AcDbLine
 62
7
  6
CONTINUOUS
 10
107.3757266318
 20
869.7201128956
 11
907.3757266318
 21
869.7201128956
  0
LINE
  5
23B
100
AcDbEntity
  8
0
100
AcDbLine
 62
7
  6
CONTINUOUS
 10
904.8757266318
 20
872.2201128956
 11
109.8757266318
 21
872.2201128956
  0
LINE
  5
23C
100
AcDbEntity
  8
0
100
AcDbLine
 62
7
  6
CONTINUOUS
 10
891.5508854076
 20
589.7201128956
 11
891.2991555183
 21
590.0201128956
  0
LINE
  5
23D
100
AcDbEntity
  8
0
100
AcDbLine
 62
7
  6
CONTINUOUS
 10
894.2323817076
 20
589.93040497
 11
895.7439473084
 21
590.7201128956
  0
LINE
  5
23E
100
AcDbEntity
  8
0
100
AcDbLine
 62
7
  6
CONTINUOUS
 10
891.2991555183
 20
590.0201128956
 11
891.1927956929
 21
590.6233094394
  0
LINE
  5
23F
100
AcDbEntity
  8
0
100
AcDbLine
 62
7
  6
CONTINUOUS
 10
885.5757266318
 20
591.2201128956
 11
885.5757266318
 21
586.7201128956
  0
LINE
  5
240
100
AcDbEntity
  8
0
100
AcDbLine
 62
7
  6
CONTINUOUS
 10
887.0757266318
 20
591.2201128956
 11
887.0757266318
 21
586.7201128956
  0
LINE
  5
241
100
AcDbEntity
  8
0
100
AcDbLine
 62
7
  6
CONTINUOUS
 10
887.3757266318
 20
589.7201128956
 11
887.3757266318
 21
586.7201128956
  0
LINE
  5
242
100
AcDbEntity
  8
0
100
AcDbLine
 62
7
  6
CONTINUOUS
 10
888.8757266318
 20
589.7201128956
 11
888.8757266318
 21
586.7201128956
  0
LINE
  5
243
100
AcDbEntity
  8
0
100
AcDbLine
 62
7
  6
CONTINUOUS
 10
898.8757266318
 20
590.7201128956
 11
898.8757266318
 21
592.2201128956
  0
LINE
  5
244
100
AcDbEntity
  8
0
100
AcDbLine
 62
7
  6
CONTINUOUS
 10
903.3757266318
 20
572.7201128956
 11
903.3757266318
 21
586.7201128956
  0
LINE
  5
245
100
AcDbEntity
  8
0
100
AcDbLine
 62
7
  6
CONTINUOUS
 10
903.8757266318
 20
590.7201128956
 11
903.8757266318
 21
592.2201128956
  0
LINE
  5
246
100
AcDbEntity
  8
0
100
AcDbLine
 62
7
  6
CONTINUOUS
 10
904.8757266318
 20
572.7201128956
 11
904.8757266318
 21
586.7201128956
  0
LINE
  5
247
100
AcDbEntity
  8
0
100
AcDbLine
 62
7
  6
CONTINUOUS
 10
905.8757266318
 20
869.7201128956
 11
905.8757266318
 21
594.7201128956
  0
LINE
  5
248
100
AcDbEntity
  8
0
100
AcDbLine
 62
7
  6
CONTINUOUS
 10
907.3757266318
 20
869.7201128956
 11
907.3757266318
 21
594.7201128956
  0
LINE
  5
249
100
AcDbEntity
  8
0
100
AcDbLine
 62
7
  6
CONTINUOUS
 10
900.8522977453
 20
590.0201128956
 11
900.9757266318
 21
590.7201128956
  0
LINE
  5
24A
100
AcDbEntity
  8
0
100
AcDbLine
 62
7
  6
CONTINUOUS
 10
900.6005678559
 20
589.7201128956
 11
900.8522977453
 21
590.0201128956
  0
ARC
  5
24B
100
AcDbEntity
  8
0
100
AcDbCircle
 62
7
  6
CONTINUOUS
 10
204.1967411726
 20
596.2580840043
 40
95.7589516666
100
AcDbArc
 50
194.2293759011
 51
194.5662001913
  0
ARC
  5
24C
100
AcDbEntity
  8
0
100
AcDbCircle
 62
7
  6
CONTINUOUS
 10
201.6967411387
 20
618.2580839955
 40
95.7589516317
100
AcDbArc
 50
194.229375901
 51
194.5662001913
  0
ARC
  5
24D
100
AcDbEntity
  8
0
100
AcDbCircle
 62
7
  6
CONTINUOUS
 10
160.2447393962
 20
568.4730878956
 40
3.49405
100
AcDbArc
 50
270.0
 51
357.9999974478
  0
ARC
  5
24E
100
AcDbEntity
  8
0
100
AcDbCircle
 62
7
  6
CONTINUOUS
 10
139.4067138674
 20
568.4730878956
 40
3.49405
100
AcDbArc
 50
182.0000025522
 51
270.0
  0
ARC
  5
24F
100
AcDbEntity
  8
0
100
AcDbCircle
 62
7
  6
CONTINUOUS
 10
112.3757266318
 20
572.7201128956
 40
2.5
100
AcDbArc
 50
180.0
 51
270.0
  0
ARC
  5
250
100
AcDbEntity
  8
0
100
AcDbCircle
 62
7
  6
CONTINUOUS
 10
109.8757266318
 20
594.7201128956
 40
2.5
100
AcDbArc
 50
180.0
 51
270.0
  0
ARC
  5
251
100
AcDbEntity
  8
0
100
AcDbCircle
 62
7
  6
CONTINUOUS
 10
121.9559695236
 20
592.4701128956
 40
1.5
100
AcDbArc
 50
270.0
 51
300.0138417934
  0
ARC
  5
252
100
AcDbEntity
  8
0
100
AcDbCircle
 62
7
  6
CONTINUOUS
 10
115.39548374
 20
592.4701128956
 40
1.5
100
AcDbArc
 50
239.9861582066
 51
270.0
  0
ARC
  5
253
100
AcDbEntity
  8
0
100
AcDbCircle
 62
7
  6
CONTINUOUS
 10
126.6757266318
 20
591.2201128956
 40
1.0
100
AcDbArc
 50
0.0
 51
90.0
  0
ARC
  5
254
100
AcDbEntity
  8
0
100
AcDbCircle
 62
7
  6
CONTINUOUS
 10
201.6955201975
 20
846.1824540127
 40
95.7576914053
100
AcDbArc
 50
165.4337927306
 51
165.77062561
  0
ARC
  5
255
100
AcDbEntity
  8
0
100
AcDbCircle
 62
7
  6
CONTINUOUS
 10
109.8757266318
 20
869.7201128956
 40
2.5
100
AcDbArc
 50
90.0
 51
180.0
  0
ARC
  5
256
100
AcDbEntity
  8
0
100
AcDbCircle
 62
7
  6
CONTINUOUS
 10
810.5559326171
 20
596.2577718952
 40
95.7576918691
100
AcDbArc
 50
345.4337927306
 51
345.7706256083
  0
ARC
  5
257
100
AcDbEntity
  8
0
100
AcDbCircle
 62
7
  6
CONTINUOUS
 10
813.055932698
 20
618.2577718744
 40
95.7576917857
100
AcDbArc
 50
345.4337927304
 51
345.7706256085
  0
ARC
  5
258
100
AcDbEntity
  8
0
100
AcDbCircle
 62
7
  6
CONTINUOUS
 10
889.8757266318
 20
589.7201128956
 40
2.5
100
AcDbArc
 50
108.0640773475
 51
180.0
  0
ARC
  5
259
100
AcDbEntity
  8
0
100
AcDbCircle
 62
7
  6
CONTINUOUS
 10
902.3757266318
 20
572.7201128956
 40
2.5
100
AcDbArc
 50
270.0
 51
360.0
  0
ARC
  5
25A
100
AcDbEntity
  8
0
100
AcDbCircle
 62
7
  6
CONTINUOUS
 10
904.8757266318
 20
594.7201128956
 40
2.5
100
AcDbArc
 50
270.0
 51
360.0
  0
ARC
  5
25B
100
AcDbEntity
  8
0
100
AcDbCircle
 62
7
  6
CONTINUOUS
 10
889.8757266318
 20
589.7201128956
 40
1.0
100
AcDbArc
 50
90.0
 51
180.0
  0
ARC
  5
25C
100
AcDbEntity
  8
0
100
AcDbCircle
 62
7
  6
CONTINUOUS
 10
813.0547124865
 20
846.1821418899
 40
95.758951258
100
AcDbArc
 50
14.2293758996
 51
14.5662001912
  0
ARC
  5
25D
100
AcDbEntity
  8
0
100
AcDbCircle
 62
7
  6
CONTINUOUS
 10
904.8757266318
 20
869.7201128956
 40
2.5
100
AcDbArc
 50
0.0
 51
90.0
  0
SPLINE
  5
25E
100
AcDbEntity
  8
0
100
AcDbSpline
 62
7
  6
CONTINUOUS
 70
0
 71
3
 72
8
 73
4
 74
0
 42
0.0000001
 43
0.0000001
 44
0.0000000001
 40
0.0
 40
0.0
 40
0.0
 40
0.0
 40
1.0
 40
1.0
 40
1.0
 40
1.0
 10
893.3757255721
 20
590.5277383228
 30
0.0
 10
893.8033130989
 20
590.5277382422
 30
0.0
 10
894.23220658
 20
590.6049047792
 30
0.0
 10
894.6439810122
 20
590.7201128956
 30
0.0
  0
SPLINE
  5
25F
100
AcDbEntity
  8
0
100
AcDbSpline
 62
7
  6
CONTINUOUS
 70
0
 71
3
 72
8
 73
4
 74
0
 42
0.0000001
 43
0.0000001
 44
0.0000000001
 40
0.0
 40
0.0
 40
0.0
 40
0.0
 40
1.0
 40
1.0
 40
1.0
 40
1.0
 10
892.1074722514
 20
590.7201128956
 30
0.0
 10
892.5192460109
 20
590.6049049674
 30
0.0
 10
892.9481387438
 20
590.5277384034
 30
0.0
 10
893.3757255721
 20
590.5277383228
 30
0.0
  0
SPLINE
  5
260
100
AcDbEntity
  8
0
100
AcDbSpline
 62
7
  6
CONTINUOUS
 70
0
 71
3
 72
9
 73
5
 74
0
 42
0.0000001
 43
0.0000001
 44
0.0000000001
 40
0.0
 40
0.0
 40
0.0
 40
0.0
 40
0.253722687
 40
1.0
 40
1.0
 40
1.0
 40
1.0
 10
159.976748035
 20
569.4875719679
 30
0.0
 10
159.9758527852
 20
569.4323718288
 30
0.0
 10
159.9673014906
 20
569.2149474409
 30
0.0
 10
159.9400787684
 20
568.9980521728
 30
0.0
 10
159.9071936701
 20
568.8390348008
 30
0.0
  0
SPLINE
  5
261
100
AcDbEntity
  8
0
100
AcDbSpline
 62
7
  6
CONTINUOUS
 70
0
 71
3
 72
11
 73
7
 74
0
 42
0.0000001
 43
0.0000001
 44
0.0000000001
 40
0.0
 40
0.0
 40
0.0
 40
0.0
 40
0.2305792986
 40
0.4666306773
 40
0.7214034017
 40
1.0
 40
1.0
 40
1.0
 40
1.0
 10
159.9766742852
 20
569.4875856956
 30
0.0
 10
160.0636117785
 20
569.4875953607
 30
0.0
 10
160.2421702668
 20
569.5219557464
 30
0.0
 10
160.4697582877
 20
569.6838492894
 30
0.0
 10
160.6339672859
 20
569.9284073555
 30
0.0
 10
160.702456827
 20
570.1189418726
 30
0.0
 10
160.730709414
 20
570.2201129865
 30
0.0
  0
SPLINE
  5
262
100
AcDbEntity
  8
0
100
AcDbSpline
 62
7
  6
CONTINUOUS
 70
0
 71
3
 72
11
 73
7
 74
0
 42
0.0000001
 43
0.0000001
 44
0.0000000001
 40
0.0
 40
0.0
 40
0.0
 40
0.0
 40
0.2785965066
 40
0.5333692631
 40
0.7694206801
 40
1.0
 40
1.0
 40
1.0
 40
1.0
 10
138.9207438429
 20
570.2201129858
 30
0.0
 10
138.9489964207
 20
570.1189419323
 30
0.0
 10
139.0174859306
 20
569.928407484
 30
0.0
 10
139.1816948362
 20
569.6838494595
 30
0.0
 10
139.409282765
 20
569.5219558515
 30
0.0
 10
139.5878412182
 20
569.4875953987
 30
0.0
 10
139.674778698
 20
569.4875856981
 30
0.0
  0
SPLINE
  5
263
100
AcDbEntity
  8
0
100
AcDbSpline
 62
7
  6
CONTINUOUS
 70
0
 71
3
 72
17
 73
13
 74
0
 42
0.0000001
 43
0.0000001
 44
0.0000000001
 40
0.0
 40
0.0
 40
0.0
 40
0.0
 40
0.2117885648
 40
0.4018470452
 40
0.566811561
 40
0.7046337661
 40
0.8144518835
 40
0.896864487
 40
0.9287250647
 40
0.9553864647
 40
0.9783753131
 40
1.0
 40
1.0
 40
1.0
 40
1.0
 10
159.9071729863
 20
568.8390309587
 30
0.0
 10
159.8944396877
 20
568.551327092
 30
0.0
 10
159.8672193122
 20
568.0055664103
 30
0.0
 10
159.8144035214
 20
567.2365497679
 30
0.0
 10
159.7487778566
 20
566.5695335827
 30
0.0
 10
159.6681656064
 20
566.0138091466
 30
0.0
 10
159.5703273389
 20
565.5756301186
 30
0.0
 10
159.4663933405
 20
565.2866841604
 30
0.0
 10
159.3652825975
 20
565.1229556887
 30
0.0
 10
159.2891736284
 20
565.041005738
 30
0.0
 10
159.2047739895
 20
564.9900819778
 30
0.0
 10
159.1434961707
 20
564.9790400869
 30
0.0
 10
159.1140913896
 20
564.9790378956
 30
0.0
  0
SPLINE
  5
264
100
AcDbEntity
  8
0
100
AcDbSpline
 62
7
  6
CONTINUOUS
 70
0
 71
3
 72
11
 73
7
 74
0
 42
0.0000001
 43
0.0000001
 44
0.0000000001
 40
0.0
 40
0.0
 40
0.0
 40
0.0
 40
0.2388127479
 40
0.4974430277
 40
0.7576735278
 40
1.0
 40
1.0
 40
1.0
 40
1.0
 10
159.1140909141
 20
564.979011831
 30
0.0
 10
159.535238976
 20
564.9790122866
 30
0.0
 10
160.4208801722
 20
565.1464768337
 30
0.0
 10
161.5701607361
 20
565.8955892984
 30
0.0
 10
162.3426007053
 20
567.0358331577
 30
0.0
 10
162.5362976913
 20
567.9240548695
 30
0.0
 10
162.5509767626
 20
568.3511472268
 30
0.0
  0
SPLINE
  5
265
100
AcDbEntity
  8
0
100
AcDbSpline
 62
7
  6
CONTINUOUS
 70
0
 71
3
 72
17
 73
13
 74
0
 42
0.0000001
 43
0.0000001
 44
0.0000000001
 40
0.0
 40
0.0
 40
0.0
 40
0.0
 40
0.0216237526
 40
0.0446102789
 40
0.0712695945
 40
0.1031286561
 40
0.1855406862
 40
0.2953624583
 40
0.433191868
 40
0.5981654199
 40
0.7882225496
 40
1.0
 40
1.0
 40
1.0
 40
1.0
 10
140.5373618739
 20
564.9790378956
 30
0.0
 10
140.5079583553
 20
564.979040071
 30
0.0
 10
140.4466846353
 20
564.990077475
 30
0.0
 10
140.3622890928
 20
565.0409949838
 30
0.0
 10
140.2861867089
 20
565.1229397364
 30
0.0
 10
140.1850691719
 20
565.2866569908
 30
0.0
 10
140.0811340752
 20
565.5756064968
 30
0.0
 10
139.9832888583
 20
566.0137976601
 30
0.0
 10
139.9026731014
 20
566.5695495093
 30
0.0
 10
139.8370463985
 20
567.2365859984
 30
0.0
 10
139.7842327843
 20
568.0055983485
 30
0.0
 10
139.7570108424
 20
568.5513421117
 30
0.0
 10
139.74427822
 20
568.8390309587
 30
0.0
  0
SPLINE
  5
266
100
AcDbEntity
  8
0
100
AcDbSpline
 62
7
  6
CONTINUOUS
 70
0
 71
3
 72
11
 73
7
 74
0
 42
0.0000001
 43
0.0000001
 44
0.0000000001
 40
0.0
 40
0.0
 40
0.0
 40
0.0
 40
0.2423264728
 40
0.5025569719
 40
0.761187251
 40
1.0
 40
1.0
 40
1.0
 40
1.0
 10
137.1004763331
 20
568.3511472268
 30
0.0
 10
137.115155394
 20
567.9240548719
 30
0.0
 10
137.3088523566
 20
567.0358331635
 30
0.0
 10
138.0812923001
 20
565.8955893018
 30
0.0
 10
139.2305728505
 20
565.1464768372
 30
0.0
 10
140.1162140401
 20
564.9790122929
 30
0.0
 10
140.5373621003
 20
564.979011837
 30
0.0
  0
SPLINE
  5
267
100
AcDbEntity
  8
0
100
AcDbSpline
 62
7
  6
CONTINUOUS
 70
0
 71
3
 72
9
 73
5
 74
0
 42
0.0000001
 43
0.0000001
 44
0.0000000001
 40
0.0
 40
0.0
 40
0.0
 40
0.0
 40
0.2436104244
 40
1.0
 40
1.0
 40
1.0
 40
1.0
 10
139.7442409589
 20
568.8390348029
 30
0.0
 10
139.7335064251
 20
568.890945293
 30
0.0
 10
139.6952188349
 20
569.1051989218
 30
0.0
 10
139.6773616943
 20
569.3230058836
 30
0.0
 10
139.6746948048
 20
569.4875719674
 30
0.0
  0
SPLINE
  5
268
100
AcDbEntity
  8
0
100
AcDbSpline
 62
7
  6
CONTINUOUS
 70
0
 71
3
 72
14
 73
10
 74
0
 42
0.0000001
 43
0.0000001
 44
0.0000000001
 40
0.0
 40
0.0
 40
0.0
 40
0.0
 40
0.3918893887
 40
0.5517638759
 40
0.685880194
 40
0.7946542378
 40
0.8801250826
 40
0.9461364757
 40
1.0
 40
1.0
 40
1.0
 40
1.0
 10
161.8136348497
 20
570.2201138793
 30
0.0
 10
161.8377849764
 20
569.9458763155
 30
0.0
 10
161.8911703912
 20
569.560424595
 30
0.0
 10
162.0114764581
 20
569.0933950843
 30
0.0
 10
162.106516146
 20
568.8264013926
 30
0.0
 10
162.2088021206
 20
568.6188279321
 30
0.0
 10
162.3161883893
 20
568.4695141216
 30
0.0
 10
162.4285004073
 20
568.3751399088
 30
0.0
 10
162.5131385477
 20
568.3511464156
 30
0.0
 10
162.5509772033
 20
568.3511461616
 30
0.0
  0
SPLINE
  5
269
100
AcDbEntity
  8
0
100
AcDbSpline
 62
7
  6
CONTINUOUS
 70
0
 71
3
 72
14
 73
10
 74
0
 42
0.0000001
 43
0.0000001
 44
0.0000000001
 40
0.0
 40
0.0
 40
0.0
 40
0.0
 40
0.0538635253
 40
0.119874919
 40
0.205345764
 40
0.3141198074
 40
0.4482361251
 40
0.6081106117
 40
1.0
 40
1.0
 40
1.0
 40
1.0
 10
137.1004760606
 20
568.3511461658
 30
0.0
 10
137.1383147168
 20
568.351146418
 30
0.0
 10
137.2229528593
 20
568.3751399104
 30
0.0
 10
137.3352648774
 20
568.469514125
 30
0.0
 10
137.4426511457
 20
568.618827936
 30
0.0
 10
137.5449371191
 20
568.8264013965
 30
0.0
 10
137.6399768064
 20
569.093395087
 30
0.0
 10
137.7602828725
 20
569.5604245966
 30
0.0
 10
137.8136682872
 20
569.9458763161
 30
0.0
 10
137.8378184139
 20
570.2201138794
 30
0.0
  0
SPLINE
  5
26A
100
AcDbEntity
  8
0
100
AcDbSpline
 62
7
  6
CONTINUOUS
 70
0
 71
3
 72
11
 73
7
 74
0
 42
0.0000001
 43
0.0000001
 44
0.0000000001
 40
0.0
 40
0.0
 40
0.0
 40
0.0
 40
0.258497156
 40
0.5096985574
 40
0.7556265784
 40
1.0
 40
1.0
 40
1.0
 40
1.0
 10
138.25409289
 20
570.2201124036
 30
0.0
 10
138.312235611
 20
570.0442174527
 30
0.0
 10
138.4524571795
 20
569.703650955
 30
0.0
 10
138.7831025705
 20
569.2661461755
 30
0.0
 10
139.2223794517
 20
568.9495544573
 30
0.0
 10
139.5701294819
 20
568.8576853623
 30
0.0
 10
139.744258186
 20
568.8389515015
 30
0.0
  0
SPLINE
  5
26B
100
AcDbEntity
  8
0
100
AcDbSpline
 62
7
  6
CONTINUOUS
 70
0
 71
3
 72
11
 73
7
 74
0
 42
0.0000001
 43
0.0000001
 44
0.0000000001
 40
0.0
 40
0.0
 40
0.0
 40
0.0
 40
0.2443612473
 40
0.4902888871
 40
0.7414953196
 40
1.0
 40
1.0
 40
1.0
 40
1.0
 10
159.9071638129
 20
568.8389495243
 30
0.0
 10
160.0812791249
 20
568.8577505685
 30
0.0
 10
160.4290425484
 20
568.9494924828
 30
0.0
 10
160.8683212693
 20
569.2661237064
 30
0.0
 10
161.1989922866
 20
569.7036246929
 30
0.0
 10
161.3391879126
 20
570.0442174924
 30
0.0
 10
161.3973572669
 20
570.2201122245
 30
0.0
  0
SPLINE
  5
26C
100
AcDbEntity
  8
0
100
AcDbSpline
 62
7
  6
CONTINUOUS
 70
0
 71
3
 72
9
 73
5
 74
0
 42
0.0000001
 43
0.0000001
 44
0.0000000001
 40
0.0
 40
0.0
 40
0.0
 40
0.0
 40
0.2747053905
 40
1.0
 40
1.0
 40
1.0
 40
1.0
 10
111.5157022351
 20
572.1748565262
 30
0.0
 10
111.5451677075
 20
572.0619262045
 30
0.0
 10
111.6542676121
 20
571.6514123829
 30
0.0
 10
111.7713035686
 20
571.2422750076
 30
0.0
 10
111.8757222949
 20
570.9523579698
 30
0.0
  0
SPLINE
  5
26D
100
AcDbEntity
  8
0
100
AcDbSpline
 62
7
  6
CONTINUOUS
 70
0
 71
3
 72
9
 73
5
 74
0
 42
0.0000001
 43
0.0000001
 44
0.0000000001
 40
0.0
 40
0.0
 40
0.0
 40
0.0
 40
0.6551194342
 40
1.0
 40
1.0
 40
1.0
 40
1.0
 10
111.8757222949
 20
570.9523579698
 30
0.0
 10
111.9431355472
 20
570.7651860791
 30
0.0
 10
112.0358100031
 20
570.4977820229
 30
0.0
 10
112.2709958341
 20
570.2201128756
 30
0.0
 10
112.3757266318
 20
570.2201128756
 30
0.0
  0
SPLINE
  5
26E
100
AcDbEntity
  8
0
100
AcDbSpline
 62
7
  6
CONTINUOUS
 70
0
 71
3
 72
9
 73
5
 74
0
 42
0.0000001
 43
0.0000001
 44
0.0000000001
 40
0.0
 40
0.0
 40
0.0
 40
0.0
 40
0.3271535046
 40
1.0
 40
1.0
 40
1.0
 40
1.0
 10
902.3757266318
 20
570.2201128756
 30
0.0
 10
902.5310025707
 20
570.2201128756
 30
0.0
 10
902.8273582678
 20
570.7426013057
 30
0.0
 10
902.945305503
 20
571.1419655858
 30
0.0
 10
903.0359038225
 20
571.4481961317
 30
0.0
  0
SPLINE
  5
26F
100
AcDbEntity
  8
0
100
AcDbSpline
 62
7
  6
CONTINUOUS
 70
0
 71
3
 72
8
 73
4
 74
0
 42
0.0000001
 43
0.0000001
 44
0.0000000001
 40
0.0
 40
0.0
 40
0.0
 40
0.0
 40
1.0
 40
1.0
 40
1.0
 40
1.0
 10
903.0359038225
 20
571.4481961317
 30
0.0
 10
903.1071711742
 20
571.6890862511
 30
0.0
 10
903.1723271622
 20
571.9317763166
 30
0.0
 10
903.2357492748
 20
572.1748498049
 30
0.0
  0
SPLINE
  5
270
100
AcDbEntity
  8
0
100
AcDbSpline
 62
7
  6
CONTINUOUS
 70
0
 71
3
 72
9
 73
5
 74
0
 42
0.0000001
 43
0.0000001
 44
0.0000000001
 40
0.0
 40
0.0
 40
0.0
 40
0.0
 40
0.7340208353
 40
1.0
 40
1.0
 40
1.0
 40
1.0
 10
126.6757266318
 20
592.220112891
 30
0.0
 10
127.1036891035
 20
592.220112891
 30
0.0
 10
127.6877051911
 20
592.0572959819
 30
0.0
 10
128.206154105
 20
591.7942040751
 30
0.0
 10
128.3423875796
 20
591.7201160034
 30
0.0
  0
SPLINE
  5
271
100
AcDbEntity
  8
0
100
AcDbSpline
 62
7
  6
CONTINUOUS
 70
0
 71
3
 72
8
 73
4
 74
0
 42
0.0000001
 43
0.0000001
 44
0.0000000001
 40
0.0
 40
0.0
 40
0.0
 40
0.0
 40
1.0
 40
1.0
 40
1.0
 40
1.0
 10
128.3423875796
 20
591.7201160034
 30
0.0
 10
128.6269704631
 20
591.5653508317
 30
0.0
 10
128.9014326025
 20
591.3924569162
 30
0.0
 10
129.1757266318
 20
591.2201128956
 30
0.0
  0
SPLINE
  5
272
100
AcDbEntity
  8
0
100
AcDbSpline
 62
7
  6
CONTINUOUS
 70
0
 71
3
 72
9
 73
5
 74
0
 42
0.0000001
 43
0.0000001
 44
0.0000000001
 40
0.0
 40
0.0
 40
0.0
 40
0.0
 40
0.7630257998
 40
1.0
 40
1.0
 40
1.0
 40
1.0
 10
885.5757266318
 20
591.2201128956
 30
0.0
 10
885.9810459963
 20
591.474782562
 30
0.0
 10
886.5144325301
 20
591.8129013927
 30
0.0
 10
887.1005509975
 20
592.0415935996
 30
0.0
 10
887.2423875796
 20
592.0861364994
 30
0.0
  0
SPLINE
  5
273
100
AcDbEntity
  8
0
100
AcDbSpline
 62
7
  6
CONTINUOUS
 70
0
 71
3
 72
9
 73
5
 74
0
 42
0.0000001
 43
0.0000001
 44
0.0000000001
 40
0.0
 40
0.0
 40
0.0
 40
0.0
 40
0.3271535046
 40
1.0
 40
1.0
 40
1.0
 40
1.0
 10
904.8757266318
 20
592.2201128756
 30
0.0
 10
905.0310025707
 20
592.2201128756
 30
0.0
 10
905.3273582678
 20
592.7426013057
 30
0.0
 10
905.445305503
 20
593.1419655858
 30
0.0
 10
905.5359038225
 20
593.4481961317
 30
0.0
  0
SPLINE
  5
274
100
AcDbEntity
  8
0
100
AcDbSpline
 62
7
  6
CONTINUOUS
 70
0
 71
3
 72
8
 73
4
 74
0
 42
0.0000001
 43
0.0000001
 44
0.0000000001
 40
0.0
 40
0.0
 40
0.0
 40
0.0
 40
1.0
 40
1.0
 40
1.0
 40
1.0
 10
905.5359038225
 20
593.4481961317
 30
0.0
 10
905.6071711742
 20
593.6890862511
 30
0.0
 10
905.6723271622
 20
593.9317763166
 30
0.0
 10
905.7357492748
 20
594.1748498049
 30
0.0
  0
SPLINE
  5
275
100
AcDbEntity
  8
0
100
AcDbSpline
 62
7
  6
CONTINUOUS
 70
0
 71
3
 72
9
 73
5
 74
0
 42
0.0000001
 43
0.0000001
 44
0.0000000001
 40
0.0
 40
0.0
 40
0.0
 40
0.0
 40
0.2747053905
 40
1.0
 40
1.0
 40
1.0
 40
1.0
 10
109.0157022351
 20
594.1748565262
 30
0.0
 10
109.0451677075
 20
594.0619262045
 30
0.0
 10
109.1542676121
 20
593.6514123829
 30
0.0
 10
109.2713035686
 20
593.2422750076
 30
0.0
 10
109.3757222949
 20
592.9523579698
 30
0.0
  0
SPLINE
  5
276
100
AcDbEntity
  8
0
100
AcDbSpline
 62
7
  6
CONTINUOUS
 70
0
 71
3
 72
9
 73
5
 74
0
 42
0.0000001
 43
0.0000001
 44
0.0000000001
 40
0.0
 40
0.0
 40
0.0
 40
0.0
 40
0.6551194342
 40
1.0
 40
1.0
 40
1.0
 40
1.0
 10
109.3757222949
 20
592.9523579698
 30
0.0
 10
109.4431355472
 20
592.7651860791
 30
0.0
 10
109.5358100031
 20
592.4977820229
 30
0.0
 10
109.7709958341
 20
592.2201128756
 30
0.0
 10
109.8757266318
 20
592.2201128756
 30
0.0
  0
SPLINE
  5
277
100
AcDbEntity
  8
0
100
AcDbSpline
 62
7
  6
CONTINUOUS
 70
0
 71
3
 72
9
 73
5
 74
0
 42
0.0000001
 43
0.0000001
 44
0.0000000001
 40
0.0
 40
0.0
 40
0.0
 40
0.0
 40
0.3271535047
 40
1.0
 40
1.0
 40
1.0
 40
1.0
 10
109.8757266318
 20
872.2201129156
 30
0.0
 10
109.7204506928
 20
872.2201129156
 30
0.0
 10
109.4240949958
 20
871.6976244854
 30
0.0
 10
109.3061477606
 20
871.2982602054
 30
0.0
 10
109.2155494411
 20
870.9920296595
 30
0.0
  0
SPLINE
  5
278
100
AcDbEntity
  8
0
100
AcDbSpline
 62
7
  6
CONTINUOUS
 70
0
 71
3
 72
8
 73
4
 74
0
 42
0.0000001
 43
0.0000001
 44
0.0000000001
 40
0.0
 40
0.0
 40
0.0
 40
0.0
 40
1.0
 40
1.0
 40
1.0
 40
1.0
 10
109.2155494411
 20
870.9920296595
 30
0.0
 10
109.1442820893
 20
870.75113954
 30
0.0
 10
109.0791261013
 20
870.5084494746
 30
0.0
 10
109.0157039888
 20
870.2653759863
 30
0.0
  0
SPLINE
  5
279
100
AcDbEntity
  8
0
100
AcDbSpline
 62
7
  6
CONTINUOUS
 70
0
 71
3
 72
9
 73
5
 74
0
 42
0.0000001
 43
0.0000001
 44
0.0000000001
 40
0.0
 40
0.0
 40
0.0
 40
0.0
 40
0.2747053905
 40
1.0
 40
1.0
 40
1.0
 40
1.0
 10
905.7357510285
 20
870.265369265
 30
0.0
 10
905.706285556
 20
870.3782995866
 30
0.0
 10
905.5971856514
 20
870.7888134083
 30
0.0
 10
905.4801496949
 20
871.1979507836
 30
0.0
 10
905.3757309687
 20
871.4878678214
 30
0.0
  0
SPLINE
  5
27A
100
AcDbEntity
  8
0
100
AcDbSpline
 62
7
  6
CONTINUOUS
 70
0
 71
3
 72
9
 73
5
 74
0
 42
0.0000001
 43
0.0000001
 44
0.0000000001
 40
0.0
 40
0.0
 40
0.0
 40
0.0
 40
0.6551194342
 40
1.0
 40
1.0
 40
1.0
 40
1.0
 10
905.3757309687
 20
871.4878678214
 30
0.0
 10
905.3083177164
 20
871.6750397121
 30
0.0
 10
905.2156432605
 20
871.9424437683
 30
0.0
 10
904.9804574294
 20
872.2201129156
 30
0.0
 10
904.8757266318
 20
872.2201129156
 30
0.0
  0
ENDSEC
  0
SECTION
  2
OBJECTS
  0
DICTIONARY
  5
C
100
AcDbDictionary
280
0
281
1
  3
ACAD_GROUP
350
D
  3
ACAD_MLINESTYLE
350
17
  3
ACAD_LAYOUT
350
1A
  3
ACAD_PLOTSETTINGS
350
19
  3
ACAD_PLOTSTYLENAME
350
E
  0
DICTIONARY
  5
D
102
{ACAD_REACTORS
330
C
102
}
100
AcDbDictionary
280
0
281
1
  0
ACDBDICTIONARYWDFLT
  5
E
102
{ACAD_REACTORS
330
C
102
}
100
AcDbDictionary
281
1
  3
Normal
350
F
100
AcDbDictionaryWithDefault
340
F
  0
DICTIONARY
  5
17
102
{ACAD_REACTORS
330
C
102
}
100
AcDbDictionary
280
0
281
1
  3
Standard
350
18
  0
DICTIONARY
  5
19
102
{ACAD_REACTORS
330
C
102
}
100
AcDbDictionary
281
1
  0
DICTIONARY
  5
1A
102
{ACAD_REACTORS
330
C
102
}
100
AcDbDictionary
281
1
  3
Model
350
27B
  3
Layout1
350
27C
  0
ACDBPLACEHOLDER
  5
F
102
{ACAD_REACTORS
330
E
102
}
  0
MLINESTYLE
  5
18
102
{ACAD_REACTORS
330
17
102
}
100
AcDbMlineStyle
  2
STANDARD
 70
0
  3

 62
256
 51
90.0
 52
90.0
 71
2
 49
0.5
 62
256
  6
BYLAYER
 49
-0.5
 62
256
  6
BYLAYER
  0
LAYOUT
  5
27B
102
{ACAD_REACTORS
330
1A
102
}
100
AcDbPlotSettings
  1

  2
none_device
  4

  6

 40
0.0
 41
0.0
 42
0.0
 43
0.0
 44
210.0
 45
297.0
 46
0.0
 47
0.0
 48
0.0
 49
0.0
140
0.0
141
0.0
142
1.0
143
1.0
 70
1024
 72
1
 73
0
 74
0
  7

 75
0
147
1.0
148
0.0
149
0.0
100
AcDbLayout
  1
Model
 70
0
 71
0
 10
0.0
 20
0.0
 11
210.0
 21
297.0
 12
0.0
 22
0.0
 32
0.0
 14
0.0
 24
0.0
 34
0.0
 15
0.0
 25
0.0
 35
0.0
146
0.0
 13
0.0
 23
0.0
 33
0.0
 16
1.0
 26
0.0
 36
0.0
 17
0.0
 27
1.0
 37
0.0
 76
0
330
210
345
0
346
0
  0
LAYOUT
  5
27C
102
{ACAD_REACTORS
330
1A
102
}
100
AcDbPlotSettings
  1

  2
none_device
  4

  6

 40
0.0
 41
0.0
 42
0.0
 43
0.0
 44
210.0
 45
297.0
 46
0.0
 47
0.0
 48
0.0
 49
0.0
140
0.0
141
0.0
142
1.0
143
1.0
 70
0
 72
1
 73
0
 74
0
  7

 75
0
147
1.0
148
0.0
149
0.0
100
AcDbLayout
  1
Layout1
 70
0
 71
1
 10
0.0
 20
0.0
 11
210.0
 21
297.0
 12
0.0
 22
0.0
 32
0.0
 14
0.0
 24
0.0
 34
0.0
 15
0.0
 25
0.0
 35
0.0
146
0.0
 13
0.0
 23
0.0
 33
0.0
 16
1.0
 26
0.0
 36
0.0
 17
0.0
 27
1.0
 37
0.0
 76
0
330
211
345
0
346
0
  0
ENDSEC
  0
EOF
