999
DXF file: C:\Users\sesa63760\Dev\_Creo\CAD\MCADID0000935_3D-CAD\drw0001_7.dxf
999
Pro/ENGINEER 2019471 by Parametric Technology Corporation
  0
SECTION
  2
HEADER
  9
$ACADVER
  1
AC1024
  9
$DWGCODEPAGE
  3
ANSI_1252
  9
$EXTMAX
 10
316.0157372411
 20
446.9365426696
 30
0.0
  9
$EXTMIN
 10
0.0
 20
0.0
 30
0.0
  9
$LIMMIN
 10
0.0
 20
0.0
  9
$LIMMAX
 10
316.0157372411
 20
446.9365426696
  9
$VIEWCTR
 10
158.0078686206
 20
223.4682713348
  9
$VIEWSIZE
 40
446.9365426696
  9
$CLAYER
  8
0
  9
$LTSCALE
 40
29.1336412999
  9
$CELTYPE
  6
BYLAYER
  9
$DIMSCALE
 40
1.0
  9
$DIMASZ
 40
3.76209211
  9
$DIMEXO
 40
1.0
  9
$DIMDLI
 40
20.1286976254
  9
$DIMEXE
 40
1.0
  9
$DIMCEN
 40
4.7673231218
  9
$DIMLFAC
 40
1.0
  9
$DIMBLK
  1
_FILLED
  9
$DIMALT
 70
0
  9
$DIMALTF
 40
0.0393700787
  9
$DIMTXT
 40
5.266928954
  9
$DIMTOL
 70
1
  9
$DIMLIM
 70
0
  9
$DIMTFAC
 40
1.0
  9
$DIMTP
 40
0.01
  9
$DIMTM
 40
0.01
  9
$DIMGAP
 40
0.625
  9
$DIMDSEP
 70
46
  9
$AUNITS
 70
0
  9
$PDMODE
 70
3
  9
$PDSIZE
 40
0.3125
  9
$HANDSEED
  5
3B1
  9
$TILEMODE
 70
1
  9
$MEASUREMENT
 70
1
  9
$INSUNITS
 70
4
  0
ENDSEC
  0
SECTION
  2
CLASSES
  0
CLASS
  1
ACDBDICTIONARYWDFLT
  2
AcDbDictionaryWithDefault
  3
AutoCAD 2000
 90
0
 91
1
280
0
281
0
  0
CLASS
  1
ACDBPLACEHOLDER
  2
AcDbPlaceHolder
  3
AutoCAD 2000
 90
0
 91
1
280
0
281
0
  0
CLASS
  1
LAYOUT
  2
AcDbLayout
  3
AutoCAD 2000
 90
0
 91
0
280
0
281
0
  0
ENDSEC
  0
SECTION
  2
TABLES
  0
TABLE
  2
VPORT
  5
8
100
AcDbSymbolTable
 70
2
  0
VPORT
  5
1F4
100
AcDbSymbolTableRecord
100
AcDbViewportTableRecord
  2
*ACTIVE
 70
0
 10
0.0
 20
0.0
 11
1.0
 21
1.0
 12
158.0078686206
 22
223.4682713348
 13
0.0
 23
0.0
 14
1.0
 24
1.0
 15
0.0
 25
0.0
 16
0.0
 26
0.0
 36
1.0
 17
0.0
 27
0.0
 37
0.0
 40
446.9365426696
 41
0.7070707071
 42
50.0
 43
0.0
 44
0.0
 50
0.0
 51
0.0
 71
0
 72
100
 73
1
 74
1
 75
0
 76
0
 77
0
 78
0
  0
ENDTAB
  0
TABLE
  2
LTYPE
  5
5
100
AcDbSymbolTable
 70
6
  0
LTYPE
  5
14
100
AcDbSymbolTableRecord
100
AcDbLinetypeTableRecord
  2
BYBLOCK
 70
0
  3

 72
65
 73
0
 40
0.0
  0
LTYPE
  5
15
100
AcDbSymbolTableRecord
100
AcDbLinetypeTableRecord
  2
BYLAYER
 70
0
  3

 72
65
 73
0
 40
0.0
  0
LTYPE
  5
16
100
AcDbSymbolTableRecord
100
AcDbLinetypeTableRecord
  2
CONTINUOUS
 70
64
  3
Solid line
 72
65
 73
0
 40
0.0
  0
LTYPE
  5
1F5
100
AcDbSymbolTableRecord
100
AcDbLinetypeTableRecord
  2
CENTER
 70
64
  3
____ _ ____ _ ____ _ ____ _ ____ _ ____ _ ____
 72
65
 73
4
 40
0.6
 49
0.375
 74
0
 49
-0.075
 74
0
 49
0.075
 74
0
 49
-0.075
 74
0
  0
LTYPE
  5
1F6
100
AcDbSymbolTableRecord
100
AcDbLinetypeTableRecord
  2
HIDDEN
 70
64
  3
- - - - - - - - - - - - - - - - - - - -
 72
65
 73
2
 40
0.2
 49
0.1
 74
0
 49
-0.1
 74
0
  0
LTYPE
  5
1F7
100
AcDbSymbolTableRecord
100
AcDbLinetypeTableRecord
  2
PHANTOM
 70
64
  3
_____ _ _ _____ _ _ _____ _ _ _____
 72
65
 73
6
 40
0.8
 49
0.45
 74
0
 49
-0.05
 74
0
 49
0.1
 74
0
 49
-0.05
 74
0
 49
0.1
 74
0
 49
-0.05
 74
0
  0
LTYPE
  5
1F8
100
AcDbSymbolTableRecord
100
AcDbLinetypeTableRecord
  2
DOT
 70
64
  3
. . . . . . . . . . . . . . . . . . . .
 72
65
 73
2
 40
0.2
 49
0.1
 74
0
 49
-0.1
 74
0
  0
LTYPE
  5
1F9
100
AcDbSymbolTableRecord
100
AcDbLinetypeTableRecord
  2
DASHED
 70
64
  3
- - - - - - - - - - - - - - - - - - - -
 72
65
 73
2
 40
0.2
 49
0.1
 74
0
 49
-0.1
 74
0
  0
ENDTAB
  0
TABLE
  2
LAYER
  5
2
100
AcDbSymbolTable
 70
36
  0
LAYER
  5
10
100
AcDbSymbolTableRecord
100
AcDbLayerTableRecord
  2
0
 70
0
 62
7
  6
CONTINUOUS
370
-3
390
F
  0
LAYER
  5
1FA
100
AcDbSymbolTableRecord
100
AcDbLayerTableRecord
  2
DEFAULT_1
 70
0
 62
7
  6
CENTER
370
-3
390
F
  0
LAYER
  5
1FB
100
AcDbSymbolTableRecord
100
AcDbLayerTableRecord
  2
DEFAULT_2
 70
0
 62
8
  6
HIDDEN
370
-3
390
F
  0
LAYER
  5
1FC
100
AcDbSymbolTableRecord
100
AcDbLayerTableRecord
  2
DEFAULT_3
 70
0
 62
7
  6
PHANTOM
370
-3
390
F
  0
LAYER
  5
1FD
100
AcDbSymbolTableRecord
100
AcDbLayerTableRecord
  2
00_COMPONENTS
 70
0
 62
7
  6
CONTINUOUS
370
-3
390
F
  0
LAYER
  5
1FE
100
AcDbSymbolTableRecord
100
AcDbLayerTableRecord
  2
01_1_DEFAULT_DATUMS
 70
0
 62
7
  6
CONTINUOUS
370
-3
390
F
  0
LAYER
  5
1FF
100
AcDbSymbolTableRecord
100
AcDbLayerTableRecord
  2
01_PLANES
 70
0
 62
7
  6
CONTINUOUS
370
-3
390
F
  0
LAYER
  5
200
100
AcDbSymbolTableRecord
100
AcDbLayerTableRecord
  2
02_COORD_SYS
 70
0
 62
7
  6
CONTINUOUS
370
-3
390
F
  0
LAYER
  5
201
100
AcDbSymbolTableRecord
100
AcDbLayerTableRecord
  2
03_AXES
 70
0
 62
7
  6
CONTINUOUS
370
-3
390
F
  0
LAYER
  5
202
100
AcDbSymbolTableRecord
100
AcDbLayerTableRecord
  2
04_POINTS
 70
0
 62
7
  6
CONTINUOUS
370
-3
390
F
  0
LAYER
  5
203
100
AcDbSymbolTableRecord
100
AcDbLayerTableRecord
  2
05_CURVES
 70
0
 62
7
  6
CONTINUOUS
370
-3
390
F
  0
LAYER
  5
204
100
AcDbSymbolTableRecord
100
AcDbLayerTableRecord
  2
06_SURFS
 70
0
 62
7
  6
CONTINUOUS
370
-3
390
F
  0
LAYER
  5
205
100
AcDbSymbolTableRecord
100
AcDbLayerTableRecord
  2
07_COSMETICS
 70
0
 62
7
  6
CONTINUOUS
370
-3
390
F
  0
LAYER
  5
206
100
AcDbSymbolTableRecord
100
AcDbLayerTableRecord
  2
10_NOTES
 70
0
 62
7
  6
CONTINUOUS
370
-3
390
F
  0
LAYER
  5
207
100
AcDbSymbolTableRecord
100
AcDbLayerTableRecord
  2
11_NOTES_PUB
 70
0
 62
7
  6
CONTINUOUS
370
-3
390
F
  0
LAYER
  5
208
100
AcDbSymbolTableRecord
100
AcDbLayerTableRecord
  2
13_REF_GTOL
 70
0
 62
7
  6
CONTINUOUS
370
-3
390
F
  0
LAYER
  5
209
100
AcDbSymbolTableRecord
100
AcDbLayerTableRecord
  2
16_MISC
 70
0
 62
7
  6
CONTINUOUS
370
-3
390
F
  0
LAYER
  5
20A
100
AcDbSymbolTableRecord
100
AcDbLayerTableRecord
  2
17_NO_PRINT
 70
0
 62
7
  6
CONTINUOUS
370
-3
390
F
  0
LAYER
  5
20B
100
AcDbSymbolTableRecord
100
AcDbLayerTableRecord
  2
18_DATUM_CAMS_JOINTS
 70
0
 62
7
  6
CONTINUOUS
370
-3
390
F
  0
LAYER
  5
20C
100
AcDbSymbolTableRecord
100
AcDbLayerTableRecord
  2
19_DATUM_FUNCTIONAL
 70
0
 62
7
  6
CONTINUOUS
370
-3
390
F
  0
LAYER
  5
20D
100
AcDbSymbolTableRecord
100
AcDbLayerTableRecord
  2
20_DATUM_KINEMATIC_SCHEME
 70
0
 62
7
  6
CONTINUOUS
370
-3
390
F
  0
ENDTAB
  0
TABLE
  2
STYLE
  5
3
100
AcDbSymbolTable
 70
1
  0
STYLE
  5
11
100
AcDbSymbolTableRecord
100
AcDbTextStyleTableRecord
  2
STANDARD
 70
0
 40
0.0
 41
0.8
 50
0.0
 71
0
 42
0.2
  3
txt
  4

  0
STYLE
  5
20E
100
AcDbSymbolTableRecord
100
AcDbTextStyleTableRecord
  2
TEXTSTYLE_1
 70
0
 40
0.0
 41
0.8
 50
0.0
 71
0
 42
0.2
  3
gdt
  4

  0
ENDTAB
  0
TABLE
  2
VIEW
  5
6
100
AcDbSymbolTable
 70
0
  0
ENDTAB
  0
TABLE
  2
UCS
  5
7
100
AcDbSymbolTable
 70
0
  0
ENDTAB
  0
TABLE
  2
APPID
  5
9
100
AcDbSymbolTable
 70
1
  0
APPID
  5
20F
100
AcDbSymbolTableRecord
100
AcDbRegAppTableRecord
  2
ACAD
 70
0
  0
ENDTAB
  0
TABLE
  2
BLOCK_RECORD
  5
1
100
AcDbSymbolTable
 70
0
  0
BLOCK_RECORD
  5
210
100
AcDbSymbolTableRecord
100
AcDbBlockTableRecord
  2
*Model_Space
  0
BLOCK_RECORD
  5
211
100
AcDbSymbolTableRecord
100
AcDbBlockTableRecord
  2
*Paper_Space
  0
BLOCK_RECORD
  5
212
100
AcDbSymbolTableRecord
100
AcDbBlockTableRecord
  2
_FILLED
  0
ENDTAB
  0
TABLE
  2
DIMSTYLE
  5
A
100
AcDbSymbolTable
 70
1
100
AcDbDimStyleTable
 71
0
  0
DIMSTYLE
105
213
100
AcDbSymbolTableRecord
100
AcDbDimStyleTableRecord
  2
STANDARD
 70
0
  3

  4

 40
1.0
 41
3.76209211
 42
1.0
 43
0.38
 44
1.0
 45
0.0
 46
0.0
 47
0.01
 48
0.01
140
5.266928954
141
0.09
142
0.0
143
25.4
144
1.0
145
0.0
146
1.0
147
0.625
 71
1
 72
0
 73
0
 74
0
 75
0
 76
0
 77
1
 78
8
 79
2
170
0
171
1
172
0
173
0
174
0
175
0
176
0
177
0
178
0
270
2
179
2
271
2
272
2
273
2
274
2
275
0
280
0
281
0
282
0
283
1
284
8
285
0
286
0
287
3
288
0
340
11
278
46
341
212
342
212
343
212
344
212
  0
ENDTAB
  0
ENDSEC
  0
SECTION
  2
BLOCKS
  0
BLOCK
  5
20
100
AcDbEntity
  8
0
100
AcDbBlockBegin
  2
*Model_Space
 70
0
 10
0.0
 20
0.0
 30
0.0
  3
*Model_Space
  1

  0
ENDBLK
  5
21
100
AcDbEntity
  8
0
100
AcDbBlockEnd
  0
BLOCK
  5
1C
100
AcDbEntity
  8
0
100
AcDbBlockBegin
  2
*Paper_Space
 70
0
 10
0.0
 20
0.0
 30
0.0
  3
*Paper_Space
  1

  0
ENDBLK
  5
1D
100
AcDbEntity
  8
0
100
AcDbBlockEnd
  0
BLOCK
  5
214
100
AcDbEntity
  8
0
100
AcDbBlockBegin
  2
_FILLED
 70
64
 10
0.0
 20
0.0
  3
_FILLED
  1

  0
SOLID
  5
215
100
AcDbEntity
  8
0
  6
BYBLOCK
 62
0
100
AcDbTrace
 10
0.0
 20
0.0
 11
-1.0
 21
0.25
 12
-1.0
 22
-0.25
 13
-1.0
 23
-0.25
  0
ENDBLK
  5
216
100
AcDbEntity
  8
0
  6
BYBLOCK
 62
0
100
AcDbBlockEnd
  0
ENDSEC
  0
SECTION
  2
ENTITIES
  0
LINE
  5
217
100
AcDbEntity
  8
0
100
AcDbLine
 62
7
  6
CONTINUOUS
 10
49.5549145724
 20
54.5623632385
 11
267.5549145724
 21
54.5623632385
  0
LINE
  5
218
100
AcDbEntity
  8
0
100
AcDbLine
 62
7
  6
CONTINUOUS
 10
280.5549145724
 20
56.7623632385
 11
276.8049145724
 21
56.7623632385
  0
LINE
  5
219
100
AcDbEntity
  8
0
100
AcDbLine
 62
7
  6
CONTINUOUS
 10
271.3049145724
 20
56.7623632385
 11
268.5549145724
 21
56.7623632385
  0
LINE
  5
21A
100
AcDbEntity
  8
0
100
AcDbLine
 62
7
  6
CONTINUOUS
 10
48.5549145724
 20
56.7623632385
 11
45.8049145724
 21
56.7623632385
  0
LINE
  5
21B
100
AcDbEntity
  8
0
100
AcDbLine
 62
7
  6
CONTINUOUS
 10
40.3049145724
 20
56.7623632385
 11
36.5549145724
 21
56.7623632385
  0
LINE
  5
21C
100
AcDbEntity
  8
0
100
AcDbLine
 62
7
  6
CONTINUOUS
 10
97.554843285
 20
60.3923632385
 11
94.0920075967
 21
60.3923632385
  0
LINE
  5
21D
100
AcDbEntity
  8
0
100
AcDbLine
 62
7
  6
CONTINUOUS
 10
92.980584322
 20
60.3923632385
 11
89.5549858598
 21
60.3923632385
  0
LINE
  5
21E
100
AcDbEntity
  8
0
100
AcDbLine
 62
7
  6
CONTINUOUS
 10
219.5549858598
 20
60.3923632385
 11
222.9501431056
 21
60.3923632385
  0
LINE
  5
21F
100
AcDbEntity
  8
0
100
AcDbLine
 62
7
  6
CONTINUOUS
 10
224.4597533557
 20
60.3923632385
 11
227.554843285
 21
60.3923632385
  0
LINE
  5
220
100
AcDbEntity
  8
0
100
AcDbLine
 62
7
  6
CONTINUOUS
 10
227.554843285
 20
61.3923632385
 11
227.4737158254
 21
61.3923632385
  0
LINE
  5
221
100
AcDbEntity
  8
0
100
AcDbLine
 62
7
  6
CONTINUOUS
 10
224.4597533557
 20
61.3923632385
 11
222.7618822511
 21
61.3923632385
  0
LINE
  5
222
100
AcDbEntity
  8
0
100
AcDbLine
 62
7
  6
CONTINUOUS
 10
219.6361133195
 20
61.3923632385
 11
219.5549858598
 21
61.3923632385
  0
LINE
  5
223
100
AcDbEntity
  8
0
100
AcDbLine
 62
7
  6
CONTINUOUS
 10
97.554843285
 20
61.3923632385
 11
97.3611859973
 21
61.3923632385
  0
LINE
  5
224
100
AcDbEntity
  8
0
100
AcDbLine
 62
7
  6
CONTINUOUS
 10
94.0920075967
 20
61.3923632385
 11
92.8571922479
 21
61.3923632385
  0
LINE
  5
225
100
AcDbEntity
  8
0
100
AcDbLine
 62
7
  6
CONTINUOUS
 10
89.7486431475
 20
61.3923632385
 11
89.5549858598
 21
61.3923632385
  0
LINE
  5
226
100
AcDbEntity
  8
0
100
AcDbLine
 62
7
  6
CONTINUOUS
 10
86.5549145724
 20
64.2923632385
 11
230.5549145724
 21
64.2923632385
  0
LINE
  5
227
100
AcDbEntity
  8
0
100
AcDbLine
 62
7
  6
CONTINUOUS
 10
74.5549145724
 20
65.5623632385
 11
86.5549145724
 21
65.5623632385
  0
LINE
  5
228
100
AcDbEntity
  8
0
100
AcDbLine
 62
7
  6
CONTINUOUS
 10
230.5549145724
 20
65.5623632385
 11
242.5549145724
 21
65.5623632385
  0
LINE
  5
229
100
AcDbEntity
  8
0
100
AcDbLine
 62
7
  6
CONTINUOUS
 10
86.5549145724
 20
66.2923632385
 11
230.5549145724
 21
66.2923632385
  0
LINE
  5
22A
100
AcDbEntity
  8
0
100
AcDbLine
 62
7
  6
CONTINUOUS
 10
86.0549145724
 20
67.2816871339
 11
231.0549145724
 21
67.2816871339
  0
LINE
  5
22B
100
AcDbEntity
  8
0
100
AcDbLine
 62
7
  6
CONTINUOUS
 10
74.5549145725
 20
67.3340523287
 11
242.5549145723
 21
67.3340523287
  0
LINE
  5
22C
100
AcDbEntity
  8
0
100
AcDbLine
 62
7
  6
CONTINUOUS
 10
74.5549145726
 20
67.3532529001
 11
242.5549145723
 21
67.3532529001
  0
LINE
  5
22D
100
AcDbEntity
  8
0
100
AcDbLine
 62
7
  6
CONTINUOUS
 10
74.5549145716
 20
67.7843930039
 11
242.554914573
 21
67.7843930039
  0
LINE
  5
22E
100
AcDbEntity
  8
0
100
AcDbLine
 62
7
  6
CONTINUOUS
 10
282.5549145724
 20
69.5623632385
 11
269.5549145724
 21
69.5623632385
  0
LINE
  5
22F
100
AcDbEntity
  8
0
100
AcDbLine
 62
7
  6
CONTINUOUS
 10
34.5549145724
 20
69.5623632385
 11
47.5549145724
 21
69.5623632385
  0
LINE
  5
230
100
AcDbEntity
  8
0
100
AcDbLine
 62
7
  6
CONTINUOUS
 10
162.0793906573
 20
75.2109501974
 11
159.1832003421
 21
75.2109501974
  0
LINE
  5
231
100
AcDbEntity
  8
0
100
AcDbLine
 62
7
  6
CONTINUOUS
 10
157.8701154359
 20
75.2109501974
 11
155.1321152262
 21
75.2109501974
  0
LINE
  5
232
100
AcDbEntity
  8
0
100
AcDbLine
 62
7
  6
CONTINUOUS
 10
155.1539640359
 20
76.218641362
 11
157.8701154359
 21
76.218641362
  0
LINE
  5
233
100
AcDbEntity
  8
0
100
AcDbLine
 62
7
  6
CONTINUOUS
 10
159.1832003421
 20
76.218641362
 11
162.0575418477
 21
76.218641362
  0
LINE
  5
234
100
AcDbEntity
  8
0
100
AcDbLine
 62
7
  6
CONTINUOUS
 10
121.9969444878
 20
82.7843632453
 11
74.5569441878
 21
82.7843632453
  0
LINE
  5
235
100
AcDbEntity
  8
0
100
AcDbLine
 62
7
  6
CONTINUOUS
 10
160.5529145724
 20
82.7843632385
 11
242.5529145724
 21
82.7843632385
  0
LINE
  5
236
100
AcDbEntity
  8
0
100
AcDbLine
 62
7
  6
CONTINUOUS
 10
160.5529145724
 20
84.9843632385
 11
242.5529145724
 21
84.9843632385
  0
LINE
  5
237
100
AcDbEntity
  8
0
100
AcDbLine
 62
7
  6
CONTINUOUS
 10
33.5549145724
 20
59.7623632385
 11
33.5549145724
 21
389.3623632385
  0
LINE
  5
238
100
AcDbEntity
  8
0
100
AcDbLine
 62
7
  6
CONTINUOUS
 10
121.9969444288
 20
87.7843632416
 11
74.5569443071
 21
87.7843632416
  0
LINE
  5
239
100
AcDbEntity
  8
0
100
AcDbLine
 62
7
  6
CONTINUOUS
 10
74.5569443378
 20
88.7843632385
 11
121.9969443378
 21
88.7843632385
  0
LINE
  5
23A
100
AcDbEntity
  8
0
100
AcDbLine
 62
7
  6
CONTINUOUS
 10
74.5769443378
 20
89.2843632975
 11
121.9769443378
 21
89.2843632975
  0
LINE
  5
23B
100
AcDbEntity
  8
0
100
AcDbLine
 62
7
  6
CONTINUOUS
 10
272.5549145724
 20
95.5623632385
 11
270.7832254822
 21
95.5623632385
  0
LINE
  5
23C
100
AcDbEntity
  8
0
100
AcDbLine
 62
7
  6
CONTINUOUS
 10
270.7640249108
 20
95.5623632387
 11
270.3328848071
 21
95.5623632384
  0
LINE
  5
23D
100
AcDbEntity
  8
0
100
AcDbLine
 62
7
  6
CONTINUOUS
 10
46.7769443378
 20
95.5623632383
 11
46.3458042341
 21
95.5623632386
  0
LINE
  5
23E
100
AcDbEntity
  8
0
100
AcDbLine
 62
7
  6
CONTINUOUS
 10
46.3266036626
 20
95.5623632385
 11
44.5549145724
 21
95.5623632385
  0
LINE
  5
23F
100
AcDbEntity
  8
0
100
AcDbLine
 62
7
  6
CONTINUOUS
 10
134.7769443327
 20
95.5643631892
 11
129.7769443347
 21
95.5643632077
  0
LINE
  5
240
100
AcDbEntity
  8
0
100
AcDbLine
 62
7
  6
CONTINUOUS
 10
66.7769443409
 20
95.5643631474
 11
61.7769443429
 21
95.5643631122
  0
LINE
  5
241
100
AcDbEntity
  8
0
100
AcDbLine
 62
7
  6
CONTINUOUS
 10
39.5549145724
 20
99.3123632385
 11
44.5636421049
 21
99.3123632385
  0
LINE
  5
242
100
AcDbEntity
  8
0
100
AcDbLine
 62
7
  6
CONTINUOUS
 10
272.5461870399
 20
99.3123632385
 11
277.5549145724
 21
99.3123632385
  0
LINE
  5
243
100
AcDbEntity
  8
0
100
AcDbLine
 62
7
  6
CONTINUOUS
 10
38.7396923837
 20
100.3912827091
 11
38.7396923837
 21
103.7623997702
  0
LINE
  5
244
100
AcDbEntity
  8
0
100
AcDbLine
 62
7
  6
CONTINUOUS
 10
38.7396923837
 20
104.9037396734
 11
38.7396923837
 21
108.7334437679
  0
LINE
  5
245
100
AcDbEntity
  8
0
100
AcDbLine
 62
7
  6
CONTINUOUS
 10
38.7396923837
 20
220.3912827091
 11
38.7396923837
 21
224.0505702585
  0
LINE
  5
246
100
AcDbEntity
  8
0
100
AcDbLine
 62
7
  6
CONTINUOUS
 10
38.7396923837
 20
224.940428488
 11
38.7396923837
 21
228.7334437679
  0
LINE
  5
247
100
AcDbEntity
  8
0
100
AcDbLine
 62
7
  6
CONTINUOUS
 10
38.7396923837
 20
340.3912827091
 11
38.7396923837
 21
343.7695563296
  0
LINE
  5
248
100
AcDbEntity
  8
0
100
AcDbLine
 62
7
  6
CONTINUOUS
 10
38.7396923837
 20
345.5226737655
 11
38.7396923837
 21
348.7334437679
  0
LINE
  5
249
100
AcDbEntity
  8
0
100
AcDbLine
 62
7
  6
CONTINUOUS
 10
40.3049145724
 20
385.7623632385
 11
40.3049145724
 21
381.6519727332
  0
LINE
  5
24A
100
AcDbEntity
  8
0
100
AcDbLine
 62
7
  6
CONTINUOUS
 10
40.3049145724
 20
56.7623632385
 11
40.3049145724
 21
62.7623632385
  0
LINE
  5
24B
100
AcDbEntity
  8
0
100
AcDbLine
 62
7
  6
CONTINUOUS
 10
40.5815991725
 20
108.686489659
 11
40.5815991725
 21
104.9037396734
  0
LINE
  5
24C
100
AcDbEntity
  8
0
100
AcDbLine
 62
7
  6
CONTINUOUS
 10
40.5815991725
 20
103.7623997702
 11
40.5815991725
 21
100.438236818
  0
LINE
  5
24D
100
AcDbEntity
  8
0
100
AcDbLine
 62
7
  6
CONTINUOUS
 10
40.6026230588
 20
348.6811988661
 11
40.6026230588
 21
345.5226737655
  0
LINE
  5
24E
100
AcDbEntity
  8
0
100
AcDbLine
 62
7
  6
CONTINUOUS
 10
40.6026230588
 20
343.7695563296
 11
40.6026230588
 21
340.4435276109
  0
LINE
  5
24F
100
AcDbEntity
  8
0
100
AcDbLine
 62
7
  6
CONTINUOUS
 10
40.678329972
 20
228.6611969556
 11
40.678329972
 21
224.940428488
  0
LINE
  5
250
100
AcDbEntity
  8
0
100
AcDbLine
 62
7
  6
CONTINUOUS
 10
40.678329972
 20
224.0505702585
 11
40.678329972
 21
220.4635295215
  0
LINE
  5
251
100
AcDbEntity
  8
0
100
AcDbLine
 62
7
  6
CONTINUOUS
 10
44.5549145724
 20
353.5623632385
 11
44.5549145724
 21
349.8123632385
  0
LINE
  5
252
100
AcDbEntity
  8
0
100
AcDbLine
 62
7
  6
CONTINUOUS
 10
44.5549145724
 20
339.3123632385
 11
44.5549145724
 21
229.8123632385
  0
LINE
  5
253
100
AcDbEntity
  8
0
100
AcDbLine
 62
7
  6
CONTINUOUS
 10
44.5549145724
 20
219.3123632385
 11
44.5549145724
 21
109.8123632385
  0
LINE
  5
254
100
AcDbEntity
  8
0
100
AcDbLine
 62
7
  6
CONTINUOUS
 10
44.5549145724
 20
99.3123632385
 11
44.5549145724
 21
95.5623632385
  0
LINE
  5
255
100
AcDbEntity
  8
0
100
AcDbLine
 62
7
  6
CONTINUOUS
 10
44.5636421049
 20
349.8123632385
 11
44.5636421049
 21
339.3123632385
  0
LINE
  5
256
100
AcDbEntity
  8
0
100
AcDbLine
 62
7
  6
CONTINUOUS
 10
44.5636421049
 20
229.8123632385
 11
44.5636421049
 21
219.3123632385
  0
LINE
  5
257
100
AcDbEntity
  8
0
100
AcDbLine
 62
7
  6
CONTINUOUS
 10
44.5636421049
 20
109.8123632385
 11
44.5636421049
 21
99.3123632385
  0
LINE
  5
258
100
AcDbEntity
  8
0
100
AcDbLine
 62
7
  6
CONTINUOUS
 10
45.8049145724
 20
56.7623632385
 11
45.8049145724
 21
62.7623632385
  0
LINE
  5
259
100
AcDbEntity
  8
0
100
AcDbLine
 62
7
  6
CONTINUOUS
 10
45.8049145724
 20
381.6519727332
 11
45.8049145724
 21
385.7623632385
  0
LINE
  5
25A
100
AcDbEntity
  8
0
100
AcDbLine
 62
7
  6
CONTINUOUS
 10
46.3266036626
 20
353.5623632384
 11
46.3266036626
 21
95.5623632386
  0
LINE
  5
25B
100
AcDbEntity
  8
0
100
AcDbLine
 62
7
  6
CONTINUOUS
 10
46.3458042341
 20
353.5623632383
 11
46.3458042341
 21
95.5623632386
  0
LINE
  5
25C
100
AcDbEntity
  8
0
100
AcDbLine
 62
7
  6
CONTINUOUS
 10
46.7769443378
 20
353.5623632393
 11
46.7769443378
 21
95.562363238
  0
LINE
  5
25D
100
AcDbEntity
  8
0
100
AcDbLine
 62
7
  6
CONTINUOUS
 10
43.7289484067
 20
103.7623997702
 11
35.3808807382
 21
103.7623997702
  0
LINE
  5
25E
100
AcDbEntity
  8
0
100
AcDbLine
 62
7
  6
CONTINUOUS
 10
273.3709308759
 20
103.8161860292
 11
281.7388982689
 21
103.8161860292
  0
LINE
  5
25F
100
AcDbEntity
  8
0
100
AcDbLine
 62
7
  6
CONTINUOUS
 10
57.3746871932
 20
104.0303650114
 11
54.3106498216
 21
104.0303650114
  0
LINE
  5
260
100
AcDbEntity
  8
0
100
AcDbLine
 62
7
  6
CONTINUOUS
 10
53.55632445
 20
104.0303650114
 11
50.4671946462
 21
104.0303650114
  0
LINE
  5
261
100
AcDbEntity
  8
0
100
AcDbLine
 62
7
  6
CONTINUOUS
 10
259.5679626711
 20
104.0769897764
 11
262.4142532093
 21
104.0769897764
  0
LINE
  5
262
100
AcDbEntity
  8
0
100
AcDbLine
 62
7
  6
CONTINUOUS
 10
263.7273381155
 20
104.0769897764
 11
266.4901224724
 21
104.0769897764
  0
LINE
  5
263
100
AcDbEntity
  8
0
100
AcDbLine
 62
7
  6
CONTINUOUS
 10
43.7911820486
 20
104.9037396734
 11
35.3186470962
 21
104.9037396734
  0
LINE
  5
264
100
AcDbEntity
  8
0
100
AcDbLine
 62
7
  6
CONTINUOUS
 10
273.3186470962
 20
104.9037396734
 11
281.7911820486
 21
104.9037396734
  0
LINE
  5
265
100
AcDbEntity
  8
0
100
AcDbLine
 62
7
  6
CONTINUOUS
 10
57.3931025012
 20
105.0380561759
 11
54.3106498216
 21
105.0380561759
  0
LINE
  5
266
100
AcDbEntity
  8
0
100
AcDbLine
 62
7
  6
CONTINUOUS
 10
53.55632445
 20
105.0380561759
 11
50.4487793383
 21
105.0380561759
  0
LINE
  5
267
100
AcDbEntity
  8
0
100
AcDbLine
 62
7
  6
CONTINUOUS
 10
259.5568809903
 20
105.0380561759
 11
262.4142532093
 21
105.0380561759
  0
LINE
  5
268
100
AcDbEntity
  8
0
100
AcDbLine
 62
7
  6
CONTINUOUS
 10
263.7273381155
 20
105.0380561759
 11
266.5012041532
 21
105.0380561759
  0
LINE
  5
269
100
AcDbEntity
  8
0
100
AcDbLine
 62
7
  6
CONTINUOUS
 10
277.5549145724
 20
109.8123632385
 11
272.5461870399
 21
109.8123632385
  0
LINE
  5
26A
100
AcDbEntity
  8
0
100
AcDbLine
 62
7
  6
CONTINUOUS
 10
44.5636421049
 20
109.8123632385
 11
39.5549145724
 21
109.8123632385
  0
LINE
  5
26B
100
AcDbEntity
  8
0
100
AcDbLine
 62
7
  6
CONTINUOUS
 10
48.5549145724
 20
393.5623632385
 11
48.5549145724
 21
380.5623632385
  0
LINE
  5
26C
100
AcDbEntity
  8
0
100
AcDbLine
 62
7
  6
CONTINUOUS
 10
48.5549145724
 20
55.5623632385
 11
48.5549145724
 21
68.5623632385
  0
LINE
  5
26D
100
AcDbEntity
  8
0
100
AcDbLine
 62
7
  6
CONTINUOUS
 10
53.55632445
 20
101.1165392017
 11
53.55632445
 21
104.0303650114
  0
LINE
  5
26E
100
AcDbEntity
  8
0
100
AcDbLine
 62
7
  6
CONTINUOUS
 10
53.55632445
 20
105.0380561759
 11
53.55632445
 21
108.0784512465
  0
LINE
  5
26F
100
AcDbEntity
  8
0
100
AcDbLine
 62
7
  6
CONTINUOUS
 10
53.55632445
 20
221.0834335603
 11
53.55632445
 21
224.0377106045
  0
LINE
  5
270
100
AcDbEntity
  8
0
100
AcDbLine
 62
7
  6
CONTINUOUS
 10
53.55632445
 20
225.0177112679
 11
53.55632445
 21
228.0453456051
  0
LINE
  5
271
100
AcDbEntity
  8
0
100
AcDbLine
 62
7
  6
CONTINUOUS
 10
53.55632445
 20
341.2295636265
 11
53.55632445
 21
344.1201031487
  0
LINE
  5
272
100
AcDbEntity
  8
0
100
AcDbLine
 62
7
  6
CONTINUOUS
 10
53.55632445
 20
345.063554517
 11
53.55632445
 21
348.1914756713
  0
LINE
  5
273
100
AcDbEntity
  8
0
100
AcDbLine
 62
7
  6
CONTINUOUS
 10
54.3106498216
 20
108.075731411
 11
54.3106498216
 21
105.0380561759
  0
LINE
  5
274
100
AcDbEntity
  8
0
100
AcDbLine
 62
7
  6
CONTINUOUS
 10
54.3106498216
 20
104.0303650114
 11
54.3106498216
 21
101.1192590372
  0
LINE
  5
275
100
AcDbEntity
  8
0
100
AcDbLine
 62
7
  6
CONTINUOUS
 10
54.5245491708
 20
348.1580777817
 11
54.5245491708
 21
345.063554517
  0
LINE
  5
276
100
AcDbEntity
  8
0
100
AcDbLine
 62
7
  6
CONTINUOUS
 10
54.5245491708
 20
344.1201031487
 11
54.5245491708
 21
341.2629615161
  0
LINE
  5
277
100
AcDbEntity
  8
0
100
AcDbLine
 62
7
  6
CONTINUOUS
 10
54.6325076268
 20
227.9912938448
 11
54.6325076268
 21
225.0177112679
  0
LINE
  5
278
100
AcDbEntity
  8
0
100
AcDbLine
 62
7
  6
CONTINUOUS
 10
54.6325076268
 20
224.0377106045
 11
54.6325076268
 21
221.1374853207
  0
LINE
  5
279
100
AcDbEntity
  8
0
100
AcDbLine
 62
7
  6
CONTINUOUS
 10
61.7769443446
 20
95.564363089
 11
61.7769443446
 21
183.284363388
  0
LINE
  5
27A
100
AcDbEntity
  8
0
100
AcDbLine
 62
7
  6
CONTINUOUS
 10
128.2769443378
 20
120.2843632975
 11
68.2769443378
 21
120.2843632975
  0
LINE
  5
27B
100
AcDbEntity
  8
0
100
AcDbLine
 62
7
  6
CONTINUOUS
 10
127.7769443378
 20
120.7843632975
 11
68.7769443378
 21
120.7843632975
  0
LINE
  5
27C
100
AcDbEntity
  8
0
100
AcDbLine
 62
7
  6
CONTINUOUS
 10
67.7769443378
 20
122.2843632975
 11
128.7769443378
 21
122.2843632975
  0
LINE
  5
27D
100
AcDbEntity
  8
0
100
AcDbLine
 62
7
  6
CONTINUOUS
 10
68.3264064539
 20
123.1862248077
 11
128.3264064539
 21
123.1862248077
  0
LINE
  5
27E
100
AcDbEntity
  8
0
100
AcDbLine
 62
7
  6
CONTINUOUS
 10
66.7769443409
 20
95.5643631474
 11
66.7769443409
 21
183.2843632693
  0
LINE
  5
27F
100
AcDbEntity
  8
0
100
AcDbLine
 62
7
  6
CONTINUOUS
 10
67.7769443378
 20
183.2843632975
 11
67.7769443378
 21
122.2843632975
  0
LINE
  5
280
100
AcDbEntity
  8
0
100
AcDbLine
 62
7
  6
CONTINUOUS
 10
67.7769443378
 20
119.7843632975
 11
67.7769443378
 21
95.5643632385
  0
LINE
  5
281
100
AcDbEntity
  8
0
100
AcDbLine
 62
7
  6
CONTINUOUS
 10
68.2769443378
 20
120.2843632975
 11
68.2769443378
 21
95.5843632975
  0
LINE
  5
282
100
AcDbEntity
  8
0
100
AcDbLine
 62
7
  6
CONTINUOUS
 10
68.3264064539
 20
183.1862248077
 11
68.3264064539
 21
123.1862248077
  0
LINE
  5
283
100
AcDbEntity
  8
0
100
AcDbLine
 62
7
  6
CONTINUOUS
 10
74.5549145724
 20
65.5623632385
 11
74.5549145724
 21
67.3340523287
  0
LINE
  5
284
100
AcDbEntity
  8
0
100
AcDbLine
 62
7
  6
CONTINUOUS
 10
74.5549145726
 20
67.3532529001
 11
74.5549145723
 21
67.7843930039
  0
LINE
  5
285
100
AcDbEntity
  8
0
100
AcDbLine
 62
7
  6
CONTINUOUS
 10
74.5549145723
 20
381.3403334732
 11
74.5549145726
 21
381.7714735769
  0
LINE
  5
286
100
AcDbEntity
  8
0
100
AcDbLine
 62
7
  6
CONTINUOUS
 10
74.5549145725
 20
381.7906741483
 11
74.5549145724
 21
383.5623632385
  0
LINE
  5
287
100
AcDbEntity
  8
0
100
AcDbLine
 62
7
  6
CONTINUOUS
 10
74.5569442884
 20
82.7843632436
 11
74.5569443071
 21
87.7843632416
  0
LINE
  5
288
100
AcDbEntity
  8
0
100
AcDbLine
 62
7
  6
CONTINUOUS
 10
74.5569442792
 20
191.0643632354
 11
74.5569442649
 21
196.0643632334
  0
LINE
  5
289
100
AcDbEntity
  8
0
100
AcDbLine
 62
7
  6
CONTINUOUS
 10
86.0549145724
 20
67.2816871339
 11
86.0549145724
 21
65.832918955
  0
LINE
  5
28A
100
AcDbEntity
  8
0
100
AcDbLine
 62
7
  6
CONTINUOUS
 10
86.5549145724
 20
66.2923632385
 11
86.5549145724
 21
64.2923632385
  0
LINE
  5
28B
100
AcDbEntity
  8
0
100
AcDbLine
 62
7
  6
CONTINUOUS
 10
89.5549145724
 20
60.3923632385
 11
89.5549145724
 21
66.2923632385
  0
LINE
  5
28C
100
AcDbEntity
  8
0
100
AcDbLine
 62
7
  6
CONTINUOUS
 10
89.7486431475
 20
61.3923632385
 11
89.7486431475
 21
60.3923632385
  0
LINE
  5
28D
100
AcDbEntity
  8
0
100
AcDbLine
 62
7
  6
CONTINUOUS
 10
158.1282804261
 20
299.2075827507
 11
175.5529145724
 21
305.6823630906
  0
LINE
  5
28E
100
AcDbEntity
  8
0
100
AcDbLine
 62
7
  6
CONTINUOUS
 10
128.4843896631
 20
67.2816871339
 11
128.8444741101
 21
66.2923632385
  0
LINE
  5
28F
100
AcDbEntity
  8
0
100
AcDbLine
 62
7
  6
CONTINUOUS
 10
92.8571922479
 20
60.3923632385
 11
92.8571922479
 21
61.3923632385
  0
LINE
  5
290
100
AcDbEntity
  8
0
100
AcDbLine
 62
7
  6
CONTINUOUS
 10
92.980584322
 20
60.3923632385
 11
92.980584322
 21
61.3923632385
  0
LINE
  5
291
100
AcDbEntity
  8
0
100
AcDbLine
 62
7
  6
CONTINUOUS
 10
94.0920075967
 20
61.3923632385
 11
94.0920075967
 21
60.3923632385
  0
LINE
  5
292
100
AcDbEntity
  8
0
100
AcDbLine
 62
7
  6
CONTINUOUS
 10
96.0548053053
 20
66.2923632385
 11
96.0548323304
 21
67.2816871339
  0
LINE
  5
293
100
AcDbEntity
  8
0
100
AcDbLine
 62
7
  6
CONTINUOUS
 10
97.3611859973
 20
60.3923632385
 11
97.3611859973
 21
61.3923632385
  0
LINE
  5
294
100
AcDbEntity
  8
0
100
AcDbLine
 62
7
  6
CONTINUOUS
 10
97.5549145724
 20
64.2923632385
 11
97.554843285
 21
60.3923632385
  0
LINE
  5
295
100
AcDbEntity
  8
0
100
AcDbLine
 62
7
  6
CONTINUOUS
 10
244.9775487188
 20
324.2171437263
 11
227.5529145724
 21
317.7423634711
  0
LINE
  5
296
100
AcDbEntity
  8
0
100
AcDbLine
 62
7
  6
CONTINUOUS
 10
179.2729141514
 20
301.9623632385
 11
164.9352072553
 21
292.4006559214
  0
LINE
  5
297
100
AcDbEntity
  8
0
100
AcDbLine
 62
7
  6
CONTINUOUS
 10
223.8329149935
 20
321.4623632385
 11
238.1706218895
 21
331.0240705556
  0
LINE
  5
298
100
AcDbEntity
  8
0
100
AcDbLine
 62
7
  6
CONTINUOUS
 10
128.3264064539
 20
183.1862248077
 11
68.3264064539
 21
183.1862248077
  0
LINE
  5
299
100
AcDbEntity
  8
0
100
AcDbLine
 62
7
  6
CONTINUOUS
 10
61.7769443429
 20
183.2843632878
 11
66.7769443409
 21
183.2843632693
  0
LINE
  5
29A
100
AcDbEntity
  8
0
100
AcDbLine
 62
7
  6
CONTINUOUS
 10
67.7769443378
 20
183.2843632975
 11
128.7769443378
 21
183.2843632975
  0
LINE
  5
29B
100
AcDbEntity
  8
0
100
AcDbLine
 62
7
  6
CONTINUOUS
 10
129.7769443347
 20
183.2843633296
 11
134.7769443327
 21
183.2843633648
  0
LINE
  5
29C
100
AcDbEntity
  8
0
100
AcDbLine
 62
7
  6
CONTINUOUS
 10
170.4843896631
 20
67.2816871339
 11
170.8444741101
 21
66.2923632385
  0
LINE
  5
29D
100
AcDbEntity
  8
0
100
AcDbLine
 62
7
  6
CONTINUOUS
 10
121.9969443763
 20
196.0643632334
 11
121.996944362
 21
191.0643632354
  0
LINE
  5
29E
100
AcDbEntity
  8
0
100
AcDbLine
 62
7
  6
CONTINUOUS
 10
121.9969444288
 20
87.7843632416
 11
121.9969444642
 21
82.7843632436
  0
LINE
  5
29F
100
AcDbEntity
  8
0
100
AcDbLine
 62
7
  6
CONTINUOUS
 10
128.2769443378
 20
95.5843632975
 11
128.2769443378
 21
120.2843632975
  0
LINE
  5
2A0
100
AcDbEntity
  8
0
100
AcDbLine
 62
7
  6
CONTINUOUS
 10
128.3264064539
 20
123.1862248077
 11
128.3264064539
 21
183.1862248077
  0
LINE
  5
2A1
100
AcDbEntity
  8
0
100
AcDbLine
 62
7
  6
CONTINUOUS
 10
128.7769443378
 20
95.5643632385
 11
128.7769443378
 21
119.7843632975
  0
LINE
  5
2A2
100
AcDbEntity
  8
0
100
AcDbLine
 62
7
  6
CONTINUOUS
 10
128.7769443378
 20
122.2843632975
 11
128.7769443378
 21
183.2843632975
  0
LINE
  5
2A3
100
AcDbEntity
  8
0
100
AcDbLine
 62
7
  6
CONTINUOUS
 10
129.7769443347
 20
183.2843633296
 11
129.7769443347
 21
95.5643632077
  0
LINE
  5
2A4
100
AcDbEntity
  8
0
100
AcDbLine
 62
7
  6
CONTINUOUS
 10
74.5569442792
 20
191.0643632354
 11
121.996944362
 21
191.0643632354
  0
LINE
  5
2A5
100
AcDbEntity
  8
0
100
AcDbLine
 62
7
  6
CONTINUOUS
 10
74.5569441885
 20
196.0643632318
 11
121.9969444871
 21
196.0643632318
  0
LINE
  5
2A6
100
AcDbEntity
  8
0
100
AcDbLine
 62
7
  6
CONTINUOUS
 10
134.776944331
 20
183.2843633878
 11
134.776944331
 21
95.5643630892
  0
LINE
  5
2A7
100
AcDbEntity
  8
0
100
AcDbLine
 62
7
  6
CONTINUOUS
 10
147.7729145724
 20
353.5603632385
 11
147.7729145724
 21
95.5643632385
  0
LINE
  5
2A8
100
AcDbEntity
  8
0
100
AcDbLine
 62
7
  6
CONTINUOUS
 10
149.9729145724
 20
353.5603632385
 11
149.9729145724
 21
95.5643632385
  0
LINE
  5
2A9
100
AcDbEntity
  8
0
100
AcDbLine
 62
7
  6
CONTINUOUS
 10
153.3049145724
 20
388.5623632385
 11
153.3049145724
 21
383.5623632385
  0
LINE
  5
2AA
100
AcDbEntity
  8
0
100
AcDbLine
 62
7
  6
CONTINUOUS
 10
157.5210204703
 20
384.4400382895
 11
157.5210204703
 21
387.6410642198
  0
LINE
  5
2AB
100
AcDbEntity
  8
0
100
AcDbLine
 62
7
  6
CONTINUOUS
 10
157.5210204703
 20
389.3941816558
 11
157.5210204703
 21
392.6846881876
  0
LINE
  5
2AC
100
AcDbEntity
  8
0
100
AcDbLine
 62
7
  6
CONTINUOUS
 10
157.8701154359
 20
79.0615349176
 11
157.8701154359
 21
76.218641362
  0
LINE
  5
2AD
100
AcDbEntity
  8
0
100
AcDbLine
 62
7
  6
CONTINUOUS
 10
157.8701154359
 20
75.2109501974
 11
157.8701154359
 21
72.2178991997
  0
LINE
  5
2AE
100
AcDbEntity
  8
0
100
AcDbLine
 62
7
  6
CONTINUOUS
 10
157.8701154359
 20
370.0694782755
 11
157.8701154359
 21
373.0742282552
  0
LINE
  5
2AF
100
AcDbEntity
  8
0
100
AcDbLine
 62
7
  6
CONTINUOUS
 10
157.8701154359
 20
374.0352946546
 11
157.8701154359
 21
376.9131139934
  0
LINE
  5
2B0
100
AcDbEntity
  8
0
100
AcDbLine
 62
7
  6
CONTINUOUS
 10
158.1282804261
 20
324.2171437263
 11
158.1282804261
 21
299.2075827507
  0
LINE
  5
2B1
100
AcDbEntity
  8
0
100
AcDbLine
 62
7
  6
CONTINUOUS
 10
159.1421120899
 20
370.032637599
 11
159.1421120899
 21
373.0742282552
  0
LINE
  5
2B2
100
AcDbEntity
  8
0
100
AcDbLine
 62
7
  6
CONTINUOUS
 10
159.1421120899
 20
374.0352946546
 11
159.1421120899
 21
376.9499546697
  0
LINE
  5
2B3
100
AcDbEntity
  8
0
100
AcDbLine
 62
7
  6
CONTINUOUS
 10
159.1832003421
 20
79.0917533417
 11
159.1832003421
 21
76.218641362
  0
LINE
  5
2B4
100
AcDbEntity
  8
0
100
AcDbLine
 62
7
  6
CONTINUOUS
 10
159.1832003421
 20
75.2109501974
 11
159.1832003421
 21
72.1876807755
  0
LINE
  5
2B5
100
AcDbEntity
  8
0
100
AcDbLine
 62
7
  6
CONTINUOUS
 10
159.6869577781
 20
384.4659040137
 11
159.6869577781
 21
387.6410642198
  0
LINE
  5
2B6
100
AcDbEntity
  8
0
100
AcDbLine
 62
7
  6
CONTINUOUS
 10
159.6869577781
 20
389.3941816558
 11
159.6869577781
 21
392.6588224633
  0
LINE
  5
2B7
100
AcDbEntity
  8
0
100
AcDbLine
 62
7
  6
CONTINUOUS
 10
39.5549145724
 20
219.3123632385
 11
44.5636421049
 21
219.3123632385
  0
LINE
  5
2B8
100
AcDbEntity
  8
0
100
AcDbLine
 62
7
  6
CONTINUOUS
 10
272.5461870399
 20
219.3123632385
 11
277.5549145724
 21
219.3123632385
  0
LINE
  5
2B9
100
AcDbEntity
  8
0
100
AcDbLine
 62
7
  6
CONTINUOUS
 10
273.420371964
 20
223.5784641483
 11
281.6894571808
 21
223.5784641483
  0
LINE
  5
2BA
100
AcDbEntity
  8
0
100
AcDbLine
 62
7
  6
CONTINUOUS
 10
57.3810867626
 20
224.0377106045
 11
54.6325076268
 21
224.0377106045
  0
LINE
  5
2BB
100
AcDbEntity
  8
0
100
AcDbLine
 62
7
  6
CONTINUOUS
 10
53.55632445
 20
224.0377106045
 11
50.4607950769
 21
224.0377106045
  0
LINE
  5
2BC
100
AcDbEntity
  8
0
100
AcDbLine
 62
7
  6
CONTINUOUS
 10
43.7739865018
 20
224.0505702585
 11
35.335842643
 21
224.0505702585
  0
LINE
  5
2BD
100
AcDbEntity
  8
0
100
AcDbLine
 62
7
  6
CONTINUOUS
 10
259.5660676505
 20
224.0566448685
 11
262.837128664
 21
224.0566448685
  0
LINE
  5
2BE
100
AcDbEntity
  8
0
100
AcDbLine
 62
7
  6
CONTINUOUS
 10
263.5914540357
 20
224.0566448685
 11
266.492017493
 21
224.0566448685
  0
LINE
  5
2BF
100
AcDbEntity
  8
0
100
AcDbLine
 62
7
  6
CONTINUOUS
 10
43.7880654872
 20
224.940428488
 11
35.3217636577
 21
224.940428488
  0
LINE
  5
2C0
100
AcDbEntity
  8
0
100
AcDbLine
 62
7
  6
CONTINUOUS
 10
273.3217636577
 20
224.940428488
 11
281.7880654872
 21
224.940428488
  0
LINE
  5
2C1
100
AcDbEntity
  8
0
100
AcDbLine
 62
7
  6
CONTINUOUS
 10
57.3914595337
 20
225.0177112679
 11
54.6325076268
 21
225.0177112679
  0
LINE
  5
2C2
100
AcDbEntity
  8
0
100
AcDbLine
 62
7
  6
CONTINUOUS
 10
53.55632445
 20
225.0177112679
 11
50.4504223058
 21
225.0177112679
  0
LINE
  5
2C3
100
AcDbEntity
  8
0
100
AcDbLine
 62
7
  6
CONTINUOUS
 10
259.5585239578
 20
225.0177112679
 11
262.837128664
 21
225.0177112679
  0
LINE
  5
2C4
100
AcDbEntity
  8
0
100
AcDbLine
 62
7
  6
CONTINUOUS
 10
263.5914540357
 20
225.0177112679
 11
266.4995611857
 21
225.0177112679
  0
LINE
  5
2C5
100
AcDbEntity
  8
0
100
AcDbLine
 62
7
  6
CONTINUOUS
 10
212.4843896631
 20
67.2816871339
 11
212.8444741101
 21
66.2923632385
  0
LINE
  5
2C6
100
AcDbEntity
  8
0
100
AcDbLine
 62
7
  6
CONTINUOUS
 10
214.7348380934
 20
67.2816871339
 11
215.0949225434
 21
66.2923632385
  0
LINE
  5
2C7
100
AcDbEntity
  8
0
100
AcDbLine
 62
7
  6
CONTINUOUS
 10
163.8049145724
 20
383.5536360752
 11
163.8049145724
 21
388.5623632385
  0
LINE
  5
2C8
100
AcDbEntity
  8
0
100
AcDbLine
 62
7
  6
CONTINUOUS
 10
104.2653550348
 20
66.2923632385
 11
104.6254394817
 21
67.2816871339
  0
LINE
  5
2C9
100
AcDbEntity
  8
0
100
AcDbLine
 62
7
  6
CONTINUOUS
 10
277.5549145724
 20
229.8123632385
 11
272.5461870399
 21
229.8123632385
  0
LINE
  5
2CA
100
AcDbEntity
  8
0
100
AcDbLine
 62
7
  6
CONTINUOUS
 10
44.5636421049
 20
229.8123632385
 11
39.5549145724
 21
229.8123632385
  0
LINE
  5
2CB
100
AcDbEntity
  8
0
100
AcDbLine
 62
7
  6
CONTINUOUS
 10
175.5529145724
 20
317.7423635648
 11
175.5529145724
 21
305.6823630906
  0
LINE
  5
2CC
100
AcDbEntity
  8
0
100
AcDbLine
 62
7
  6
CONTINUOUS
 10
177.3049145724
 20
303.3123632385
 11
177.3049145724
 21
320.2623632385
  0
LINE
  5
2CD
100
AcDbEntity
  8
0
100
AcDbLine
 62
7
  6
CONTINUOUS
 10
186.3049145724
 20
314.2623632385
 11
186.3049145724
 21
304.6623632385
  0
LINE
  5
2CE
100
AcDbEntity
  8
0
100
AcDbLine
 62
7
  6
CONTINUOUS
 10
146.2653550348
 20
66.2923632385
 11
146.6254394817
 21
67.2816871339
  0
LINE
  5
2CF
100
AcDbEntity
  8
0
100
AcDbLine
 62
7
  6
CONTINUOUS
 10
217.3049145724
 20
304.6623632385
 11
217.3049145724
 21
314.2623632385
  0
LINE
  5
2D0
100
AcDbEntity
  8
0
100
AcDbLine
 62
7
  6
CONTINUOUS
 10
219.5549145724
 20
64.2923632385
 11
219.5549145724
 21
60.3923632385
  0
LINE
  5
2D1
100
AcDbEntity
  8
0
100
AcDbLine
 62
7
  6
CONTINUOUS
 10
219.6361133195
 20
61.3923632385
 11
219.6361133195
 21
60.3923632385
  0
LINE
  5
2D2
100
AcDbEntity
  8
0
100
AcDbLine
 62
7
  6
CONTINUOUS
 10
221.0549968086
 20
67.2816871339
 11
221.0550238318
 21
66.2923632385
  0
LINE
  5
2D3
100
AcDbEntity
  8
0
100
AcDbLine
 62
7
  6
CONTINUOUS
 10
222.7618822511
 20
60.3923632385
 11
222.7618822511
 21
61.3923632385
  0
LINE
  5
2D4
100
AcDbEntity
  8
0
100
AcDbLine
 62
7
  6
CONTINUOUS
 10
222.9501431056
 20
60.3923632385
 11
222.9501431056
 21
61.3923632385
  0
LINE
  5
2D5
100
AcDbEntity
  8
0
100
AcDbLine
 62
7
  6
CONTINUOUS
 10
224.4597533557
 20
61.3923632385
 11
224.4597533557
 21
60.3923632385
  0
LINE
  5
2D6
100
AcDbEntity
  8
0
100
AcDbLine
 62
7
  6
CONTINUOUS
 10
226.3049145724
 20
320.2623632385
 11
226.3049145724
 21
303.3123632385
  0
LINE
  5
2D7
100
AcDbEntity
  8
0
100
AcDbLine
 62
7
  6
CONTINUOUS
 10
227.4737158254
 20
60.3923632385
 11
227.4737158254
 21
61.3923632385
  0
LINE
  5
2D8
100
AcDbEntity
  8
0
100
AcDbLine
 62
7
  6
CONTINUOUS
 10
227.5529145724
 20
305.6823628246
 11
227.5529145724
 21
317.7423634711
  0
LINE
  5
2D9
100
AcDbEntity
  8
0
100
AcDbLine
 62
7
  6
CONTINUOUS
 10
227.5549145724
 20
66.2923632385
 11
227.554843285
 21
60.3923632385
  0
LINE
  5
2DA
100
AcDbEntity
  8
0
100
AcDbLine
 62
7
  6
CONTINUOUS
 10
230.5549145724
 20
64.2923632385
 11
230.5549145724
 21
66.2923632385
  0
LINE
  5
2DB
100
AcDbEntity
  8
0
100
AcDbLine
 62
7
  6
CONTINUOUS
 10
164.9352072553
 20
292.4006559214
 11
238.1706218895
 21
292.4006559214
  0
LINE
  5
2DC
100
AcDbEntity
  8
0
100
AcDbLine
 62
7
  6
CONTINUOUS
 10
231.0549145724
 20
65.8329189548
 11
231.0549145724
 21
67.2816871339
  0
LINE
  5
2DD
100
AcDbEntity
  8
0
100
AcDbLine
 62
7
  6
CONTINUOUS
 10
242.5549145725
 20
383.5623632385
 11
242.5549145724
 21
381.7906741483
  0
LINE
  5
2DE
100
AcDbEntity
  8
0
100
AcDbLine
 62
7
  6
CONTINUOUS
 10
242.5549145723
 20
381.7714735769
 11
242.5549145726
 21
381.3403334732
  0
LINE
  5
2DF
100
AcDbEntity
  8
0
100
AcDbLine
 62
7
  6
CONTINUOUS
 10
242.5549145724
 20
67.3340523287
 11
242.5549145724
 21
65.5623632385
  0
LINE
  5
2E0
100
AcDbEntity
  8
0
100
AcDbLine
 62
7
  6
CONTINUOUS
 10
242.5549145726
 20
67.7843930039
 11
242.5549145723
 21
67.3532529001
  0
LINE
  5
2E1
100
AcDbEntity
  8
0
100
AcDbLine
 62
7
  6
CONTINUOUS
 10
188.2653550348
 20
66.2923632385
 11
188.6254394817
 21
67.2816871339
  0
LINE
  5
2E2
100
AcDbEntity
  8
0
100
AcDbLine
 62
7
  6
CONTINUOUS
 10
179.2729141513
 20
301.9623632385
 11
223.832914808
 21
301.9623632385
  0
LINE
  5
2E3
100
AcDbEntity
  8
0
100
AcDbLine
 62
7
  6
CONTINUOUS
 10
226.3049145724
 20
303.3123632385
 11
177.3049145724
 21
303.3123632385
  0
LINE
  5
2E4
100
AcDbEntity
  8
0
100
AcDbLine
 62
7
  6
CONTINUOUS
 10
186.3049145724
 20
304.6623632385
 11
217.3049145724
 21
304.6623632385
  0
LINE
  5
2E5
100
AcDbEntity
  8
0
100
AcDbLine
 62
7
  6
CONTINUOUS
 10
244.9775487188
 20
299.2075827507
 11
244.9775487188
 21
324.2171437263
  0
LINE
  5
2E6
100
AcDbEntity
  8
0
100
AcDbLine
 62
7
  6
CONTINUOUS
 10
253.1329145724
 20
95.5643632385
 11
253.1329145724
 21
353.5603632385
  0
LINE
  5
2E7
100
AcDbEntity
  8
0
100
AcDbLine
 62
7
  6
CONTINUOUS
 10
255.3329145724
 20
95.5643632385
 11
255.3329145724
 21
353.5603632385
  0
LINE
  5
2E8
100
AcDbEntity
  8
0
100
AcDbLine
 62
7
  6
CONTINUOUS
 10
217.3049145724
 20
314.2623632385
 11
186.3049145724
 21
314.2623632385
  0
LINE
  5
2E9
100
AcDbEntity
  8
0
100
AcDbLine
 62
7
  6
CONTINUOUS
 10
177.3049145724
 20
320.2623632385
 11
226.3049145724
 21
320.2623632385
  0
LINE
  5
2EA
100
AcDbEntity
  8
0
100
AcDbLine
 62
7
  6
CONTINUOUS
 10
223.8329149935
 20
321.4623632385
 11
179.2729143368
 21
321.4623632385
  0
LINE
  5
2EB
100
AcDbEntity
  8
0
100
AcDbLine
 62
7
  6
CONTINUOUS
 10
175.5529145724
 20
317.7423635648
 11
158.1282804261
 21
324.2171437263
  0
LINE
  5
2EC
100
AcDbEntity
  8
0
100
AcDbLine
 62
7
  6
CONTINUOUS
 10
227.5529145724
 20
305.6823628246
 11
244.9775487188
 21
299.2075827507
  0
LINE
  5
2ED
100
AcDbEntity
  8
0
100
AcDbLine
 62
7
  6
CONTINUOUS
 10
164.9352072553
 20
331.0240705556
 11
179.2729143368
 21
321.4623632385
  0
LINE
  5
2EE
100
AcDbEntity
  8
0
100
AcDbLine
 62
7
  6
CONTINUOUS
 10
262.4142532093
 20
101.1519134097
 11
262.4142532093
 21
104.0769897764
  0
LINE
  5
2EF
100
AcDbEntity
  8
0
100
AcDbLine
 62
7
  6
CONTINUOUS
 10
262.4142532093
 20
105.0380561759
 11
262.4142532093
 21
108.0430770386
  0
LINE
  5
2F0
100
AcDbEntity
  8
0
100
AcDbLine
 62
7
  6
CONTINUOUS
 10
262.4142532093
 20
341.2649378345
 11
262.4142532093
 21
344.1024881175
  0
LINE
  5
2F1
100
AcDbEntity
  8
0
100
AcDbLine
 62
7
  6
CONTINUOUS
 10
262.4142532093
 20
345.063554517
 11
262.4142532093
 21
348.1561014634
  0
LINE
  5
2F2
100
AcDbEntity
  8
0
100
AcDbLine
 62
7
  6
CONTINUOUS
 10
262.837128664
 20
221.0696551075
 11
262.837128664
 21
224.0566448685
  0
LINE
  5
2F3
100
AcDbEntity
  8
0
100
AcDbLine
 62
7
  6
CONTINUOUS
 10
262.837128664
 20
225.0177112679
 11
262.837128664
 21
228.0591240579
  0
LINE
  5
2F4
100
AcDbEntity
  8
0
100
AcDbLine
 62
7
  6
CONTINUOUS
 10
263.3221816748
 20
348.1982222547
 11
263.3221816748
 21
345.063554517
  0
LINE
  5
2F5
100
AcDbEntity
  8
0
100
AcDbLine
 62
7
  6
CONTINUOUS
 10
263.3221816748
 20
344.1024881175
 11
263.3221816748
 21
341.2228170432
  0
LINE
  5
2F6
100
AcDbEntity
  8
0
100
AcDbLine
 62
7
  6
CONTINUOUS
 10
263.5914540357
 20
228.0189073993
 11
263.5914540357
 21
225.0177112679
  0
LINE
  5
2F7
100
AcDbEntity
  8
0
100
AcDbLine
 62
7
  6
CONTINUOUS
 10
263.5914540357
 20
224.0566448685
 11
263.5914540357
 21
221.1098717661
  0
LINE
  5
2F8
100
AcDbEntity
  8
0
100
AcDbLine
 62
7
  6
CONTINUOUS
 10
263.7273381155
 20
108.0271283435
 11
263.7273381155
 21
105.0380561759
  0
LINE
  5
2F9
100
AcDbEntity
  8
0
100
AcDbLine
 62
7
  6
CONTINUOUS
 10
263.7273381155
 20
104.0769897764
 11
263.7273381155
 21
101.1678621047
  0
LINE
  5
2FA
100
AcDbEntity
  8
0
100
AcDbLine
 62
7
  6
CONTINUOUS
 10
268.5549145724
 20
393.5623632385
 11
268.5549145724
 21
380.5623632385
  0
LINE
  5
2FB
100
AcDbEntity
  8
0
100
AcDbLine
 62
7
  6
CONTINUOUS
 10
268.5549145724
 20
55.5623632385
 11
268.5549145724
 21
68.5623632385
  0
LINE
  5
2FC
100
AcDbEntity
  8
0
100
AcDbLine
 62
7
  6
CONTINUOUS
 10
270.332884807
 20
95.5623632377
 11
270.332884807
 21
353.562363239
  0
LINE
  5
2FD
100
AcDbEntity
  8
0
100
AcDbLine
 62
7
  6
CONTINUOUS
 10
270.7640249108
 20
95.5623632387
 11
270.7640249108
 21
353.5623632384
  0
LINE
  5
2FE
100
AcDbEntity
  8
0
100
AcDbLine
 62
7
  6
CONTINUOUS
 10
270.7832254822
 20
95.5623632388
 11
270.7832254822
 21
353.5623632383
  0
LINE
  5
2FF
100
AcDbEntity
  8
0
100
AcDbLine
 62
7
  6
CONTINUOUS
 10
271.3049145724
 20
385.7623632385
 11
271.3049145724
 21
381.6519727332
  0
LINE
  5
300
100
AcDbEntity
  8
0
100
AcDbLine
 62
7
  6
CONTINUOUS
 10
271.3049145724
 20
56.7623632385
 11
271.3049145724
 21
62.7623632385
  0
LINE
  5
301
100
AcDbEntity
  8
0
100
AcDbLine
 62
7
  6
CONTINUOUS
 10
272.54618704
 20
99.3123632385
 11
272.54618704
 21
109.8123632385
  0
LINE
  5
302
100
AcDbEntity
  8
0
100
AcDbLine
 62
7
  6
CONTINUOUS
 10
272.54618704
 20
219.3123632385
 11
272.54618704
 21
229.8123632385
  0
LINE
  5
303
100
AcDbEntity
  8
0
100
AcDbLine
 62
7
  6
CONTINUOUS
 10
272.54618704
 20
339.3123632385
 11
272.54618704
 21
349.8123632385
  0
LINE
  5
304
100
AcDbEntity
  8
0
100
AcDbLine
 62
7
  6
CONTINUOUS
 10
272.5549145724
 20
95.5623632385
 11
272.5549145724
 21
99.3123632385
  0
LINE
  5
305
100
AcDbEntity
  8
0
100
AcDbLine
 62
7
  6
CONTINUOUS
 10
272.5549145724
 20
109.8123632385
 11
272.5549145724
 21
219.3123632385
  0
LINE
  5
306
100
AcDbEntity
  8
0
100
AcDbLine
 62
7
  6
CONTINUOUS
 10
272.5549145724
 20
229.8123632385
 11
272.5549145724
 21
339.3123632385
  0
LINE
  5
307
100
AcDbEntity
  8
0
100
AcDbLine
 62
7
  6
CONTINUOUS
 10
272.5549145724
 20
349.8123632385
 11
272.5549145724
 21
353.5623632385
  0
LINE
  5
308
100
AcDbEntity
  8
0
100
AcDbLine
 62
7
  6
CONTINUOUS
 10
238.1706218895
 20
331.0240705556
 11
164.9352072553
 21
331.0240705556
  0
LINE
  5
309
100
AcDbEntity
  8
0
100
AcDbLine
 62
7
  6
CONTINUOUS
 10
238.1706218895
 20
292.4006559214
 11
223.832914808
 21
301.9623632385
  0
LINE
  5
30A
100
AcDbEntity
  8
0
100
AcDbLine
 62
7
  6
CONTINUOUS
 10
276.8049145724
 20
56.7623632385
 11
276.8049145724
 21
62.7623632385
  0
LINE
  5
30B
100
AcDbEntity
  8
0
100
AcDbLine
 62
7
  6
CONTINUOUS
 10
276.8049145724
 20
381.6519727332
 11
276.8049145724
 21
385.7623632385
  0
LINE
  5
30C
100
AcDbEntity
  8
0
100
AcDbLine
 62
7
  6
CONTINUOUS
 10
277.0626401835
 20
100.3409694016
 11
277.0626401835
 21
103.8161860292
  0
LINE
  5
30D
100
AcDbEntity
  8
0
100
AcDbLine
 62
7
  6
CONTINUOUS
 10
277.0626401835
 20
104.9037396734
 11
277.0626401835
 21
108.7837570754
  0
LINE
  5
30E
100
AcDbEntity
  8
0
100
AcDbLine
 62
7
  6
CONTINUOUS
 10
277.0626401835
 20
220.3409694016
 11
277.0626401835
 21
223.5784641483
  0
LINE
  5
30F
100
AcDbEntity
  8
0
100
AcDbLine
 62
7
  6
CONTINUOUS
 10
277.0626401835
 20
224.940428488
 11
277.0626401835
 21
228.7837570754
  0
LINE
  5
310
100
AcDbEntity
  8
0
100
AcDbLine
 62
7
  6
CONTINUOUS
 10
277.0626401835
 20
340.3409694016
 11
277.0626401835
 21
343.573139569
  0
LINE
  5
311
100
AcDbEntity
  8
0
100
AcDbLine
 62
7
  6
CONTINUOUS
 10
277.0626401835
 20
345.5226737655
 11
277.0626401835
 21
348.7837570754
  0
LINE
  5
312
100
AcDbEntity
  8
0
100
AcDbLine
 62
7
  6
CONTINUOUS
 10
278.4167722719
 20
108.7240577619
 11
278.4167722719
 21
104.9037396734
  0
LINE
  5
313
100
AcDbEntity
  8
0
100
AcDbLine
 62
7
  6
CONTINUOUS
 10
278.4167722719
 20
103.8161860292
 11
278.4167722719
 21
100.4006687151
  0
LINE
  5
314
100
AcDbEntity
  8
0
100
AcDbLine
 62
7
  6
CONTINUOUS
 10
278.6199596143
 20
348.6767500772
 11
278.6199596143
 21
345.5226737655
  0
LINE
  5
315
100
AcDbEntity
  8
0
100
AcDbLine
 62
7
  6
CONTINUOUS
 10
278.6199596143
 20
343.573139569
 11
278.6199596143
 21
340.4479763998
  0
LINE
  5
316
100
AcDbEntity
  8
0
100
AcDbLine
 62
7
  6
CONTINUOUS
 10
278.718565683
 20
228.6499561846
 11
278.718565683
 21
224.940428488
  0
LINE
  5
317
100
AcDbEntity
  8
0
100
AcDbLine
 62
7
  6
CONTINUOUS
 10
278.718565683
 20
223.5784641483
 11
278.718565683
 21
220.4747702924
  0
LINE
  5
318
100
AcDbEntity
  8
0
100
AcDbLine
 62
7
  6
CONTINUOUS
 10
283.5549145724
 20
59.7623632385
 11
283.5549145724
 21
389.3623632385
  0
LINE
  5
319
100
AcDbEntity
  8
0
100
AcDbLine
 62
7
  6
CONTINUOUS
 10
39.5549145724
 20
339.3123632385
 11
44.5636421049
 21
339.3123632385
  0
LINE
  5
31A
100
AcDbEntity
  8
0
100
AcDbLine
 62
7
  6
CONTINUOUS
 10
272.5461870399
 20
339.3123632385
 11
277.5549145724
 21
339.3123632385
  0
LINE
  5
31B
100
AcDbEntity
  8
0
100
AcDbLine
 62
7
  6
CONTINUOUS
 10
273.4216426806
 20
343.573139569
 11
281.6881864642
 21
343.573139569
  0
LINE
  5
31C
100
AcDbEntity
  8
0
100
AcDbLine
 62
7
  6
CONTINUOUS
 10
43.7303136198
 20
343.7695563296
 11
35.379515525
 21
343.7695563296
  0
LINE
  5
31D
100
AcDbEntity
  8
0
100
AcDbLine
 62
7
  6
CONTINUOUS
 10
259.5822618046
 20
344.1024881175
 11
262.4142532093
 21
344.1024881175
  0
LINE
  5
31E
100
AcDbEntity
  8
0
100
AcDbLine
 62
7
  6
CONTINUOUS
 10
263.3221816748
 20
344.1024881175
 11
266.4758233389
 21
344.1024881175
  0
LINE
  5
31F
100
AcDbEntity
  8
0
100
AcDbLine
 62
7
  6
CONTINUOUS
 10
57.3707827069
 20
344.1201031487
 11
54.5245491708
 21
344.1201031487
  0
LINE
  5
320
100
AcDbEntity
  8
0
100
AcDbLine
 62
7
  6
CONTINUOUS
 10
53.55632445
 20
344.1201031487
 11
50.4710991326
 21
344.1201031487
  0
LINE
  5
321
100
AcDbEntity
  8
0
100
AcDbLine
 62
7
  6
CONTINUOUS
 10
57.403090598
 20
345.063554517
 11
54.5245491708
 21
345.063554517
  0
LINE
  5
322
100
AcDbEntity
  8
0
100
AcDbLine
 62
7
  6
CONTINUOUS
 10
53.55632445
 20
345.063554517
 11
50.4387912415
 21
345.063554517
  0
LINE
  5
323
100
AcDbEntity
  8
0
100
AcDbLine
 62
7
  6
CONTINUOUS
 10
259.5468928934
 20
345.063554517
 11
262.4142532093
 21
345.063554517
  0
LINE
  5
324
100
AcDbEntity
  8
0
100
AcDbLine
 62
7
  6
CONTINUOUS
 10
263.3221816748
 20
345.063554517
 11
266.51119225
 21
345.063554517
  0
LINE
  5
325
100
AcDbEntity
  8
0
100
AcDbLine
 62
7
  6
CONTINUOUS
 10
43.6949995585
 20
345.5226737655
 11
35.4148295864
 21
345.5226737655
  0
LINE
  5
326
100
AcDbEntity
  8
0
100
AcDbLine
 62
7
  6
CONTINUOUS
 10
273.4148295864
 20
345.5226737655
 11
281.6949995585
 21
345.5226737655
  0
LINE
  5
327
100
AcDbEntity
  8
0
100
AcDbLine
 62
7
  6
CONTINUOUS
 10
277.5549145724
 20
349.8123632385
 11
272.5461870399
 21
349.8123632385
  0
LINE
  5
328
100
AcDbEntity
  8
0
100
AcDbLine
 62
7
  6
CONTINUOUS
 10
44.5636421049
 20
349.8123632385
 11
39.5549145724
 21
349.8123632385
  0
LINE
  5
329
100
AcDbEntity
  8
0
100
AcDbLine
 62
7
  6
CONTINUOUS
 10
44.5549145724
 20
353.5623632385
 11
46.3266036626
 21
353.5623632385
  0
LINE
  5
32A
100
AcDbEntity
  8
0
100
AcDbLine
 62
7
  6
CONTINUOUS
 10
46.3458042341
 20
353.5623632383
 11
46.7769443378
 21
353.5623632386
  0
LINE
  5
32B
100
AcDbEntity
  8
0
100
AcDbLine
 62
7
  6
CONTINUOUS
 10
270.7832254822
 20
353.5623632385
 11
272.5549145724
 21
353.5623632385
  0
LINE
  5
32C
100
AcDbEntity
  8
0
100
AcDbLine
 62
7
  6
CONTINUOUS
 10
270.3328848071
 20
353.5623632387
 11
270.7640249108
 21
353.5623632384
  0
LINE
  5
32D
100
AcDbEntity
  8
0
100
AcDbLine
 62
7
  6
CONTINUOUS
 10
242.5529145724
 20
364.1403632385
 11
160.5529145724
 21
364.1403632385
  0
LINE
  5
32E
100
AcDbEntity
  8
0
100
AcDbLine
 62
7
  6
CONTINUOUS
 10
242.5529145724
 20
366.3403632385
 11
160.5529145724
 21
366.3403632385
  0
LINE
  5
32F
100
AcDbEntity
  8
0
100
AcDbLine
 62
7
  6
CONTINUOUS
 10
162.0808147231
 20
373.0742282552
 11
159.1421120899
 21
373.0742282552
  0
LINE
  5
330
100
AcDbEntity
  8
0
100
AcDbLine
 62
7
  6
CONTINUOUS
 10
157.8701154359
 20
373.0742282552
 11
155.1306911604
 21
373.0742282552
  0
LINE
  5
331
100
AcDbEntity
  8
0
100
AcDbLine
 62
7
  6
CONTINUOUS
 10
155.1482877417
 20
374.0352946546
 11
157.8701154359
 21
374.0352946546
  0
LINE
  5
332
100
AcDbEntity
  8
0
100
AcDbLine
 62
7
  6
CONTINUOUS
 10
159.1421120899
 20
374.0352946546
 11
162.0632181419
 21
374.0352946546
  0
LINE
  5
333
100
AcDbEntity
  8
0
100
AcDbLine
 62
7
  6
CONTINUOUS
 10
282.5549145724
 20
379.5623632385
 11
269.5549145724
 21
379.5623632385
  0
LINE
  5
334
100
AcDbEntity
  8
0
100
AcDbLine
 62
7
  6
CONTINUOUS
 10
34.5549145724
 20
379.5623632385
 11
47.5549145724
 21
379.5623632385
  0
LINE
  5
335
100
AcDbEntity
  8
0
100
AcDbLine
 62
7
  6
CONTINUOUS
 10
242.5549145732
 20
381.3403334731
 11
74.5549145719
 21
381.3403334731
  0
LINE
  5
336
100
AcDbEntity
  8
0
100
AcDbLine
 62
7
  6
CONTINUOUS
 10
242.5549145723
 20
381.7714735769
 11
74.5549145726
 21
381.7714735769
  0
LINE
  5
337
100
AcDbEntity
  8
0
100
AcDbLine
 62
7
  6
CONTINUOUS
 10
242.5549145721
 20
381.7906741483
 11
74.5549145727
 21
381.7906741483
  0
LINE
  5
338
100
AcDbEntity
  8
0
100
AcDbLine
 62
7
  6
CONTINUOUS
 10
163.8049145724
 20
383.5536360753
 11
156.9541335345
 21
383.5536375522
  0
LINE
  5
339
100
AcDbEntity
  8
0
100
AcDbLine
 62
7
  6
CONTINUOUS
 10
242.5549145725
 20
383.5623632385
 11
163.8049145724
 21
383.5623632385
  0
LINE
  5
33A
100
AcDbEntity
  8
0
100
AcDbLine
 62
7
  6
CONTINUOUS
 10
153.3049145724
 20
383.5623632385
 11
74.5549145724
 21
383.5623632385
  0
LINE
  5
33B
100
AcDbEntity
  8
0
100
AcDbLine
 62
7
  6
CONTINUOUS
 10
162.7038551743
 20
387.6410642198
 11
154.4059739705
 21
387.6410642198
  0
LINE
  5
33C
100
AcDbEntity
  8
0
100
AcDbLine
 62
7
  6
CONTINUOUS
 10
154.3871120194
 20
389.3941816558
 11
162.7227171254
 21
389.3941816558
  0
LINE
  5
33D
100
AcDbEntity
  8
0
100
AcDbLine
 62
7
  6
CONTINUOUS
 10
280.5549145724
 20
392.3623632385
 11
268.5549145724
 21
392.3623632385
  0
LINE
  5
33E
100
AcDbEntity
  8
0
100
AcDbLine
 62
7
  6
CONTINUOUS
 10
48.5549145724
 20
392.3623632385
 11
36.5549145724
 21
392.3623632385
  0
LINE
  5
33F
100
AcDbEntity
  8
0
100
AcDbLine
 62
7
  6
CONTINUOUS
 10
267.5549145724
 20
394.5623632385
 11
49.5549145724
 21
394.5623632385
  0
LINE
  5
340
100
AcDbEntity
  8
0
100
AcDbLine
 62
7
  6
CONTINUOUS
 10
153.3049145724
 20
383.5623632385
 11
156.9541335345
 21
383.5580002845
  0
ARC
  5
341
100
AcDbEntity
  8
0
100
AcDbCircle
 62
7
  6
CONTINUOUS
 10
36.5549145724
 20
59.7623632385
 40
3.0
100
AcDbArc
 50
180.0
 51
270.0
  0
ARC
  5
342
100
AcDbEntity
  8
0
100
AcDbCircle
 62
7
  6
CONTINUOUS
 10
43.0549145724
 20
62.7623632385
 40
2.75
100
AcDbArc
 50
0.0
 51
180.0
  0
ARC
  5
343
100
AcDbEntity
  8
0
100
AcDbCircle
 62
7
  6
CONTINUOUS
 10
49.5549145724
 20
55.5623632385
 40
1.0
100
AcDbArc
 50
180.0
 51
270.0
  0
ARC
  5
344
100
AcDbEntity
  8
0
100
AcDbCircle
 62
7
  6
CONTINUOUS
 10
47.5549145724
 20
68.5623632385
 40
1.0
100
AcDbArc
 50
0.0
 51
90.0
  0
ARC
  5
345
100
AcDbEntity
  8
0
100
AcDbCircle
 62
7
  6
CONTINUOUS
 10
34.5549145724
 20
70.5623632385
 40
1.0
100
AcDbArc
 50
180.0
 51
270.0
  0
ARC
  5
346
100
AcDbEntity
  8
0
100
AcDbCircle
 62
7
  6
CONTINUOUS
 10
39.5549145724
 20
104.5623632385
 40
5.25
100
AcDbArc
 50
90.0
 51
270.0
  0
CIRCLE
  5
347
100
AcDbEntity
  8
0
100
AcDbCircle
 62
7
  6
CONTINUOUS
 10
54.0549145724
 20
104.5623632385
 40
4.5
  0
CIRCLE
  5
348
100
AcDbEntity
  8
0
100
AcDbCircle
 62
7
  6
CONTINUOUS
 10
39.5549145724
 20
104.5623632385
 40
4.25
  0
CIRCLE
  5
349
100
AcDbEntity
  8
0
100
AcDbCircle
 62
7
  6
CONTINUOUS
 10
53.9209409197
 20
104.5974952241
 40
3.5
  0
ARC
  5
34A
100
AcDbEntity
  8
0
100
AcDbCircle
 62
7
  6
CONTINUOUS
 10
74.5549145724
 20
95.5623632385
 40
30.0
100
AcDbArc
 50
180.0
 51
270.0
  0
ARC
  5
34B
100
AcDbEntity
  8
0
100
AcDbCircle
 62
7
  6
CONTINUOUS
 10
74.5549145724
 20
95.5623632385
 40
28.2283109098
100
AcDbArc
 50
179.9999999998
 51
270.0000000002
  0
ARC
  5
34C
100
AcDbEntity
  8
0
100
AcDbCircle
 62
7
  6
CONTINUOUS
 10
74.5549145724
 20
95.5623632385
 40
28.2091103384
100
AcDbArc
 50
179.9999999984
 51
270.0000000017
  0
ARC
  5
34D
100
AcDbEntity
  8
0
100
AcDbCircle
 62
7
  6
CONTINUOUS
 10
74.5549145724
 20
95.5623632385
 40
27.7779702346
100
AcDbArc
 50
180.000000001
 51
269.9999999983
  0
ARC
  5
34E
100
AcDbEntity
  8
0
100
AcDbCircle
 62
7
  6
CONTINUOUS
 10
74.5569443378
 20
95.5643632385
 40
12.78
100
AcDbArc
 50
180.0000006701
 51
269.9999993275
  0
ARC
  5
34F
100
AcDbEntity
  8
0
100
AcDbCircle
 62
7
  6
CONTINUOUS
 10
74.5569443378
 20
95.5643632385
 40
7.78
100
AcDbArc
 50
180.0000009007
 51
269.9999994289
  0
ARC
  5
350
100
AcDbEntity
  8
0
100
AcDbCircle
 62
7
  6
CONTINUOUS
 10
74.5569443378
 20
95.5643632385
 40
6.78
100
AcDbArc
 50
180.0
 51
270.0
  0
ARC
  5
351
100
AcDbEntity
  8
0
100
AcDbCircle
 62
7
  6
CONTINUOUS
 10
74.5769443378
 20
95.5843632975
 40
6.3
100
AcDbArc
 50
180.0
 51
270.0
  0
ARC
  5
352
100
AcDbEntity
  8
0
100
AcDbCircle
 62
7
  6
CONTINUOUS
 10
74.5569443378
 20
183.2843632385
 40
12.78
100
AcDbArc
 50
90.0000006693
 51
179.9999993299
  0
ARC
  5
353
100
AcDbEntity
  8
0
100
AcDbCircle
 62
7
  6
CONTINUOUS
 10
74.5569443378
 20
183.2843632385
 40
7.78
100
AcDbArc
 50
90.0000006612
 51
179.9999994255
  0
ARC
  5
354
100
AcDbEntity
  8
0
100
AcDbCircle
 62
7
  6
CONTINUOUS
 10
68.7769443378
 20
119.7843632975
 40
1.0
100
AcDbArc
 50
90.0
 51
180.0
  0
ARC
  5
355
100
AcDbEntity
  8
0
100
AcDbCircle
 62
7
  6
CONTINUOUS
 10
139.5549145724
 20
74.2522972528
 40
19.0754
100
AcDbArc
 50
232.5774506813
 51
299.921574717
  0
ARC
  5
356
100
AcDbEntity
  8
0
100
AcDbCircle
 62
7
  6
CONTINUOUS
 10
116.5549145724
 20
74.2522972528
 40
19.0754
100
AcDbArc
 50
211.4755724646
 51
328.5244275354
  0
ARC
  5
357
100
AcDbEntity
  8
0
100
AcDbCircle
 62
7
  6
CONTINUOUS
 10
121.9969443378
 20
95.5643632385
 40
12.78
100
AcDbArc
 50
270.0000006725
 51
359.9999993307
  0
ARC
  5
358
100
AcDbEntity
  8
0
100
AcDbCircle
 62
7
  6
CONTINUOUS
 10
121.9969443378
 20
95.5643632385
 40
7.78
100
AcDbArc
 50
270.0000008989
 51
359.9999994255
  0
ARC
  5
359
100
AcDbEntity
  8
0
100
AcDbCircle
 62
7
  6
CONTINUOUS
 10
121.9969443378
 20
95.5643632385
 40
6.78
100
AcDbArc
 50
270.0
 51
360.0
  0
ARC
  5
35A
100
AcDbEntity
  8
0
100
AcDbCircle
 62
7
  6
CONTINUOUS
 10
121.9769443378
 20
95.5843632975
 40
6.3
100
AcDbArc
 50
270.0
 51
360.0
  0
ARC
  5
35B
100
AcDbEntity
  8
0
100
AcDbCircle
 62
7
  6
CONTINUOUS
 10
121.9969443378
 20
183.2843632385
 40
12.78
100
AcDbArc
 50
0.0000006693
 51
89.9999993307
  0
ARC
  5
35C
100
AcDbEntity
  8
0
100
AcDbCircle
 62
7
  6
CONTINUOUS
 10
121.9969443378
 20
183.2843632385
 40
7.78
100
AcDbArc
 50
0.0000009007
 51
89.9999994255
  0
ARC
  5
35D
100
AcDbEntity
  8
0
100
AcDbCircle
 62
7
  6
CONTINUOUS
 10
127.7769443378
 20
119.7843632975
 40
1.0
100
AcDbArc
 50
0.0
 51
90.0
  0
ARC
  5
35E
100
AcDbEntity
  8
0
100
AcDbCircle
 62
7
  6
CONTINUOUS
 10
39.5549145724
 20
224.5623632385
 40
5.25
100
AcDbArc
 50
90.0
 51
270.0
  0
CIRCLE
  5
35F
100
AcDbEntity
  8
0
100
AcDbCircle
 62
7
  6
CONTINUOUS
 10
54.0549145724
 20
224.5623632385
 40
4.5
  0
CIRCLE
  5
360
100
AcDbEntity
  8
0
100
AcDbCircle
 62
7
  6
CONTINUOUS
 10
39.5549145724
 20
224.5623632385
 40
4.25
  0
CIRCLE
  5
361
100
AcDbEntity
  8
0
100
AcDbCircle
 62
7
  6
CONTINUOUS
 10
53.9209409197
 20
224.5643895827
 40
3.5
  0
ARC
  5
362
100
AcDbEntity
  8
0
100
AcDbCircle
 62
7
  6
CONTINUOUS
 10
43.0549145724
 20
375.7623632385
 40
6.5
100
AcDbArc
 50
39.030155343
 51
64.9710005124
  0
ARC
  5
363
100
AcDbEntity
  8
0
100
AcDbCircle
 62
7
  6
CONTINUOUS
 10
43.0549145724
 20
375.7623632385
 40
6.5
100
AcDbArc
 50
115.0289994876
 51
143.3710815904
  0
ARC
  5
364
100
AcDbEntity
  8
0
100
AcDbCircle
 62
7
  6
CONTINUOUS
 10
39.5549145724
 20
344.5623632385
 40
5.25
100
AcDbArc
 50
90.0
 51
270.0
  0
CIRCLE
  5
365
100
AcDbEntity
  8
0
100
AcDbCircle
 62
7
  6
CONTINUOUS
 10
54.0549145724
 20
344.5623632385
 40
4.5
  0
CIRCLE
  5
366
100
AcDbEntity
  8
0
100
AcDbCircle
 62
7
  6
CONTINUOUS
 10
39.5549145724
 20
344.5623632385
 40
4.25
  0
CIRCLE
  5
367
100
AcDbEntity
  8
0
100
AcDbCircle
 62
7
  6
CONTINUOUS
 10
53.9209409197
 20
344.7105196489
 40
3.5
  0
ARC
  5
368
100
AcDbEntity
  8
0
100
AcDbCircle
 62
7
  6
CONTINUOUS
 10
36.5549145724
 20
389.3623632385
 40
3.0
100
AcDbArc
 50
90.0
 51
180.0
  0
ARC
  5
369
100
AcDbEntity
  8
0
100
AcDbCircle
 62
7
  6
CONTINUOUS
 10
43.0549145724
 20
385.7623632385
 40
2.75
100
AcDbArc
 50
0.0
 51
180.0000000001
  0
ARC
  5
36A
100
AcDbEntity
  8
0
100
AcDbCircle
 62
7
  6
CONTINUOUS
 10
34.5549145724
 20
378.5623632385
 40
1.0
100
AcDbArc
 50
90.0
 51
180.0
  0
ARC
  5
36B
100
AcDbEntity
  8
0
100
AcDbCircle
 62
7
  6
CONTINUOUS
 10
47.5549145724
 20
380.5623632385
 40
1.0
100
AcDbArc
 50
270.0
 51
360.0
  0
ARC
  5
36C
100
AcDbEntity
  8
0
100
AcDbCircle
 62
7
  6
CONTINUOUS
 10
49.5549145724
 20
393.5623632385
 40
1.0
100
AcDbArc
 50
90.0
 51
180.0
  0
CIRCLE
  5
36D
100
AcDbEntity
  8
0
100
AcDbCircle
 62
7
  6
CONTINUOUS
 10
98.2769443378
 20
251.7123632443
 40
11.5
  0
ARC
  5
36E
100
AcDbEntity
  8
0
100
AcDbCircle
 62
7
  6
CONTINUOUS
 10
74.5549145724
 20
353.5623632385
 40
30.0
100
AcDbArc
 50
90.0
 51
180.0
  0
ARC
  5
36F
100
AcDbEntity
  8
0
100
AcDbCircle
 62
7
  6
CONTINUOUS
 10
74.5549145724
 20
353.5623632385
 40
28.2283109098
100
AcDbArc
 50
89.9999999994
 51
180.0000000002
  0
ARC
  5
370
100
AcDbEntity
  8
0
100
AcDbCircle
 62
7
  6
CONTINUOUS
 10
74.5549145724
 20
353.5623632385
 40
28.2091103384
100
AcDbArc
 50
89.9999999984
 51
180.0000000016
  0
ARC
  5
371
100
AcDbEntity
  8
0
100
AcDbCircle
 62
7
  6
CONTINUOUS
 10
74.5549145724
 20
353.5623632385
 40
27.7779702346
100
AcDbArc
 50
90.0000000011
 51
179.9999999983
  0
CIRCLE
  5
372
100
AcDbEntity
  8
0
100
AcDbCircle
 62
7
  6
CONTINUOUS
 10
98.2769443378
 20
311.7123632443
 40
11.5
  0
ARC
  5
373
100
AcDbEntity
  8
0
100
AcDbCircle
 62
7
  6
CONTINUOUS
 10
178.5549145724
 20
74.2522972528
 40
19.0754
100
AcDbArc
 50
238.2031816326
 51
305.5473056683
  0
ARC
  5
374
100
AcDbEntity
  8
0
100
AcDbCircle
 62
7
  6
CONTINUOUS
 10
200.5549145724
 20
74.2522972528
 40
19.0754
100
AcDbArc
 50
211.4755724646
 51
328.5244275354
  0
ARC
  5
375
100
AcDbEntity
  8
0
100
AcDbCircle
 62
7
  6
CONTINUOUS
 10
158.5549145724
 20
74.2522972528
 40
19.0754
100
AcDbArc
 50
211.4755724646
 51
328.5244275354
  0
ARC
  5
376
100
AcDbEntity
  8
0
100
AcDbCircle
 62
7
  6
CONTINUOUS
 10
208.5549145724
 20
70.102056221
 40
13.0486929825
100
AcDbArc
 50
270.0
 51
328.6520932095
  0
CIRCLE
  5
377
100
AcDbEntity
  8
0
100
AcDbCircle
 62
7
  6
CONTINUOUS
 10
158.5549145724
 20
75.5623632385
 40
4.5
  0
CIRCLE
  5
378
100
AcDbEntity
  8
0
100
AcDbCircle
 62
7
  6
CONTINUOUS
 10
158.6057529418
 20
75.6397170586
 40
3.5
  0
ARC
  5
379
100
AcDbEntity
  8
0
100
AcDbCircle
 62
7
  6
CONTINUOUS
 10
160.5529145724
 20
95.5643632385
 40
12.78
100
AcDbArc
 50
180.0
 51
270.0
  0
ARC
  5
37A
100
AcDbEntity
  8
0
100
AcDbCircle
 62
7
  6
CONTINUOUS
 10
160.5529145724
 20
95.5643632385
 40
10.58
100
AcDbArc
 50
180.0
 51
270.0
  0
ARC
  5
37B
100
AcDbEntity
  8
0
100
AcDbCircle
 62
7
  6
CONTINUOUS
 10
280.5549145724
 20
59.7623632385
 40
3.0
100
AcDbArc
 50
270.0
 51
360.0
  0
ARC
  5
37C
100
AcDbEntity
  8
0
100
AcDbCircle
 62
7
  6
CONTINUOUS
 10
274.0549145724
 20
62.7623632385
 40
2.75
100
AcDbArc
 50
0.0
 51
180.0
  0
ARC
  5
37D
100
AcDbEntity
  8
0
100
AcDbCircle
 62
7
  6
CONTINUOUS
 10
267.5549145724
 20
55.5623632385
 40
1.0
100
AcDbArc
 50
270.0
 51
360.0
  0
ARC
  5
37E
100
AcDbEntity
  8
0
100
AcDbCircle
 62
7
  6
CONTINUOUS
 10
282.5549145724
 20
70.5623632385
 40
1.0
100
AcDbArc
 50
270.0
 51
360.0
  0
ARC
  5
37F
100
AcDbEntity
  8
0
100
AcDbCircle
 62
7
  6
CONTINUOUS
 10
269.5549145724
 20
68.5623632385
 40
1.0
100
AcDbArc
 50
90.0
 51
180.0
  0
ARC
  5
380
100
AcDbEntity
  8
0
100
AcDbCircle
 62
7
  6
CONTINUOUS
 10
242.5549145724
 20
95.5623632385
 40
30.0
100
AcDbArc
 50
270.0
 51
360.0
  0
ARC
  5
381
100
AcDbEntity
  8
0
100
AcDbCircle
 62
7
  6
CONTINUOUS
 10
242.5549145724
 20
95.5623632385
 40
28.2283109098
100
AcDbArc
 50
269.9999999998
 51
360.0
  0
ARC
  5
382
100
AcDbEntity
  8
0
100
AcDbCircle
 62
7
  6
CONTINUOUS
 10
242.5549145724
 20
95.5623632385
 40
28.2091103384
100
AcDbArc
 50
269.9999999984
 51
360.0
  0
ARC
  5
383
100
AcDbEntity
  8
0
100
AcDbCircle
 62
7
  6
CONTINUOUS
 10
242.5549145724
 20
95.5623632385
 40
27.7779702346
100
AcDbArc
 50
270.0000000011
 51
359.9999999983
  0
ARC
  5
384
100
AcDbEntity
  8
0
100
AcDbCircle
 62
7
  6
CONTINUOUS
 10
242.5529145724
 20
95.5643632385
 40
12.78
100
AcDbArc
 50
270.0
 51
360.0
  0
ARC
  5
385
100
AcDbEntity
  8
0
100
AcDbCircle
 62
7
  6
CONTINUOUS
 10
242.5529145724
 20
95.5643632385
 40
10.58
100
AcDbArc
 50
270.0
 51
360.0
  0
ARC
  5
386
100
AcDbEntity
  8
0
100
AcDbCircle
 62
7
  6
CONTINUOUS
 10
277.5549145724
 20
104.5623632385
 40
5.25
100
AcDbArc
 50
270.0
 51
90.0
  0
CIRCLE
  5
387
100
AcDbEntity
  8
0
100
AcDbCircle
 62
7
  6
CONTINUOUS
 10
263.0549145724
 20
104.5623632385
 40
4.5
  0
CIRCLE
  5
388
100
AcDbEntity
  8
0
100
AcDbCircle
 62
7
  6
CONTINUOUS
 10
277.5549145724
 20
104.5623632385
 40
4.25
  0
CIRCLE
  5
389
100
AcDbEntity
  8
0
100
AcDbCircle
 62
7
  6
CONTINUOUS
 10
263.0290425717
 20
104.5974952241
 40
3.5
  0
ARC
  5
38A
100
AcDbEntity
  8
0
100
AcDbCircle
 62
7
  6
CONTINUOUS
 10
179.2729145724
 20
305.6823632385
 40
3.72
100
AcDbArc
 50
180.0
 51
269.9999929326
  0
ARC
  5
38B
100
AcDbEntity
  8
0
100
AcDbCircle
 62
7
  6
CONTINUOUS
 10
160.5529145724
 20
353.5603632385
 40
12.78
100
AcDbArc
 50
90.0
 51
180.0
  0
ARC
  5
38C
100
AcDbEntity
  8
0
100
AcDbCircle
 62
7
  6
CONTINUOUS
 10
160.5529145724
 20
353.5603632385
 40
10.58
100
AcDbArc
 50
90.0
 51
180.0
  0
ARC
  5
38D
100
AcDbEntity
  8
0
100
AcDbCircle
 62
7
  6
CONTINUOUS
 10
158.5549145724
 20
388.5623632385
 40
5.25
100
AcDbArc
 50
0.0
 51
180.0
  0
CIRCLE
  5
38E
100
AcDbEntity
  8
0
100
AcDbCircle
 62
7
  6
CONTINUOUS
 10
158.5549145724
 20
373.5623632385
 40
4.5
  0
CIRCLE
  5
38F
100
AcDbEntity
  8
0
100
AcDbCircle
 62
7
  6
CONTINUOUS
 10
158.5549145724
 20
388.5623632385
 40
4.25
  0
ARC
  5
390
100
AcDbEntity
  8
0
100
AcDbCircle
 62
7
  6
CONTINUOUS
 10
179.2729145724
 20
317.7423632385
 40
3.72
100
AcDbArc
 50
90.0000054981
 51
180.0
  0
CIRCLE
  5
391
100
AcDbEntity
  8
0
100
AcDbCircle
 62
7
  6
CONTINUOUS
 10
158.6057529418
 20
373.4912961344
 40
3.5
  0
ARC
  5
392
100
AcDbEntity
  8
0
100
AcDbCircle
 62
7
  6
CONTINUOUS
 10
277.5549145724
 20
224.5623632385
 40
5.25
100
AcDbArc
 50
270.0
 51
90.0
  0
CIRCLE
  5
393
100
AcDbEntity
  8
0
100
AcDbCircle
 62
7
  6
CONTINUOUS
 10
263.0549145724
 20
224.5623632385
 40
4.5
  0
CIRCLE
  5
394
100
AcDbEntity
  8
0
100
AcDbCircle
 62
7
  6
CONTINUOUS
 10
277.5549145724
 20
224.5623632385
 40
4.25
  0
ARC
  5
395
100
AcDbEntity
  8
0
100
AcDbCircle
 62
7
  6
CONTINUOUS
 10
223.8329145724
 20
305.6823632385
 40
3.72
100
AcDbArc
 50
270.0000054981
 51
359.9999930534
  0
CIRCLE
  5
396
100
AcDbEntity
  8
0
100
AcDbCircle
 62
7
  6
CONTINUOUS
 10
263.0290425717
 20
224.5643895827
 40
3.5
  0
ARC
  5
397
100
AcDbEntity
  8
0
100
AcDbCircle
 62
7
  6
CONTINUOUS
 10
242.5549145724
 20
353.5623632385
 40
30.0
100
AcDbArc
 50
0.0
 51
90.0
  0
ARC
  5
398
100
AcDbEntity
  8
0
100
AcDbCircle
 62
7
  6
CONTINUOUS
 10
242.5549145724
 20
353.5623632385
 40
28.2283109098
100
AcDbArc
 50
0.0
 51
90.0000000006
  0
ARC
  5
399
100
AcDbEntity
  8
0
100
AcDbCircle
 62
7
  6
CONTINUOUS
 10
242.5549145724
 20
353.5623632385
 40
28.2091103384
100
AcDbArc
 50
0.0
 51
90.0000000017
  0
ARC
  5
39A
100
AcDbEntity
  8
0
100
AcDbCircle
 62
7
  6
CONTINUOUS
 10
242.5549145724
 20
353.5623632385
 40
27.7779702346
100
AcDbArc
 50
0.000000001
 51
89.9999999983
  0
ARC
  5
39B
100
AcDbEntity
  8
0
100
AcDbCircle
 62
7
  6
CONTINUOUS
 10
242.5529145724
 20
353.5603632385
 40
12.78
100
AcDbArc
 50
0.0
 51
90.0
  0
ARC
  5
39C
100
AcDbEntity
  8
0
100
AcDbCircle
 62
7
  6
CONTINUOUS
 10
242.5529145724
 20
353.5603632385
 40
10.58
100
AcDbArc
 50
0.0
 51
90.0
  0
ARC
  5
39D
100
AcDbEntity
  8
0
100
AcDbCircle
 62
7
  6
CONTINUOUS
 10
223.8329145724
 20
317.7423632385
 40
3.72
100
AcDbArc
 50
0.0000054263
 51
89.9999929326
  0
ARC
  5
39E
100
AcDbEntity
  8
0
100
AcDbCircle
 62
7
  6
CONTINUOUS
 10
277.5549145724
 20
344.5623632385
 40
5.25
100
AcDbArc
 50
270.0
 51
90.0
  0
CIRCLE
  5
39F
100
AcDbEntity
  8
0
100
AcDbCircle
 62
7
  6
CONTINUOUS
 10
263.0549145724
 20
344.5623632385
 40
4.5
  0
CIRCLE
  5
3A0
100
AcDbEntity
  8
0
100
AcDbCircle
 62
7
  6
CONTINUOUS
 10
277.5549145724
 20
344.5623632385
 40
4.25
  0
CIRCLE
  5
3A1
100
AcDbEntity
  8
0
100
AcDbCircle
 62
7
  6
CONTINUOUS
 10
263.0290425717
 20
344.7105196489
 40
3.5
  0
ARC
  5
3A2
100
AcDbEntity
  8
0
100
AcDbCircle
 62
7
  6
CONTINUOUS
 10
274.0549145724
 20
375.7623632385
 40
6.5
100
AcDbArc
 50
36.6289184097
 51
64.9710005124
  0
ARC
  5
3A3
100
AcDbEntity
  8
0
100
AcDbCircle
 62
7
  6
CONTINUOUS
 10
274.0549145724
 20
375.7623632385
 40
6.5
100
AcDbArc
 50
115.0289994876
 51
140.969844657
  0
ARC
  5
3A4
100
AcDbEntity
  8
0
100
AcDbCircle
 62
7
  6
CONTINUOUS
 10
280.5549145724
 20
389.3623632385
 40
3.0
100
AcDbArc
 50
0.0
 51
90.0
  0
ARC
  5
3A5
100
AcDbEntity
  8
0
100
AcDbCircle
 62
7
  6
CONTINUOUS
 10
274.0549145724
 20
385.7623632385
 40
2.75
100
AcDbArc
 50
0.0
 51
180.0000000001
  0
ARC
  5
3A6
100
AcDbEntity
  8
0
100
AcDbCircle
 62
7
  6
CONTINUOUS
 10
267.5549145724
 20
393.5623632385
 40
1.0
100
AcDbArc
 50
0.0
 51
90.0
  0
ARC
  5
3A7
100
AcDbEntity
  8
0
100
AcDbCircle
 62
7
  6
CONTINUOUS
 10
269.5549145724
 20
380.5623632385
 40
1.0
100
AcDbArc
 50
180.0
 51
270.0
  0
ARC
  5
3A8
100
AcDbEntity
  8
0
100
AcDbCircle
 62
7
  6
CONTINUOUS
 10
282.5549145724
 20
378.5623632385
 40
1.0
100
AcDbArc
 50
0.0
 51
90.0
  0
SPLINE
  5
3A9
100
AcDbEntity
  8
0
100
AcDbSpline
 62
7
  6
CONTINUOUS
 70
0
 71
3
 72
11
 73
7
 74
0
 42
0.0000001
 43
0.0000001
 44
0.0000000001
 40
0.0
 40
0.0
 40
0.0
 40
0.0
 40
0.4278249135
 40
0.7358781552
 40
0.9245605306
 40
1.0
 40
1.0
 40
1.0
 40
1.0
 10
230.8673492798
 20
65.7992875132
 30
0.0
 10
230.8946643133
 20
65.8017196595
 30
0.0
 10
230.940689807
 20
65.8062398569
 30
0.0
 10
231.002280608
 20
65.8143854048
 30
0.0
 10
231.0332057748
 20
65.8212484719
 30
0.0
 10
231.0549145724
 20
65.8280934854
 30
0.0
 10
231.0549145724
 20
65.8329290712
 30
0.0
  0
SPLINE
  5
3AA
100
AcDbEntity
  8
0
100
AcDbSpline
 62
7
  6
CONTINUOUS
 70
0
 71
3
 72
11
 73
7
 74
0
 42
0.0000001
 43
0.0000001
 44
0.0000000001
 40
0.0
 40
0.0
 40
0.0
 40
0.0
 40
0.075429405
 40
0.2641093647
 40
0.5721667502
 40
1.0
 40
1.0
 40
1.0
 40
1.0
 10
86.0549145724
 20
65.8329290741
 30
0.0
 10
86.0549128186
 20
65.8280935799
 30
0.0
 10
86.0766257342
 20
65.8212466124
 30
0.0
 10
86.1075515936
 20
65.8143847476
 30
0.0
 10
86.1691516206
 20
65.8062379192
 30
0.0
 10
86.2151827318
 20
65.8017177417
 30
0.0
 10
86.2425014429
 20
65.7992854514
 30
0.0
  0
SPLINE
  5
3AB
100
AcDbEntity
  8
0
100
AcDbSpline
 62
7
  6
CONTINUOUS
 70
0
 71
3
 72
11
 73
7
 74
0
 42
0.0000001
 43
0.0000001
 44
0.0000000001
 40
0.0
 40
0.0
 40
0.0
 40
0.0
 40
0.2500128404
 40
0.5000029485
 40
0.7499980984
 40
1.0
 40
1.0
 40
1.0
 40
1.0
 10
164.9456490921
 20
331.0240705556
 30
0.0
 10
164.0594224223
 20
331.0226303504
 30
0.0
 10
162.2704381542
 20
330.6632948235
 30
0.0
 10
159.9967326381
 20
329.1588933683
 30
0.0
 10
158.4899267846
 20
326.8867274328
 30
0.0
 10
158.1296675785
 20
325.0977108937
 30
0.0
 10
158.1282804261
 20
324.2115229141
 30
0.0
  0
SPLINE
  5
3AC
100
AcDbEntity
  8
0
100
AcDbSpline
 62
7
  6
CONTINUOUS
 70
0
 71
3
 72
11
 73
7
 74
0
 42
0.0000001
 43
0.0000001
 44
0.0000000001
 40
0.0
 40
0.0
 40
0.0
 40
0.0
 40
0.2500021047
 40
0.4999973944
 40
0.7499872331
 40
1.0
 40
1.0
 40
1.0
 40
1.0
 10
158.1282804261
 20
299.2132031867
 30
0.0
 10
158.1296838486
 20
298.3270145883
 30
0.0
 10
158.489917743
 20
296.5379986725
 30
0.0
 10
159.996735495
 20
294.2658238026
 30
0.0
 10
162.2704417864
 20
292.7614629676
 30
0.0
 10
164.0594232247
 20
292.4020431427
 30
0.0
 10
164.9456496435
 20
292.4006559214
 30
0.0
  0
SPLINE
  5
3AD
100
AcDbEntity
  8
0
100
AcDbSpline
 62
7
  6
CONTINUOUS
 70
0
 71
3
 72
11
 73
7
 74
0
 42
0.0000001
 43
0.0000001
 44
0.0000000001
 40
0.0
 40
0.0
 40
0.0
 40
0.0
 40
0.2500128362
 40
0.5000029405
 40
0.7499980918
 40
1.0
 40
1.0
 40
1.0
 40
1.0
 10
238.1601848182
 20
292.4006559214
 30
0.0
 10
239.0464118937
 20
292.4020961032
 30
0.0
 10
240.8353968137
 20
292.7614340357
 30
0.0
 10
243.1091017425
 20
294.2658382663
 30
0.0
 10
244.615906013
 20
296.5380073915
 30
0.0
 10
244.9761615576
 20
298.3270252129
 30
0.0
 10
244.9775487188
 20
299.2132136365
 30
0.0
  0
SPLINE
  5
3AE
100
AcDbEntity
  8
0
100
AcDbSpline
 62
7
  6
CONTINUOUS
 70
0
 71
3
 72
11
 73
7
 74
0
 42
0.0000001
 43
0.0000001
 44
0.0000000001
 40
0.0
 40
0.0
 40
0.0
 40
0.0
 40
0.2500021112
 40
0.4999974025
 40
0.7499872374
 40
1.0
 40
1.0
 40
1.0
 40
1.0
 10
244.9775487188
 20
324.2115131534
 30
0.0
 10
244.9761452662
 20
325.0977021962
 30
0.0
 10
244.6159150931
 20
326.8867194001
 30
0.0
 10
243.109098925
 20
329.1588974711
 30
0.0
 10
240.8353932398
 20
330.6632611177
 30
0.0
 10
239.046411149
 20
331.0226833338
 30
0.0
 10
238.1601843244
 20
331.0240705556
 30
0.0
  0
ENDSEC
  0
SECTION
  2
OBJECTS
  0
DICTIONARY
  5
C
100
AcDbDictionary
280
0
281
1
  3
ACAD_GROUP
350
D
  3
ACAD_MLINESTYLE
350
17
  3
ACAD_LAYOUT
350
1A
  3
ACAD_PLOTSETTINGS
350
19
  3
ACAD_PLOTSTYLENAME
350
E
  0
DICTIONARY
  5
D
102
{ACAD_REACTORS
330
C
102
}
100
AcDbDictionary
280
0
281
1
  0
ACDBDICTIONARYWDFLT
  5
E
102
{ACAD_REACTORS
330
C
102
}
100
AcDbDictionary
281
1
  3
Normal
350
F
100
AcDbDictionaryWithDefault
340
F
  0
DICTIONARY
  5
17
102
{ACAD_REACTORS
330
C
102
}
100
AcDbDictionary
280
0
281
1
  3
Standard
350
18
  0
DICTIONARY
  5
19
102
{ACAD_REACTORS
330
C
102
}
100
AcDbDictionary
281
1
  0
DICTIONARY
  5
1A
102
{ACAD_REACTORS
330
C
102
}
100
AcDbDictionary
281
1
  3
Model
350
3AF
  3
Layout1
350
3B0
  0
ACDBPLACEHOLDER
  5
F
102
{ACAD_REACTORS
330
E
102
}
  0
MLINESTYLE
  5
18
102
{ACAD_REACTORS
330
17
102
}
100
AcDbMlineStyle
  2
STANDARD
 70
0
  3

 62
256
 51
90.0
 52
90.0
 71
2
 49
0.5
 62
256
  6
BYLAYER
 49
-0.5
 62
256
  6
BYLAYER
  0
LAYOUT
  5
3AF
102
{ACAD_REACTORS
330
1A
102
}
100
AcDbPlotSettings
  1

  2
none_device
  4

  6

 40
0.0
 41
0.0
 42
0.0
 43
0.0
 44
210.0
 45
297.0
 46
0.0
 47
0.0
 48
0.0
 49
0.0
140
0.0
141
0.0
142
1.0
143
1.0
 70
1024
 72
1
 73
0
 74
0
  7

 75
0
147
1.0
148
0.0
149
0.0
100
AcDbLayout
  1
Model
 70
0
 71
0
 10
0.0
 20
0.0
 11
210.0
 21
297.0
 12
0.0
 22
0.0
 32
0.0
 14
0.0
 24
0.0
 34
0.0
 15
0.0
 25
0.0
 35
0.0
146
0.0
 13
0.0
 23
0.0
 33
0.0
 16
1.0
 26
0.0
 36
0.0
 17
0.0
 27
1.0
 37
0.0
 76
0
330
210
345
0
346
0
  0
LAYOUT
  5
3B0
102
{ACAD_REACTORS
330
1A
102
}
100
AcDbPlotSettings
  1

  2
none_device
  4

  6

 40
0.0
 41
0.0
 42
0.0
 43
0.0
 44
210.0
 45
297.0
 46
0.0
 47
0.0
 48
0.0
 49
0.0
140
0.0
141
0.0
142
1.0
143
1.0
 70
0
 72
1
 73
0
 74
0
  7

 75
0
147
1.0
148
0.0
149
0.0
100
AcDbLayout
  1
Layout1
 70
0
 71
1
 10
0.0
 20
0.0
 11
210.0
 21
297.0
 12
0.0
 22
0.0
 32
0.0
 14
0.0
 24
0.0
 34
0.0
 15
0.0
 25
0.0
 35
0.0
146
0.0
 13
0.0
 23
0.0
 33
0.0
 16
1.0
 26
0.0
 36
0.0
 17
0.0
 27
1.0
 37
0.0
 76
0
330
211
345
0
346
0
  0
ENDSEC
  0
EOF
