  0
SECTION
  2
HEADER
  9
$ACADVER
  1
AC1009
  9
$DWGCODEPAGE
  3
ansi_1250
  9
$INSBASE
 10
0.0
 20
0.0
 30
0.0
  9
$EXTMIN
 10
-0.354331
 20
-0.811024
 30
0.0
  9
$EXTMAX
 10
0.354331
 20
1.15748
 30
0.0
  9
$LIMMIN
 10
0.0
 20
0.0
  9
$LIMMAX
 10
0.0
 20
0.0
  9
$ORTHOMODE
 70
     0
  9
$REGENMODE
 70
     1
  9
$FILLMODE
 70
     1
  9
$QTEXTMODE
 70
     0
  9
$MIRRTEXT
 70
     1
  9
$DRAGMODE
 70
     2
  9
$LTSCALE
 40
1.0
  9
$OSMODE
 70
     0
  9
$ATTMODE
 70
     1
  9
$TEXTSIZE
 40
0.2
  9
$TRACEWID
 40
0.05
  9
$TEXTSTYLE
  7
STANDARD
  9
$CLAYER
  8
0
  9
$CELTYPE
  6
CONTINUOUS
  9
$CECOLOR
 62
   256
  9
$DIMSCALE
 40
1.0
  9
$DIMASZ
 40
0.18
  9
$DIMEXO
 40
0.0625
  9
$DIMDLI
 40
0.38
  9
$DIMRND
 40
0.0
  9
$DIMDLE
 40
0.0
  9
$DIMEXE
 40
0.18
  9
$DIMTP
 40
0.0
  9
$DIMTM
 40
0.0
  9
$DIMTXT
 40
0.18
  9
$DIMCEN
 40
0.09
  9
$DIMTSZ
 40
0.0
  9
$DIMTOL
 70
     0
  9
$DIMLIM
 70
     0
  9
$DIMTIH
 70
     1
  9
$DIMTOH
 70
     1
  9
$DIMSE1
 70
     0
  9
$DIMSE2
 70
     0
  9
$DIMTAD
 70
     0
  9
$DIMZIN
 70
     0
  9
$DIMBLK
  1

  9
$DIMASO
 70
     1
  9
$DIMSHO
 70
     1
  9
$DIMPOST
  1

  9
$DIMAPOST
  1

  9
$DIMALT
 70
     0
  9
$DIMALTD
 70
     2
  9
$DIMALTF
 40
25.4
  9
$DIMLFAC
 40
1.0
  9
$DIMTOFL
 70
     0
  9
$DIMTVP
 40
0.0
  9
$DIMTIX
 70
     0
  9
$DIMSOXD
 70
     0
  9
$DIMSAH
 70
     0
  9
$DIMBLK1
  1

  9
$DIMBLK2
  1

  9
$DIMSTYLE
  2
STANDARD
  9
$DIMCLRD
 70
     0
  9
$DIMCLRE
 70
     0
  9
$DIMCLRT
 70
     0
  9
$DIMTFAC
 40
1.0
  9
$DIMGAP
 40
0.09
  9
$LUNITS
 70
     2
  9
$LUPREC
 70
     4
  9
$AXISMODE
 70
     0
  9
$AXISUNIT
 10
0.0
 20
0.0
  9
$SKETCHINC
 40
0.1
  9
$FILLETRAD
 40
0.0
  9
$AUNITS
 70
     0
  9
$AUPREC
 70
     0
  9
$MENU
  1
acad
  9
$ELEVATION
 40
0.0
  9
$PELEVATION
 40
0.0
  9
$THICKNESS
 40
0.0
  9
$LIMCHECK
 70
     0
  9
$BLIPMODE
 70
     1
  9
$CHAMFERA
 40
0.0
  9
$CHAMFERB
 40
0.0
  9
$SKPOLY
 70
     0
  9
$TDCREATE
 40
0.000000000
  9
$TDUPDATE
 40
0.000000000
  9
$TDINDWG
 40
0.0000000000
  9
$TDUSRTIMER
 40
0.0000000000
  9
$USRTIMER
 70
     1
  9
$ANGBASE
 50
0.0
  9
$ANGDIR
 70
     0
  9
$PDMODE
 70
     0
  9
$PDSIZE
 40
0.0
  9
$PLINEWID
 40
0.0
  9
$COORDS
 70
     0
  9
$SPLFRAME
 70
     0
  9
$SPLINETYPE
 70
     6
  9
$SPLINESEGS
 70
     8
  9
$ATTDIA
 70
     0
  9
$ATTREQ
 70
     1
  9
$HANDLING
 70
     1
  9
$HANDSEED
  5
3D7
  9
$SURFTAB1
 70
     6
  9
$SURFTAB2
 70
     6
  9
$SURFTYPE
 70
     6
  9
$SURFU
 70
     6
  9
$SURFV
 70
     6
  9
$UCSNAME
  2

  9
$UCSORG
 10
0.0
 20
0.0
 30
0.0
  9
$UCSXDIR
 10
1.0
 20
0.0
 30
0.0
  9
$UCSYDIR
 10
0.0
 20
1.0
 30
0.0
  9
$PUCSNAME
  2

  9
$PUCSORG
 10
0.0
 20
0.0
 30
0.0
  9
$PUCSXDIR
 10
1.0
 20
0.0
 30
0.0
  9
$PUCSYDIR
 10
0.0
 20
1.0
 30
0.0
  9
$USERI1
 70
     0
  9
$USERI2
 70
     0
  9
$USERI3
 70
     0
  9
$USERI4
 70
     0
  9
$USERI5
 70
     0
  9
$USERR1
 40
0.0
  9
$USERR2
 40
0.0
  9
$USERR3
 40
0.0
  9
$USERR4
 40
0.0
  9
$USERR5
 40
0.0
  9
$WORLDVIEW
 70
     1
  9
$SHADEDGE
 70
     3
  9
$SHADEDIF
 70
    70
  9
$TILEMODE
 70
     1
  9
$MAXACTVP
 70
    16
  9
$PINSBASE
 10
0.0
 20
0.0
 30
0.0
  9
$PLIMCHECK
 70
     0
  9
$PEXTMIN
 10
1.000000E+20
 20
1.000000E+20
 30
1.000000E+20
  9
$PEXTMAX
 10
-1.000000E+20
 20
-1.000000E+20
 30
-1.000000E+20
  9
$PLIMMIN
 10
0.0
 20
0.0
  9
$PLIMMAX
 10
12.0
 20
9.0
  9
$UNITMODE
 70
     0
  9
$VISRETAIN
 70
     0
  9
$PLINEGEN
 70
     1
  9
$PSLTSCALE
 70
     0
  9
$TREEDEPTH
 70
  3020
  0
ENDSEC
  0
SECTION
  2
TABLES
  0
TABLE
  2
VPORT
 70
     1
  0
VPORT
  2
*ACTIVE
 70
     0
 10
0.0
 20
0.0
 11
1.0
 21
1.0
 12
6.591288
 22
4.579184
 13
0.0
 23
0.0
 14
1.0
 24
1.0
 15
0.0
 25
0.0
 16
0.0
 26
0.0
 36
1.0
 17
0.0
 27
0.0
 37
0.0
 40
9.158369
 41
0.688564
 42
50.0
 43
0.0
 44
0.0
 50
0.0
 51
0.0
 71
     0
 72
   100
 73
     1
 74
     1
 75
     0
 76
     0
 77
     0
 78
     0
  0
ENDTAB
  0
TABLE
  2
LTYPE
 70
     5
  0
LTYPE
  2
CONTINUOUS
 70
    64
  3
Solid line
 72
    65
 73
     0
 40
0.0
  0
LTYPE
  2
CENTER
 70
    64
  3
Center ____ _ ____ _ ____ _ ____ _ ____ _ ____
 72
    65
 73
     4
 40
50.8
 49
31.75
 49
-6.35
 49
6.35
 49
-6.35
  0
LTYPE
  2
HIDDEN
 70
    64
  3
Hidden __ __ __ __ __ __ __ __ __ __ __ __ __ __
 72
    65
 73
     2
 40
9.525
 49
6.35
 49
-3.175
  0
LTYPE
  2
CENTER2
 70
    64
  3
Center (.5x) ___ _ ___ _ ___ _ ___ _ ___ _ ___
 72
    65
 73
     4
 40
28.575
 49
19.05
 49
-3.175
 49
3.175
 49
-3.175
  0
LTYPE
  2
HIDDEN2
 70
    64
  3
Hidden (.5x) _ _ _ _ _ _ _ _ _ _ _ _ _ _ _ _ _
 72
    65
 73
     2
 40
4.7625
 49
3.175
 49
-1.5875
  0
ENDTAB
  0
TABLE
  2
LAYER
 70
     1
  0
LAYER
  2
0
 70
     0
 62
     7
  6
CONTINUOUS
  0
ENDTAB
  0
TABLE
  2
STYLE
 70
     1
  0
STYLE
  2
STANDARD
 70
     0
 40
0.0
 41
1.0
 50
0.0
 71
     0
 42
0.0
  3
txt
  4

  0
ENDTAB
  0
TABLE
  2
VIEW
 70
     0
  0
ENDTAB
  0
TABLE
  2
UCS
 70
     0
  0
ENDTAB
  0
TABLE
  2
APPID
 70
     1
  0
APPID
  2
ACAD
 70
     0
  0
ENDTAB
  0
TABLE
  2
DIMSTYLE
 70
     1
  0
DIMSTYLE
  2
STANDARD
 70
     0
  3

  4

  5

  6

  7

 40
1.0
 41
0.18
 42
0.0625
 43
0.38
 44
0.18
 45
0.0
 46
0.0
 47
0.0
 48
0.0
 71
     0
 72
     0
 73
     1
 74
     1
 75
     0
 76
     0
 77
     0
 78
     0
140
0.18
141
0.09
142
0.0
143
25.4
144
1.0
145
0.0
146
1.0
147
0.09
170
     0
171
     2
172
     0
173
     0
174
     0
175
     0
176
     0
177
     0
178
     0
  0
ENDTAB
  0
ENDSEC
  0
SECTION
  2
BLOCKS
  0
ENDSEC
  0
SECTION
  2
ENTITIES
  0
LINE
  8
0
  6
CONTINUOUS
 62
     7
  5
236
 10
-0.34252
 20
0.0
 30
0.0
 11
0.34252
 21
0.0
 31
0.0
  0
LINE
  8
0
  6
CONTINUOUS
 62
     7
  5
237
 10
0.082677
 20
-0.437008
 30
0.0
 11
0.082677
 21
-0.773036
 31
0.0
  0
LINE
  8
0
  6
CONTINUOUS
 62
     7
  5
238
 10
0.082677
 20
-0.773036
 30
0.0
 11
0.081794
 21
-0.775198
 31
0.0
  0
LINE
  8
0
  6
CONTINUOUS
 62
     7
  5
239
 10
0.081794
 20
-0.775198
 30
0.0
 11
0.080935
 21
-0.777297
 31
0.0
  0
LINE
  8
0
  6
CONTINUOUS
 62
     7
  5
23A
 10
0.080935
 20
-0.777297
 30
0.0
 11
0.0801
 21
-0.779333
 31
0.0
  0
LINE
  8
0
  6
CONTINUOUS
 62
     7
  5
23B
 10
0.0801
 20
-0.779333
 30
0.0
 11
0.079291
 21
-0.781305
 31
0.0
  0
LINE
  8
0
  6
CONTINUOUS
 62
     7
  5
23C
 10
0.079291
 20
-0.781305
 30
0.0
 11
0.078506
 21
-0.783214
 31
0.0
  0
LINE
  8
0
  6
CONTINUOUS
 62
     7
  5
23D
 10
0.078506
 20
-0.783214
 30
0.0
 11
0.077745
 21
-0.78506
 31
0.0
  0
LINE
  8
0
  6
CONTINUOUS
 62
     7
  5
23E
 10
0.077745
 20
-0.78506
 30
0.0
 11
0.07701
 21
-0.786841
 31
0.0
  0
LINE
  8
0
  6
CONTINUOUS
 62
     7
  5
23F
 10
0.07701
 20
-0.786841
 30
0.0
 11
0.076301
 21
-0.788559
 31
0.0
  0
LINE
  8
0
  6
CONTINUOUS
 62
     7
  5
240
 10
0.076301
 20
-0.788559
 30
0.0
 11
0.075616
 21
-0.790214
 31
0.0
  0
LINE
  8
0
  6
CONTINUOUS
 62
     7
  5
241
 10
0.075616
 20
-0.790214
 30
0.0
 11
0.074958
 21
-0.791804
 31
0.0
  0
LINE
  8
0
  6
CONTINUOUS
 62
     7
  5
242
 10
0.074958
 20
-0.791804
 30
0.0
 11
0.074325
 21
-0.79333
 31
0.0
  0
LINE
  8
0
  6
CONTINUOUS
 62
     7
  5
243
 10
0.074325
 20
-0.79333
 30
0.0
 11
0.073717
 21
-0.794793
 31
0.0
  0
LINE
  8
0
  6
CONTINUOUS
 62
     7
  5
244
 10
0.073717
 20
-0.794793
 30
0.0
 11
0.073136
 21
-0.796191
 31
0.0
  0
LINE
  8
0
  6
CONTINUOUS
 62
     7
  5
245
 10
0.073136
 20
-0.796191
 30
0.0
 11
0.07258
 21
-0.797526
 31
0.0
  0
LINE
  8
0
  6
CONTINUOUS
 62
     7
  5
246
 10
0.07258
 20
-0.797526
 30
0.0
 11
0.072051
 21
-0.798797
 31
0.0
  0
LINE
  8
0
  6
CONTINUOUS
 62
     7
  5
247
 10
0.072051
 20
-0.798797
 30
0.0
 11
0.071548
 21
-0.800004
 31
0.0
  0
LINE
  8
0
  6
CONTINUOUS
 62
     7
  5
248
 10
0.071548
 20
-0.800004
 30
0.0
 11
0.07107
 21
-0.801148
 31
0.0
  0
LINE
  8
0
  6
CONTINUOUS
 62
     7
  5
249
 10
0.07107
 20
-0.801148
 30
0.0
 11
0.070619
 21
-0.802227
 31
0.0
  0
LINE
  8
0
  6
CONTINUOUS
 62
     7
  5
24A
 10
0.070619
 20
-0.802227
 30
0.0
 11
0.070194
 21
-0.803244
 31
0.0
  0
LINE
  8
0
  6
CONTINUOUS
 62
     7
  5
24B
 10
0.070194
 20
-0.803244
 30
0.0
 11
0.069795
 21
-0.804196
 31
0.0
  0
LINE
  8
0
  6
CONTINUOUS
 62
     7
  5
24C
 10
0.069795
 20
-0.804196
 30
0.0
 11
0.069423
 21
-0.805086
 31
0.0
  0
LINE
  8
0
  6
CONTINUOUS
 62
     7
  5
24D
 10
0.069423
 20
-0.805086
 30
0.0
 11
0.069076
 21
-0.805912
 31
0.0
  0
LINE
  8
0
  6
CONTINUOUS
 62
     7
  5
24E
 10
0.069076
 20
-0.805912
 30
0.0
 11
0.068756
 21
-0.806676
 31
0.0
  0
LINE
  8
0
  6
CONTINUOUS
 62
     7
  5
24F
 10
0.068756
 20
-0.806676
 30
0.0
 11
0.068462
 21
-0.807377
 31
0.0
  0
LINE
  8
0
  6
CONTINUOUS
 62
     7
  5
250
 10
0.068462
 20
-0.807377
 30
0.0
 11
0.068194
 21
-0.808015
 31
0.0
  0
LINE
  8
0
  6
CONTINUOUS
 62
     7
  5
251
 10
0.068194
 20
-0.808015
 30
0.0
 11
0.067952
 21
-0.808592
 31
0.0
  0
LINE
  8
0
  6
CONTINUOUS
 62
     7
  5
252
 10
0.067952
 20
-0.808592
 30
0.0
 11
0.067736
 21
-0.809106
 31
0.0
  0
LINE
  8
0
  6
CONTINUOUS
 62
     7
  5
253
 10
0.067736
 20
-0.809106
 30
0.0
 11
0.067546
 21
-0.809558
 31
0.0
  0
LINE
  8
0
  6
CONTINUOUS
 62
     7
  5
254
 10
0.067546
 20
-0.809558
 30
0.0
 11
0.067381
 21
-0.809949
 31
0.0
  0
LINE
  8
0
  6
CONTINUOUS
 62
     7
  5
255
 10
0.067381
 20
-0.809949
 30
0.0
 11
0.067242
 21
-0.810279
 31
0.0
  0
LINE
  8
0
  6
CONTINUOUS
 62
     7
  5
256
 10
0.067242
 20
-0.810279
 30
0.0
 11
0.067129
 21
-0.810548
 31
0.0
  0
LINE
  8
0
  6
CONTINUOUS
 62
     7
  5
257
 10
0.067129
 20
-0.810548
 30
0.0
 11
0.067041
 21
-0.810757
 31
0.0
  0
LINE
  8
0
  6
CONTINUOUS
 62
     7
  5
258
 10
0.067041
 20
-0.810757
 30
0.0
 11
0.066979
 21
-0.810905
 31
0.0
  0
LINE
  8
0
  6
CONTINUOUS
 62
     7
  5
259
 10
0.066979
 20
-0.810905
 30
0.0
 11
0.066942
 21
-0.810994
 31
0.0
  0
LINE
  8
0
  6
CONTINUOUS
 62
     7
  5
25A
 10
0.066942
 20
-0.810994
 30
0.0
 11
0.066929
 21
-0.811024
 31
0.0
  0
LINE
  8
0
  6
CONTINUOUS
 62
     7
  5
25B
 10
-0.082677
 20
-0.437008
 30
0.0
 11
-0.082677
 21
-0.773036
 31
0.0
  0
LINE
  8
0
  6
CONTINUOUS
 62
     7
  5
25C
 10
-0.082677
 20
-0.773036
 30
0.0
 11
-0.080552
 21
-0.772672
 31
0.0
  0
LINE
  8
0
  6
CONTINUOUS
 62
     7
  5
25D
 10
-0.080552
 20
-0.772672
 30
0.0
 11
-0.078403
 21
-0.772316
 31
0.0
  0
LINE
  8
0
  6
CONTINUOUS
 62
     7
  5
25E
 10
-0.078403
 20
-0.772316
 30
0.0
 11
-0.076229
 21
-0.771967
 31
0.0
  0
LINE
  8
0
  6
CONTINUOUS
 62
     7
  5
25F
 10
-0.076229
 20
-0.771967
 30
0.0
 11
-0.074033
 21
-0.771626
 31
0.0
  0
LINE
  8
0
  6
CONTINUOUS
 62
     7
  5
260
 10
-0.074033
 20
-0.771626
 30
0.0
 11
-0.071814
 21
-0.771293
 31
0.0
  0
LINE
  8
0
  6
CONTINUOUS
 62
     7
  5
261
 10
-0.071814
 20
-0.771293
 30
0.0
 11
-0.069575
 21
-0.770969
 31
0.0
  0
LINE
  8
0
  6
CONTINUOUS
 62
     7
  5
262
 10
-0.069575
 20
-0.770969
 30
0.0
 11
-0.067315
 21
-0.770653
 31
0.0
  0
LINE
  8
0
  6
CONTINUOUS
 62
     7
  5
263
 10
-0.067315
 20
-0.770653
 30
0.0
 11
-0.065036
 21
-0.770346
 31
0.0
  0
LINE
  8
0
  6
CONTINUOUS
 62
     7
  5
264
 10
-0.065036
 20
-0.770346
 30
0.0
 11
-0.062739
 21
-0.770048
 31
0.0
  0
LINE
  8
0
  6
CONTINUOUS
 62
     7
  5
265
 10
-0.062739
 20
-0.770048
 30
0.0
 11
-0.060425
 21
-0.76976
 31
0.0
  0
LINE
  8
0
  6
CONTINUOUS
 62
     7
  5
266
 10
-0.060425
 20
-0.76976
 30
0.0
 11
-0.058095
 21
-0.769481
 31
0.0
  0
LINE
  8
0
  6
CONTINUOUS
 62
     7
  5
267
 10
-0.058095
 20
-0.769481
 30
0.0
 11
-0.055748
 21
-0.769213
 31
0.0
  0
LINE
  8
0
  6
CONTINUOUS
 62
     7
  5
268
 10
-0.055748
 20
-0.769213
 30
0.0
 11
-0.053388
 21
-0.768955
 31
0.0
  0
LINE
  8
0
  6
CONTINUOUS
 62
     7
  5
269
 10
-0.053388
 20
-0.768955
 30
0.0
 11
-0.051013
 21
-0.768707
 31
0.0
  0
LINE
  8
0
  6
CONTINUOUS
 62
     7
  5
26A
 10
-0.051013
 20
-0.768707
 30
0.0
 11
-0.048626
 21
-0.76847
 31
0.0
  0
LINE
  8
0
  6
CONTINUOUS
 62
     7
  5
26B
 10
-0.048626
 20
-0.76847
 30
0.0
 11
-0.046227
 21
-0.768243
 31
0.0
  0
LINE
  8
0
  6
CONTINUOUS
 62
     7
  5
26C
 10
-0.046227
 20
-0.768243
 30
0.0
 11
-0.043818
 21
-0.768028
 31
0.0
  0
LINE
  8
0
  6
CONTINUOUS
 62
     7
  5
26D
 10
-0.043818
 20
-0.768028
 30
0.0
 11
-0.041399
 21
-0.767824
 31
0.0
  0
LINE
  8
0
  6
CONTINUOUS
 62
     7
  5
26E
 10
-0.041399
 20
-0.767824
 30
0.0
 11
-0.038972
 21
-0.767631
 31
0.0
  0
LINE
  8
0
  6
CONTINUOUS
 62
     7
  5
26F
 10
-0.038972
 20
-0.767631
 30
0.0
 11
-0.036538
 21
-0.76745
 31
0.0
  0
LINE
  8
0
  6
CONTINUOUS
 62
     7
  5
270
 10
-0.036538
 20
-0.76745
 30
0.0
 11
-0.034098
 21
-0.76728
 31
0.0
  0
LINE
  8
0
  6
CONTINUOUS
 62
     7
  5
271
 10
-0.034098
 20
-0.76728
 30
0.0
 11
-0.031653
 21
-0.767122
 31
0.0
  0
LINE
  8
0
  6
CONTINUOUS
 62
     7
  5
272
 10
-0.031653
 20
-0.767122
 30
0.0
 11
-0.029204
 21
-0.766976
 31
0.0
  0
LINE
  8
0
  6
CONTINUOUS
 62
     7
  5
273
 10
-0.029204
 20
-0.766976
 30
0.0
 11
-0.026754
 21
-0.766841
 31
0.0
  0
LINE
  8
0
  6
CONTINUOUS
 62
     7
  5
274
 10
-0.026754
 20
-0.766841
 30
0.0
 11
-0.024302
 21
-0.766718
 31
0.0
  0
LINE
  8
0
  6
CONTINUOUS
 62
     7
  5
275
 10
-0.024302
 20
-0.766718
 30
0.0
 11
-0.02185
 21
-0.766608
 31
0.0
  0
LINE
  8
0
  6
CONTINUOUS
 62
     7
  5
276
 10
-0.02185
 20
-0.766608
 30
0.0
 11
-0.0194
 21
-0.766509
 31
0.0
  0
LINE
  8
0
  6
CONTINUOUS
 62
     7
  5
277
 10
-0.0194
 20
-0.766509
 30
0.0
 11
-0.016953
 21
-0.766422
 31
0.0
  0
LINE
  8
0
  6
CONTINUOUS
 62
     7
  5
278
 10
-0.016953
 20
-0.766422
 30
0.0
 11
-0.014509
 21
-0.766347
 31
0.0
  0
LINE
  8
0
  6
CONTINUOUS
 62
     7
  5
279
 10
-0.014509
 20
-0.766347
 30
0.0
 11
-0.012071
 21
-0.766284
 31
0.0
  0
LINE
  8
0
  6
CONTINUOUS
 62
     7
  5
27A
 10
-0.012071
 20
-0.766284
 30
0.0
 11
-0.009639
 21
-0.766232
 31
0.0
  0
LINE
  8
0
  6
CONTINUOUS
 62
     7
  5
27B
 10
-0.009639
 20
-0.766232
 30
0.0
 11
-0.007215
 21
-0.766192
 31
0.0
  0
LINE
  8
0
  6
CONTINUOUS
 62
     7
  5
27C
 10
-0.007215
 20
-0.766192
 30
0.0
 11
-0.0048
 21
-0.766164
 31
0.0
  0
LINE
  8
0
  6
CONTINUOUS
 62
     7
  5
27D
 10
-0.0048
 20
-0.766164
 30
0.0
 11
-0.002394
 21
-0.766147
 31
0.0
  0
LINE
  8
0
  6
CONTINUOUS
 62
     7
  5
27E
 10
-0.002394
 20
-0.766147
 30
0.0
 11
0.0
 21
-0.766142
 31
0.0
  0
LINE
  8
0
  6
CONTINUOUS
 62
     7
  5
27F
 10
0.0
 20
-0.766142
 30
0.0
 11
0.002395
 21
-0.766147
 31
0.0
  0
LINE
  8
0
  6
CONTINUOUS
 62
     7
  5
280
 10
0.002395
 20
-0.766147
 30
0.0
 11
0.004801
 21
-0.766164
 31
0.0
  0
LINE
  8
0
  6
CONTINUOUS
 62
     7
  5
281
 10
0.004801
 20
-0.766164
 30
0.0
 11
0.007217
 21
-0.766192
 31
0.0
  0
LINE
  8
0
  6
CONTINUOUS
 62
     7
  5
282
 10
0.007217
 20
-0.766192
 30
0.0
 11
0.009641
 21
-0.766232
 31
0.0
  0
LINE
  8
0
  6
CONTINUOUS
 62
     7
  5
283
 10
0.009641
 20
-0.766232
 30
0.0
 11
0.012073
 21
-0.766284
 31
0.0
  0
LINE
  8
0
  6
CONTINUOUS
 62
     7
  5
284
 10
0.012073
 20
-0.766284
 30
0.0
 11
0.014512
 21
-0.766347
 31
0.0
  0
LINE
  8
0
  6
CONTINUOUS
 62
     7
  5
285
 10
0.014512
 20
-0.766347
 30
0.0
 11
0.016955
 21
-0.766422
 31
0.0
  0
LINE
  8
0
  6
CONTINUOUS
 62
     7
  5
286
 10
0.016955
 20
-0.766422
 30
0.0
 11
0.019403
 21
-0.766509
 31
0.0
  0
LINE
  8
0
  6
CONTINUOUS
 62
     7
  5
287
 10
0.019403
 20
-0.766509
 30
0.0
 11
0.021853
 21
-0.766608
 31
0.0
  0
LINE
  8
0
  6
CONTINUOUS
 62
     7
  5
288
 10
0.021853
 20
-0.766608
 30
0.0
 11
0.024304
 21
-0.766718
 31
0.0
  0
LINE
  8
0
  6
CONTINUOUS
 62
     7
  5
289
 10
0.024304
 20
-0.766718
 30
0.0
 11
0.026755
 21
-0.766841
 31
0.0
  0
LINE
  8
0
  6
CONTINUOUS
 62
     7
  5
28A
 10
0.026755
 20
-0.766841
 30
0.0
 11
0.029206
 21
-0.766976
 31
0.0
  0
LINE
  8
0
  6
CONTINUOUS
 62
     7
  5
28B
 10
0.029206
 20
-0.766976
 30
0.0
 11
0.031654
 21
-0.767122
 31
0.0
  0
LINE
  8
0
  6
CONTINUOUS
 62
     7
  5
28C
 10
0.031654
 20
-0.767122
 30
0.0
 11
0.034099
 21
-0.76728
 31
0.0
  0
LINE
  8
0
  6
CONTINUOUS
 62
     7
  5
28D
 10
0.034099
 20
-0.76728
 30
0.0
 11
0.036539
 21
-0.76745
 31
0.0
  0
LINE
  8
0
  6
CONTINUOUS
 62
     7
  5
28E
 10
0.036539
 20
-0.76745
 30
0.0
 11
0.038972
 21
-0.767631
 31
0.0
  0
LINE
  8
0
  6
CONTINUOUS
 62
     7
  5
28F
 10
0.038972
 20
-0.767631
 30
0.0
 11
0.041399
 21
-0.767824
 31
0.0
  0
LINE
  8
0
  6
CONTINUOUS
 62
     7
  5
290
 10
0.041399
 20
-0.767824
 30
0.0
 11
0.043818
 21
-0.768028
 31
0.0
  0
LINE
  8
0
  6
CONTINUOUS
 62
     7
  5
291
 10
0.043818
 20
-0.768028
 30
0.0
 11
0.046227
 21
-0.768243
 31
0.0
  0
LINE
  8
0
  6
CONTINUOUS
 62
     7
  5
292
 10
0.046227
 20
-0.768243
 30
0.0
 11
0.048625
 21
-0.76847
 31
0.0
  0
LINE
  8
0
  6
CONTINUOUS
 62
     7
  5
293
 10
0.048625
 20
-0.76847
 30
0.0
 11
0.051012
 21
-0.768707
 31
0.0
  0
LINE
  8
0
  6
CONTINUOUS
 62
     7
  5
294
 10
0.051012
 20
-0.768707
 30
0.0
 11
0.053386
 21
-0.768954
 31
0.0
  0
LINE
  8
0
  6
CONTINUOUS
 62
     7
  5
295
 10
0.053386
 20
-0.768954
 30
0.0
 11
0.055747
 21
-0.769213
 31
0.0
  0
LINE
  8
0
  6
CONTINUOUS
 62
     7
  5
296
 10
0.055747
 20
-0.769213
 30
0.0
 11
0.058092
 21
-0.769481
 31
0.0
  0
LINE
  8
0
  6
CONTINUOUS
 62
     7
  5
297
 10
0.058092
 20
-0.769481
 30
0.0
 11
0.060423
 21
-0.769759
 31
0.0
  0
LINE
  8
0
  6
CONTINUOUS
 62
     7
  5
298
 10
0.060423
 20
-0.769759
 30
0.0
 11
0.062737
 21
-0.770048
 31
0.0
  0
LINE
  8
0
  6
CONTINUOUS
 62
     7
  5
299
 10
0.062737
 20
-0.770048
 30
0.0
 11
0.065034
 21
-0.770345
 31
0.0
  0
LINE
  8
0
  6
CONTINUOUS
 62
     7
  5
29A
 10
0.065034
 20
-0.770345
 30
0.0
 11
0.067313
 21
-0.770652
 31
0.0
  0
LINE
  8
0
  6
CONTINUOUS
 62
     7
  5
29B
 10
0.067313
 20
-0.770652
 30
0.0
 11
0.069573
 21
-0.770968
 31
0.0
  0
LINE
  8
0
  6
CONTINUOUS
 62
     7
  5
29C
 10
0.069573
 20
-0.770968
 30
0.0
 11
0.071812
 21
-0.771293
 31
0.0
  0
LINE
  8
0
  6
CONTINUOUS
 62
     7
  5
29D
 10
0.071812
 20
-0.771293
 30
0.0
 11
0.074031
 21
-0.771626
 31
0.0
  0
LINE
  8
0
  6
CONTINUOUS
 62
     7
  5
29E
 10
0.074031
 20
-0.771626
 30
0.0
 11
0.076228
 21
-0.771967
 31
0.0
  0
LINE
  8
0
  6
CONTINUOUS
 62
     7
  5
29F
 10
0.076228
 20
-0.771967
 30
0.0
 11
0.078401
 21
-0.772316
 31
0.0
  0
LINE
  8
0
  6
CONTINUOUS
 62
     7
  5
2A0
 10
0.078401
 20
-0.772316
 30
0.0
 11
0.080552
 21
-0.772672
 31
0.0
  0
LINE
  8
0
  6
CONTINUOUS
 62
     7
  5
2A1
 10
0.080552
 20
-0.772672
 30
0.0
 11
0.082677
 21
-0.773036
 31
0.0
  0
LINE
  8
0
  6
CONTINUOUS
 62
     7
  5
2A2
 10
-0.066929
 20
-0.811024
 30
0.0
 11
-0.066942
 21
-0.810994
 31
0.0
  0
LINE
  8
0
  6
CONTINUOUS
 62
     7
  5
2A3
 10
-0.066942
 20
-0.810994
 30
0.0
 11
-0.066979
 21
-0.810905
 31
0.0
  0
LINE
  8
0
  6
CONTINUOUS
 62
     7
  5
2A4
 10
-0.066979
 20
-0.810905
 30
0.0
 11
-0.067041
 21
-0.810757
 31
0.0
  0
LINE
  8
0
  6
CONTINUOUS
 62
     7
  5
2A5
 10
-0.067041
 20
-0.810757
 30
0.0
 11
-0.067129
 21
-0.810548
 31
0.0
  0
LINE
  8
0
  6
CONTINUOUS
 62
     7
  5
2A6
 10
-0.067129
 20
-0.810548
 30
0.0
 11
-0.067242
 21
-0.810279
 31
0.0
  0
LINE
  8
0
  6
CONTINUOUS
 62
     7
  5
2A7
 10
-0.067242
 20
-0.810279
 30
0.0
 11
-0.067381
 21
-0.809949
 31
0.0
  0
LINE
  8
0
  6
CONTINUOUS
 62
     7
  5
2A8
 10
-0.067381
 20
-0.809949
 30
0.0
 11
-0.067546
 21
-0.809558
 31
0.0
  0
LINE
  8
0
  6
CONTINUOUS
 62
     7
  5
2A9
 10
-0.067546
 20
-0.809558
 30
0.0
 11
-0.067736
 21
-0.809106
 31
0.0
  0
LINE
  8
0
  6
CONTINUOUS
 62
     7
  5
2AA
 10
-0.067736
 20
-0.809106
 30
0.0
 11
-0.067952
 21
-0.808592
 31
0.0
  0
LINE
  8
0
  6
CONTINUOUS
 62
     7
  5
2AB
 10
-0.067952
 20
-0.808592
 30
0.0
 11
-0.068194
 21
-0.808015
 31
0.0
  0
LINE
  8
0
  6
CONTINUOUS
 62
     7
  5
2AC
 10
-0.068194
 20
-0.808015
 30
0.0
 11
-0.068462
 21
-0.807377
 31
0.0
  0
LINE
  8
0
  6
CONTINUOUS
 62
     7
  5
2AD
 10
-0.068462
 20
-0.807377
 30
0.0
 11
-0.068756
 21
-0.806676
 31
0.0
  0
LINE
  8
0
  6
CONTINUOUS
 62
     7
  5
2AE
 10
-0.068756
 20
-0.806676
 30
0.0
 11
-0.069076
 21
-0.805912
 31
0.0
  0
LINE
  8
0
  6
CONTINUOUS
 62
     7
  5
2AF
 10
-0.069076
 20
-0.805912
 30
0.0
 11
-0.069423
 21
-0.805086
 31
0.0
  0
LINE
  8
0
  6
CONTINUOUS
 62
     7
  5
2B0
 10
-0.069423
 20
-0.805086
 30
0.0
 11
-0.069795
 21
-0.804196
 31
0.0
  0
LINE
  8
0
  6
CONTINUOUS
 62
     7
  5
2B1
 10
-0.069795
 20
-0.804196
 30
0.0
 11
-0.070194
 21
-0.803244
 31
0.0
  0
LINE
  8
0
  6
CONTINUOUS
 62
     7
  5
2B2
 10
-0.070194
 20
-0.803244
 30
0.0
 11
-0.070619
 21
-0.802227
 31
0.0
  0
LINE
  8
0
  6
CONTINUOUS
 62
     7
  5
2B3
 10
-0.070619
 20
-0.802227
 30
0.0
 11
-0.07107
 21
-0.801148
 31
0.0
  0
LINE
  8
0
  6
CONTINUOUS
 62
     7
  5
2B4
 10
-0.07107
 20
-0.801148
 30
0.0
 11
-0.071548
 21
-0.800004
 31
0.0
  0
LINE
  8
0
  6
CONTINUOUS
 62
     7
  5
2B5
 10
-0.071548
 20
-0.800004
 30
0.0
 11
-0.072051
 21
-0.798797
 31
0.0
  0
LINE
  8
0
  6
CONTINUOUS
 62
     7
  5
2B6
 10
-0.072051
 20
-0.798797
 30
0.0
 11
-0.07258
 21
-0.797526
 31
0.0
  0
LINE
  8
0
  6
CONTINUOUS
 62
     7
  5
2B7
 10
-0.07258
 20
-0.797526
 30
0.0
 11
-0.073136
 21
-0.796191
 31
0.0
  0
LINE
  8
0
  6
CONTINUOUS
 62
     7
  5
2B8
 10
-0.073136
 20
-0.796191
 30
0.0
 11
-0.073717
 21
-0.794793
 31
0.0
  0
LINE
  8
0
  6
CONTINUOUS
 62
     7
  5
2B9
 10
-0.073717
 20
-0.794793
 30
0.0
 11
-0.074325
 21
-0.79333
 31
0.0
  0
LINE
  8
0
  6
CONTINUOUS
 62
     7
  5
2BA
 10
-0.074325
 20
-0.79333
 30
0.0
 11
-0.074958
 21
-0.791804
 31
0.0
  0
LINE
  8
0
  6
CONTINUOUS
 62
     7
  5
2BB
 10
-0.074958
 20
-0.791804
 30
0.0
 11
-0.075616
 21
-0.790214
 31
0.0
  0
LINE
  8
0
  6
CONTINUOUS
 62
     7
  5
2BC
 10
-0.075616
 20
-0.790214
 30
0.0
 11
-0.076301
 21
-0.788559
 31
0.0
  0
LINE
  8
0
  6
CONTINUOUS
 62
     7
  5
2BD
 10
-0.076301
 20
-0.788559
 30
0.0
 11
-0.07701
 21
-0.786841
 31
0.0
  0
LINE
  8
0
  6
CONTINUOUS
 62
     7
  5
2BE
 10
-0.07701
 20
-0.786841
 30
0.0
 11
-0.077745
 21
-0.78506
 31
0.0
  0
LINE
  8
0
  6
CONTINUOUS
 62
     7
  5
2BF
 10
-0.077745
 20
-0.78506
 30
0.0
 11
-0.078506
 21
-0.783214
 31
0.0
  0
LINE
  8
0
  6
CONTINUOUS
 62
     7
  5
2C0
 10
-0.078506
 20
-0.783214
 30
0.0
 11
-0.079291
 21
-0.781305
 31
0.0
  0
LINE
  8
0
  6
CONTINUOUS
 62
     7
  5
2C1
 10
-0.079291
 20
-0.781305
 30
0.0
 11
-0.0801
 21
-0.779333
 31
0.0
  0
LINE
  8
0
  6
CONTINUOUS
 62
     7
  5
2C2
 10
-0.0801
 20
-0.779333
 30
0.0
 11
-0.080935
 21
-0.777297
 31
0.0
  0
LINE
  8
0
  6
CONTINUOUS
 62
     7
  5
2C3
 10
-0.080935
 20
-0.777297
 30
0.0
 11
-0.081794
 21
-0.775198
 31
0.0
  0
LINE
  8
0
  6
CONTINUOUS
 62
     7
  5
2C4
 10
-0.081794
 20
-0.775198
 30
0.0
 11
-0.082677
 21
-0.773036
 31
0.0
  0
LINE
  8
0
  6
CONTINUOUS
 62
     7
  5
2C5
 10
-0.082677
 20
-0.773036
 30
0.0
 11
-0.081794
 21
-0.775198
 31
0.0
  0
LINE
  8
0
  6
CONTINUOUS
 62
     7
  5
2C6
 10
-0.081794
 20
-0.775198
 30
0.0
 11
-0.080935
 21
-0.777297
 31
0.0
  0
LINE
  8
0
  6
CONTINUOUS
 62
     7
  5
2C7
 10
-0.080935
 20
-0.777297
 30
0.0
 11
-0.0801
 21
-0.779333
 31
0.0
  0
LINE
  8
0
  6
CONTINUOUS
 62
     7
  5
2C8
 10
-0.0801
 20
-0.779333
 30
0.0
 11
-0.079291
 21
-0.781305
 31
0.0
  0
LINE
  8
0
  6
CONTINUOUS
 62
     7
  5
2C9
 10
-0.079291
 20
-0.781305
 30
0.0
 11
-0.078506
 21
-0.783214
 31
0.0
  0
LINE
  8
0
  6
CONTINUOUS
 62
     7
  5
2CA
 10
-0.078506
 20
-0.783214
 30
0.0
 11
-0.077745
 21
-0.78506
 31
0.0
  0
LINE
  8
0
  6
CONTINUOUS
 62
     7
  5
2CB
 10
-0.077745
 20
-0.78506
 30
0.0
 11
-0.07701
 21
-0.786841
 31
0.0
  0
LINE
  8
0
  6
CONTINUOUS
 62
     7
  5
2CC
 10
-0.07701
 20
-0.786841
 30
0.0
 11
-0.076301
 21
-0.788559
 31
0.0
  0
LINE
  8
0
  6
CONTINUOUS
 62
     7
  5
2CD
 10
-0.076301
 20
-0.788559
 30
0.0
 11
-0.075616
 21
-0.790214
 31
0.0
  0
LINE
  8
0
  6
CONTINUOUS
 62
     7
  5
2CE
 10
-0.075616
 20
-0.790214
 30
0.0
 11
-0.074958
 21
-0.791804
 31
0.0
  0
LINE
  8
0
  6
CONTINUOUS
 62
     7
  5
2CF
 10
-0.074958
 20
-0.791804
 30
0.0
 11
-0.074325
 21
-0.79333
 31
0.0
  0
LINE
  8
0
  6
CONTINUOUS
 62
     7
  5
2D0
 10
-0.074325
 20
-0.79333
 30
0.0
 11
-0.073717
 21
-0.794793
 31
0.0
  0
LINE
  8
0
  6
CONTINUOUS
 62
     7
  5
2D1
 10
-0.073717
 20
-0.794793
 30
0.0
 11
-0.073136
 21
-0.796191
 31
0.0
  0
LINE
  8
0
  6
CONTINUOUS
 62
     7
  5
2D2
 10
-0.073136
 20
-0.796191
 30
0.0
 11
-0.07258
 21
-0.797526
 31
0.0
  0
LINE
  8
0
  6
CONTINUOUS
 62
     7
  5
2D3
 10
-0.07258
 20
-0.797526
 30
0.0
 11
-0.072051
 21
-0.798797
 31
0.0
  0
LINE
  8
0
  6
CONTINUOUS
 62
     7
  5
2D4
 10
-0.072051
 20
-0.798797
 30
0.0
 11
-0.071548
 21
-0.800004
 31
0.0
  0
LINE
  8
0
  6
CONTINUOUS
 62
     7
  5
2D5
 10
-0.071548
 20
-0.800004
 30
0.0
 11
-0.07107
 21
-0.801148
 31
0.0
  0
LINE
  8
0
  6
CONTINUOUS
 62
     7
  5
2D6
 10
-0.07107
 20
-0.801148
 30
0.0
 11
-0.070619
 21
-0.802227
 31
0.0
  0
LINE
  8
0
  6
CONTINUOUS
 62
     7
  5
2D7
 10
-0.070619
 20
-0.802227
 30
0.0
 11
-0.070194
 21
-0.803244
 31
0.0
  0
LINE
  8
0
  6
CONTINUOUS
 62
     7
  5
2D8
 10
-0.070194
 20
-0.803244
 30
0.0
 11
-0.069795
 21
-0.804196
 31
0.0
  0
LINE
  8
0
  6
CONTINUOUS
 62
     7
  5
2D9
 10
-0.069795
 20
-0.804196
 30
0.0
 11
-0.069423
 21
-0.805086
 31
0.0
  0
LINE
  8
0
  6
CONTINUOUS
 62
     7
  5
2DA
 10
-0.069423
 20
-0.805086
 30
0.0
 11
-0.069076
 21
-0.805912
 31
0.0
  0
LINE
  8
0
  6
CONTINUOUS
 62
     7
  5
2DB
 10
-0.069076
 20
-0.805912
 30
0.0
 11
-0.068756
 21
-0.806676
 31
0.0
  0
LINE
  8
0
  6
CONTINUOUS
 62
     7
  5
2DC
 10
-0.068756
 20
-0.806676
 30
0.0
 11
-0.068462
 21
-0.807377
 31
0.0
  0
LINE
  8
0
  6
CONTINUOUS
 62
     7
  5
2DD
 10
-0.068462
 20
-0.807377
 30
0.0
 11
-0.068194
 21
-0.808015
 31
0.0
  0
LINE
  8
0
  6
CONTINUOUS
 62
     7
  5
2DE
 10
-0.068194
 20
-0.808015
 30
0.0
 11
-0.067952
 21
-0.808592
 31
0.0
  0
LINE
  8
0
  6
CONTINUOUS
 62
     7
  5
2DF
 10
-0.067952
 20
-0.808592
 30
0.0
 11
-0.067736
 21
-0.809106
 31
0.0
  0
LINE
  8
0
  6
CONTINUOUS
 62
     7
  5
2E0
 10
-0.067736
 20
-0.809106
 30
0.0
 11
-0.067546
 21
-0.809558
 31
0.0
  0
LINE
  8
0
  6
CONTINUOUS
 62
     7
  5
2E1
 10
-0.067546
 20
-0.809558
 30
0.0
 11
-0.067381
 21
-0.809949
 31
0.0
  0
LINE
  8
0
  6
CONTINUOUS
 62
     7
  5
2E2
 10
-0.067381
 20
-0.809949
 30
0.0
 11
-0.067242
 21
-0.810279
 31
0.0
  0
LINE
  8
0
  6
CONTINUOUS
 62
     7
  5
2E3
 10
-0.067242
 20
-0.810279
 30
0.0
 11
-0.067129
 21
-0.810548
 31
0.0
  0
LINE
  8
0
  6
CONTINUOUS
 62
     7
  5
2E4
 10
-0.067129
 20
-0.810548
 30
0.0
 11
-0.067041
 21
-0.810757
 31
0.0
  0
LINE
  8
0
  6
CONTINUOUS
 62
     7
  5
2E5
 10
-0.067041
 20
-0.810757
 30
0.0
 11
-0.066979
 21
-0.810905
 31
0.0
  0
LINE
  8
0
  6
CONTINUOUS
 62
     7
  5
2E6
 10
-0.066979
 20
-0.810905
 30
0.0
 11
-0.066942
 21
-0.810994
 31
0.0
  0
LINE
  8
0
  6
CONTINUOUS
 62
     7
  5
2E7
 10
-0.066942
 20
-0.810994
 30
0.0
 11
-0.066929
 21
-0.811024
 31
0.0
  0
LINE
  8
0
  6
CONTINUOUS
 62
     7
  5
2E8
 10
0.30315
 20
-0.437008
 30
0.0
 11
-0.30315
 21
-0.437008
 31
0.0
  0
LINE
  8
0
  6
CONTINUOUS
 62
     7
  5
2E9
 10
-0.30315
 20
-0.401575
 30
0.0
 11
-0.302863
 21
-0.401513
 31
0.0
  0
LINE
  8
0
  6
CONTINUOUS
 62
     7
  5
2EA
 10
-0.302863
 20
-0.401513
 30
0.0
 11
-0.301988
 21
-0.401325
 31
0.0
  0
LINE
  8
0
  6
CONTINUOUS
 62
     7
  5
2EB
 10
-0.301988
 20
-0.401325
 30
0.0
 11
-0.300508
 21
-0.401008
 31
0.0
  0
LINE
  8
0
  6
CONTINUOUS
 62
     7
  5
2EC
 10
-0.300508
 20
-0.401008
 30
0.0
 11
-0.298412
 21
-0.400561
 31
0.0
  0
LINE
  8
0
  6
CONTINUOUS
 62
     7
  5
2ED
 10
-0.298412
 20
-0.400561
 30
0.0
 11
-0.295692
 21
-0.399985
 31
0.0
  0
LINE
  8
0
  6
CONTINUOUS
 62
     7
  5
2EE
 10
-0.295692
 20
-0.399985
 30
0.0
 11
-0.29235
 21
-0.399285
 31
0.0
  0
LINE
  8
0
  6
CONTINUOUS
 62
     7
  5
2EF
 10
-0.29235
 20
-0.399285
 30
0.0
 11
-0.288389
 21
-0.398466
 31
0.0
  0
LINE
  8
0
  6
CONTINUOUS
 62
     7
  5
2F0
 10
-0.288389
 20
-0.398466
 30
0.0
 11
-0.283821
 21
-0.397533
 31
0.0
  0
LINE
  8
0
  6
CONTINUOUS
 62
     7
  5
2F1
 10
-0.283821
 20
-0.397533
 30
0.0
 11
-0.278657
 21
-0.396497
 31
0.0
  0
LINE
  8
0
  6
CONTINUOUS
 62
     7
  5
2F2
 10
-0.278657
 20
-0.396497
 30
0.0
 11
-0.272915
 21
-0.395366
 31
0.0
  0
LINE
  8
0
  6
CONTINUOUS
 62
     7
  5
2F3
 10
-0.272915
 20
-0.395366
 30
0.0
 11
-0.266616
 21
-0.394151
 31
0.0
  0
LINE
  8
0
  6
CONTINUOUS
 62
     7
  5
2F4
 10
-0.266616
 20
-0.394151
 30
0.0
 11
-0.259785
 21
-0.392864
 31
0.0
  0
LINE
  8
0
  6
CONTINUOUS
 62
     7
  5
2F5
 10
-0.259785
 20
-0.392864
 30
0.0
 11
-0.252454
 21
-0.391519
 31
0.0
  0
LINE
  8
0
  6
CONTINUOUS
 62
     7
  5
2F6
 10
-0.252454
 20
-0.391519
 30
0.0
 11
-0.244659
 21
-0.390131
 31
0.0
  0
LINE
  8
0
  6
CONTINUOUS
 62
     7
  5
2F7
 10
-0.244659
 20
-0.390131
 30
0.0
 11
-0.236442
 21
-0.388712
 31
0.0
  0
LINE
  8
0
  6
CONTINUOUS
 62
     7
  5
2F8
 10
-0.236442
 20
-0.388712
 30
0.0
 11
-0.227847
 21
-0.387279
 31
0.0
  0
LINE
  8
0
  6
CONTINUOUS
 62
     7
  5
2F9
 10
-0.227847
 20
-0.387279
 30
0.0
 11
-0.218923
 21
-0.385845
 31
0.0
  0
LINE
  8
0
  6
CONTINUOUS
 62
     7
  5
2FA
 10
-0.218923
 20
-0.385845
 30
0.0
 11
-0.209684
 21
-0.38442
 31
0.0
  0
LINE
  8
0
  6
CONTINUOUS
 62
     7
  5
2FB
 10
-0.209684
 20
-0.38442
 30
0.0
 11
-0.199951
 21
-0.382983
 31
0.0
  0
LINE
  8
0
  6
CONTINUOUS
 62
     7
  5
2FC
 10
-0.199951
 20
-0.382983
 30
0.0
 11
-0.18971
 21
-0.381544
 31
0.0
  0
LINE
  8
0
  6
CONTINUOUS
 62
     7
  5
2FD
 10
-0.18971
 20
-0.381544
 30
0.0
 11
-0.178989
 21
-0.380117
 31
0.0
  0
LINE
  8
0
  6
CONTINUOUS
 62
     7
  5
2FE
 10
-0.178989
 20
-0.380117
 30
0.0
 11
-0.167817
 21
-0.378717
 31
0.0
  0
LINE
  8
0
  6
CONTINUOUS
 62
     7
  5
2FF
 10
-0.167817
 20
-0.378717
 30
0.0
 11
-0.15623
 21
-0.377358
 31
0.0
  0
LINE
  8
0
  6
CONTINUOUS
 62
     7
  5
300
 10
-0.15623
 20
-0.377358
 30
0.0
 11
-0.144265
 21
-0.376056
 31
0.0
  0
LINE
  8
0
  6
CONTINUOUS
 62
     7
  5
301
 10
-0.144265
 20
-0.376056
 30
0.0
 11
-0.131963
 21
-0.374825
 31
0.0
  0
LINE
  8
0
  6
CONTINUOUS
 62
     7
  5
302
 10
-0.131963
 20
-0.374825
 30
0.0
 11
-0.119364
 21
-0.373676
 31
0.0
  0
LINE
  8
0
  6
CONTINUOUS
 62
     7
  5
303
 10
-0.119364
 20
-0.373676
 30
0.0
 11
-0.106508
 21
-0.372622
 31
0.0
  0
LINE
  8
0
  6
CONTINUOUS
 62
     7
  5
304
 10
-0.106508
 20
-0.372622
 30
0.0
 11
-0.093435
 21
-0.371672
 31
0.0
  0
LINE
  8
0
  6
CONTINUOUS
 62
     7
  5
305
 10
-0.093435
 20
-0.371672
 30
0.0
 11
-0.080191
 21
-0.370836
 31
0.0
  0
LINE
  8
0
  6
CONTINUOUS
 62
     7
  5
306
 10
-0.080191
 20
-0.370836
 30
0.0
 11
-0.066823
 21
-0.370121
 31
0.0
  0
LINE
  8
0
  6
CONTINUOUS
 62
     7
  5
307
 10
-0.066823
 20
-0.370121
 30
0.0
 11
-0.053385
 21
-0.369533
 31
0.0
  0
LINE
  8
0
  6
CONTINUOUS
 62
     7
  5
308
 10
-0.053385
 20
-0.369533
 30
0.0
 11
-0.039929
 21
-0.369076
 31
0.0
  0
LINE
  8
0
  6
CONTINUOUS
 62
     7
  5
309
 10
-0.039929
 20
-0.369076
 30
0.0
 11
-0.02651
 21
-0.368751
 31
0.0
  0
LINE
  8
0
  6
CONTINUOUS
 62
     7
  5
30A
 10
-0.02651
 20
-0.368751
 30
0.0
 11
-0.013183
 21
-0.368559
 31
0.0
  0
LINE
  8
0
  6
CONTINUOUS
 62
     7
  5
30B
 10
-0.013183
 20
-0.368559
 30
0.0
 11
0.0
 21
-0.368495
 31
0.0
  0
LINE
  8
0
  6
CONTINUOUS
 62
     7
  5
30C
 10
0.0
 20
-0.368495
 30
0.0
 11
0.013183
 21
-0.368559
 31
0.0
  0
LINE
  8
0
  6
CONTINUOUS
 62
     7
  5
30D
 10
0.013183
 20
-0.368559
 30
0.0
 11
0.02651
 21
-0.368751
 31
0.0
  0
LINE
  8
0
  6
CONTINUOUS
 62
     7
  5
30E
 10
0.02651
 20
-0.368751
 30
0.0
 11
0.039929
 21
-0.369076
 31
0.0
  0
LINE
  8
0
  6
CONTINUOUS
 62
     7
  5
30F
 10
0.039929
 20
-0.369076
 30
0.0
 11
0.053385
 21
-0.369533
 31
0.0
  0
LINE
  8
0
  6
CONTINUOUS
 62
     7
  5
310
 10
0.053385
 20
-0.369533
 30
0.0
 11
0.066823
 21
-0.370121
 31
0.0
  0
LINE
  8
0
  6
CONTINUOUS
 62
     7
  5
311
 10
0.066823
 20
-0.370121
 30
0.0
 11
0.080191
 21
-0.370836
 31
0.0
  0
LINE
  8
0
  6
CONTINUOUS
 62
     7
  5
312
 10
0.080191
 20
-0.370836
 30
0.0
 11
0.093435
 21
-0.371672
 31
0.0
  0
LINE
  8
0
  6
CONTINUOUS
 62
     7
  5
313
 10
0.093435
 20
-0.371672
 30
0.0
 11
0.106508
 21
-0.372622
 31
0.0
  0
LINE
  8
0
  6
CONTINUOUS
 62
     7
  5
314
 10
0.106508
 20
-0.372622
 30
0.0
 11
0.119364
 21
-0.373676
 31
0.0
  0
LINE
  8
0
  6
CONTINUOUS
 62
     7
  5
315
 10
0.119364
 20
-0.373676
 30
0.0
 11
0.131963
 21
-0.374825
 31
0.0
  0
LINE
  8
0
  6
CONTINUOUS
 62
     7
  5
316
 10
0.131963
 20
-0.374825
 30
0.0
 11
0.144265
 21
-0.376056
 31
0.0
  0
LINE
  8
0
  6
CONTINUOUS
 62
     7
  5
317
 10
0.144265
 20
-0.376056
 30
0.0
 11
0.15623
 21
-0.377358
 31
0.0
  0
LINE
  8
0
  6
CONTINUOUS
 62
     7
  5
318
 10
0.15623
 20
-0.377358
 30
0.0
 11
0.167817
 21
-0.378717
 31
0.0
  0
LINE
  8
0
  6
CONTINUOUS
 62
     7
  5
319
 10
0.167817
 20
-0.378717
 30
0.0
 11
0.178989
 21
-0.380117
 31
0.0
  0
LINE
  8
0
  6
CONTINUOUS
 62
     7
  5
31A
 10
0.178989
 20
-0.380117
 30
0.0
 11
0.18971
 21
-0.381544
 31
0.0
  0
LINE
  8
0
  6
CONTINUOUS
 62
     7
  5
31B
 10
0.18971
 20
-0.381544
 30
0.0
 11
0.199951
 21
-0.382983
 31
0.0
  0
LINE
  8
0
  6
CONTINUOUS
 62
     7
  5
31C
 10
0.199951
 20
-0.382983
 30
0.0
 11
0.209684
 21
-0.38442
 31
0.0
  0
LINE
  8
0
  6
CONTINUOUS
 62
     7
  5
31D
 10
0.209684
 20
-0.38442
 30
0.0
 11
0.218923
 21
-0.385845
 31
0.0
  0
LINE
  8
0
  6
CONTINUOUS
 62
     7
  5
31E
 10
0.218923
 20
-0.385845
 30
0.0
 11
0.227847
 21
-0.387279
 31
0.0
  0
LINE
  8
0
  6
CONTINUOUS
 62
     7
  5
31F
 10
0.227847
 20
-0.387279
 30
0.0
 11
0.236442
 21
-0.388712
 31
0.0
  0
LINE
  8
0
  6
CONTINUOUS
 62
     7
  5
320
 10
0.236442
 20
-0.388712
 30
0.0
 11
0.244659
 21
-0.390131
 31
0.0
  0
LINE
  8
0
  6
CONTINUOUS
 62
     7
  5
321
 10
0.244659
 20
-0.390131
 30
0.0
 11
0.252454
 21
-0.391519
 31
0.0
  0
LINE
  8
0
  6
CONTINUOUS
 62
     7
  5
322
 10
0.252454
 20
-0.391519
 30
0.0
 11
0.259785
 21
-0.392864
 31
0.0
  0
LINE
  8
0
  6
CONTINUOUS
 62
     7
  5
323
 10
0.259785
 20
-0.392864
 30
0.0
 11
0.266616
 21
-0.394151
 31
0.0
  0
LINE
  8
0
  6
CONTINUOUS
 62
     7
  5
324
 10
0.266616
 20
-0.394151
 30
0.0
 11
0.272915
 21
-0.395366
 31
0.0
  0
LINE
  8
0
  6
CONTINUOUS
 62
     7
  5
325
 10
0.272915
 20
-0.395366
 30
0.0
 11
0.278657
 21
-0.396497
 31
0.0
  0
LINE
  8
0
  6
CONTINUOUS
 62
     7
  5
326
 10
0.278657
 20
-0.396497
 30
0.0
 11
0.283821
 21
-0.397533
 31
0.0
  0
LINE
  8
0
  6
CONTINUOUS
 62
     7
  5
327
 10
0.283821
 20
-0.397533
 30
0.0
 11
0.288389
 21
-0.398466
 31
0.0
  0
LINE
  8
0
  6
CONTINUOUS
 62
     7
  5
328
 10
0.288389
 20
-0.398466
 30
0.0
 11
0.29235
 21
-0.399285
 31
0.0
  0
LINE
  8
0
  6
CONTINUOUS
 62
     7
  5
329
 10
0.29235
 20
-0.399285
 30
0.0
 11
0.295692
 21
-0.399985
 31
0.0
  0
LINE
  8
0
  6
CONTINUOUS
 62
     7
  5
32A
 10
0.295692
 20
-0.399985
 30
0.0
 11
0.298412
 21
-0.400561
 31
0.0
  0
LINE
  8
0
  6
CONTINUOUS
 62
     7
  5
32B
 10
0.298412
 20
-0.400561
 30
0.0
 11
0.300508
 21
-0.401008
 31
0.0
  0
LINE
  8
0
  6
CONTINUOUS
 62
     7
  5
32C
 10
0.300508
 20
-0.401008
 30
0.0
 11
0.301988
 21
-0.401325
 31
0.0
  0
LINE
  8
0
  6
CONTINUOUS
 62
     7
  5
32D
 10
0.301988
 20
-0.401325
 30
0.0
 11
0.302863
 21
-0.401513
 31
0.0
  0
LINE
  8
0
  6
CONTINUOUS
 62
     7
  5
32E
 10
0.302863
 20
-0.401513
 30
0.0
 11
0.30315
 21
-0.401575
 31
0.0
  0
LINE
  8
0
  6
CONTINUOUS
 62
     7
  5
32F
 10
-0.352362
 20
-0.356693
 30
0.0
 11
-0.352362
 21
-0.401575
 31
0.0
  0
LINE
  8
0
  6
CONTINUOUS
 62
     7
  5
330
 10
0.352362
 20
-0.401575
 30
0.0
 11
0.352362
 21
-0.356693
 31
0.0
  0
LINE
  8
0
  6
CONTINUOUS
 62
     7
  5
331
 10
0.352362
 20
-0.356693
 30
0.0
 11
-0.352362
 21
-0.356693
 31
0.0
  0
LINE
  8
0
  6
CONTINUOUS
 62
     7
  5
332
 10
-0.352362
 20
-0.027559
 30
0.0
 11
-0.352362
 21
-0.356693
 31
0.0
  0
LINE
  8
0
  6
CONTINUOUS
 62
     7
  5
333
 10
0.352362
 20
-0.356693
 30
0.0
 11
0.352362
 21
-0.027559
 31
0.0
  0
LINE
  8
0
  6
CONTINUOUS
 62
     7
  5
334
 10
0.352362
 20
-0.027559
 30
0.0
 11
-0.352362
 21
-0.027559
 31
0.0
  0
LINE
  8
0
  6
CONTINUOUS
 62
     7
  5
335
 10
-0.34252
 20
-0.023622
 30
0.0
 11
0.34252
 21
-0.023622
 31
0.0
  0
LINE
  8
0
  6
CONTINUOUS
 62
     7
  5
336
 10
-0.03937
 20
0.0
 30
0.0
 11
-0.03937
 21
0.125984
 31
0.0
  0
LINE
  8
0
  6
CONTINUOUS
 62
     7
  5
337
 10
-0.03937
 20
0.437008
 30
0.0
 11
-0.03937
 21
0.446864
 31
0.0
  0
LINE
  8
0
  6
CONTINUOUS
 62
     7
  5
338
 10
-0.03937
 20
0.275591
 30
0.0
 11
-0.03937
 21
0.437008
 31
0.0
  0
LINE
  8
0
  6
CONTINUOUS
 62
     7
  5
339
 10
-0.291339
 20
0.114481
 30
0.0
 11
-0.291339
 21
0.0
 31
0.0
  0
LINE
  8
0
  6
CONTINUOUS
 62
     7
  5
33A
 10
0.03937
 20
0.437008
 30
0.0
 11
0.03937
 21
0.275591
 31
0.0
  0
LINE
  8
0
  6
CONTINUOUS
 62
     7
  5
33B
 10
0.03937
 20
0.446864
 30
0.0
 11
0.03937
 21
0.437008
 31
0.0
  0
LINE
  8
0
  6
CONTINUOUS
 62
     7
  5
33C
 10
0.03937
 20
0.125984
 30
0.0
 11
0.03937
 21
0.0
 31
0.0
  0
LINE
  8
0
  6
CONTINUOUS
 62
     7
  5
33D
 10
0.291339
 20
0.0
 30
0.0
 11
0.291339
 21
0.114481
 31
0.0
  0
LINE
  8
0
  6
CONTINUOUS
 62
     7
  5
33E
 10
0.291339
 20
0.322835
 30
0.0
 11
0.291339
 21
0.437008
 31
0.0
  0
LINE
  8
0
  6
CONTINUOUS
 62
     7
  5
33F
 10
0.291339
 20
0.437008
 30
0.0
 11
0.03937
 21
0.437008
 31
0.0
  0
LINE
  8
0
  6
CONTINUOUS
 62
     7
  5
340
 10
0.291339
 20
0.437008
 30
0.0
 11
0.291339
 21
0.448819
 31
0.0
  0
LINE
  8
0
  6
CONTINUOUS
 62
     7
  5
341
 10
0.291339
 20
0.448819
 30
0.0
 11
-0.291339
 21
0.448819
 31
0.0
  0
LINE
  8
0
  6
CONTINUOUS
 62
     7
  5
342
 10
-0.03937
 20
0.446864
 30
0.0
 11
-0.037102
 21
0.447033
 31
0.0
  0
LINE
  8
0
  6
CONTINUOUS
 62
     7
  5
343
 10
-0.037102
 20
0.447033
 30
0.0
 11
-0.034837
 21
0.447191
 31
0.0
  0
LINE
  8
0
  6
CONTINUOUS
 62
     7
  5
344
 10
-0.034837
 20
0.447191
 30
0.0
 11
-0.032576
 21
0.447339
 31
0.0
  0
LINE
  8
0
  6
CONTINUOUS
 62
     7
  5
345
 10
-0.032576
 20
0.447339
 30
0.0
 11
-0.030317
 21
0.447477
 31
0.0
  0
LINE
  8
0
  6
CONTINUOUS
 62
     7
  5
346
 10
-0.030317
 20
0.447477
 30
0.0
 11
-0.028061
 21
0.447605
 31
0.0
  0
LINE
  8
0
  6
CONTINUOUS
 62
     7
  5
347
 10
-0.028061
 20
0.447605
 30
0.0
 11
-0.025807
 21
0.447723
 31
0.0
  0
LINE
  8
0
  6
CONTINUOUS
 62
     7
  5
348
 10
-0.025807
 20
0.447723
 30
0.0
 11
-0.023555
 21
0.447831
 31
0.0
  0
LINE
  8
0
  6
CONTINUOUS
 62
     7
  5
349
 10
-0.023555
 20
0.447831
 30
0.0
 11
-0.021306
 21
0.44793
 31
0.0
  0
LINE
  8
0
  6
CONTINUOUS
 62
     7
  5
34A
 10
-0.021306
 20
0.44793
 30
0.0
 11
-0.019058
 21
0.448018
 31
0.0
  0
LINE
  8
0
  6
CONTINUOUS
 62
     7
  5
34B
 10
-0.019058
 20
0.448018
 30
0.0
 11
-0.016812
 21
0.448097
 31
0.0
  0
LINE
  8
0
  6
CONTINUOUS
 62
     7
  5
34C
 10
-0.016812
 20
0.448097
 30
0.0
 11
-0.014568
 21
0.448166
 31
0.0
  0
LINE
  8
0
  6
CONTINUOUS
 62
     7
  5
34D
 10
-0.014568
 20
0.448166
 30
0.0
 11
-0.012324
 21
0.448225
 31
0.0
  0
LINE
  8
0
  6
CONTINUOUS
 62
     7
  5
34E
 10
-0.012324
 20
0.448225
 30
0.0
 11
-0.010082
 21
0.448274
 31
0.0
  0
LINE
  8
0
  6
CONTINUOUS
 62
     7
  5
34F
 10
-0.010082
 20
0.448274
 30
0.0
 11
-0.007841
 21
0.448313
 31
0.0
  0
LINE
  8
0
  6
CONTINUOUS
 62
     7
  5
350
 10
-0.007841
 20
0.448313
 30
0.0
 11
-0.0056
 21
0.448342
 31
0.0
  0
LINE
  8
0
  6
CONTINUOUS
 62
     7
  5
351
 10
-0.0056
 20
0.448342
 30
0.0
 11
-0.00336
 21
0.448362
 31
0.0
  0
LINE
  8
0
  6
CONTINUOUS
 62
     7
  5
352
 10
-0.00336
 20
0.448362
 30
0.0
 11
-0.00112
 21
0.448372
 31
0.0
  0
LINE
  8
0
  6
CONTINUOUS
 62
     7
  5
353
 10
-0.00112
 20
0.448372
 30
0.0
 11
0.00112
 21
0.448372
 31
0.0
  0
LINE
  8
0
  6
CONTINUOUS
 62
     7
  5
354
 10
0.00112
 20
0.448372
 30
0.0
 11
0.00336
 21
0.448362
 31
0.0
  0
LINE
  8
0
  6
CONTINUOUS
 62
     7
  5
355
 10
0.00336
 20
0.448362
 30
0.0
 11
0.0056
 21
0.448342
 31
0.0
  0
LINE
  8
0
  6
CONTINUOUS
 62
     7
  5
356
 10
0.0056
 20
0.448342
 30
0.0
 11
0.007841
 21
0.448313
 31
0.0
  0
LINE
  8
0
  6
CONTINUOUS
 62
     7
  5
357
 10
0.007841
 20
0.448313
 30
0.0
 11
0.010082
 21
0.448274
 31
0.0
  0
LINE
  8
0
  6
CONTINUOUS
 62
     7
  5
358
 10
0.010082
 20
0.448274
 30
0.0
 11
0.012324
 21
0.448225
 31
0.0
  0
LINE
  8
0
  6
CONTINUOUS
 62
     7
  5
359
 10
0.012324
 20
0.448225
 30
0.0
 11
0.014568
 21
0.448166
 31
0.0
  0
LINE
  8
0
  6
CONTINUOUS
 62
     7
  5
35A
 10
0.014568
 20
0.448166
 30
0.0
 11
0.016812
 21
0.448097
 31
0.0
  0
LINE
  8
0
  6
CONTINUOUS
 62
     7
  5
35B
 10
0.016812
 20
0.448097
 30
0.0
 11
0.019058
 21
0.448018
 31
0.0
  0
LINE
  8
0
  6
CONTINUOUS
 62
     7
  5
35C
 10
0.019058
 20
0.448018
 30
0.0
 11
0.021306
 21
0.44793
 31
0.0
  0
LINE
  8
0
  6
CONTINUOUS
 62
     7
  5
35D
 10
0.021306
 20
0.44793
 30
0.0
 11
0.023555
 21
0.447831
 31
0.0
  0
LINE
  8
0
  6
CONTINUOUS
 62
     7
  5
35E
 10
0.023555
 20
0.447831
 30
0.0
 11
0.025807
 21
0.447723
 31
0.0
  0
LINE
  8
0
  6
CONTINUOUS
 62
     7
  5
35F
 10
0.025807
 20
0.447723
 30
0.0
 11
0.028061
 21
0.447605
 31
0.0
  0
LINE
  8
0
  6
CONTINUOUS
 62
     7
  5
360
 10
0.028061
 20
0.447605
 30
0.0
 11
0.030317
 21
0.447477
 31
0.0
  0
LINE
  8
0
  6
CONTINUOUS
 62
     7
  5
361
 10
0.030317
 20
0.447477
 30
0.0
 11
0.032576
 21
0.447339
 31
0.0
  0
LINE
  8
0
  6
CONTINUOUS
 62
     7
  5
362
 10
0.032576
 20
0.447339
 30
0.0
 11
0.034837
 21
0.447191
 31
0.0
  0
LINE
  8
0
  6
CONTINUOUS
 62
     7
  5
363
 10
0.034837
 20
0.447191
 30
0.0
 11
0.037102
 21
0.447033
 31
0.0
  0
LINE
  8
0
  6
CONTINUOUS
 62
     7
  5
364
 10
0.037102
 20
0.447033
 30
0.0
 11
0.03937
 21
0.446864
 31
0.0
  0
LINE
  8
0
  6
CONTINUOUS
 62
     7
  5
365
 10
-0.03937
 20
0.437008
 30
0.0
 11
-0.291339
 21
0.437008
 31
0.0
  0
LINE
  8
0
  6
CONTINUOUS
 62
     7
  5
366
 10
-0.291339
 20
0.437008
 30
0.0
 11
-0.291339
 21
0.322835
 31
0.0
  0
LINE
  8
0
  6
CONTINUOUS
 62
     7
  5
367
 10
-0.291339
 20
0.448819
 30
0.0
 11
-0.291339
 21
0.437008
 31
0.0
  0
LINE
  8
0
  6
CONTINUOUS
 62
     7
  5
368
 10
-0.11811
 20
0.275591
 30
0.0
 11
-0.11811
 21
0.322835
 31
0.0
  0
LINE
  8
0
  6
CONTINUOUS
 62
     7
  5
369
 10
-0.331978
 20
0.322835
 30
0.0
 11
-0.331978
 21
0.275591
 31
0.0
  0
LINE
  8
0
  6
CONTINUOUS
 62
     7
  5
36A
 10
-0.331978
 20
0.275591
 30
0.0
 11
-0.352362
 21
0.275591
 31
0.0
  0
LINE
  8
0
  6
CONTINUOUS
 62
     7
  5
36B
 10
0.11811
 20
0.275591
 30
0.0
 11
-0.11811
 21
0.275591
 31
0.0
  0
LINE
  8
0
  6
CONTINUOUS
 62
     7
  5
36C
 10
0.11811
 20
0.322835
 30
0.0
 11
0.11811
 21
0.275591
 31
0.0
  0
LINE
  8
0
  6
CONTINUOUS
 62
     7
  5
36D
 10
0.11811
 20
0.322835
 30
0.0
 11
0.331978
 21
0.322835
 31
0.0
  0
LINE
  8
0
  6
CONTINUOUS
 62
     7
  5
36E
 10
-0.331978
 20
0.322835
 30
0.0
 11
-0.11811
 21
0.322835
 31
0.0
  0
LINE
  8
0
  6
CONTINUOUS
 62
     7
  5
36F
 10
0.352362
 20
0.275591
 30
0.0
 11
0.331978
 21
0.275591
 31
0.0
  0
LINE
  8
0
  6
CONTINUOUS
 62
     7
  5
370
 10
0.331978
 20
0.275591
 30
0.0
 11
0.331978
 21
0.322835
 31
0.0
  0
LINE
  8
0
  6
CONTINUOUS
 62
     7
  5
371
 10
-0.350929
 20
0.165354
 30
0.0
 11
-0.350929
 21
0.244094
 31
0.0
  0
LINE
  8
0
  6
CONTINUOUS
 62
     7
  5
372
 10
-0.350929
 20
0.244094
 30
0.0
 11
-0.343563
 21
0.244094
 31
0.0
  0
LINE
  8
0
  6
CONTINUOUS
 62
     7
  5
373
 10
-0.343563
 20
0.244094
 30
0.0
 11
-0.343563
 21
0.165354
 31
0.0
  0
LINE
  8
0
  6
CONTINUOUS
 62
     7
  5
374
 10
-0.323944
 20
0.165354
 30
0.0
 11
-0.323944
 21
0.244094
 31
0.0
  0
LINE
  8
0
  6
CONTINUOUS
 62
     7
  5
375
 10
-0.323944
 20
0.244094
 30
0.0
 11
-0.302567
 21
0.244094
 31
0.0
  0
LINE
  8
0
  6
CONTINUOUS
 62
     7
  5
376
 10
-0.302567
 20
0.244094
 30
0.0
 11
-0.302567
 21
0.165354
 31
0.0
  0
LINE
  8
0
  6
CONTINUOUS
 62
     7
  5
377
 10
-0.265248
 20
0.165354
 30
0.0
 11
-0.265248
 21
0.244094
 31
0.0
  0
LINE
  8
0
  6
CONTINUOUS
 62
     7
  5
378
 10
-0.265248
 20
0.244094
 30
0.0
 11
-0.231953
 21
0.244094
 31
0.0
  0
LINE
  8
0
  6
CONTINUOUS
 62
     7
  5
379
 10
-0.231953
 20
0.244094
 30
0.0
 11
-0.231953
 21
0.165354
 31
0.0
  0
LINE
  8
0
  6
CONTINUOUS
 62
     7
  5
37A
 10
-0.180589
 20
0.165354
 30
0.0
 11
-0.180589
 21
0.244094
 31
0.0
  0
LINE
  8
0
  6
CONTINUOUS
 62
     7
  5
37B
 10
-0.180589
 20
0.244094
 30
0.0
 11
-0.138634
 21
0.244094
 31
0.0
  0
LINE
  8
0
  6
CONTINUOUS
 62
     7
  5
37C
 10
-0.138634
 20
0.244094
 30
0.0
 11
-0.138634
 21
0.165354
 31
0.0
  0
LINE
  8
0
  6
CONTINUOUS
 62
     7
  5
37D
 10
-0.078252
 20
0.165354
 30
0.0
 11
-0.078252
 21
0.244094
 31
0.0
  0
LINE
  8
0
  6
CONTINUOUS
 62
     7
  5
37E
 10
-0.078252
 20
0.244094
 30
0.0
 11
-0.031745
 21
0.244094
 31
0.0
  0
LINE
  8
0
  6
CONTINUOUS
 62
     7
  5
37F
 10
-0.031745
 20
0.244094
 30
0.0
 11
-0.031745
 21
0.165354
 31
0.0
  0
LINE
  8
0
  6
CONTINUOUS
 62
     7
  5
380
 10
0.031745
 20
0.165354
 30
0.0
 11
0.031745
 21
0.244094
 31
0.0
  0
LINE
  8
0
  6
CONTINUOUS
 62
     7
  5
381
 10
0.031745
 20
0.244094
 30
0.0
 11
0.078252
 21
0.244094
 31
0.0
  0
LINE
  8
0
  6
CONTINUOUS
 62
     7
  5
382
 10
0.078252
 20
0.244094
 30
0.0
 11
0.078252
 21
0.165354
 31
0.0
  0
LINE
  8
0
  6
CONTINUOUS
 62
     7
  5
383
 10
0.138634
 20
0.165354
 30
0.0
 11
0.138634
 21
0.244094
 31
0.0
  0
LINE
  8
0
  6
CONTINUOUS
 62
     7
  5
384
 10
0.138634
 20
0.244094
 30
0.0
 11
0.180589
 21
0.244094
 31
0.0
  0
LINE
  8
0
  6
CONTINUOUS
 62
     7
  5
385
 10
0.180589
 20
0.244094
 30
0.0
 11
0.180589
 21
0.165354
 31
0.0
  0
LINE
  8
0
  6
CONTINUOUS
 62
     7
  5
386
 10
0.231953
 20
0.165354
 30
0.0
 11
0.231953
 21
0.244094
 31
0.0
  0
LINE
  8
0
  6
CONTINUOUS
 62
     7
  5
387
 10
0.231953
 20
0.244094
 30
0.0
 11
0.265248
 21
0.244094
 31
0.0
  0
LINE
  8
0
  6
CONTINUOUS
 62
     7
  5
388
 10
0.265248
 20
0.244094
 30
0.0
 11
0.265248
 21
0.165354
 31
0.0
  0
LINE
  8
0
  6
CONTINUOUS
 62
     7
  5
389
 10
0.302567
 20
0.165354
 30
0.0
 11
0.302567
 21
0.244094
 31
0.0
  0
LINE
  8
0
  6
CONTINUOUS
 62
     7
  5
38A
 10
0.302567
 20
0.244094
 30
0.0
 11
0.323944
 21
0.244094
 31
0.0
  0
LINE
  8
0
  6
CONTINUOUS
 62
     7
  5
38B
 10
0.323944
 20
0.244094
 30
0.0
 11
0.323944
 21
0.165354
 31
0.0
  0
LINE
  8
0
  6
CONTINUOUS
 62
     7
  5
38C
 10
0.343563
 20
0.165354
 30
0.0
 11
0.343563
 21
0.244094
 31
0.0
  0
LINE
  8
0
  6
CONTINUOUS
 62
     7
  5
38D
 10
0.343563
 20
0.244094
 30
0.0
 11
0.350929
 21
0.244094
 31
0.0
  0
LINE
  8
0
  6
CONTINUOUS
 62
     7
  5
38E
 10
0.350929
 20
0.244094
 30
0.0
 11
0.350929
 21
0.165354
 31
0.0
  0
LINE
  8
0
  6
CONTINUOUS
 62
     7
  5
38F
 10
-0.244094
 20
0.125984
 30
0.0
 11
0.244094
 21
0.125984
 31
0.0
  0
LINE
  8
0
  6
CONTINUOUS
 62
     7
  5
390
 10
0.354331
 20
0.165354
 30
0.0
 11
0.354331
 21
0.138514
 31
0.0
  0
LINE
  8
0
  6
CONTINUOUS
 62
     7
  5
391
 10
0.354331
 20
0.099144
 30
0.0
 11
0.354331
 21
0.138514
 31
0.0
  0
LINE
  8
0
  6
CONTINUOUS
 62
     7
  5
392
 10
-0.354331
 20
0.099144
 30
0.0
 11
-0.354331
 21
0.138514
 31
0.0
  0
LINE
  8
0
  6
CONTINUOUS
 62
     7
  5
393
 10
-0.354331
 20
0.138514
 30
0.0
 11
-0.354331
 21
0.165354
 31
0.0
  0
LINE
  8
0
  6
CONTINUOUS
 62
     7
  5
394
 10
-0.354331
 20
0.099144
 30
0.0
 11
-0.244094
 21
0.125984
 31
0.0
  0
LINE
  8
0
  6
CONTINUOUS
 62
     7
  5
395
 10
0.244094
 20
0.125984
 30
0.0
 11
0.354331
 21
0.099144
 31
0.0
  0
LINE
  8
0
  6
CONTINUOUS
 62
     7
  5
396
 10
0.354331
 20
0.138514
 30
0.0
 11
0.244094
 21
0.165354
 31
0.0
  0
LINE
  8
0
  6
CONTINUOUS
 62
     7
  5
397
 10
-0.244094
 20
0.165354
 30
0.0
 11
0.244094
 21
0.165354
 31
0.0
  0
LINE
  8
0
  6
CONTINUOUS
 62
     7
  5
398
 10
-0.244094
 20
0.165354
 30
0.0
 11
-0.354331
 21
0.138514
 31
0.0
  0
LINE
  8
0
  6
CONTINUOUS
 62
     7
  5
399
 10
-0.354331
 20
0.165354
 30
0.0
 11
-0.244094
 21
0.165354
 31
0.0
  0
LINE
  8
0
  6
CONTINUOUS
 62
     7
  5
39A
 10
0.244094
 20
0.165354
 30
0.0
 11
0.354331
 21
0.165354
 31
0.0
  0
LINE
  8
0
  6
CONTINUOUS
 62
     7
  5
39B
 10
0.07874
 20
0.88189
 30
0.0
 11
0.05315
 21
0.88189
 31
0.0
  0
LINE
  8
0
  6
CONTINUOUS
 62
     7
  5
39C
 10
0.088583
 20
0.88189
 30
0.0
 11
0.07874
 21
0.88189
 31
0.0
  0
LINE
  8
0
  6
CONTINUOUS
 62
     7
  5
39D
 10
0.137795
 20
0.88189
 30
0.0
 11
0.108268
 21
0.88189
 31
0.0
  0
LINE
  8
0
  6
CONTINUOUS
 62
     7
  5
39E
 10
0.163386
 20
0.88189
 30
0.0
 11
0.137795
 21
0.88189
 31
0.0
  0
LINE
  8
0
  6
CONTINUOUS
 62
     7
  5
39F
 10
0.088583
 20
1.137795
 30
0.0
 11
0.088583
 21
0.854331
 31
0.0
  0
LINE
  8
0
  6
CONTINUOUS
 62
     7
  5
3A0
 10
0.108268
 20
1.137795
 30
0.0
 11
0.104441
 21
1.15748
 31
0.0
  0
LINE
  8
0
  6
CONTINUOUS
 62
     7
  5
3A1
 10
0.092409
 20
1.15748
 30
0.0
 11
0.088583
 21
1.137795
 31
0.0
  0
LINE
  8
0
  6
CONTINUOUS
 62
     7
  5
3A2
 10
0.088583
 20
1.137795
 30
0.0
 11
0.108268
 21
1.137795
 31
0.0
  0
LINE
  8
0
  6
CONTINUOUS
 62
     7
  5
3A3
 10
0.088583
 20
0.854331
 30
0.0
 11
0.108268
 21
0.854331
 31
0.0
  0
LINE
  8
0
  6
CONTINUOUS
 62
     7
  5
3A4
 10
0.108268
 20
0.854331
 30
0.0
 11
0.108268
 21
1.137795
 31
0.0
  0
LINE
  8
0
  6
CONTINUOUS
 62
     7
  5
3A5
 10
0.07874
 20
0.84252
 30
0.0
 11
0.07874
 21
0.88189
 31
0.0
  0
LINE
  8
0
  6
CONTINUOUS
 62
     7
  5
3A6
 10
0.137795
 20
0.84252
 30
0.0
 11
0.137795
 21
0.88189
 31
0.0
  0
LINE
  8
0
  6
CONTINUOUS
 62
     7
  5
3A7
 10
0.05315
 20
0.84252
 30
0.0
 11
0.05315
 21
0.88189
 31
0.0
  0
LINE
  8
0
  6
CONTINUOUS
 62
     7
  5
3A8
 10
0.163386
 20
0.84252
 30
0.0
 11
0.163386
 21
0.88189
 31
0.0
  0
LINE
  8
0
  6
CONTINUOUS
 62
     7
  5
3A9
 10
-0.137795
 20
0.88189
 30
0.0
 11
-0.163386
 21
0.88189
 31
0.0
  0
LINE
  8
0
  6
CONTINUOUS
 62
     7
  5
3AA
 10
-0.127953
 20
0.88189
 30
0.0
 11
-0.137795
 21
0.88189
 31
0.0
  0
LINE
  8
0
  6
CONTINUOUS
 62
     7
  5
3AB
 10
-0.07874
 20
0.88189
 30
0.0
 11
-0.108268
 21
0.88189
 31
0.0
  0
LINE
  8
0
  6
CONTINUOUS
 62
     7
  5
3AC
 10
-0.05315
 20
0.88189
 30
0.0
 11
-0.07874
 21
0.88189
 31
0.0
  0
LINE
  8
0
  6
CONTINUOUS
 62
     7
  5
3AD
 10
-0.127953
 20
1.137795
 30
0.0
 11
-0.127953
 21
0.854331
 31
0.0
  0
LINE
  8
0
  6
CONTINUOUS
 62
     7
  5
3AE
 10
-0.108268
 20
1.137795
 30
0.0
 11
-0.112094
 21
1.15748
 31
0.0
  0
LINE
  8
0
  6
CONTINUOUS
 62
     7
  5
3AF
 10
-0.124126
 20
1.15748
 30
0.0
 11
-0.127953
 21
1.137795
 31
0.0
  0
LINE
  8
0
  6
CONTINUOUS
 62
     7
  5
3B0
 10
-0.127953
 20
1.137795
 30
0.0
 11
-0.108268
 21
1.137795
 31
0.0
  0
LINE
  8
0
  6
CONTINUOUS
 62
     7
  5
3B1
 10
-0.127953
 20
0.854331
 30
0.0
 11
-0.108268
 21
0.854331
 31
0.0
  0
LINE
  8
0
  6
CONTINUOUS
 62
     7
  5
3B2
 10
-0.108268
 20
0.854331
 30
0.0
 11
-0.108268
 21
1.137795
 31
0.0
  0
LINE
  8
0
  6
CONTINUOUS
 62
     7
  5
3B3
 10
-0.137795
 20
0.84252
 30
0.0
 11
-0.137795
 21
0.88189
 31
0.0
  0
LINE
  8
0
  6
CONTINUOUS
 62
     7
  5
3B4
 10
-0.07874
 20
0.84252
 30
0.0
 11
-0.07874
 21
0.88189
 31
0.0
  0
LINE
  8
0
  6
CONTINUOUS
 62
     7
  5
3B5
 10
-0.163386
 20
0.84252
 30
0.0
 11
-0.163386
 21
0.88189
 31
0.0
  0
LINE
  8
0
  6
CONTINUOUS
 62
     7
  5
3B6
 10
-0.05315
 20
0.84252
 30
0.0
 11
-0.05315
 21
0.88189
 31
0.0
  0
LINE
  8
0
  6
CONTINUOUS
 62
     7
  5
3B7
 10
-0.290839
 20
0.84252
 30
0.0
 11
-0.274209
 21
0.84252
 31
0.0
  0
LINE
  8
0
  6
CONTINUOUS
 62
     7
  5
3B8
 10
0.274209
 20
0.84252
 30
0.0
 11
0.290839
 21
0.84252
 31
0.0
  0
LINE
  8
0
  6
CONTINUOUS
 62
     7
  5
3B9
 10
-0.274209
 20
0.645669
 30
0.0
 11
-0.291339
 21
0.645669
 31
0.0
  0
LINE
  8
0
  6
CONTINUOUS
 62
     7
  5
3BA
 10
0.291339
 20
0.645669
 30
0.0
 11
0.274209
 21
0.645669
 31
0.0
  0
LINE
  8
0
  6
CONTINUOUS
 62
     7
  5
3BB
 10
-0.274209
 20
0.84252
 30
0.0
 11
-0.274209
 21
0.645669
 31
0.0
  0
LINE
  8
0
  6
CONTINUOUS
 62
     7
  5
3BC
 10
0.274209
 20
0.645669
 30
0.0
 11
0.274209
 21
0.84252
 31
0.0
  0
LINE
  8
0
  6
CONTINUOUS
 62
     7
  5
3BD
 10
-0.274209
 20
0.84252
 30
0.0
 11
0.274209
 21
0.84252
 31
0.0
  0
LINE
  8
0
  6
CONTINUOUS
 62
     7
  5
3BE
 10
-0.066929
 20
-0.811024
 30
0.0
 11
0.066929
 21
-0.811024
 31
0.0
  0
LINE
  8
0
  6
CONTINUOUS
 62
     7
  5
3BF
 10
0.30315
 20
-0.437008
 30
0.0
 11
0.30315
 21
-0.401575
 31
0.0
  0
LINE
  8
0
  6
CONTINUOUS
 62
     7
  5
3C0
 10
-0.30315
 20
-0.401575
 30
0.0
 11
-0.30315
 21
-0.437008
 31
0.0
  0
LINE
  8
0
  6
CONTINUOUS
 62
     7
  5
3C1
 10
-0.352362
 20
-0.401575
 30
0.0
 11
-0.30315
 21
-0.401575
 31
0.0
  0
LINE
  8
0
  6
CONTINUOUS
 62
     7
  5
3C2
 10
0.30315
 20
-0.401575
 30
0.0
 11
0.352362
 21
-0.401575
 31
0.0
  0
LINE
  8
0
  6
CONTINUOUS
 62
     7
  5
3C3
 10
0.330709
 20
-0.027559
 30
0.0
 11
0.330709
 21
-0.023622
 31
0.0
  0
LINE
  8
0
  6
CONTINUOUS
 62
     7
  5
3C4
 10
-0.330709
 20
-0.023622
 30
0.0
 11
-0.330709
 21
-0.027559
 31
0.0
  0
LINE
  8
0
  6
CONTINUOUS
 62
     7
  5
3C5
 10
-0.34252
 20
0.0
 30
0.0
 11
-0.34252
 21
-0.023622
 31
0.0
  0
LINE
  8
0
  6
CONTINUOUS
 62
     7
  5
3C6
 10
0.34252
 20
-0.023622
 30
0.0
 11
0.34252
 21
0.0
 31
0.0
  0
LINE
  8
0
  6
CONTINUOUS
 62
     7
  5
3C7
 10
-0.352362
 20
0.275591
 30
0.0
 11
-0.352362
 21
0.165354
 31
0.0
  0
LINE
  8
0
  6
CONTINUOUS
 62
     7
  5
3C8
 10
0.352362
 20
0.165354
 30
0.0
 11
0.352362
 21
0.275591
 31
0.0
  0
LINE
  8
0
  6
CONTINUOUS
 62
     7
  5
3C9
 10
0.104441
 20
1.15748
 30
0.0
 11
0.092409
 21
1.15748
 31
0.0
  0
LINE
  8
0
  6
CONTINUOUS
 62
     7
  5
3CA
 10
-0.112094
 20
1.15748
 30
0.0
 11
-0.124126
 21
1.15748
 31
0.0
  0
LINE
  8
0
  6
CONTINUOUS
 62
     7
  5
3CB
 10
-0.290839
 20
0.84252
 30
0.0
 11
-0.290839
 21
0.645669
 31
0.0
  0
LINE
  8
0
  6
CONTINUOUS
 62
     7
  5
3CC
 10
0.290839
 20
0.645669
 30
0.0
 11
0.290839
 21
0.84252
 31
0.0
  0
LINE
  8
0
  6
CONTINUOUS
 62
     7
  5
3CD
 10
-0.291339
 20
0.645669
 30
0.0
 11
-0.291339
 21
0.448819
 31
0.0
  0
LINE
  8
0
  6
CONTINUOUS
 62
     7
  5
3CE
 10
0.291339
 20
0.448819
 30
0.0
 11
0.291339
 21
0.645669
 31
0.0
  0
LINE
  8
0
  6
CONTINUOUS
 62
     3
  5
3CF
 10
0.0
 20
-0.023622
 30
0.0
 11
0.0
 21
0.84252
 31
0.0
  0
LINE
  8
0
  6
CONTINUOUS
 62
     3
  5
3D0
 10
0.0
 20
-0.80937
 30
0.0
 11
0.0
 21
-0.027559
 31
0.0
  0
LINE
  8
0
  6
CONTINUOUS
 62
     3
  5
3D1
 10
0.088583
 20
1.094488
 30
0.0
 11
0.108268
 21
1.094488
 31
0.0
  0
LINE
  8
0
  6
CONTINUOUS
 62
     3
  5
3D2
 10
0.088583
 20
1.03937
 30
0.0
 11
0.108268
 21
1.03937
 31
0.0
  0
LINE
  8
0
  6
CONTINUOUS
 62
     3
  5
3D3
 10
-0.127953
 20
1.094488
 30
0.0
 11
-0.108268
 21
1.094488
 31
0.0
  0
LINE
  8
0
  6
CONTINUOUS
 62
     3
  5
3D4
 10
-0.127953
 20
1.03937
 30
0.0
 11
-0.108268
 21
1.03937
 31
0.0
  0
ENDSEC
  0
EOF
