999
DXF file: C:\Users\sesa63760\Dev\_Creo\CAD\MCADID0001257_3D-CAD\drw0001_1.dxf
999
Pro/ENGINEER 2019471 by Parametric Technology Corporation
  0
SECTION
  2
HEADER
  9
$ACADVER
  1
AC1024
  9
$DWGCODEPAGE
  3
ANSI_1252
  9
$EXTMAX
 10
331.074465737
 20
468.2338872566
 30
0.0
  9
$EXTMIN
 10
0.0
 20
0.0
 30
0.0
  9
$LIMMIN
 10
0.0
 20
0.0
  9
$LIMMAX
 10
331.074465737
 20
468.2338872566
  9
$VIEWCTR
 10
165.5372328685
 20
234.1169436283
  9
$VIEWSIZE
 40
468.2338872566
  9
$CLAYER
  8
0
  9
$LTSCALE
 40
30.5219126508
  9
$CELTYPE
  6
BYLAYER
  9
$DIMSCALE
 40
1.0
  9
$DIMASZ
 40
3.9413626873
  9
$DIMEXO
 40
1.0
  9
$DIMDLI
 40
21.0878669224
  9
$DIMEXE
 40
1.0
  9
$DIMCEN
 40
4.9944947974
  9
$DIMLFAC
 40
1.0
  9
$DIMBLK
  1
_FILLED
  9
$DIMALT
 70
0
  9
$DIMALTF
 40
0.0393700787
  9
$DIMTXT
 40
5.5179077623
  9
$DIMTOL
 70
1
  9
$DIMLIM
 70
0
  9
$DIMTFAC
 40
1.0
  9
$DIMTP
 40
0.01
  9
$DIMTM
 40
0.01
  9
$DIMGAP
 40
0.625
  9
$DIMDSEP
 70
46
  9
$AUNITS
 70
0
  9
$PDMODE
 70
3
  9
$PDSIZE
 40
0.3125
  9
$HANDSEED
  5
43D
  9
$TILEMODE
 70
1
  9
$MEASUREMENT
 70
1
  9
$INSUNITS
 70
4
  0
ENDSEC
  0
SECTION
  2
CLASSES
  0
CLASS
  1
ACDBDICTIONARYWDFLT
  2
AcDbDictionaryWithDefault
  3
AutoCAD 2000
 90
0
 91
1
280
0
281
0
  0
CLASS
  1
ACDBPLACEHOLDER
  2
AcDbPlaceHolder
  3
AutoCAD 2000
 90
0
 91
1
280
0
281
0
  0
CLASS
  1
LAYOUT
  2
AcDbLayout
  3
AutoCAD 2000
 90
0
 91
0
280
0
281
0
  0
ENDSEC
  0
SECTION
  2
TABLES
  0
TABLE
  2
VPORT
  5
8
100
AcDbSymbolTable
 70
2
  0
VPORT
  5
1F4
100
AcDbSymbolTableRecord
100
AcDbViewportTableRecord
  2
*ACTIVE
 70
0
 10
0.0
 20
0.0
 11
1.0
 21
1.0
 12
165.5372328685
 22
234.1169436283
 13
0.0
 23
0.0
 14
1.0
 24
1.0
 15
0.0
 25
0.0
 16
0.0
 26
0.0
 36
1.0
 17
0.0
 27
0.0
 37
0.0
 40
468.2338872566
 41
0.7070707071
 42
50.0
 43
0.0
 44
0.0
 50
0.0
 51
0.0
 71
0
 72
100
 73
1
 74
1
 75
0
 76
0
 77
0
 78
0
  0
ENDTAB
  0
TABLE
  2
LTYPE
  5
5
100
AcDbSymbolTable
 70
6
  0
LTYPE
  5
14
100
AcDbSymbolTableRecord
100
AcDbLinetypeTableRecord
  2
BYBLOCK
 70
0
  3

 72
65
 73
0
 40
0.0
  0
LTYPE
  5
15
100
AcDbSymbolTableRecord
100
AcDbLinetypeTableRecord
  2
BYLAYER
 70
0
  3

 72
65
 73
0
 40
0.0
  0
LTYPE
  5
16
100
AcDbSymbolTableRecord
100
AcDbLinetypeTableRecord
  2
CONTINUOUS
 70
64
  3
Solid line
 72
65
 73
0
 40
0.0
  0
LTYPE
  5
1F5
100
AcDbSymbolTableRecord
100
AcDbLinetypeTableRecord
  2
CENTER
 70
64
  3
____ _ ____ _ ____ _ ____ _ ____ _ ____ _ ____
 72
65
 73
4
 40
0.6
 49
0.375
 74
0
 49
-0.075
 74
0
 49
0.075
 74
0
 49
-0.075
 74
0
  0
LTYPE
  5
1F6
100
AcDbSymbolTableRecord
100
AcDbLinetypeTableRecord
  2
HIDDEN
 70
64
  3
- - - - - - - - - - - - - - - - - - - -
 72
65
 73
2
 40
0.2
 49
0.1
 74
0
 49
-0.1
 74
0
  0
LTYPE
  5
1F7
100
AcDbSymbolTableRecord
100
AcDbLinetypeTableRecord
  2
PHANTOM
 70
64
  3
_____ _ _ _____ _ _ _____ _ _ _____
 72
65
 73
6
 40
0.8
 49
0.45
 74
0
 49
-0.05
 74
0
 49
0.1
 74
0
 49
-0.05
 74
0
 49
0.1
 74
0
 49
-0.05
 74
0
  0
LTYPE
  5
1F8
100
AcDbSymbolTableRecord
100
AcDbLinetypeTableRecord
  2
DOT
 70
64
  3
. . . . . . . . . . . . . . . . . . . .
 72
65
 73
2
 40
0.2
 49
0.1
 74
0
 49
-0.1
 74
0
  0
LTYPE
  5
1F9
100
AcDbSymbolTableRecord
100
AcDbLinetypeTableRecord
  2
DASHED
 70
64
  3
- - - - - - - - - - - - - - - - - - - -
 72
65
 73
2
 40
0.2
 49
0.1
 74
0
 49
-0.1
 74
0
  0
ENDTAB
  0
TABLE
  2
LAYER
  5
2
100
AcDbSymbolTable
 70
36
  0
LAYER
  5
10
100
AcDbSymbolTableRecord
100
AcDbLayerTableRecord
  2
0
 70
0
 62
7
  6
CONTINUOUS
370
-3
390
F
  0
LAYER
  5
1FA
100
AcDbSymbolTableRecord
100
AcDbLayerTableRecord
  2
DEFAULT_1
 70
0
 62
7
  6
CENTER
370
-3
390
F
  0
LAYER
  5
1FB
100
AcDbSymbolTableRecord
100
AcDbLayerTableRecord
  2
DEFAULT_2
 70
0
 62
8
  6
HIDDEN
370
-3
390
F
  0
LAYER
  5
1FC
100
AcDbSymbolTableRecord
100
AcDbLayerTableRecord
  2
DEFAULT_3
 70
0
 62
7
  6
PHANTOM
370
-3
390
F
  0
LAYER
  5
1FD
100
AcDbSymbolTableRecord
100
AcDbLayerTableRecord
  2
00_COMPONENTS
 70
0
 62
7
  6
CONTINUOUS
370
-3
390
F
  0
LAYER
  5
1FE
100
AcDbSymbolTableRecord
100
AcDbLayerTableRecord
  2
01_1_DEFAULT_DATUMS
 70
0
 62
7
  6
CONTINUOUS
370
-3
390
F
  0
LAYER
  5
1FF
100
AcDbSymbolTableRecord
100
AcDbLayerTableRecord
  2
01_PLANES
 70
0
 62
7
  6
CONTINUOUS
370
-3
390
F
  0
LAYER
  5
200
100
AcDbSymbolTableRecord
100
AcDbLayerTableRecord
  2
02_COORD_SYS
 70
0
 62
7
  6
CONTINUOUS
370
-3
390
F
  0
LAYER
  5
201
100
AcDbSymbolTableRecord
100
AcDbLayerTableRecord
  2
03_AXES
 70
0
 62
7
  6
CONTINUOUS
370
-3
390
F
  0
LAYER
  5
202
100
AcDbSymbolTableRecord
100
AcDbLayerTableRecord
  2
04_POINTS
 70
0
 62
7
  6
CONTINUOUS
370
-3
390
F
  0
LAYER
  5
203
100
AcDbSymbolTableRecord
100
AcDbLayerTableRecord
  2
05_CURVES
 70
0
 62
7
  6
CONTINUOUS
370
-3
390
F
  0
LAYER
  5
204
100
AcDbSymbolTableRecord
100
AcDbLayerTableRecord
  2
06_SURFS
 70
0
 62
7
  6
CONTINUOUS
370
-3
390
F
  0
LAYER
  5
205
100
AcDbSymbolTableRecord
100
AcDbLayerTableRecord
  2
07_COSMETICS
 70
0
 62
7
  6
CONTINUOUS
370
-3
390
F
  0
LAYER
  5
206
100
AcDbSymbolTableRecord
100
AcDbLayerTableRecord
  2
10_NOTES
 70
0
 62
7
  6
CONTINUOUS
370
-3
390
F
  0
LAYER
  5
207
100
AcDbSymbolTableRecord
100
AcDbLayerTableRecord
  2
11_NOTES_PUB
 70
0
 62
7
  6
CONTINUOUS
370
-3
390
F
  0
LAYER
  5
208
100
AcDbSymbolTableRecord
100
AcDbLayerTableRecord
  2
13_REF_GTOL
 70
0
 62
7
  6
CONTINUOUS
370
-3
390
F
  0
LAYER
  5
209
100
AcDbSymbolTableRecord
100
AcDbLayerTableRecord
  2
16_MISC
 70
0
 62
7
  6
CONTINUOUS
370
-3
390
F
  0
LAYER
  5
20A
100
AcDbSymbolTableRecord
100
AcDbLayerTableRecord
  2
17_NO_PRINT
 70
0
 62
7
  6
CONTINUOUS
370
-3
390
F
  0
LAYER
  5
20B
100
AcDbSymbolTableRecord
100
AcDbLayerTableRecord
  2
18_DATUM_CAMS_JOINTS
 70
0
 62
7
  6
CONTINUOUS
370
-3
390
F
  0
LAYER
  5
20C
100
AcDbSymbolTableRecord
100
AcDbLayerTableRecord
  2
19_DATUM_FUNCTIONAL
 70
0
 62
7
  6
CONTINUOUS
370
-3
390
F
  0
LAYER
  5
20D
100
AcDbSymbolTableRecord
100
AcDbLayerTableRecord
  2
20_DATUM_KINEMATIC_SCHEME
 70
0
 62
7
  6
CONTINUOUS
370
-3
390
F
  0
LAYER
  5
20E
100
AcDbSymbolTableRecord
100
AcDbLayerTableRecord
  2
INTFCLR_124221
 70
0
 62
7
  6
CONTINUOUS
370
-3
390
F
  0
LAYER
  5
20F
100
AcDbSymbolTableRecord
100
AcDbLayerTableRecord
  2
INTFCLR_88293
 70
0
 62
7
  6
CONTINUOUS
370
-3
390
F
  0
LAYER
  5
210
100
AcDbSymbolTableRecord
100
AcDbLayerTableRecord
  2
INTFCLR_89252
 70
0
 62
7
  6
CONTINUOUS
370
-3
390
F
  0
LAYER
  5
211
100
AcDbSymbolTableRecord
100
AcDbLayerTableRecord
  2
INTF_YELLOW
 70
0
 62
7
  6
CONTINUOUS
370
-3
390
F
  0
ENDTAB
  0
TABLE
  2
STYLE
  5
3
100
AcDbSymbolTable
 70
1
  0
STYLE
  5
11
100
AcDbSymbolTableRecord
100
AcDbTextStyleTableRecord
  2
STANDARD
 70
0
 40
0.0
 41
0.8
 50
0.0
 71
0
 42
0.2
  3
txt
  4

  0
STYLE
  5
212
100
AcDbSymbolTableRecord
100
AcDbTextStyleTableRecord
  2
TEXTSTYLE_1
 70
0
 40
0.0
 41
0.8
 50
0.0
 71
0
 42
0.2
  3
gdt
  4

  0
ENDTAB
  0
TABLE
  2
VIEW
  5
6
100
AcDbSymbolTable
 70
0
  0
ENDTAB
  0
TABLE
  2
UCS
  5
7
100
AcDbSymbolTable
 70
0
  0
ENDTAB
  0
TABLE
  2
APPID
  5
9
100
AcDbSymbolTable
 70
1
  0
APPID
  5
213
100
AcDbSymbolTableRecord
100
AcDbRegAppTableRecord
  2
ACAD
 70
0
  0
ENDTAB
  0
TABLE
  2
BLOCK_RECORD
  5
1
100
AcDbSymbolTable
 70
0
  0
BLOCK_RECORD
  5
214
100
AcDbSymbolTableRecord
100
AcDbBlockTableRecord
  2
*Model_Space
  0
BLOCK_RECORD
  5
215
100
AcDbSymbolTableRecord
100
AcDbBlockTableRecord
  2
*Paper_Space
  0
BLOCK_RECORD
  5
216
100
AcDbSymbolTableRecord
100
AcDbBlockTableRecord
  2
_FILLED
  0
ENDTAB
  0
TABLE
  2
DIMSTYLE
  5
A
100
AcDbSymbolTable
 70
1
100
AcDbDimStyleTable
 71
0
  0
DIMSTYLE
105
217
100
AcDbSymbolTableRecord
100
AcDbDimStyleTableRecord
  2
STANDARD
 70
0
  3

  4

 40
1.0
 41
3.9413626873
 42
1.0
 43
0.38
 44
1.0
 45
0.0
 46
0.0
 47
0.01
 48
0.01
140
5.5179077623
141
0.09
142
0.0
143
25.4
144
1.0
145
0.0
146
1.0
147
0.625
 71
1
 72
0
 73
0
 74
0
 75
0
 76
0
 77
1
 78
8
 79
2
170
0
171
1
172
0
173
0
174
0
175
0
176
0
177
0
178
0
270
2
179
2
271
2
272
2
273
2
274
2
275
0
280
0
281
0
282
0
283
1
284
8
285
0
286
0
287
3
288
0
340
11
278
46
341
216
342
216
343
216
344
216
  0
ENDTAB
  0
ENDSEC
  0
SECTION
  2
BLOCKS
  0
BLOCK
  5
20
100
AcDbEntity
  8
0
100
AcDbBlockBegin
  2
*Model_Space
 70
0
 10
0.0
 20
0.0
 30
0.0
  3
*Model_Space
  1

  0
ENDBLK
  5
21
100
AcDbEntity
  8
0
100
AcDbBlockEnd
  0
BLOCK
  5
1C
100
AcDbEntity
  8
0
100
AcDbBlockBegin
  2
*Paper_Space
 70
0
 10
0.0
 20
0.0
 30
0.0
  3
*Paper_Space
  1

  0
ENDBLK
  5
1D
100
AcDbEntity
  8
0
100
AcDbBlockEnd
  0
BLOCK
  5
218
100
AcDbEntity
  8
0
100
AcDbBlockBegin
  2
_FILLED
 70
64
 10
0.0
 20
0.0
  3
_FILLED
  1

  0
SOLID
  5
219
100
AcDbEntity
  8
0
  6
BYBLOCK
 62
0
100
AcDbTrace
 10
0.0
 20
0.0
 11
-1.0
 21
0.25
 12
-1.0
 22
-0.25
 13
-1.0
 23
-0.25
  0
ENDBLK
  5
21A
100
AcDbEntity
  8
0
  6
BYBLOCK
 62
0
100
AcDbBlockEnd
  0
ENDSEC
  0
SECTION
  2
ENTITIES
  0
LINE
  5
21B
100
AcDbEntity
  8
0
100
AcDbLine
 62
7
  6
CONTINUOUS
 10
46.4255875706
 20
308.6417834326
 11
47.9058686713
 21
309.7790933443
  0
LWPOLYLINE
  5
21C
100
AcDbEntity
  8
0
100
AcDbPolyline
 62
7
  6
CONTINUOUS
 90
4
 70
0
 10
52.2945781036
 20
276.420129178
 10
51.3485550989
 20
263.3879209277
 10
54.1578796826
 20
252.9032322241
 10
58.5440352078
 20
248.2023476589
  0
LINE
  5
21D
100
AcDbEntity
  8
0
100
AcDbLine
 62
7
  6
CONTINUOUS
 10
51.5290648497
 20
271.0168202343
 11
51.5217492255
 21
270.9428891991
  0
LINE
  5
21E
100
AcDbEntity
  8
0
100
AcDbLine
 62
7
  6
CONTINUOUS
 10
54.3330691378
 20
283.7622957855
 11
51.6342139123
 21
270.992211523
  0
LINE
  5
21F
100
AcDbEntity
  8
0
100
AcDbLine
 62
7
  6
CONTINUOUS
 10
56.8818443605
 20
290.4279803249
 11
52.2945781036
 21
276.420129178
  0
LINE
  5
220
100
AcDbEntity
  8
0
100
AcDbLine
 62
7
  6
CONTINUOUS
 10
60.5830460371
 20
297.5091854334
 11
54.3330691378
 21
283.7622957855
  0
LWPOLYLINE
  5
221
100
AcDbEntity
  8
0
100
AcDbPolyline
 62
7
  6
CONTINUOUS
 90
4
 70
0
 10
85.2075785153
 20
322.0337953301
 10
74.3944860923
 20
314.6985051451
 10
64.5570618582
 20
303.7219207864
 10
56.8818443605
 20
290.4279803249
  0
LWPOLYLINE
  5
222
100
AcDbEntity
  8
0
100
AcDbPolyline
 62
7
  6
CONTINUOUS
 90
4
 70
0
 10
85.2816679636
 20
321.986615511
 10
74.5417257214
 20
314.7494178006
 10
69.4495717876
 20
309.70286734
 10
60.5830460371
 20
297.5091854334
  0
LWPOLYLINE
  5
223
100
AcDbEntity
  8
0
100
AcDbPolyline
 62
7
  6
CONTINUOUS
 90
4
 70
0
 10
51.6374325254
 20
267.4429181344
 10
52.3130622609
 20
258.0026276963
 10
54.1666761111
 20
253.098535203
 10
58.0389929693
 20
248.9208590294
  0
LINE
  5
224
100
AcDbEntity
  8
0
100
AcDbLine
 62
7
  6
CONTINUOUS
 10
268.3110291418
 20
144.4575139018
 11
268.8150897661
 21
144.5664385039
  0
LINE
  5
225
100
AcDbEntity
  8
0
100
AcDbLine
 62
7
  6
CONTINUOUS
 10
267.1077549464
 20
151.4765851493
 11
269.7214342925
 21
152.041386225
  0
LINE
  5
226
100
AcDbEntity
  8
0
100
AcDbLine
 62
7
  6
CONTINUOUS
 10
267.8569348449
 20
152.3467639347
 11
268.4762714593
 21
152.4805990154
  0
LINE
  5
227
100
AcDbEntity
  8
0
100
AcDbLine
 62
7
  6
CONTINUOUS
 10
250.9478445071
 20
137.0636263792
 11
241.9890241389
 21
139.3047146103
  0
LINE
  5
228
100
AcDbEntity
  8
0
100
AcDbLine
 62
7
  6
CONTINUOUS
 10
243.2153428662
 20
158.919507575
 11
242.9282400877
 21
158.9544362017
  0
LWPOLYLINE
  5
229
100
AcDbEntity
  8
0
100
AcDbPolyline
 62
7
  6
CONTINUOUS
 90
4
 70
0
 10
241.3122880646
 20
141.0497462603
 10
249.8231298813
 20
137.7250980116
 10
260.2254261355
 20
139.3800730468
 10
268.4834510494
 20
144.1596051578
  0
LINE
  5
22A
100
AcDbEntity
  8
0
100
AcDbLine
 62
7
  6
CONTINUOUS
 10
268.616276405
 20
202.4709577983
 11
268.3721506279
 21
202.4349500404
  0
LINE
  5
22B
100
AcDbEntity
  8
0
100
AcDbLine
 62
7
  6
CONTINUOUS
 10
242.505410153
 20
159.0757609096
 11
242.9282400877
 21
158.9544362017
  0
LINE
  5
22C
100
AcDbEntity
  8
0
100
AcDbLine
 62
7
  6
CONTINUOUS
 10
242.960217474
 20
166.5567493752
 11
245.1526955477
 21
165.9276506762
  0
LINE
  5
22D
100
AcDbEntity
  8
0
100
AcDbLine
 62
7
  6
CONTINUOUS
 10
243.6549931826
 20
166.9700093249
 11
244.1745220795
 21
166.8209383002
  0
LINE
  5
22E
100
AcDbEntity
  8
0
100
AcDbLine
 62
7
  6
CONTINUOUS
 10
241.9890241389
 20
139.3047146103
 11
240.2919607985
 21
140.2844924212
  0
LINE
  5
22F
100
AcDbEntity
  8
0
100
AcDbLine
 62
7
  6
CONTINUOUS
 10
202.1912564155
 20
162.2814467154
 11
239.443429129
 21
140.7743813262
  0
LINE
  5
230
100
AcDbEntity
  8
0
100
AcDbLine
 62
7
  6
CONTINUOUS
 10
196.228304769
 20
167.8025297851
 11
61.232520479
 21
245.7406189892
  0
LINE
  5
231
100
AcDbEntity
  8
0
100
AcDbLine
 62
7
  6
CONTINUOUS
 10
47.4435978786
 20
253.7014770699
 11
60.3837058487
 21
246.2306712622
  0
LINE
  5
232
100
AcDbEntity
  8
0
100
AcDbLine
 62
7
  6
CONTINUOUS
 10
240.2919607985
 20
140.2844924212
 11
238.3746141574
 21
141.593629383
  0
LINE
  5
233
100
AcDbEntity
  8
0
100
AcDbLine
 62
7
  6
CONTINUOUS
 10
274.83378721
 20
227.8627123809
 11
273.4045117154
 21
227.53836036
  0
LINE
  5
234
100
AcDbEntity
  8
0
100
AcDbLine
 62
7
  6
CONTINUOUS
 10
267.905942188
 20
202.4523661064
 11
268.3721506279
 21
202.4349500404
  0
LINE
  5
235
100
AcDbEntity
  8
0
100
AcDbLine
 62
7
  6
CONTINUOUS
 10
267.6299044748
 20
209.8158003599
 11
270.0473108561
 21
209.7254937381
  0
LINE
  5
236
100
AcDbEntity
  8
0
100
AcDbLine
 62
7
  6
CONTINUOUS
 10
268.3647755724
 20
210.4417551717
 11
268.9376034084
 21
210.4203561437
  0
LINE
  5
237
100
AcDbEntity
  8
0
100
AcDbLine
 62
7
  6
CONTINUOUS
 10
265.2052951452
 20
203.4690904548
 11
265.2001756222
 21
203.4694975177
  0
LINE
  5
238
100
AcDbEntity
  8
0
100
AcDbLine
 62
7
  6
CONTINUOUS
 10
263.4457817982
 20
145.8508955678
 11
263.9516162948
 21
145.5589187014
  0
LINE
  5
239
100
AcDbEntity
  8
0
100
AcDbLine
 62
7
  6
CONTINUOUS
 10
238.3435955771
 20
160.3440639134
 11
238.8494300737
 21
160.0520870471
  0
LINE
  5
23A
100
AcDbEntity
  8
0
100
AcDbLine
 62
7
  6
CONTINUOUS
 10
266.2671104984
 20
144.8076007595
 11
265.5600007732
 21
145.215841514
  0
LINE
  5
23B
100
AcDbEntity
  8
0
100
AcDbLine
 62
7
  6
CONTINUOUS
 10
239.9942337157
 20
160.2686016406
 11
240.7013434408
 21
159.8603608861
  0
LINE
  5
23C
100
AcDbEntity
  8
0
100
AcDbLine
 62
7
  6
CONTINUOUS
 10
240.6607258632
 20
159.9464150706
 11
239.9536161381
 21
160.3546558251
  0
LINE
  5
23D
100
AcDbEntity
  8
0
100
AcDbLine
 62
7
  6
CONTINUOUS
 10
264.9613018832
 20
147.9559927176
 11
265.6684116084
 21
147.5477519631
  0
LINE
  5
23E
100
AcDbEntity
  8
0
100
AcDbLine
 62
7
  6
CONTINUOUS
 10
265.699214592
 20
147.679228096
 11
264.9921048668
 21
148.0874688505
  0
LINE
  5
23F
100
AcDbEntity
  8
0
100
AcDbLine
 62
7
  6
CONTINUOUS
 10
240.2785502378
 20
163.6822178433
 11
240.9856599629
 21
163.2739770887
  0
LINE
  5
240
100
AcDbEntity
  8
0
100
AcDbLine
 62
7
  6
CONTINUOUS
 10
241.0474787055
 20
163.4050382874
 11
240.3403689804
 21
163.8132790419
  0
LINE
  5
241
100
AcDbEntity
  8
0
100
AcDbLine
 62
7
  6
CONTINUOUS
 10
267.0070853229
 20
151.3924211299
 11
267.7141950481
 21
150.9841803754
  0
LINE
  5
242
100
AcDbEntity
  8
0
100
AcDbLine
 62
7
  6
CONTINUOUS
 10
267.8148646716
 20
151.0683443947
 11
267.1077549464
 21
151.4765851493
  0
LINE
  5
243
100
AcDbEntity
  8
0
100
AcDbLine
 62
7
  6
CONTINUOUS
 10
242.8577811538
 20
166.5117423611
 11
243.5648908789
 21
166.1035016065
  0
LINE
  5
244
100
AcDbEntity
  8
0
100
AcDbLine
 62
7
  6
CONTINUOUS
 10
243.6673271992
 20
166.1485086207
 11
242.960217474
 21
166.5567493752
  0
LINE
  5
245
100
AcDbEntity
  8
0
100
AcDbLine
 62
7
  6
CONTINUOUS
 10
245.1526955477
 20
165.9276506762
 11
245.8598052729
 21
165.5194099216
  0
LINE
  5
246
100
AcDbEntity
  8
0
100
AcDbLine
 62
7
  6
CONTINUOUS
 10
269.7214342925
 20
152.041386225
 11
270.4285440177
 21
151.6331454705
  0
LINE
  5
247
100
AcDbEntity
  8
0
100
AcDbLine
 62
7
  6
CONTINUOUS
 10
267.9457054466
 20
153.645168283
 11
268.4406822542
 21
153.3593997548
  0
LINE
  5
248
100
AcDbEntity
  8
0
100
AcDbLine
 62
7
  6
CONTINUOUS
 10
242.8435192255
 20
168.1383366286
 11
243.3384960331
 21
167.8525681005
  0
LINE
  5
249
100
AcDbEntity
  8
0
100
AcDbLine
 62
7
  6
CONTINUOUS
 10
194.5540825596
 20
169.6935827999
 11
198.2500205146
 21
165.5189788714
  0
LINE
  5
24A
100
AcDbEntity
  8
0
100
AcDbLine
 62
7
  6
CONTINUOUS
 10
296.1967285372
 20
194.1732667176
 11
296.4902083652
 21
194.1210573849
  0
LINE
  5
24B
100
AcDbEntity
  8
0
100
AcDbLine
 62
7
  6
CONTINUOUS
 10
293.2986837109
 20
187.8839692622
 11
293.016350655
 21
187.9575396249
  0
LINE
  5
24C
100
AcDbEntity
  8
0
100
AcDbLine
 62
7
  6
CONTINUOUS
 10
243.3493015796
 20
167.8462694468
 11
243.3384960331
 21
167.8525681005
  0
LINE
  5
24D
100
AcDbEntity
  8
0
100
AcDbLine
 62
7
  6
CONTINUOUS
 10
268.4514878007
 20
153.3531011011
 11
268.4406822542
 21
153.3593997548
  0
LINE
  5
24E
100
AcDbEntity
  8
0
100
AcDbLine
 62
7
  6
CONTINUOUS
 10
269.5626787759
 20
152.1341944064
 11
269.5501926561
 21
152.1414785891
  0
LINE
  5
24F
100
AcDbEntity
  8
0
100
AcDbLine
 62
7
  6
CONTINUOUS
 10
270.4725475772
 20
151.6067376805
 11
270.4285440177
 21
151.6331454705
  0
LINE
  5
250
100
AcDbEntity
  8
0
100
AcDbLine
 62
7
  6
CONTINUOUS
 10
270.6279851251
 20
151.500673442
 11
270.4723725147
 21
151.6067082268
  0
LINE
  5
251
100
AcDbEntity
  8
0
100
AcDbLine
 62
7
  6
CONTINUOUS
 10
246.2066502296
 20
165.266016959
 11
245.8598052729
 21
165.5194099216
  0
LINE
  5
252
100
AcDbEntity
  8
0
100
AcDbLine
 62
7
  6
CONTINUOUS
 10
265.5547802324
 20
203.1831662389
 11
265.706588572
 21
203.1411434686
  0
LINE
  5
253
100
AcDbEntity
  8
0
100
AcDbLine
 62
7
  6
CONTINUOUS
 10
296.1967285372
 20
194.1732667176
 11
295.7920289026
 21
194.3314748677
  0
LINE
  5
254
100
AcDbEntity
  8
0
100
AcDbLine
 62
7
  6
CONTINUOUS
 10
293.3187923665
 20
195.6014987753
 11
295.4172603377
 21
194.7811502808
  0
LINE
  5
255
100
AcDbEntity
  8
0
100
AcDbLine
 62
7
  6
CONTINUOUS
 10
293.9930152398
 20
195.9366201547
 11
294.490267533
 21
195.7422306402
  0
LWPOLYLINE
  5
256
100
AcDbEntity
  8
0
100
AcDbPolyline
 62
7
  6
CONTINUOUS
 90
3
 70
0
 10
231.9473615249
 20
150.0202295956
 10
237.5260824879
 20
142.083518288
 10
239.443429129
 20
140.7743813262
  0
LINE
  5
257
100
AcDbEntity
  8
0
100
AcDbLine
 62
7
  6
CONTINUOUS
 10
238.3746141574
 20
141.593629383
 11
233.9795490118
 21
147.8463822038
  0
LINE
  5
258
100
AcDbEntity
  8
0
100
AcDbLine
 62
7
  6
CONTINUOUS
 10
234.4234620311
 20
148.6494310282
 11
240.0716774978
 21
140.6138515721
  0
LINE
  5
259
100
AcDbEntity
  8
0
100
AcDbLine
 62
7
  6
CONTINUOUS
 10
235.7966100518
 20
148.9000013436
 11
241.3122880646
 21
141.0497462603
  0
LINE
  5
25A
100
AcDbEntity
  8
0
100
AcDbLine
 62
7
  6
CONTINUOUS
 10
241.454254427
 20
244.0356005661
 11
243.4160377339
 21
243.7505852668
  0
LINE
  5
25B
100
AcDbEntity
  8
0
100
AcDbLine
 62
7
  6
CONTINUOUS
 10
237.9527338893
 20
244.8639524247
 11
236.0677160161
 21
245.1378149514
  0
LINE
  5
25C
100
AcDbEntity
  8
0
100
AcDbLine
 62
7
  6
CONTINUOUS
 10
285.4426486458
 20
220.4491690815
 11
278.7064271433
 21
222.5285351752
  0
LINE
  5
25D
100
AcDbEntity
  8
0
100
AcDbLine
 62
7
  6
CONTINUOUS
 10
290.0970369671
 20
189.4059665101
 11
290.1384138101
 21
189.3857718857
  0
LINE
  5
25E
100
AcDbEntity
  8
0
100
AcDbLine
 62
7
  6
CONTINUOUS
 10
288.5479680193
 20
189.3293988383
 11
289.0538025158
 21
189.0374219719
  0
LINE
  5
25F
100
AcDbEntity
  8
0
100
AcDbLine
 62
7
  6
CONTINUOUS
 10
263.4457817982
 20
203.822567184
 11
263.9516162948
 21
203.5305903176
  0
LINE
  5
260
100
AcDbEntity
  8
0
100
AcDbLine
 62
7
  6
CONTINUOUS
 10
265.3039908495
 20
203.4277651197
 11
266.0111005746
 21
203.0195243651
  0
LINE
  5
261
100
AcDbEntity
  8
0
100
AcDbLine
 62
7
  6
CONTINUOUS
 10
265.9564746274
 20
203.0890420654
 11
265.2493649022
 21
203.4972828199
  0
LINE
  5
262
100
AcDbEntity
  8
0
100
AcDbLine
 62
7
  6
CONTINUOUS
 10
290.1384138101
 20
189.3857718857
 11
290.8455235352
 21
188.9775311312
  0
LINE
  5
263
100
AcDbEntity
  8
0
100
AcDbLine
 62
7
  6
CONTINUOUS
 10
290.8102071937
 20
189.0690698908
 11
290.1030974685
 21
189.4773106453
  0
LINE
  5
264
100
AcDbEntity
  8
0
100
AcDbLine
 62
7
  6
CONTINUOUS
 10
237.9527338895
 20
244.8639524257
 11
243.4160377337
 21
243.7505852658
  0
LINE
  5
265
100
AcDbEntity
  8
0
100
AcDbLine
 62
7
  6
CONTINUOUS
 10
290.0791991801
 20
216.4179892066
 11
282.5862743936
 21
219.3450015757
  0
LINE
  5
266
100
AcDbEntity
  8
0
100
AcDbLine
 62
7
  6
CONTINUOUS
 10
265.1551404921
 20
206.6033106393
 11
265.8622502173
 21
206.1950698848
  0
LINE
  5
267
100
AcDbEntity
  8
0
100
AcDbLine
 62
7
  6
CONTINUOUS
 10
265.9107282494
 20
206.3282129964
 11
265.2036185242
 21
206.7364537509
  0
LINE
  5
268
100
AcDbEntity
  8
0
100
AcDbLine
 62
7
  6
CONTINUOUS
 10
290.5777654786
 20
192.8657965757
 11
291.2848752037
 21
192.4575558212
  0
LINE
  5
269
100
AcDbEntity
  8
0
100
AcDbLine
 62
7
  6
CONTINUOUS
 10
291.3511624863
 20
192.5871075828
 11
290.6440527611
 21
192.9953483373
  0
LINE
  5
26A
100
AcDbEntity
  8
0
100
AcDbLine
 62
7
  6
CONTINUOUS
 10
267.5268004954
 20
209.7521749486
 11
268.2339102206
 21
209.343934194
  0
LINE
  5
26B
100
AcDbEntity
  8
0
100
AcDbLine
 62
7
  6
CONTINUOUS
 10
268.3370141999
 20
209.4075596054
 11
267.6299044748
 21
209.8158003599
  0
LINE
  5
26C
100
AcDbEntity
  8
0
100
AcDbLine
 62
7
  6
CONTINUOUS
 10
293.2171887423
 20
195.5634857732
 11
293.9242984675
 21
195.1552450187
  0
LINE
  5
26D
100
AcDbEntity
  8
0
100
AcDbLine
 62
7
  6
CONTINUOUS
 10
294.0259020916
 20
195.1932580208
 11
293.3187923665
 21
195.6014987753
  0
LINE
  5
26E
100
AcDbEntity
  8
0
100
AcDbLine
 62
7
  6
CONTINUOUS
 10
295.4172603377
 20
194.7811502808
 11
296.1243700628
 21
194.3729095263
  0
LINE
  5
26F
100
AcDbEntity
  8
0
100
AcDbLine
 62
7
  6
CONTINUOUS
 10
270.0473108561
 20
209.7254937381
 11
270.7544205813
 21
209.3172529836
  0
LINE
  5
270
100
AcDbEntity
  8
0
100
AcDbLine
 62
7
  6
CONTINUOUS
 10
268.4514878007
 20
211.3247727173
 11
267.9457054466
 21
211.6168398991
  0
LINE
  5
271
100
AcDbEntity
  8
0
100
AcDbLine
 62
7
  6
CONTINUOUS
 10
293.5536740217
 20
196.8316043716
 11
293.0478916677
 21
197.1236715535
  0
LINE
  5
272
100
AcDbEntity
  8
0
100
AcDbLine
 62
7
  6
CONTINUOUS
 10
243.4160377339
 20
243.7505852668
 11
248.1904759294
 21
241.9562344723
  0
LINE
  5
273
100
AcDbEntity
  8
0
100
AcDbLine
 62
7
  6
CONTINUOUS
 10
240.4275548263
 20
244.3596084543
 11
105.4317705364
 21
322.2976976585
  0
LINE
  5
274
100
AcDbEntity
  8
0
100
AcDbLine
 62
7
  6
CONTINUOUS
 10
104.5835218262
 20
322.7874231964
 11
91.643413856
 21
330.2582290041
  0
LINE
  5
275
100
AcDbEntity
  8
0
100
AcDbLine
 62
7
  6
CONTINUOUS
 10
296.4902083652
 20
194.1210573849
 11
296.1243700628
 21
194.3729095263
  0
LINE
  5
276
100
AcDbEntity
  8
0
100
AcDbLine
 62
7
  6
CONTINUOUS
 10
271.0210735065
 20
209.1191901013
 11
270.7544205813
 21
209.3172529836
  0
LINE
  5
277
100
AcDbEntity
  8
0
100
AcDbLine
 62
7
  6
CONTINUOUS
 10
287.9882436556
 20
218.9795023656
 11
286.2911803153
 21
219.9592801765
  0
LINE
  5
278
100
AcDbEntity
  8
0
100
AcDbLine
 62
7
  6
CONTINUOUS
 10
248.1904759323
 20
241.9562344707
 11
285.4426486458
 21
220.4491690815
  0
LINE
  5
279
100
AcDbEntity
  8
0
100
AcDbLine
 62
7
  6
CONTINUOUS
 10
294.6561653206
 20
195.6171536193
 11
294.490267533
 21
195.7422306402
  0
LINE
  5
27A
100
AcDbEntity
  8
0
100
AcDbLine
 62
7
  6
CONTINUOUS
 10
269.676561674
 20
210.0098009313
 11
269.5511830797
 21
210.112458323
  0
LINE
  5
27B
100
AcDbEntity
  8
0
100
AcDbLine
 62
7
  6
CONTINUOUS
 10
233.8760709478
 20
160.3628808092
 11
235.7966100518
 21
148.9000013436
  0
LINE
  5
27C
100
AcDbEntity
  8
0
100
AcDbLine
 62
7
  6
CONTINUOUS
 10
232.4618573854
 20
160.3628774099
 11
234.4234620311
 21
148.6494310282
  0
LINE
  5
27D
100
AcDbEntity
  8
0
100
AcDbLine
 62
7
  6
CONTINUOUS
 10
261.8933594277
 20
212.7208615319
 11
260.147940353
 21
211.7106579298
  0
LINE
  5
27E
100
AcDbEntity
  8
0
100
AcDbLine
 62
7
  6
CONTINUOUS
 10
98.9591403101
 20
324.2956972529
 11
105.4317705364
 21
322.2976976585
  0
LINE
  5
27F
100
AcDbEntity
  8
0
100
AcDbLine
 62
7
  6
CONTINUOUS
 10
246.6753245944
 20
163.1124766505
 11
246.207323799
 21
165.2657172407
  0
LINE
  5
280
100
AcDbEntity
  8
0
100
AcDbLine
 62
7
  6
CONTINUOUS
 10
241.7737681072
 20
161.4003512634
 11
241.7586111542
 21
161.0701443239
  0
LINE
  5
281
100
AcDbEntity
  8
0
100
AcDbLine
 62
7
  6
CONTINUOUS
 10
239.3729756937
 20
161.6740668684
 11
239.393615744
 21
162.0599787246
  0
LINE
  5
282
100
AcDbEntity
  8
0
100
AcDbLine
 62
7
  6
CONTINUOUS
 10
235.8137838917
 20
174.107630939
 11
233.8760709478
 21
160.3628808092
  0
LINE
  5
283
100
AcDbEntity
  8
0
100
AcDbLine
 62
7
  6
CONTINUOUS
 10
104.5835218262
 20
322.7874231964
 11
101.6427737041
 21
323.4673016478
  0
LWPOLYLINE
  5
284
100
AcDbEntity
  8
0
100
AcDbPolyline
 62
7
  6
CONTINUOUS
 90
3
 70
0
 10
98.9135009443
 20
324.0982886145
 10
95.6921205967
 20
324.8430470879
 10
85.2075785153
 20
322.0337953301
  0
LWPOLYLINE
  5
285
100
AcDbEntity
  8
0
100
AcDbPolyline
 62
7
  6
CONTINUOUS
 90
3
 70
0
 10
98.8901451095
 20
323.9989799957
 10
95.6853052914
 20
324.744196396
 10
85.2816679636
 20
321.986615511
  0
LINE
  5
286
100
AcDbEntity
  8
0
100
AcDbLine
 62
7
  6
CONTINUOUS
 10
280.0127319991
 20
223.5840619984
 11
277.2054014823
 21
226.7262374243
  0
LINE
  5
287
100
AcDbEntity
  8
0
100
AcDbLine
 62
7
  6
CONTINUOUS
 10
264.6330302814
 20
146.1769504353
 11
264.5445547664
 21
146.4862549972
  0
LINE
  5
288
100
AcDbEntity
  8
0
100
AcDbLine
 62
7
  6
CONTINUOUS
 10
266.8292727168
 20
145.9111890453
 11
266.9031792946
 21
145.6376246055
  0
LINE
  5
289
100
AcDbEntity
  8
0
100
AcDbLine
 62
7
  6
CONTINUOUS
 10
265.5600007732
 20
145.215841514
 11
264.9613018832
 21
147.9559927176
  0
LINE
  5
28A
100
AcDbEntity
  8
0
100
AcDbLine
 62
7
  6
CONTINUOUS
 10
239.9536161381
 20
160.3546558251
 11
240.2785502378
 21
163.6822178433
  0
LINE
  5
28B
100
AcDbEntity
  8
0
100
AcDbLine
 62
7
  6
CONTINUOUS
 10
239.393615744
 20
162.0599787246
 11
239.4499719731
 21
162.4625648904
  0
LINE
  5
28C
100
AcDbEntity
  8
0
100
AcDbLine
 62
7
  6
CONTINUOUS
 10
241.7586111542
 20
161.0701443239
 11
241.7111030043
 21
160.7586149342
  0
LINE
  5
28D
100
AcDbEntity
  8
0
100
AcDbLine
 62
7
  6
CONTINUOUS
 10
236.6857826418
 20
177.0807473889
 11
236.6671824613
 21
177.0222599549
  0
LINE
  5
28E
100
AcDbEntity
  8
0
100
AcDbLine
 62
7
  6
CONTINUOUS
 10
241.3363765905
 20
188.309608847
 11
241.2173295846
 21
188.0034658739
  0
LINE
  5
28F
100
AcDbEntity
  8
0
100
AcDbLine
 62
7
  6
CONTINUOUS
 10
240.9358724745
 20
187.2796667678
 11
240.9155885586
 21
187.2275043612
  0
LINE
  5
290
100
AcDbEntity
  8
0
100
AcDbLine
 62
7
  6
CONTINUOUS
 10
240.8427436165
 20
187.0401752722
 11
237.290192253
 21
177.9043836734
  0
LINE
  5
291
100
AcDbEntity
  8
0
100
AcDbLine
 62
7
  6
CONTINUOUS
 10
236.9763477979
 20
177.09729681
 11
235.8137838917
 21
174.107630939
  0
LINE
  5
292
100
AcDbEntity
  8
0
100
AcDbLine
 62
7
  6
CONTINUOUS
 10
240.7205131668
 20
187.0810192751
 11
240.6534988699
 21
186.9439548149
  0
LINE
  5
293
100
AcDbEntity
  8
0
100
AcDbLine
 62
7
  6
CONTINUOUS
 10
240.8353709941
 20
187.3143488792
 11
240.8102997019
 21
187.2635870183
  0
LINE
  5
294
100
AcDbEntity
  8
0
100
AcDbLine
 62
7
  6
CONTINUOUS
 10
241.3363765905
 20
188.309608847
 11
241.1863005475
 21
188.015215614
  0
LINE
  5
295
100
AcDbEntity
  8
0
100
AcDbLine
 62
7
  6
CONTINUOUS
 10
241.6164911572
 20
188.8509219459
 11
241.5296530652
 21
188.6842247722
  0
LINE
  5
296
100
AcDbEntity
  8
0
100
AcDbLine
 62
7
  6
CONTINUOUS
 10
241.9412711025
 20
189.4658003693
 11
241.8159497696
 21
189.2301187394
  0
LINE
  5
297
100
AcDbEntity
  8
0
100
AcDbLine
 62
7
  6
CONTINUOUS
 10
249.5093047
 20
200.9362606582
 11
243.082656046
 21
191.0074990467
  0
LINE
  5
298
100
AcDbEntity
  8
0
100
AcDbLine
 62
7
  6
CONTINUOUS
 10
242.0522817768
 20
189.415636625
 11
241.9064479229
 21
189.1903326372
  0
LINE
  5
299
100
AcDbEntity
  8
0
100
AcDbLine
 62
7
  6
CONTINUOUS
 10
241.6717304031
 20
188.8277090638
 11
241.5685014226
 21
188.6682268836
  0
LINE
  5
29A
100
AcDbEntity
  8
0
100
AcDbLine
 62
7
  6
CONTINUOUS
 10
249.404791929
 20
200.8901503187
 11
249.1842742564
 21
200.6096588023
  0
LINE
  5
29B
100
AcDbEntity
  8
0
100
AcDbLine
 62
7
  6
CONTINUOUS
 10
249.4766885142
 20
200.9809959147
 11
249.404791929
 21
200.8901503187
  0
LINE
  5
29C
100
AcDbEntity
  8
0
100
AcDbLine
 62
7
  6
CONTINUOUS
 10
260.147940353
 20
211.7106579298
 11
252.5637067049
 21
204.1437218581
  0
LINE
  5
29D
100
AcDbEntity
  8
0
100
AcDbLine
 62
7
  6
CONTINUOUS
 10
271.7331783437
 20
149.6757059994
 11
271.659271766
 21
149.9492704392
  0
LINE
  5
29E
100
AcDbEntity
  8
0
100
AcDbLine
 62
7
  6
CONTINUOUS
 10
266.9031792946
 20
145.6376246055
 11
266.9447346753
 21
145.3827377154
  0
LINE
  5
29F
100
AcDbEntity
  8
0
100
AcDbLine
 62
7
  6
CONTINUOUS
 10
264.5445547664
 20
146.4862549972
 11
264.4911627857
 21
146.8262557802
  0
LINE
  5
2A0
100
AcDbEntity
  8
0
100
AcDbLine
 62
7
  6
CONTINUOUS
 10
264.5065189339
 20
204.6683679035
 11
264.477377609
 21
205.02469885
  0
LINE
  5
2A1
100
AcDbEntity
  8
0
100
AcDbLine
 62
7
  6
CONTINUOUS
 10
266.8447806635
 20
204.1020042194
 11
266.8195192498
 21
204.4108491913
  0
LINE
  5
2A2
100
AcDbEntity
  8
0
100
AcDbLine
 62
7
  6
CONTINUOUS
 10
265.2493649022
 20
203.4972828199
 11
265.1551404921
 21
206.6033106393
  0
LINE
  5
2A3
100
AcDbEntity
  8
0
100
AcDbLine
 62
7
  6
CONTINUOUS
 10
264.477377609
 20
205.02469885
 11
264.484191548
 21
205.4043712533
  0
LINE
  5
2A4
100
AcDbEntity
  8
0
100
AcDbLine
 62
7
  6
CONTINUOUS
 10
265.549198516
 20
208.3293732691
 11
266.0996989662
 21
209.0439775909
  0
LINE
  5
2A5
100
AcDbEntity
  8
0
100
AcDbLine
 62
7
  6
CONTINUOUS
 10
265.2036185242
 20
206.7364537509
 11
267.5268004954
 21
209.7521749486
  0
LINE
  5
2A6
100
AcDbEntity
  8
0
100
AcDbLine
 62
7
  6
CONTINUOUS
 10
271.4431491876
 20
208.5127871423
 11
271.766315561
 21
207.4635145898
  0
LINE
  5
2A7
100
AcDbEntity
  8
0
100
AcDbLine
 62
7
  6
CONTINUOUS
 10
271.7686517139
 20
149.4581241404
 11
271.7331783437
 21
149.6757059994
  0
LINE
  5
2A8
100
AcDbEntity
  8
0
100
AcDbLine
 62
7
  6
CONTINUOUS
 10
271.7952113153
 20
207.1012228581
 11
271.772018575
 21
207.4175946458
  0
LINE
  5
2A9
100
AcDbEntity
  8
0
100
AcDbLine
 62
7
  6
CONTINUOUS
 10
266.8376908802
 20
203.8118367972
 11
266.8447806635
 21
204.1020042194
  0
LINE
  5
2AA
100
AcDbEntity
  8
0
100
AcDbLine
 62
7
  6
CONTINUOUS
 10
287.7835704314
 20
219.1371998883
 11
287.7624891654
 21
219.1098388327
  0
LINE
  5
2AB
100
AcDbEntity
  8
0
100
AcDbLine
 62
7
  6
CONTINUOUS
 10
287.7970288092
 20
219.1276019795
 11
287.7744420457
 21
219.1012940156
  0
LINE
  5
2AC
100
AcDbEntity
  8
0
100
AcDbLine
 62
7
  6
CONTINUOUS
 10
240.8080591072
 20
165.3418296577
 11
241.4045842834
 21
165.981256655
  0
LINE
  5
2AD
100
AcDbEntity
  8
0
100
AcDbLine
 62
7
  6
CONTINUOUS
 10
240.3403689804
 20
163.8132790419
 11
242.8577811538
 21
166.5117423611
  0
LINE
  5
2AE
100
AcDbEntity
  8
0
100
AcDbLine
 62
7
  6
CONTINUOUS
 10
291.1511702501
 20
194.4929729195
 11
291.7608997219
 21
195.1015179376
  0
LINE
  5
2AF
100
AcDbEntity
  8
0
100
AcDbLine
 62
7
  6
CONTINUOUS
 10
290.6440527611
 20
192.9953483373
 11
293.2171887423
 21
195.5634857732
  0
LINE
  5
2B0
100
AcDbEntity
  8
0
100
AcDbLine
 62
7
  6
CONTINUOUS
 10
293.8050939404
 20
193.588102144
 11
293.3088522987
 21
193.0928244958
  0
LINE
  5
2B1
100
AcDbEntity
  8
0
100
AcDbLine
 62
7
  6
CONTINUOUS
 10
268.8974789441
 20
144.5966886874
 11
268.8150897661
 21
144.5664385039
  0
LINE
  5
2B2
100
AcDbEntity
  8
0
100
AcDbLine
 62
7
  6
CONTINUOUS
 10
292.012554845
 20
190.5593427744
 11
291.9829594399
 21
190.2232611003
  0
LINE
  5
2B3
100
AcDbEntity
  8
0
100
AcDbLine
 62
7
  6
CONTINUOUS
 10
289.5824372217
 20
190.8439342253
 11
289.6209668135
 21
191.2383165957
  0
LINE
  5
2B4
100
AcDbEntity
  8
0
100
AcDbLine
 62
7
  6
CONTINUOUS
 10
290.1030974685
 20
189.4773106453
 11
290.5777654786
 21
192.8657965757
  0
LINE
  5
2B5
100
AcDbEntity
  8
0
100
AcDbLine
 62
7
  6
CONTINUOUS
 10
289.6209668135
 20
191.2383165957
 11
289.6949144002
 21
191.6468687579
  0
LINE
  5
2B6
100
AcDbEntity
  8
0
100
AcDbLine
 62
7
  6
CONTINUOUS
 10
291.9829594399
 20
190.2232611003
 11
291.9210128377
 21
189.9058569758
  0
LINE
  5
2B7
100
AcDbEntity
  8
0
100
AcDbLine
 62
7
  6
CONTINUOUS
 10
265.1678691362
 20
149.71463618
 11
265.6453382548
 21
150.4977766056
  0
LINE
  5
2B8
100
AcDbEntity
  8
0
100
AcDbLine
 62
7
  6
CONTINUOUS
 10
264.9921048668
 20
148.0874688505
 11
267.0070853229
 21
151.3924211299
  0
LWPOLYLINE
  5
2B9
100
AcDbEntity
  8
0
100
AcDbPolyline
 62
7
  6
CONTINUOUS
 90
3
 70
0
 10
272.4676825249
 20
146.4383338588
 10
261.5215241405
 20
139.5226752191
 10
250.9478445071
 20
137.0636263792
  0
LWPOLYLINE
  5
2BA
100
AcDbEntity
  8
0
100
AcDbPolyline
 62
7
  6
CONTINUOUS
 90
5
 70
0
 10
268.9082540714
 20
144.4054702049
 10
271.2435468917
 20
145.7570775371
 10
281.5897473651
 20
156.0796811381
 10
290.0551106543
 20
169.1581266199
 10
295.577703353
 20
183.360104528
  0
LWPOLYLINE
  5
2BB
100
AcDbEntity
  8
0
100
AcDbPolyline
 62
7
  6
CONTINUOUS
 90
3
 70
0
 10
297.4568827615
 20
197.4542163869
 10
295.5948771929
 20
208.5677341233
 10
290.0791991801
 20
216.4179892066
  0
LWPOLYLINE
  5
2BC
100
AcDbEntity
  8
0
100
AcDbPolyline
 62
7
  6
CONTINUOUS
 90
5
 70
0
 10
297.3303474476
 20
194.0064659054
 10
295.9670852898
 20
184.0046580828
 10
290.678530931
 20
169.9833806083
 10
282.54919574
 20
156.9863035208
 10
272.4676825249
 20
146.4383338588
  0
LINE
  5
2BD
100
AcDbEntity
  8
0
100
AcDbLine
 62
7
  6
CONTINUOUS
 10
295.577703353
 20
183.360104528
 11
297.0829731485
 21
194.0374121656
  0
LINE
  5
2BE
100
AcDbEntity
  8
0
100
AcDbLine
 62
7
  6
CONTINUOUS
 10
268.9409006656
 20
144.0565501026
 11
269.0156872493
 21
144.1086827734
  0
ARC
  5
2BF
100
AcDbEntity
  8
0
100
AcDbCircle
 62
7
  6
CONTINUOUS
 10
109.2053247883
 20
264.4552699331
 40
57.2245577305
100
AcDbArc
 50
168.1597722848
 51
169.7977752226
  0
ARC
  5
2C0
100
AcDbEntity
  8
0
100
AcDbCircle
 62
7
  6
CONTINUOUS
 10
104.4952987097
 20
265.2483388569
 40
52.4485599441
100
AcDbArc
 50
169.7390858508
 51
173.9725500851
  0
ARC
  5
2C1
100
AcDbEntity
  8
0
100
AcDbCircle
 62
7
  6
CONTINUOUS
 10
99.5735052363
 20
266.2224790747
 40
48.2830563186
100
AcDbArc
 50
174.389495879
 51
175.3869221156
  0
ARC
  5
2C2
100
AcDbEntity
  8
0
100
AcDbCircle
 62
7
  6
CONTINUOUS
 10
96.9195134781
 20
266.4272719029
 40
45.6211922366
100
AcDbArc
 50
175.3752149731
 51
178.9549968568
  0
ARC
  5
2C3
100
AcDbEntity
  8
0
100
AcDbCircle
 62
7
  6
CONTINUOUS
 10
97.242227095
 20
310.072541114
 40
14.6820582582
100
AcDbArc
 50
58.3602283933
 51
59.9988031515
  0
ARC
  5
2C4
100
AcDbEntity
  8
0
100
AcDbCircle
 62
7
  6
CONTINUOUS
 10
67.7181862167
 20
258.9340472419
 40
14.668686497
100
AcDbArc
 50
238.7367787948
 51
240.7603531499
  0
ARC
  5
2C5
100
AcDbEntity
  8
0
100
AcDbCircle
 62
7
  6
CONTINUOUS
 10
55.1698476476
 20
300.2755244425
 40
12.0221613805
100
AcDbArc
 50
151.3704565421
 51
153.4111037804
  0
ARC
  5
2C6
100
AcDbEntity
  8
0
100
AcDbCircle
 62
7
  6
CONTINUOUS
 10
53.5660190427
 20
301.6466541406
 40
9.9094645175
100
AcDbArc
 50
134.1372683715
 51
135.4014585917
  0
ARC
  5
2C7
100
AcDbEntity
  8
0
100
AcDbCircle
 62
7
  6
CONTINUOUS
 10
51.9209288651
 20
301.2457665498
 40
8.6199524964
100
AcDbArc
 50
170.4190852073
 51
171.1230354498
  0
ARC
  5
2C8
100
AcDbEntity
  8
0
100
AcDbCircle
 62
7
  6
CONTINUOUS
 10
51.6031282114
 20
301.2941512839
 40
8.2984921535
100
AcDbArc
 50
171.1145041101
 51
173.2509937491
  0
ARC
  5
2C9
100
AcDbEntity
  8
0
100
AcDbCircle
 62
7
  6
CONTINUOUS
 10
51.7116842421
 20
304.0092142792
 40
6.899915687
100
AcDbArc
 50
120.0221400981
 51
123.1792582082
  0
ARC
  5
2CA
100
AcDbEntity
  8
0
100
AcDbCircle
 62
7
  6
CONTINUOUS
 10
249.809333428
 20
152.8043216368
 40
15.6022275145
100
AcDbArc
 50
231.3824027359
 51
232.7380415429
  0
ARC
  5
2CB
100
AcDbEntity
  8
0
100
AcDbCircle
 62
7
  6
CONTINUOUS
 10
249.7106619829
 20
152.672916243
 40
15.4379035713
100
AcDbArc
 50
232.7342168874
 51
239.988740754
  0
ARC
  5
2CC
100
AcDbEntity
  8
0
100
AcDbCircle
 62
7
  6
CONTINUOUS
 10
247.1146535434
 20
154.0612708489
 40
15.3423955809
100
AcDbArc
 50
239.9998862495
 51
240.9123831435
  0
ARC
  5
2CD
100
AcDbEntity
  8
0
100
AcDbCircle
 62
7
  6
CONTINUOUS
 10
254.9407612734
 20
159.0027526687
 40
24.714700405
100
AcDbArc
 50
199.312863464
 51
201.0663128413
  0
ARC
  5
2CE
100
AcDbEntity
  8
0
100
AcDbCircle
 62
7
  6
CONTINUOUS
 10
254.3690828523
 20
158.7853391063
 40
24.1030813156
100
AcDbArc
 50
201.0725077273
 51
201.3818721569
  0
ARC
  5
2CF
100
AcDbEntity
  8
0
100
AcDbCircle
 62
7
  6
CONTINUOUS
 10
250.8011777175
 20
157.1557385183
 40
20.0811812255
100
AcDbArc
 50
209.2206176388
 51
210.9867094491
  0
ARC
  5
2D0
100
AcDbEntity
  8
0
100
AcDbCircle
 62
7
  6
CONTINUOUS
 10
247.1552183566
 20
160.4440392502
 40
6.7876357403
100
AcDbArc
 50
154.1361442433
 51
155.3593723977
  0
ARC
  5
2D1
100
AcDbEntity
  8
0
100
AcDbCircle
 62
7
  6
CONTINUOUS
 10
246.321547695
 20
160.9253996605
 40
6.7861012509
100
AcDbArc
 50
153.5657029111
 51
155.9298137294
  0
ARC
  5
2D2
100
AcDbEntity
  8
0
100
AcDbCircle
 62
7
  6
CONTINUOUS
 10
244.5734824861
 20
162.4268886817
 40
5.4042856201
100
AcDbArc
 50
129.8353847003
 51
130.8706303284
  0
ARC
  5
2D3
100
AcDbEntity
  8
0
100
AcDbCircle
 62
7
  6
CONTINUOUS
 10
244.0880130911
 20
161.7123460386
 40
5.3365473714
100
AcDbArc
 50
169.8777692016
 51
170.8410330229
  0
ARC
  5
2D4
100
AcDbEntity
  8
0
100
AcDbCircle
 62
7
  6
CONTINUOUS
 10
244.3282974258
 20
162.7258835052
 40
5.0176304827
100
AcDbArc
 50
125.5817630413
 51
129.8725718788
  0
ARC
  5
2D5
100
AcDbEntity
  8
0
100
AcDbCircle
 62
7
  6
CONTINUOUS
 10
243.7153639526
 20
161.7695102845
 40
4.959551082
100
AcDbArc
 50
170.8077534438
 51
174.3862563845
  0
ARC
  5
2D6
100
AcDbEntity
  8
0
100
AcDbCircle
 62
7
  6
CONTINUOUS
 10
244.0396644982
 20
163.7461806817
 40
3.1244497525
100
AcDbArc
 50
111.7364792252
 51
115.7016076085
  0
ARC
  5
2D7
100
AcDbEntity
  8
0
100
AcDbCircle
 62
7
  6
CONTINUOUS
 10
244.8683032086
 20
163.276001277
 40
3.113461388
100
AcDbArc
 50
112.6894768917
 51
114.7486099419
  0
ARC
  5
2D8
100
AcDbEntity
  8
0
100
AcDbCircle
 62
7
  6
CONTINUOUS
 10
240.289123122
 20
162.7487149511
 40
3.0699480958
100
AcDbArc
 50
264.583570096
 51
273.0599486562
  0
ARC
  5
2D9
100
AcDbEntity
  8
0
100
AcDbCircle
 62
7
  6
CONTINUOUS
 10
245.6598430605
 20
161.0230260375
 40
2.3807369813
100
AcDbArc
 50
169.8581640779
 51
174.3735611571
  0
ARC
  5
2DA
100
AcDbEntity
  8
0
100
AcDbCircle
 62
7
  6
CONTINUOUS
 10
241.6555004133
 20
161.2352711405
 40
1.9979395683
100
AcDbArc
 50
202.5730525596
 51
204.3537153071
  0
ARC
  5
2DB
100
AcDbEntity
  8
0
100
AcDbCircle
 62
7
  6
CONTINUOUS
 10
242.4191845653
 20
160.7237947881
 40
1.9226274294
100
AcDbArc
 50
203.8492711144
 51
206.6853526224
  0
ARC
  5
2DC
100
AcDbEntity
  8
0
100
AcDbCircle
 62
7
  6
CONTINUOUS
 10
241.5545220243
 20
161.1889532336
 40
1.8868465617
100
AcDbArc
 50
204.3368293031
 51
208.0365175785
  0
ARC
  5
2DD
100
AcDbEntity
  8
0
100
AcDbCircle
 62
7
  6
CONTINUOUS
 10
242.8687884368
 20
165.7551045343
 40
1.8278596767
100
AcDbArc
 50
27.9940494413
 51
33.8275264015
  0
ARC
  5
2DE
100
AcDbEntity
  8
0
100
AcDbCircle
 62
7
  6
CONTINUOUS
 10
240.9350337028
 20
161.1975064097
 40
1.5702235807
100
AcDbArc
 50
260.1996652762
 51
264.5107007812
  0
ARC
  5
2DF
100
AcDbEntity
  8
0
100
AcDbCircle
 62
7
  6
CONTINUOUS
 10
240.9231077078
 20
161.1242088954
 40
1.4959658931
100
AcDbArc
 50
258.7945097985
 51
260.1719207181
  0
ARC
  5
2E0
100
AcDbEntity
  8
0
100
AcDbCircle
 62
7
  6
CONTINUOUS
 10
240.9108338173
 20
161.0657955172
 40
1.4362810763
100
AcDbArc
 50
251.3952457341
 51
258.8219765692
  0
ARC
  5
2E1
100
AcDbEntity
  8
0
100
AcDbCircle
 62
7
  6
CONTINUOUS
 10
240.3470398001
 20
161.1115899167
 40
1.4163891634
100
AcDbArc
 50
243.2184170537
 51
246.2065034501
  0
ARC
  5
2E2
100
AcDbEntity
  8
0
100
AcDbCircle
 62
7
  6
CONTINUOUS
 10
240.7588042647
 20
161.4736818236
 40
1.3800740739
100
AcDbArc
 50
214.6667780395
 51
218.8463355312
  0
ARC
  5
2E3
100
AcDbEntity
  8
0
100
AcDbCircle
 62
7
  6
CONTINUOUS
 10
240.8900664988
 20
161.0036012609
 40
1.3707114178
100
AcDbArc
 50
242.8836380354
 51
251.3885464693
  0
ARC
  5
2E4
100
AcDbEntity
  8
0
100
AcDbCircle
 62
7
  6
CONTINUOUS
 10
241.042646708
 20
160.6076607925
 40
0.7636160268
100
AcDbArc
 50
239.9902238459
 51
243.0948274351
  0
ARC
  5
2E5
100
AcDbEntity
  8
0
100
AcDbCircle
 62
7
  6
CONTINUOUS
 10
270.5534604996
 20
147.0395416392
 40
6.6583996522
100
AcDbArc
 50
137.1607547649
 51
141.6080980041
  0
ARC
  5
2E6
100
AcDbEntity
  8
0
100
AcDbCircle
 62
7
  6
CONTINUOUS
 10
271.0312658556
 20
146.3606580831
 40
5.4926676175
100
AcDbArc
 50
166.1099159488
 51
167.5185582358
  0
ARC
  5
2E7
100
AcDbEntity
  8
0
100
AcDbCircle
 62
7
  6
CONTINUOUS
 10
270.1977772971
 20
146.8420263471
 40
5.4913785866
100
AcDbArc
 50
165.4529736279
 51
168.1755005562
  0
ARC
  5
2E8
100
AcDbEntity
  8
0
100
AcDbCircle
 62
7
  6
CONTINUOUS
 10
268.2052748262
 20
149.8290966262
 40
5.3151510558
100
AcDbArc
 50
236.1781489498
 51
237.1951211249
  0
ARC
  5
2E9
100
AcDbEntity
  8
0
100
AcDbCircle
 62
7
  6
CONTINUOUS
 10
269.4561749113
 20
148.2019333885
 40
5.0576834198
100
AcDbArc
 50
127.5945069449
 51
128.2549723212
  0
ARC
  5
2EA
100
AcDbEntity
  8
0
100
AcDbCircle
 62
7
  6
CONTINUOUS
 10
270.1632031413
 20
147.6411878625
 40
5.0385424714
100
AcDbArc
 50
128.4553714599
 51
131.338698682
  0
ARC
  5
2EB
100
AcDbEntity
  8
0
100
AcDbCircle
 62
7
  6
CONTINUOUS
 10
270.9851769056
 20
147.1740066598
 40
5.0216278292
100
AcDbArc
 50
129.148432597
 51
130.6456375449
  0
ARC
  5
2EC
100
AcDbEntity
  8
0
100
AcDbCircle
 62
7
  6
CONTINUOUS
 10
267.6329229357
 20
148.7811535266
 40
4.1241576315
100
AcDbArc
 50
237.2711222471
 51
239.2691456018
  0
ARC
  5
2ED
100
AcDbEntity
  8
0
100
AcDbCircle
 62
7
  6
CONTINUOUS
 10
264.473377066
 20
150.7230658375
 40
3.711116305
100
AcDbArc
 50
322.857638407
 51
334.4023215565
  0
ARC
  5
2EE
100
AcDbEntity
  8
0
100
AcDbCircle
 62
7
  6
CONTINUOUS
 10
268.241247667
 20
149.0310568816
 40
3.5550660871
100
AcDbArc
 50
6.008570905
 51
6.8783294216
  0
ARC
  5
2EF
100
AcDbEntity
  8
0
100
AcDbCircle
 62
7
  6
CONTINUOUS
 10
267.0619068741
 20
147.8138682503
 40
3.0009106716
100
AcDbArc
 50
239.2031595045
 51
239.9680106014
  0
ARC
  5
2F0
100
AcDbEntity
  8
0
100
AcDbCircle
 62
7
  6
CONTINUOUS
 10
266.8214116573
 20
147.7635923623
 40
2.8289119012
100
AcDbArc
 50
234.2018537597
 51
236.1779393494
  0
ARC
  5
2F1
100
AcDbEntity
  8
0
100
AcDbCircle
 62
7
  6
CONTINUOUS
 10
266.226774849
 20
146.3820673311
 40
1.3505365719
100
AcDbArc
 50
232.4206821973
 51
234.732501708
  0
ARC
  5
2F2
100
AcDbEntity
  8
0
100
AcDbCircle
 62
7
  6
CONTINUOUS
 10
267.0535682119
 20
145.8937341454
 40
1.3409703454
100
AcDbArc
 50
234.0920996204
 51
237.6979568289
  0
ARC
  5
2F3
100
AcDbEntity
  8
0
100
AcDbCircle
 62
7
  6
CONTINUOUS
 10
272.6228309717
 20
161.8310818162
 40
42.7065686211
100
AcDbArc
 50
179.9980381434
 51
180.9012112083
  0
ARC
  5
2F4
100
AcDbEntity
  8
0
100
AcDbCircle
 62
7
  6
CONTINUOUS
 10
274.101196954
 20
159.623474181
 40
8.7561623297
100
AcDbArc
 50
239.7311936509
 51
239.9872941998
  0
ARC
  5
2F5
100
AcDbEntity
  8
0
100
AcDbCircle
 62
7
  6
CONTINUOUS
 10
241.149099946
 20
184.0026668743
 40
48.6628855738
100
AcDbArc
 50
304.2194524579
 51
304.8275798937
  0
ARC
  5
2F6
100
AcDbEntity
  8
0
100
AcDbCircle
 62
7
  6
CONTINUOUS
 10
252.0792214917
 20
197.5318977144
 40
45.7290889456
100
AcDbArc
 50
355.7805724583
 51
359.9764418531
  0
ARC
  5
2F7
100
AcDbEntity
  8
0
100
AcDbCircle
 62
7
  6
CONTINUOUS
 10
252.1733352792
 20
197.1493049353
 40
45.3421028058
100
AcDbArc
 50
356.2724069497
 51
359.9438311512
  0
ARC
  5
2F8
100
AcDbEntity
  8
0
100
AcDbCircle
 62
7
  6
CONTINUOUS
 10
255.6002705726
 20
197.1053072451
 40
41.9151457268
100
AcDbArc
 50
359.999381337
 51
0.5227062479
  0
ARC
  5
2F9
100
AcDbEntity
  8
0
100
AcDbCircle
 62
7
  6
CONTINUOUS
 10
271.8489747152
 20
204.0906724805
 40
6.3458142621
100
AcDbArc
 50
159.3535127485
 51
160.6328821362
  0
ARC
  5
2FA
100
AcDbEntity
  8
0
100
AcDbCircle
 62
7
  6
CONTINUOUS
 10
271.015358195
 20
204.5720524876
 40
6.3443461238
100
AcDbArc
 50
158.7568778955
 51
161.2295169888
  0
ARC
  5
2FB
100
AcDbEntity
  8
0
100
AcDbCircle
 62
7
  6
CONTINUOUS
 10
270.2338389372
 20
205.3069250028
 40
6.2230093438
100
AcDbArc
 50
134.9245272021
 51
137.2811663759
  0
ARC
  5
2FC
100
AcDbEntity
  8
0
100
AcDbCircle
 62
7
  6
CONTINUOUS
 10
269.0168396006
 20
205.2222027743
 40
5.1603865861
100
AcDbArc
 50
171.2777360718
 51
172.0390799349
  0
ARC
  5
2FD
100
AcDbEntity
  8
0
100
AcDbCircle
 62
7
  6
CONTINUOUS
 10
269.5351775998
 20
206.4809460082
 40
3.9663190252
100
AcDbArc
 50
119.9876874312
 51
123.3697397087
  0
ARC
  5
2FE
100
AcDbEntity
  8
0
100
AcDbCircle
 62
7
  6
CONTINUOUS
 10
270.3610656063
 20
206.0122642108
 40
3.9528236632
100
AcDbArc
 50
120.8006117787
 51
122.5568153612
  0
ARC
  5
2FF
100
AcDbEntity
  8
0
100
AcDbCircle
 62
7
  6
CONTINUOUS
 10
265.3905497995
 20
206.2645751122
 40
3.1072925125
100
AcDbArc
 50
268.4370977239
 51
273.0369643969
  0
ARC
  5
300
100
AcDbEntity
  8
0
100
AcDbCircle
 62
7
  6
CONTINUOUS
 10
265.3892760104
 20
206.1938168572
 40
3.0365259098
100
AcDbArc
 50
266.5667210004
 51
268.4247089171
  0
ARC
  5
301
100
AcDbEntity
  8
0
100
AcDbCircle
 62
7
  6
CONTINUOUS
 10
271.4039400124
 20
211.8336627469
 40
2.5089590618
100
AcDbArc
 50
233.0429683585
 51
234.5481258775
  0
ARC
  5
302
100
AcDbEntity
  8
0
100
AcDbCircle
 62
7
  6
CONTINUOUS
 10
270.3205999945
 20
204.536147703
 40
1.9378121682
100
AcDbArc
 50
176.4889718184
 51
181.6687351691
  0
ARC
  5
303
100
AcDbEntity
  8
0
100
AcDbCircle
 62
7
  6
CONTINUOUS
 10
266.1466475684
 20
204.9783126151
 40
1.725292938
100
AcDbArc
 50
223.2125243745
 51
226.4947385279
  0
ARC
  5
304
100
AcDbEntity
  8
0
100
AcDbCircle
 62
7
  6
CONTINUOUS
 10
266.3998300443
 20
204.5145988937
 40
1.587600674
100
AcDbArc
 50
215.0255509147
 51
217.1011182348
  0
ARC
  5
305
100
AcDbEntity
  8
0
100
AcDbCircle
 62
7
  6
CONTINUOUS
 10
265.4917044202
 20
204.7164088703
 40
1.5498835537
100
AcDbArc
 50
255.7098348709
 51
259.8264053285
  0
ARC
  5
306
100
AcDbEntity
  8
0
100
AcDbCircle
 62
7
  6
CONTINUOUS
 10
267.1960109679
 20
204.0068298246
 40
1.5423309341
100
AcDbArc
 50
216.5172937635
 51
219.8021502312
  0
ARC
  5
307
100
AcDbEntity
  8
0
100
AcDbCircle
 62
7
  6
CONTINUOUS
 10
266.0333341304
 20
204.6401546267
 40
1.5342089532
100
AcDbArc
 50
257.7033470643
 51
262.5403063297
  0
ARC
  5
308
100
AcDbEntity
  8
0
100
AcDbCircle
 62
7
  6
CONTINUOUS
 10
266.3474510222
 20
204.4745452413
 40
1.5216633579
100
AcDbArc
 50
217.0879614615
 51
221.3578858844
  0
ARC
  5
309
100
AcDbEntity
  8
0
100
AcDbCircle
 62
7
  6
CONTINUOUS
 10
265.5115685355
 20
204.6657191707
 40
1.5146176197
100
AcDbArc
 50
221.9513410762
 51
227.9297454408
  0
ARC
  5
30A
100
AcDbEntity
  8
0
100
AcDbCircle
 62
7
  6
CONTINUOUS
 10
266.3861952709
 20
203.83238248
 40
0.8586121379
100
AcDbArc
 50
239.9680502467
 51
244.341755431
  0
ARC
  5
30B
100
AcDbEntity
  8
0
100
AcDbCircle
 62
7
  6
CONTINUOUS
 10
310.7573744919
 20
152.7177903316
 40
78.0133064328
100
AcDbArc
 50
150.5025572991
 51
150.6171416482
  0
ARC
  5
30C
100
AcDbEntity
  8
0
100
AcDbCircle
 62
7
  6
CONTINUOUS
 10
310.7438550385
 20
152.7254021198
 40
77.997791442
100
AcDbArc
 50
150.6171411975
 51
150.7352943195
  0
ARC
  5
30D
100
AcDbEntity
  8
0
100
AcDbCircle
 62
7
  6
CONTINUOUS
 10
310.6897960102
 20
152.7555944697
 40
77.9358725526
100
AcDbArc
 50
150.7352299358
 51
151.2774966228
  0
ARC
  5
30E
100
AcDbEntity
  8
0
100
AcDbCircle
 62
7
  6
CONTINUOUS
 10
310.603888988
 20
152.8027524491
 40
77.8378731323
100
AcDbArc
 50
151.2775491649
 51
151.5092500639
  0
ARC
  5
30F
100
AcDbEntity
  8
0
100
AcDbCircle
 62
7
  6
CONTINUOUS
 10
310.5386026698
 20
152.8381834103
 40
77.7635922037
100
AcDbArc
 50
151.5092481398
 51
151.7371165028
  0
ARC
  5
310
100
AcDbEntity
  8
0
100
AcDbCircle
 62
7
  6
CONTINUOUS
 10
310.4754014555
 20
152.8721739253
 40
77.6918304558
100
AcDbArc
 50
151.7371249218
 51
151.9001243781
  0
ARC
  5
311
100
AcDbEntity
  8
0
100
AcDbCircle
 62
7
  6
CONTINUOUS
 10
310.3325135716
 20
152.948111043
 40
77.5300173979
100
AcDbArc
 50
152.0971559639
 51
152.2957126552
  0
ARC
  5
312
100
AcDbEntity
  8
0
100
AcDbCircle
 62
7
  6
CONTINUOUS
 10
310.2648751254
 20
152.983647376
 40
77.4536119656
100
AcDbArc
 50
152.2957250324
 51
152.4139197536
  0
ARC
  5
313
100
AcDbEntity
  8
0
100
AcDbCircle
 62
7
  6
CONTINUOUS
 10
310.0711171393
 20
153.084261974
 40
77.2352874057
100
AcDbArc
 50
152.6502542043
 51
152.8656576533
  0
ARC
  5
314
100
AcDbEntity
  8
0
100
AcDbCircle
 62
7
  6
CONTINUOUS
 10
309.9022616513
 20
153.170220985
 40
77.0458106566
100
AcDbArc
 50
153.2115398527
 51
153.4906659674
  0
ARC
  5
315
100
AcDbEntity
  8
0
100
AcDbCircle
 62
7
  6
CONTINUOUS
 10
309.8307968611
 20
153.2058819214
 40
76.9659425251
100
AcDbArc
 50
153.4906762055
 51
153.6941247413
  0
ARC
  5
316
100
AcDbEntity
  8
0
100
AcDbCircle
 62
7
  6
CONTINUOUS
 10
309.7563392473
 20
153.2426685826
 40
76.8828931571
100
AcDbArc
 50
153.7363019496
 51
153.8879212223
  0
ARC
  5
317
100
AcDbEntity
  8
0
100
AcDbCircle
 62
7
  6
CONTINUOUS
 10
306.0671132678
 20
156.1263805028
 40
72.2108904359
100
AcDbArc
 50
139.9999829762
 51
141.5990066723
  0
ARC
  5
318
100
AcDbEntity
  8
0
100
AcDbCircle
 62
7
  6
CONTINUOUS
 10
304.5145705383
 20
157.4344801832
 40
70.1807435574
100
AcDbArc
 50
138.2575145461
 51
140.0033356647
  0
ARC
  5
319
100
AcDbEntity
  8
0
100
AcDbCircle
 62
7
  6
CONTINUOUS
 10
303.6628327439
 20
158.191050098
 40
69.0415119606
100
AcDbArc
 50
137.9353739752
 51
138.255387908
  0
ARC
  5
31A
100
AcDbEntity
  8
0
100
AcDbCircle
 62
7
  6
CONTINUOUS
 10
302.4003397189
 20
156.1487068231
 40
68.9677702561
100
AcDbArc
 50
161.6208861085
 51
162.3317759411
  0
ARC
  5
31B
100
AcDbEntity
  8
0
100
AcDbCircle
 62
7
  6
CONTINUOUS
 10
289.5294622937
 20
182.9077158059
 40
44.6714214262
100
AcDbArc
 50
237.1924418209
 51
237.3106358224
  0
ARC
  5
31C
100
AcDbEntity
  8
0
100
AcDbCircle
 62
7
  6
CONTINUOUS
 10
277.8529083543
 20
201.1298296345
 40
20.9843477131
100
AcDbArc
 50
91.3172604485
 51
92.8381780669
  0
ARC
  5
31D
100
AcDbEntity
  8
0
100
AcDbCircle
 62
7
  6
CONTINUOUS
 10
276.9906922604
 20
202.3910249149
 40
20.2127904387
100
AcDbArc
 50
89.2874181411
 51
90.838791692
  0
ARC
  5
31E
100
AcDbEntity
  8
0
100
AcDbCircle
 62
7
  6
CONTINUOUS
 10
277.0184147616
 20
203.578152532
 40
19.0254142695
100
AcDbArc
 50
84.909791385
 51
89.3264373037
  0
ARC
  5
31F
100
AcDbEntity
  8
0
100
AcDbCircle
 62
7
  6
CONTINUOUS
 10
280.2752258083
 20
205.6142887707
 40
15.4310058378
100
AcDbArc
 50
60.0109066556
 51
66.9916629442
  0
ARC
  5
320
100
AcDbEntity
  8
0
100
AcDbCircle
 62
7
  6
CONTINUOUS
 10
277.7649592263
 20
207.1514616643
 40
15.3549966564
100
AcDbArc
 50
57.2504862776
 51
59.9991777054
  0
ARC
  5
321
100
AcDbEntity
  8
0
100
AcDbCircle
 62
7
  6
CONTINUOUS
 10
297.4379858881
 20
189.3909502408
 40
6.8749429729
100
AcDbArc
 50
152.2962839071
 51
153.5091159289
  0
ARC
  5
322
100
AcDbEntity
  8
0
100
AcDbCircle
 62
7
  6
CONTINUOUS
 10
296.6040384532
 20
189.8724336037
 40
6.8731013529
100
AcDbArc
 50
151.7306427342
 51
154.0747571014
  0
ARC
  5
323
100
AcDbEntity
  8
0
100
AcDbCircle
 62
7
  6
CONTINUOUS
 10
294.329470269
 20
190.6911351041
 40
5.3742818067
100
AcDbArc
 50
169.3311082396
 51
170.3506833124
  0
ARC
  5
324
100
AcDbEntity
  8
0
100
AcDbCircle
 62
7
  6
CONTINUOUS
 10
294.7425548963
 20
191.4544931143
 40
5.3491839068
100
AcDbArc
 50
129.3304297078
 51
130.3163954843
  0
ARC
  5
325
100
AcDbEntity
  8
0
100
AcDbCircle
 62
7
  6
CONTINUOUS
 10
294.0982207118
 20
190.7299880968
 40
5.1397915226
100
AcDbArc
 50
170.3455762341
 51
172.0177538633
  0
ARC
  5
326
100
AcDbEntity
  8
0
100
AcDbCircle
 62
7
  6
CONTINUOUS
 10
293.8290711587
 20
190.7675857347
 40
4.8680286795
100
AcDbArc
 50
172.0160775095
 51
174.2640632118
  0
ARC
  5
327
100
AcDbEntity
  8
0
100
AcDbCircle
 62
7
  6
CONTINUOUS
 10
290.4935016385
 20
191.7335769288
 40
3.0694754989
100
AcDbArc
 50
264.5289552101
 51
273.0603102576
  0
ARC
  5
328
100
AcDbEntity
  8
0
100
AcDbCircle
 62
7
  6
CONTINUOUS
 10
294.1398097255
 20
192.9875929891
 40
2.8479963982
100
AcDbArc
 50
108.4034912565
 51
112.6212084143
  0
ARC
  5
329
100
AcDbEntity
  8
0
100
AcDbCircle
 62
7
  6
CONTINUOUS
 10
294.9693032907
 20
192.5168810522
 40
2.837780735
100
AcDbArc
 50
109.4171412673
 51
111.6075584035
  0
ARC
  5
32A
100
AcDbEntity
  8
0
100
AcDbCircle
 62
7
  6
CONTINUOUS
 10
292.0416884271
 20
190.2917404375
 40
2.1932087541
100
AcDbArc
 50
198.5643457585
 51
200.2376876685
  0
ARC
  5
32B
100
AcDbEntity
  8
0
100
AcDbCircle
 62
7
  6
CONTINUOUS
 10
292.7934306437
 20
189.7816303718
 40
2.107348498
100
AcDbArc
 50
199.7630634233
 51
202.4309152662
  0
ARC
  5
32C
100
AcDbEntity
  8
0
100
AcDbCircle
 62
7
  6
CONTINUOUS
 10
291.9227432983
 20
190.2472400286
 40
2.0662133316
100
AcDbArc
 50
200.2208209809
 51
203.7032268065
  0
ARC
  5
32D
100
AcDbEntity
  8
0
100
AcDbCircle
 62
7
  6
CONTINUOUS
 10
290.8900399145
 20
190.3775513532
 40
1.8594494826
100
AcDbArc
 50
209.2273810456
 51
210.2907352274
  0
ARC
  5
32E
100
AcDbEntity
  8
0
100
AcDbCircle
 62
7
  6
CONTINUOUS
 10
291.1003483723
 20
190.6711831807
 40
1.5671297214
100
AcDbArc
 50
220.0520362992
 51
223.4472276334
  0
ARC
  5
32F
100
AcDbEntity
  8
0
100
AcDbCircle
 62
7
  6
CONTINUOUS
 10
291.1246575444
 20
190.0944499564
 40
1.4805691664
100
AcDbArc
 50
255.9483534019
 51
259.52770404
  0
ARC
  5
330
100
AcDbEntity
  8
0
100
AcDbCircle
 62
7
  6
CONTINUOUS
 10
290.9938577894
 20
190.5820821863
 40
1.4282804579
100
AcDbArc
 50
216.1993439583
 51
220.0649377231
  0
ARC
  5
331
100
AcDbEntity
  8
0
100
AcDbCircle
 62
7
  6
CONTINUOUS
 10
291.1084296151
 20
190.0293422448
 40
1.4134695741
100
AcDbArc
 50
251.3738230384
 51
255.9456953053
  0
ARC
  5
332
100
AcDbEntity
  8
0
100
AcDbCircle
 62
7
  6
CONTINUOUS
 10
290.5460432556
 20
190.0885382589
 40
1.4064579809
100
AcDbArc
 50
237.4757451867
 51
239.4389329201
  0
ARC
  5
333
100
AcDbEntity
  8
0
100
AcDbCircle
 62
7
  6
CONTINUOUS
 10
291.0922583469
 20
189.9822862206
 40
1.3637132762
100
AcDbArc
 50
237.4382641251
 51
251.3862142954
  0
ARC
  5
334
100
AcDbEntity
  8
0
100
AcDbCircle
 62
7
  6
CONTINUOUS
 10
290.8936629366
 20
190.508602121
 40
1.3040294522
100
AcDbArc
 50
211.7363736852
 51
216.1940156089
  0
ARC
  5
335
100
AcDbEntity
  8
0
100
AcDbCircle
 62
7
  6
CONTINUOUS
 10
292.8897280495
 20
194.4779726925
 40
1.148968014
100
AcDbArc
 50
82.2652287298
 51
96.9796999477
  0
ARC
  5
336
100
AcDbEntity
  8
0
100
AcDbCircle
 62
7
  6
CONTINUOUS
 10
291.1789825485
 20
189.7076683962
 40
0.7374302093
100
AcDbArc
 50
239.9945944286
 51
242.5891505393
  0
SPLINE
  5
337
100
AcDbEntity
  8
0
100
AcDbSpline
 62
7
  6
CONTINUOUS
 70
0
 71
3
 72
9
 73
5
 74
0
 42
0.0000001
 43
0.0000001
 44
0.0000000001
 40
0.0
 40
0.0
 40
0.0
 40
0.0
 40
0.2776677535
 40
1.0
 40
1.0
 40
1.0
 40
1.0
 10
291.4581608788
 20
188.6198285171
 30
0.0
 10
291.4024040604
 20
188.616240243
 30
0.0
 10
291.20170121
 20
188.6052143136
 30
0.0
 10
290.9984683602
 20
188.612086145
 30
0.0
 10
290.8555491828
 20
188.6385427663
 30
0.0
  0
SPLINE
  5
338
100
AcDbEntity
  8
0
100
AcDbSpline
 62
7
  6
CONTINUOUS
 70
0
 71
3
 72
8
 73
4
 74
0
 42
0.0000001
 43
0.0000001
 44
0.0000000001
 40
0.0
 40
0.0
 40
0.0
 40
0.0
 40
1.0
 40
1.0
 40
1.0
 40
1.0
 10
295.274345638
 20
194.8949172952
 30
0.0
 10
295.2290597714
 20
194.9389403572
 30
0.0
 10
295.187319916
 20
194.9866297408
 30
0.0
 10
295.1473622818
 20
195.0355401402
 30
0.0
  0
SPLINE
  5
339
100
AcDbEntity
  8
0
100
AcDbSpline
 62
7
  6
CONTINUOUS
 70
0
 71
3
 72
8
 73
4
 74
0
 42
0.0000001
 43
0.0000001
 44
0.0000000001
 40
0.0
 40
0.0
 40
0.0
 40
0.0
 40
1.0
 40
1.0
 40
1.0
 40
1.0
 10
295.1473622818
 20
195.0355401402
 30
0.0
 10
295.126407995
 20
195.06118937
 30
0.0
 10
295.1059346326
 20
195.0872319759
 30
0.0
 10
295.085670859
 20
195.1134301553
 30
0.0
  0
SPLINE
  5
33A
100
AcDbEntity
  8
0
100
AcDbSpline
 62
7
  6
CONTINUOUS
 70
0
 71
3
 72
9
 73
5
 74
0
 42
0.0000001
 43
0.0000001
 44
0.0000000001
 40
0.0
 40
0.0
 40
0.0
 40
0.0
 40
0.2835508805
 40
1.0
 40
1.0
 40
1.0
 40
1.0
 10
295.0867381253
 20
195.1130129317
 30
0.0
 10
295.0565560164
 20
195.1520341092
 30
0.0
 10
294.9513273594
 20
195.2904601311
 30
0.0
 10
294.8447557994
 20
195.4287335012
 30
0.0
 10
294.7585321667
 20
195.5187458913
 30
0.0
  0
SPLINE
  5
33B
100
AcDbEntity
  8
0
100
AcDbSpline
 62
7
  6
CONTINUOUS
 70
0
 71
3
 72
8
 73
4
 74
0
 42
0.0000001
 43
0.0000001
 44
0.0000000001
 40
0.0
 40
0.0
 40
0.0
 40
0.0
 40
1.0
 40
1.0
 40
1.0
 40
1.0
 10
294.7585321667
 20
195.5187458913
 30
0.0
 10
294.7257944859
 20
195.5529221003
 30
0.0
 10
294.6916971428
 20
195.5858700746
 30
0.0
 10
294.6561275739
 20
195.617088255
 30
0.0
  0
SPLINE
  5
33C
100
AcDbEntity
  8
0
100
AcDbSpline
 62
7
  6
CONTINUOUS
 70
0
 71
3
 72
8
 73
4
 74
0
 42
0.0000001
 43
0.0000001
 44
0.0000000001
 40
0.0
 40
0.0
 40
0.0
 40
0.0
 40
1.0
 40
1.0
 40
1.0
 40
1.0
 10
295.274345638
 20
194.8949172952
 30
0.0
 10
295.3051827641
 20
194.864940068
 30
0.0
 10
295.33747473
 20
194.8362048276
 30
0.0
 10
295.3721867387
 20
194.8108150866
 30
0.0
  0
SPLINE
  5
33D
100
AcDbEntity
  8
0
100
AcDbSpline
 62
7
  6
CONTINUOUS
 70
0
 71
3
 72
8
 73
4
 74
0
 42
0.0000001
 43
0.0000001
 44
0.0000000001
 40
0.0
 40
0.0
 40
0.0
 40
0.0
 40
1.0
 40
1.0
 40
1.0
 40
1.0
 10
295.3721867387
 20
194.8108150866
 30
0.0
 10
295.3867042469
 20
194.8001964048
 30
0.0
 10
295.4016834772
 20
194.7901433819
 30
0.0
 10
295.4172603377
 20
194.7811502808
 30
0.0
  0
SPLINE
  5
33E
100
AcDbEntity
  8
0
100
AcDbSpline
 62
7
  6
CONTINUOUS
 70
0
 71
3
 72
9
 73
5
 74
0
 42
0.0000001
 43
0.0000001
 44
0.0000000001
 40
0.0
 40
0.0
 40
0.0
 40
0.0
 40
0.4584803209
 40
1.0
 40
1.0
 40
1.0
 40
1.0
 10
292.6116501003
 20
188.1157480855
 30
0.0
 10
292.3343360284
 20
188.2313622697
 30
0.0
 10
291.7379874919
 20
188.5034355776
 30
0.0
 10
291.1528484103
 20
188.8001010458
 30
0.0
 10
290.8455235352
 20
188.9775311312
 30
0.0
  0
SPLINE
  5
33F
100
AcDbEntity
  8
0
100
AcDbSpline
 62
7
  6
CONTINUOUS
 70
0
 71
3
 72
9
 73
5
 74
0
 42
0.0000001
 43
0.0000001
 44
0.0000000001
 40
0.0
 40
0.0
 40
0.0
 40
0.0
 40
0.2176254466
 40
1.0
 40
1.0
 40
1.0
 40
1.0
 10
293.016350655
 20
187.9575396249
 30
0.0
 10
292.9866426875
 20
187.9680831035
 30
0.0
 10
292.8506432697
 20
188.0179668184
 30
0.0
 10
292.7162520286
 20
188.072138807
 30
0.0
 10
292.6116501003
 20
188.1157480855
 30
0.0
  0
SPLINE
  5
340
100
AcDbEntity
  8
0
100
AcDbSpline
 62
7
  6
CONTINUOUS
 70
0
 71
3
 72
16
 73
12
 74
0
 42
0.0000001
 43
0.0000001
 44
0.0000000001
 40
0.0
 40
0.0
 40
0.0
 40
0.0
 40
0.1212439292
 40
0.2536719306
 40
0.3925504295
 40
0.5322541989
 40
0.6670574078
 40
0.7918804246
 40
0.8494252677
 40
0.9033197601
 40
1.0
 40
1.0
 40
1.0
 40
1.0
 10
230.764794045
 20
161.3426552207
 30
0.0
 10
230.764794045
 20
164.6512249788
 30
0.0
 10
231.5451150542
 20
171.5812698474
 30
0.0
 10
234.5468977694
 20
181.9058622155
 30
0.0
 10
239.2622479564
 20
192.1266045184
 30
0.0
 10
245.4111595473
 20
201.6303357128
 30
0.0
 10
252.6257805929
 20
209.8505460227
 30
0.0
 10
259.3538877525
 20
215.3774263897
 30
0.0
 10
264.9146000155
 20
218.6683632452
 30
0.0
 10
270.1010179764
 20
220.991001731
 30
0.0
 10
274.1788273621
 20
221.9579730252
 30
0.0
 10
276.8138621583
 20
222.0884372206
 30
0.0
  0
SPLINE
  5
341
100
AcDbEntity
  8
0
100
AcDbSpline
 62
7
  6
CONTINUOUS
 70
0
 71
3
 72
9
 73
5
 74
0
 42
0.0000001
 43
0.0000001
 44
0.0000000001
 40
0.0
 40
0.0
 40
0.0
 40
0.0
 40
0.5130214476
 40
1.0
 40
1.0
 40
1.0
 40
1.0
 10
277.3705095372
 20
222.1086318007
 30
0.0
 10
278.9542848564
 20
222.1449458758
 30
0.0
 10
282.0680378442
 20
221.8581823399
 30
0.0
 10
284.9888101579
 20
220.7110530313
 30
0.0
 10
286.2911213834
 20
219.9591781013
 30
0.0
  0
SPLINE
  5
342
100
AcDbEntity
  8
0
100
AcDbSpline
 62
7
  6
CONTINUOUS
 70
0
 71
3
 72
11
 73
7
 74
0
 42
0.0000001
 43
0.0000001
 44
0.0000000001
 40
0.0
 40
0.0
 40
0.0
 40
0.0
 40
0.2529537488
 40
0.5081159704
 40
0.7591523993
 40
1.0
 40
1.0
 40
1.0
 40
1.0
 10
56.2653965403
 20
286.43696022
 30
0.0
 10
57.2888792952
 20
289.0748534005
 30
0.0
 10
59.6594800358
 20
294.2565117308
 30
0.0
 10
64.0367575938
 20
301.552745811
 30
0.0
 10
69.1199386428
 20
308.2069213597
 30
0.0
 10
72.9661183931
 20
312.1655132697
 30
0.0
 10
74.9706529051
 20
313.9654733337
 30
0.0
  0
SPLINE
  5
343
100
AcDbEntity
  8
0
100
AcDbSpline
 62
7
  6
CONTINUOUS
 70
0
 71
3
 72
9
 73
5
 74
0
 42
0.0000001
 43
0.0000001
 44
0.0000000001
 40
0.0
 40
0.0
 40
0.0
 40
0.0
 40
0.2548266645
 40
1.0
 40
1.0
 40
1.0
 40
1.0
 10
74.9706529051
 20
313.9654733337
 30
0.0
 10
75.3078067127
 20
314.2682186272
 30
0.0
 10
76.6445257482
 20
315.4409255066
 30
0.0
 10
78.0364775399
 20
316.5510673995
 30
0.0
 10
79.1041849761
 20
317.3357887886
 30
0.0
  0
SPLINE
  5
344
100
AcDbEntity
  8
0
100
AcDbSpline
 62
7
  6
CONTINUOUS
 70
0
 71
3
 72
11
 73
7
 74
0
 42
0.0000001
 43
0.0000001
 44
0.0000000001
 40
0.0
 40
0.0
 40
0.0
 40
0.0
 40
0.2843419757
 40
0.4826237492
 40
0.6676280205
 40
1.0
 40
1.0
 40
1.0
 40
1.0
 10
79.1041849761
 20
317.3357887886
 30
0.0
 10
80.7419397448
 20
318.5394717015
 30
0.0
 10
83.6493441785
 20
320.4195930387
 30
0.0
 10
87.9688317561
 20
322.4781228613
 30
0.0
 10
92.8283556005
 20
324.0903774502
 30
0.0
 10
96.5927297151
 20
324.5070825223
 30
0.0
 10
98.9591403101
 20
324.2956972529
 30
0.0
  0
SPLINE
  5
345
100
AcDbEntity
  8
0
100
AcDbSpline
 62
7
  6
CONTINUOUS
 70
0
 71
3
 72
16
 73
12
 74
0
 42
0.0000001
 43
0.0000001
 44
0.0000000001
 40
0.0
 40
0.0
 40
0.0
 40
0.0
 40
0.1551432548
 40
0.3063393852
 40
0.4499886718
 40
0.5831187448
 40
0.7038388528
 40
0.8118342927
 40
0.9089655595
 40
0.9549232252
 40
1.0
 40
1.0
 40
1.0
 40
1.0
 10
47.4435978786
 20
304.739605677
 30
0.0
 10
48.8831196542
 20
307.2329443719
 30
0.0
 10
52.0047693347
 20
312.0012982943
 30
0.0
 10
57.3626138366
 20
318.4308942359
 30
0.0
 10
63.1793094243
 20
323.8723542369
 30
0.0
 10
69.2424059058
 20
328.1232923561
 30
0.0
 10
75.3411364195
 20
331.0246008145
 30
0.0
 10
81.2689644195
 20
332.4580001304
 30
0.0
 10
86.001534906
 20
332.3327884795
 30
0.0
 10
89.3800191709
 20
331.3965357124
 30
0.0
 10
90.9189820543
 20
330.6764918583
 30
0.0
 10
91.643413856
 20
330.2582290041
 30
0.0
  0
SPLINE
  5
346
100
AcDbEntity
  8
0
100
AcDbSpline
 62
7
  6
CONTINUOUS
 70
0
 71
3
 72
16
 73
12
 74
0
 42
0.0000001
 43
0.0000001
 44
0.0000000001
 40
0.0
 40
0.0
 40
0.0
 40
0.0
 40
0.0450764983
 40
0.0910340945
 40
0.1881657053
 40
0.2961618047
 40
0.4168825501
 40
0.550012997
 40
0.69366224
 40
0.8448578247
 40
1.0
 40
1.0
 40
1.0
 40
1.0
 10
47.4435978786
 20
253.7014770699
 30
0.0
 10
46.7191642658
 20
254.1197409698
 30
0.0
 10
45.326124162
 20
255.0925393875
 30
0.0
 10
42.8260993609
 20
257.5503454152
 30
0.0
 10
40.3514246589
 20
261.5863591065
 30
0.0
 10
38.628910941
 20
267.4368034635
 30
0.0
 10
38.0921759518
 20
274.1692028159
 30
0.0
 10
38.7420569042
 20
281.5455476586
 30
0.0
 10
40.5461466517
 20
289.3037507201
 30
0.0
 10
43.4353993373
 20
297.158628454
 30
0.0
 10
46.0040736903
 20
302.2462628033
 30
0.0
 10
47.4435978786
 20
304.739605677
 30
0.0
  0
SPLINE
  5
347
100
AcDbEntity
  8
0
100
AcDbSpline
 62
7
  6
CONTINUOUS
 70
0
 71
3
 72
11
 73
7
 74
0
 42
0.0000001
 43
0.0000001
 44
0.0000000001
 40
0.0
 40
0.0
 40
0.0
 40
0.0
 40
0.3149055339
 40
0.5985431355
 40
0.8306607761
 40
1.0
 40
1.0
 40
1.0
 40
1.0
 10
274.6040307579
 20
229.8937243292
 30
0.0
 10
275.0320648419
 20
230.0918229677
 30
0.0
 10
275.8574474733
 20
230.4429787044
 30
0.0
 10
277.0270539434
 20
230.8697309126
 30
0.0
 10
278.0102827169
 20
231.1628564895
 30
0.0
 10
278.6002748846
 20
231.2908567516
 30
0.0
 10
278.8525675526
 20
231.3168620739
 30
0.0
  0
SPLINE
  5
348
100
AcDbEntity
  8
0
100
AcDbSpline
 62
7
  6
CONTINUOUS
 70
0
 71
3
 72
9
 73
5
 74
0
 42
0.0000001
 43
0.0000001
 44
0.0000000001
 40
0.0
 40
0.0
 40
0.0
 40
0.0
 40
0.2466434868
 40
1.0
 40
1.0
 40
1.0
 40
1.0
 10
271.5895494644
 20
228.4421343219
 30
0.0
 10
271.8358400919
 20
228.5646397973
 30
0.0
 10
272.835736776
 20
229.0586416416
 30
0.0
 10
273.8415319022
 20
229.5408317011
 30
0.0
 10
274.6040307579
 20
229.8937243292
 30
0.0
  0
SPLINE
  5
349
100
AcDbEntity
  8
0
100
AcDbSpline
 62
7
  6
CONTINUOUS
 70
0
 71
3
 72
9
 73
5
 74
0
 42
0.0000001
 43
0.0000001
 44
0.0000000001
 40
0.0
 40
0.0
 40
0.0
 40
0.0
 40
0.2629913971
 40
1.0
 40
1.0
 40
1.0
 40
1.0
 10
241.1513583163
 20
159.6344203334
 30
0.0
 10
241.1193026838
 20
159.6319188387
 30
0.0
 10
240.9973041304
 20
159.6242742053
 30
0.0
 10
240.8745148486
 20
159.6258197358
 30
0.0
 10
240.7848263556
 20
159.6344837464
 30
0.0
  0
SPLINE
  5
34A
100
AcDbEntity
  8
0
100
AcDbSpline
 62
7
  6
CONTINUOUS
 70
0
 71
3
 72
8
 73
4
 74
0
 42
0.0000001
 43
0.0000001
 44
0.0000000001
 40
0.0
 40
0.0
 40
0.0
 40
0.0
 40
1.0
 40
1.0
 40
1.0
 40
1.0
 10
245.0073362578
 20
166.0388002791
 30
0.0
 10
244.9844059896
 20
166.0596578964
 30
0.0
 10
244.9622331639
 20
166.0813600277
 30
0.0
 10
244.9406037271
 20
166.1035637404
 30
0.0
  0
SPLINE
  5
34B
100
AcDbEntity
  8
0
100
AcDbSpline
 62
7
  6
CONTINUOUS
 70
0
 71
3
 72
8
 73
4
 74
0
 42
0.0000001
 43
0.0000001
 44
0.0000000001
 40
0.0
 40
0.0
 40
0.0
 40
0.0
 40
1.0
 40
1.0
 40
1.0
 40
1.0
 10
244.9406037271
 20
166.1035637404
 30
0.0
 10
244.9182652314
 20
166.1264953381
 30
0.0
 10
244.8964968253
 20
166.1499865388
 30
0.0
 10
244.8750911294
 20
166.1737912179
 30
0.0
  0
SPLINE
  5
34C
100
AcDbEntity
  8
0
100
AcDbSpline
 62
7
  6
CONTINUOUS
 70
0
 71
3
 72
8
 73
4
 74
0
 42
0.0000001
 43
0.0000001
 44
0.0000000001
 40
0.0
 40
0.0
 40
0.0
 40
0.0
 40
1.0
 40
1.0
 40
1.0
 40
1.0
 10
244.8750911294
 20
166.1737912179
 30
0.0
 10
244.8530971589
 20
166.1982501008
 30
0.0
 10
244.8314819344
 20
166.2230491767
 30
0.0
 10
244.8099848184
 20
166.2479458772
 30
0.0
  0
SPLINE
  5
34D
100
AcDbEntity
  8
0
100
AcDbSpline
 62
7
  6
CONTINUOUS
 70
0
 71
3
 72
9
 73
5
 74
0
 42
0.0000001
 43
0.0000001
 44
0.0000000001
 40
0.0
 40
0.0
 40
0.0
 40
0.0
 40
0.2732521273
 40
1.0
 40
1.0
 40
1.0
 40
1.0
 10
244.8110998976
 20
166.2476259219
 30
0.0
 10
244.790316307
 20
166.2716962593
 30
0.0
 10
244.7143940189
 20
166.3598854074
 30
0.0
 10
244.6382027149
 20
166.4479753329
 30
0.0
 10
244.5797388104
 20
166.5090963344
 30
0.0
  0
SPLINE
  5
34E
100
AcDbEntity
  8
0
100
AcDbSpline
 62
7
  6
CONTINUOUS
 70
0
 71
3
 72
8
 73
4
 74
0
 42
0.0000001
 43
0.0000001
 44
0.0000000001
 40
0.0
 40
0.0
 40
0.0
 40
0.0
 40
1.0
 40
1.0
 40
1.0
 40
1.0
 10
244.5797388104
 20
166.5090963344
 30
0.0
 10
244.5387906512
 20
166.5519055261
 30
0.0
 10
244.4961462084
 20
166.5932099435
 30
0.0
 10
244.451413842
 20
166.6320479922
 30
0.0
  0
SPLINE
  5
34F
100
AcDbEntity
  8
0
100
AcDbSpline
 62
7
  6
CONTINUOUS
 70
0
 71
3
 72
8
 73
4
 74
0
 42
0.0000001
 43
0.0000001
 44
0.0000000001
 40
0.0
 40
0.0
 40
0.0
 40
0.0
 40
1.0
 40
1.0
 40
1.0
 40
1.0
 10
245.0073362578
 20
166.0388002791
 30
0.0
 10
245.0434771848
 20
166.0059261053
 30
0.0
 10
245.0811371852
 20
165.9743704015
 30
0.0
 10
245.1216753107
 20
165.9471025032
 30
0.0
  0
SPLINE
  5
350
100
AcDbEntity
  8
0
100
AcDbSpline
 62
7
  6
CONTINUOUS
 70
0
 71
3
 72
8
 73
4
 74
0
 42
0.0000001
 43
0.0000001
 44
0.0000000001
 40
0.0
 40
0.0
 40
0.0
 40
0.0
 40
1.0
 40
1.0
 40
1.0
 40
1.0
 10
245.1216753107
 20
165.9471025032
 30
0.0
 10
245.1318023282
 20
165.9402905828
 30
0.0
 10
245.1421257644
 20
165.9337530054
 30
0.0
 10
245.1526955477
 20
165.9276506762
 30
0.0
  0
SPLINE
  5
351
100
AcDbEntity
  8
0
100
AcDbSpline
 62
7
  6
CONTINUOUS
 70
0
 71
3
 72
9
 73
5
 74
0
 42
0.0000001
 43
0.0000001
 44
0.0000000001
 40
0.0
 40
0.0
 40
0.0
 40
0.0
 40
0.4595564931
 40
1.0
 40
1.0
 40
1.0
 40
1.0
 10
242.505410153
 20
159.0757609096
 30
0.0
 10
242.2185810881
 20
159.1692389681
 30
0.0
 10
241.6056618615
 20
159.4054894369
 30
0.0
 10
241.0085898379
 20
159.682976109
 30
0.0
 10
240.7013434408
 20
159.8603608861
 30
0.0
  0
SPLINE
  5
352
100
AcDbEntity
  8
0
100
AcDbSpline
 62
7
  6
CONTINUOUS
 70
0
 71
3
 72
8
 73
4
 74
0
 42
0.0000001
 43
0.0000001
 44
0.0000000001
 40
0.0
 40
0.0
 40
0.0
 40
0.0
 40
1.0
 40
1.0
 40
1.0
 40
1.0
 10
269.8955138673
 20
209.8287871551
 30
0.0
 10
269.8454385409
 20
209.8663848908
 30
0.0
 10
269.7972070628
 20
209.9064166417
 30
0.0
 10
269.7494116786
 20
209.9468731528
 30
0.0
  0
LINE
  5
353
100
AcDbEntity
  8
0
100
AcDbLine
 62
7
  6
CONTINUOUS
 10
269.7494116786
 20
209.9468731528
 11
269.6753321978
 21
210.0098468607
  0
SPLINE
  5
354
100
AcDbEntity
  8
0
100
AcDbSpline
 62
7
  6
CONTINUOUS
 70
0
 71
3
 72
8
 73
4
 74
0
 42
0.0000001
 43
0.0000001
 44
0.0000000001
 40
0.0
 40
0.0
 40
0.0
 40
0.0
 40
1.0
 40
1.0
 40
1.0
 40
1.0
 10
269.9486962606
 20
209.7898571796
 30
0.0
 10
269.9659814232
 20
209.7775755864
 30
0.0
 10
269.9834582691
 20
209.7655534032
 30
0.0
 10
270.0012159394
 20
209.753965499
 30
0.0
  0
SPLINE
  5
355
100
AcDbEntity
  8
0
100
AcDbSpline
 62
7
  6
CONTINUOUS
 70
0
 71
3
 72
8
 73
4
 74
0
 42
0.0000001
 43
0.0000001
 44
0.0000000001
 40
0.0
 40
0.0
 40
0.0
 40
0.0
 40
1.0
 40
1.0
 40
1.0
 40
1.0
 10
270.0012159394
 20
209.753965499
 30
0.0
 10
270.0163402989
 20
209.7440959821
 30
0.0
 10
270.0316705883
 20
209.7345234467
 30
0.0
 10
270.0473108561
 20
209.7254937381
 30
0.0
  0
SPLINE
  5
356
100
AcDbEntity
  8
0
100
AcDbSpline
 62
7
  6
CONTINUOUS
 70
0
 71
3
 72
9
 73
5
 74
0
 42
0.0000001
 43
0.0000001
 44
0.0000000001
 40
0.0
 40
0.0
 40
0.0
 40
0.0
 40
0.1622312255
 40
1.0
 40
1.0
 40
1.0
 40
1.0
 10
265.2052951452
 20
203.4690904548
 30
0.0
 10
265.211060785
 20
203.4684079919
 30
0.0
 10
265.2460519469
 20
203.4601232294
 30
0.0
 10
265.2780256535
 20
203.4427557934
 30
0.0
 10
265.3039908495
 20
203.4277651197
 30
0.0
  0
SPLINE
  5
357
100
AcDbEntity
  8
0
100
AcDbSpline
 62
7
  6
CONTINUOUS
 70
0
 71
3
 72
10
 73
6
 74
0
 42
0.0000001
 43
0.0000001
 44
0.0000000001
 40
0.0
 40
0.0
 40
0.0
 40
0.0
 40
0.4645336569
 40
0.7399742529
 40
1.0
 40
1.0
 40
1.0
 40
1.0
 10
267.905942188
 20
202.4523661064
 30
0.0
 10
267.5997169808
 20
202.4841833372
 30
0.0
 10
267.1159378829
 20
202.5816241167
 30
0.0
 10
266.4858161599
 20
202.7876164464
 30
0.0
 10
266.160347311
 20
202.9333586711
 30
0.0
 10
266.0111005746
 20
203.0195243651
 30
0.0
  0
LINE
  5
358
100
AcDbEntity
  8
0
100
AcDbLine
 62
7
  6
CONTINUOUS
 10
269.5626787759
 20
152.1341944064
 11
269.6875877571
 21
152.0610385548
  0
SPLINE
  5
359
100
AcDbEntity
  8
0
100
AcDbSpline
 62
7
  6
CONTINUOUS
 70
0
 71
3
 72
10
 73
6
 74
0
 42
0.0000001
 43
0.0000001
 44
0.0000000001
 40
0.0
 40
0.0
 40
0.0
 40
0.0
 40
0.4741355006
 40
0.7459899474
 40
1.0
 40
1.0
 40
1.0
 40
1.0
 10
268.3110291418
 20
144.4575139018
 30
0.0
 10
267.9938217941
 20
144.4179221508
 30
0.0
 10
267.4840596121
 20
144.4207826597
 30
0.0
 10
266.8212664029
 20
144.5484141067
 30
0.0
 10
266.4852909119
 20
144.6746615858
 30
0.0
 10
266.3369771382
 20
144.7602886459
 30
0.0
  0
SPLINE
  5
35A
100
AcDbEntity
  8
0
100
AcDbSpline
 62
7
  6
CONTINUOUS
 70
0
 71
3
 72
9
 73
5
 74
0
 42
0.0000001
 43
0.0000001
 44
0.0000000001
 40
0.0
 40
0.0
 40
0.0
 40
0.0
 40
0.5266639699
 40
1.0
 40
1.0
 40
1.0
 40
1.0
 10
270.6279900358
 20
151.5004667377
 30
0.0
 10
270.8941357232
 20
151.3046275066
 30
0.0
 10
271.3008426619
 20
150.8035751033
 30
0.0
 10
271.5688728352
 20
150.2321527952
 30
0.0
 10
271.659271766
 20
149.9492704392
 30
0.0
  0
SPLINE
  5
35B
100
AcDbEntity
  8
0
100
AcDbSpline
 62
7
  6
CONTINUOUS
 70
0
 71
3
 72
10
 73
6
 74
0
 42
0.0000001
 43
0.0000001
 44
0.0000000001
 40
0.0
 40
0.0
 40
0.0
 40
0.0
 40
0.4959705376
 40
0.7528905338
 40
1.0
 40
1.0
 40
1.0
 40
1.0
 10
268.8983668154
 20
144.5966695728
 30
0.0
 10
269.8055429057
 20
144.9547949297
 30
0.0
 10
270.9581459841
 20
146.0907782503
 30
0.0
 10
271.7268152165
 20
147.9070396816
 30
0.0
 10
271.8276592901
 20
148.9200472585
 30
0.0
 10
271.7767710112
 20
149.4033061996
 30
0.0
  0
SPLINE
  5
35C
100
AcDbEntity
  8
0
100
AcDbSpline
 62
7
  6
CONTINUOUS
 70
0
 71
3
 72
9
 73
5
 74
0
 42
0.0000001
 43
0.0000001
 44
0.0000000001
 40
0.0
 40
0.0
 40
0.0
 40
0.0
 40
0.5009851936
 40
1.0
 40
1.0
 40
1.0
 40
1.0
 10
263.9516391331
 20
145.5589590324
 30
0.0
 10
264.1907997772
 20
145.4235288124
 30
0.0
 10
264.7107732844
 20
145.2225112028
 30
0.0
 10
265.26511546
 20
145.176135645
 30
0.0
 10
265.5385692643
 20
145.1891413682
 30
0.0
  0
SPLINE
  5
35D
100
AcDbEntity
  8
0
100
AcDbSpline
 62
7
  6
CONTINUOUS
 70
0
 71
3
 72
9
 73
5
 74
0
 42
0.0000001
 43
0.0000001
 44
0.0000000001
 40
0.0
 40
0.0
 40
0.0
 40
0.0
 40
0.499002731
 40
1.0
 40
1.0
 40
1.0
 40
1.0
 10
269.5764388273
 20
152.1417102239
 30
0.0
 10
269.4510413829
 20
152.3896183785
 30
0.0
 10
269.1318126582
 20
152.8554727048
 30
0.0
 10
268.6918537735
 20
153.211589919
 30
0.0
 10
268.4514642929
 20
153.3530611566
 30
0.0
  0
SPLINE
  5
35E
100
AcDbEntity
  8
0
100
AcDbSpline
 62
7
  6
CONTINUOUS
 70
0
 71
3
 72
8
 73
4
 74
0
 42
0.0000001
 43
0.0000001
 44
0.0000000001
 40
0.0
 40
0.0
 40
0.0
 40
0.0
 40
1.0
 40
1.0
 40
1.0
 40
1.0
 10
271.4430439738
 20
208.512772373
 30
0.0
 10
271.329734719
 20
208.7315735228
 30
0.0
 10
271.1872688842
 20
208.9378484766
 30
0.0
 10
271.0207828516
 20
209.1194946474
 30
0.0
  0
SPLINE
  5
35F
100
AcDbEntity
  8
0
100
AcDbSpline
 62
7
  6
CONTINUOUS
 70
0
 71
3
 72
12
 73
8
 74
0
 42
0.0000001
 43
0.0000001
 44
0.0000000001
 40
0.0
 40
0.0
 40
0.0
 40
0.0
 40
0.2428715676
 40
0.4957139211
 40
0.6246058413
 40
0.7525445192
 40
1.0
 40
1.0
 40
1.0
 40
1.0
 10
268.6177017595
 20
202.4712406797
 30
0.0
 10
269.0805655933
 20
202.6085744593
 30
0.0
 10
269.9660729046
 20
203.1034251819
 30
0.0
 10
270.8034422005
 20
204.0435036469
 30
0.0
 10
271.3119053041
 20
204.9234230008
 30
0.0
 10
271.6868785257
 20
205.8549044156
 30
0.0
 10
271.8101273415
 20
206.6095286961
 30
0.0
 10
271.7952113153
 20
207.1012228581
 30
0.0
  0
SPLINE
  5
360
100
AcDbEntity
  8
0
100
AcDbSpline
 62
7
  6
CONTINUOUS
 70
0
 71
3
 72
9
 73
5
 74
0
 42
0.0000001
 43
0.0000001
 44
0.0000000001
 40
0.0
 40
0.0
 40
0.0
 40
0.0
 40
0.251489636
 40
1.0
 40
1.0
 40
1.0
 40
1.0
 10
263.9516391331
 20
203.5306306486
 30
0.0
 10
264.0475689117
 20
203.4763082033
 30
0.0
 10
264.4412713603
 20
203.2823791
 30
0.0
 10
264.8799035654
 20
203.1824012819
 30
0.0
 10
265.2074301057
 20
203.1627408654
 30
0.0
  0
SPLINE
  5
361
100
AcDbEntity
  8
0
100
AcDbSpline
 62
7
  6
CONTINUOUS
 70
0
 71
3
 72
9
 73
5
 74
0
 42
0.0000001
 43
0.0000001
 44
0.0000000001
 40
0.0
 40
0.0
 40
0.0
 40
0.0
 40
0.49900679
 40
1.0
 40
1.0
 40
1.0
 40
1.0
 10
269.571260961
 20
210.1235726239
 30
0.0
 10
269.4458232657
 20
210.3693508979
 30
0.0
 10
269.1274604247
 20
210.8310419436
 30
0.0
 10
268.6902226532
 20
211.1842214633
 30
0.0
 10
268.451464293
 20
211.3247327728
 30
0.0
  0
SPLINE
  5
362
100
AcDbEntity
  8
0
100
AcDbSpline
 62
7
  6
CONTINUOUS
 70
0
 71
3
 72
9
 73
5
 74
0
 42
0.0000001
 43
0.0000001
 44
0.0000000001
 40
0.0
 40
0.0
 40
0.0
 40
0.0
 40
0.2147809407
 40
1.0
 40
1.0
 40
1.0
 40
1.0
 10
239.9304470209
 20
160.2970972567
 30
0.0
 10
239.9352605487
 20
160.2957124621
 30
0.0
 10
239.9574013027
 20
160.2883232752
 30
0.0
 10
239.9783753415
 20
160.27775727
 30
0.0
 10
239.9942337157
 20
160.2686016406
 30
0.0
  0
SPLINE
  5
363
100
AcDbEntity
  8
0
100
AcDbSpline
 62
7
  6
CONTINUOUS
 70
0
 71
3
 72
11
 73
7
 74
0
 42
0.0000001
 43
0.0000001
 44
0.0000000001
 40
0.0
 40
0.0
 40
0.0
 40
0.0
 40
0.2414979847
 40
0.4918567949
 40
0.7487289423
 40
1.0
 40
1.0
 40
1.0
 40
1.0
 10
243.2163173364
 20
158.9196135527
 30
0.0
 10
243.6713719511
 20
159.0082020717
 30
0.0
 10
244.5621449977
 20
159.4019604143
 30
0.0
 10
245.6144581252
 20
160.4100533735
 30
0.0
 10
246.3680777938
 20
161.6741862787
 30
0.0
 10
246.6284455892
 20
162.6324014686
 30
0.0
 10
246.6753245944
 20
163.1124766505
 30
0.0
  0
SPLINE
  5
364
100
AcDbEntity
  8
0
100
AcDbSpline
 62
7
  6
CONTINUOUS
 70
0
 71
3
 72
8
 73
4
 74
0
 42
0.0000001
 43
0.0000001
 44
0.0000000001
 40
0.0
 40
0.0
 40
0.0
 40
0.0
 40
1.0
 40
1.0
 40
1.0
 40
1.0
 10
238.849452912
 20
160.0521273781
 30
0.0
 10
239.1989182822
 20
159.8542345679
 30
0.0
 10
239.5995570323
 20
159.7307094988
 30
0.0
 10
239.9993390777
 20
159.6924743652
 30
0.0
  0
SPLINE
  5
365
100
AcDbEntity
  8
0
100
AcDbSpline
 62
7
  6
CONTINUOUS
 70
0
 71
3
 72
9
 73
5
 74
0
 42
0.0000001
 43
0.0000001
 44
0.0000000001
 40
0.0
 40
0.0
 40
0.0
 40
0.0
 40
0.4990057229
 40
1.0
 40
1.0
 40
1.0
 40
1.0
 10
244.4703764368
 20
166.6425159952
 30
0.0
 10
244.3449476851
 20
166.888828083
 30
0.0
 10
244.0263658158
 20
167.351562075
 30
0.0
 10
243.588445439
 20
167.7054774888
 30
0.0
 10
243.3492780719
 20
167.8462295022
 30
0.0
  0
SPLINE
  5
366
100
AcDbEntity
  8
0
100
AcDbSpline
 62
7
  6
CONTINUOUS
 70
0
 71
3
 72
9
 73
5
 74
0
 42
0.0000001
 43
0.0000001
 44
0.0000000001
 40
0.0
 40
0.0
 40
0.0
 40
0.0
 40
0.2481027823
 40
1.0
 40
1.0
 40
1.0
 40
1.0
 10
273.1881636779
 20
227.5198229401
 30
0.0
 10
273.2757046884
 20
227.5228194682
 30
0.0
 10
273.6281628555
 20
227.539564644
 30
0.0
 10
273.9812659889
 20
227.5780725285
 30
0.0
 10
274.240135153
 20
227.6368406078
 30
0.0
  0
SPLINE
  5
367
100
AcDbEntity
  8
0
100
AcDbSpline
 62
7
  6
CONTINUOUS
 70
0
 71
3
 72
11
 73
7
 74
0
 42
0.0000001
 43
0.0000001
 44
0.0000000001
 40
0.0
 40
0.0
 40
0.0
 40
0.0
 40
0.2525279736
 40
0.5020607371
 40
0.7507343277
 40
1.0
 40
1.0
 40
1.0
 40
1.0
 10
290.8543677214
 20
226.3000996083
 30
0.0
 10
290.0868222185
 20
227.1338164662
 30
0.0
 10
288.4036823941
 20
228.6562250992
 30
0.0
 10
285.4715244473
 20
230.3687014177
 30
0.0
 10
282.2305775466
 20
231.3529990111
 30
0.0
 10
279.9653171195
 20
231.431577992
 30
0.0
 10
278.8526290197
 20
231.316821333
 30
0.0
  0
SPLINE
  5
368
100
AcDbEntity
  8
0
100
AcDbSpline
 62
7
  6
CONTINUOUS
 70
0
 71
3
 72
9
 73
5
 74
0
 42
0.0000001
 43
0.0000001
 44
0.0000000001
 40
0.0
 40
0.0
 40
0.0
 40
0.0
 40
0.4968659016
 40
1.0
 40
1.0
 40
1.0
 40
1.0
 10
295.4464313259
 20
210.482398931
 30
0.0
 10
295.7919129514
 20
211.8638909979
 30
0.0
 10
296.0452929505
 20
214.7675767408
 30
0.0
 10
295.5041514936
 20
217.6155950445
 30
0.0
 10
295.0737502682
 20
218.9918656108
 30
0.0
  0
SPLINE
  5
369
100
AcDbEntity
  8
0
100
AcDbSpline
 62
7
  6
CONTINUOUS
 70
0
 71
3
 72
9
 73
5
 74
0
 42
0.0000001
 43
0.0000001
 44
0.0000000001
 40
0.0
 40
0.0
 40
0.0
 40
0.0
 40
0.5000009989
 40
1.0
 40
1.0
 40
1.0
 40
1.0
 10
295.0737488806
 20
218.9918700481
 30
0.0
 10
294.6514915298
 20
220.3420975933
 30
0.0
 10
293.4884649794
 20
222.9487571398
 30
0.0
 10
291.81255594
 20
225.2593051532
 30
0.0
 10
290.8543624693
 20
226.3001053132
 30
0.0
  0
SPLINE
  5
36A
100
AcDbEntity
  8
0
100
AcDbSpline
 62
7
  6
CONTINUOUS
 70
0
 71
3
 72
13
 73
9
 74
0
 42
0.0000001
 43
0.0000001
 44
0.0000000001
 40
0.0
 40
0.0
 40
0.0
 40
0.0
 40
0.1044371811
 40
0.2115315826
 40
0.4416967514
 40
0.5685118339
 40
0.7039003575
 40
1.0
 40
1.0
 40
1.0
 40
1.0
 10
61.232520642
 20
245.7406192715
 30
0.0
 10
60.3885743621
 20
246.2278744671
 30
0.0
 10
58.7738387471
 20
247.3896417114
 30
0.0
 10
55.941718606
 20
250.4134670633
 30
0.0
 10
53.9184644654
 20
254.3446788333
 30
0.0
 10
52.7013665388
 20
258.7811525359
 30
0.0
 10
51.9514592342
 20
263.948614555
 30
0.0
 10
52.0475740403
 20
268.0079492477
 30
0.0
 10
52.336690006
 20
270.7556956001
 30
0.0
  0
SPLINE
  5
36B
100
AcDbEntity
  8
0
100
AcDbSpline
 62
7
  6
CONTINUOUS
 70
0
 71
3
 72
9
 73
5
 74
0
 42
0.0000001
 43
0.0000001
 44
0.0000000001
 40
0.0
 40
0.0
 40
0.0
 40
0.0
 40
0.2436260651
 40
1.0
 40
1.0
 40
1.0
 40
1.0
 10
53.1983013785
 20
276.1967918199
 30
0.0
 10
53.3764011111
 20
277.0469789725
 30
0.0
 10
54.1849416971
 20
280.5202231863
 30
0.0
 10
55.2898992085
 20
283.922743203
 30
0.0
 10
56.2653965403
 20
286.43696022
 30
0.0
  0
SPLINE
  5
36C
100
AcDbEntity
  8
0
100
AcDbSpline
 62
7
  6
CONTINUOUS
 70
0
 71
3
 72
9
 73
5
 74
0
 42
0.0000001
 43
0.0000001
 44
0.0000000001
 40
0.0
 40
0.0
 40
0.0
 40
0.0
 40
0.4955675963
 40
1.0
 40
1.0
 40
1.0
 40
1.0
 10
202.1912566578
 20
162.2814471417
 30
0.0
 10
201.4591918186
 20
162.7041072515
 30
0.0
 10
200.0505272676
 20
163.6815375775
 30
0.0
 10
198.8205025936
 20
164.8748896821
 30
0.0
 10
198.2501072416
 20
165.5190966969
 30
0.0
  0
SPLINE
  5
36D
100
AcDbEntity
  8
0
100
AcDbSpline
 62
7
  6
CONTINUOUS
 70
0
 71
3
 72
10
 73
6
 74
0
 42
0.0000001
 43
0.0000001
 44
0.0000000001
 40
0.0
 40
0.0
 40
0.0
 40
0.0
 40
0.2279455863
 40
0.5967155567
 40
1.0
 40
1.0
 40
1.0
 40
1.0
 10
233.6696184011
 20
147.505111999
 30
0.0
 10
233.1791024895
 20
148.4706195782
 30
0.0
 10
232.0862877634
 20
151.0979745395
 30
0.0
 10
231.0061644363
 20
155.75133352
 30
0.0
 10
230.764794045
 20
159.4266607563
 30
0.0
 10
230.764794045
 20
161.3426552207
 30
0.0
  0
SPLINE
  5
36E
100
AcDbEntity
  8
0
100
AcDbSpline
 62
7
  6
CONTINUOUS
 70
0
 71
3
 72
12
 73
8
 74
0
 42
0.0000001
 43
0.0000001
 44
0.0000000001
 40
0.0
 40
0.0
 40
0.0
 40
0.0
 40
0.1101066723
 40
0.221935232
 40
0.4564716959
 40
0.7142292729
 40
1.0
 40
1.0
 40
1.0
 40
1.0
 10
287.9882436556
 20
218.9795023656
 30
0.0
 10
288.772521133
 20
218.5267097965
 30
0.0
 10
290.2781759932
 20
217.4763295602
 30
0.0
 10
292.9679462852
 20
214.8359096656
 30
0.0
 10
295.6158610483
 20
210.5374682618
 30
0.0
 10
297.4482049211
 20
204.3499332364
 30
0.0
 10
297.8083065719
 20
199.863489889
 30
0.0
 10
297.8083065719
 20
197.5130954122
 30
0.0
  0
SPLINE
  5
36F
100
AcDbEntity
  8
0
100
AcDbSpline
 62
7
  6
CONTINUOUS
 70
0
 71
3
 72
9
 73
5
 74
0
 42
0.0000001
 43
0.0000001
 44
0.0000000001
 40
0.0
 40
0.0
 40
0.0
 40
0.0
 40
0.4990055839
 40
1.0
 40
1.0
 40
1.0
 40
1.0
 10
294.6749212425
 20
195.6275123889
 30
0.0
 10
294.549493734
 20
195.8738952433
 30
0.0
 10
294.2308829297
 20
196.3367675212
 30
0.0
 10
293.7928720922
 20
196.69078051
 30
0.0
 10
293.553650514
 20
196.8315644271
 30
0.0
  0
SPLINE
  5
370
100
AcDbEntity
  8
0
100
AcDbSpline
 62
7
  6
CONTINUOUS
 70
0
 71
3
 72
8
 73
4
 74
0
 42
0.0000001
 43
0.0000001
 44
0.0000000001
 40
0.0
 40
0.0
 40
0.0
 40
0.0
 40
1.0
 40
1.0
 40
1.0
 40
1.0
 10
289.0538253542
 20
189.0374623029
 30
0.0
 10
289.402474662
 20
188.8400316068
 30
0.0
 10
289.8020379988
 20
188.7166144981
 30
0.0
 10
290.2008495472
 20
188.6780844003
 30
0.0
  0
SPLINE
  5
371
100
AcDbEntity
  8
0
100
AcDbSpline
 62
7
  6
CONTINUOUS
 70
0
 71
3
 72
11
 73
7
 74
0
 42
0.0000001
 43
0.0000001
 44
0.0000000001
 40
0.0
 40
0.0
 40
0.0
 40
0.0
 40
0.2409288714
 40
0.4892730099
 40
0.7455996377
 40
1.0
 40
1.0
 40
1.0
 40
1.0
 10
293.2987087639
 20
187.8839443005
 30
0.0
 10
293.724573847
 20
187.9489380529
 30
0.0
 10
294.5657072606
 20
188.2702175141
 30
0.0
 10
295.5963836599
 20
189.1434559228
 30
0.0
 10
296.3769812343
 20
190.2700080037
 30
0.0
 10
296.7010589133
 20
191.1372224541
 30
0.0
 10
296.7979743285
 20
191.5816623398
 30
0.0
  0
SPLINE
  5
372
100
AcDbEntity
  8
0
100
AcDbSpline
 62
7
  6
CONTINUOUS
 70
0
 71
3
 72
9
 73
5
 74
0
 42
0.0000001
 43
0.0000001
 44
0.0000000001
 40
0.0
 40
0.0
 40
0.0
 40
0.0
 40
0.5052106656
 40
1.0
 40
1.0
 40
1.0
 40
1.0
 10
296.7979514196
 20
191.5815572887
 30
0.0
 10
296.8913196746
 20
192.0096832277
 30
0.0
 10
296.9603931329
 20
192.8901495283
 30
0.0
 10
296.702526419
 20
193.7485951947
 30
0.0
 10
296.4899122364
 20
194.1213752048
 30
0.0
  0
SPLINE
  5
373
100
AcDbEntity
  8
0
100
AcDbSpline
 62
7
  6
CONTINUOUS
 70
0
 71
3
 72
11
 73
7
 74
0
 42
0.0000001
 43
0.0000001
 44
0.0000000001
 40
0.0
 40
0.0
 40
0.0
 40
0.0
 40
0.2877109112
 40
0.5473016055
 40
0.7820382332
 40
1.0
 40
1.0
 40
1.0
 40
1.0
 10
48.2594176169
 20
309.9833829776
 30
0.0
 10
48.5454332668
 20
310.1485028707
 30
0.0
 10
49.1143902577
 20
310.4231426802
 30
0.0
 10
49.9882980685
 20
310.6553501567
 30
0.0
 10
50.814447418
 20
310.6762812188
 30
0.0
 10
51.3254865993
 20
310.5388987849
 30
0.0
 10
51.5534484776
 20
310.4357965084
 30
0.0
  0
SPLINE
  5
374
100
AcDbEntity
  8
0
100
AcDbSpline
 62
7
  6
CONTINUOUS
 70
0
 71
3
 72
11
 73
7
 74
0
 42
0.0000001
 43
0.0000001
 44
0.0000000001
 40
0.0
 40
0.0
 40
0.0
 40
0.0
 40
0.2298887817
 40
0.4833695665
 40
0.7455930151
 40
1.0
 40
1.0
 40
1.0
 40
1.0
 10
43.3098784783
 20
301.8184505771
 30
0.0
 10
43.3097969792
 20
302.406242789
 30
0.0
 10
43.4836318465
 20
303.6435078796
 30
0.0
 10
44.1251141196
 20
305.4491922345
 30
0.0
 10
45.1058333227
 20
307.1678173675
 30
0.0
 10
45.9587234113
 20
308.1888327727
 30
0.0
 10
46.4255875706
 20
308.6417834326
 30
0.0
  0
SPLINE
  5
375
100
AcDbEntity
  8
0
100
AcDbSpline
 62
7
  6
CONTINUOUS
 70
0
 71
3
 72
11
 73
7
 74
0
 42
0.0000001
 43
0.0000001
 44
0.0000000001
 40
0.0
 40
0.0
 40
0.0
 40
0.0
 40
0.2179724685
 40
0.4527651435
 40
0.7123813389
 40
1.0
 40
1.0
 40
1.0
 40
1.0
 10
44.5558396841
 20
298.337982342
 30
0.0
 10
44.3539449605
 20
298.4843796449
 30
0.0
 10
43.9821010557
 20
298.8583999455
 30
0.0
 10
43.5900915949
 20
299.5829004662
 30
0.0
 10
43.3562614942
 20
300.4532163967
 30
0.0
 10
43.3097733059
 20
301.0810940541
 30
0.0
 10
43.3098128291
 20
301.410164164
 30
0.0
  0
SPLINE
  5
376
100
AcDbEntity
  8
0
100
AcDbSpline
 62
7
  6
CONTINUOUS
 70
0
 71
3
 72
16
 73
12
 74
0
 42
0.0000001
 43
0.0000001
 44
0.0000000001
 40
0.0
 40
0.0
 40
0.0
 40
0.0
 40
0.1312302338
 40
0.2365660251
 40
0.2825228774
 40
0.3275649884
 40
0.4271783839
 40
0.5520470739
 40
0.6987013205
 40
0.8535023257
 40
1.0
 40
1.0
 40
1.0
 40
1.0
 10
296.2581003426
 20
191.1912311203
 30
0.0
 10
296.3066438593
 20
191.4138200361
 30
0.0
 10
296.3481481923
 20
191.8282923046
 30
0.0
 10
296.2019856165
 20
192.3217501648
 30
0.0
 10
295.9585242135
 20
192.5699820538
 30
0.0
 10
295.65124981
 20
192.711882807
 30
0.0
 10
295.1573224015
 20
192.6609049454
 30
0.0
 10
294.5972854348
 20
192.321635326
 30
0.0
 10
294.0855244929
 20
191.7763255173
 30
0.0
 10
293.6946436841
 20
191.0971413897
 30
0.0
 10
293.5416451598
 20
190.5895152622
 30
0.0
 10
293.5063630491
 20
190.3376488352
 30
0.0
  0
SPLINE
  5
377
100
AcDbEntity
  8
0
100
AcDbSpline
 62
7
  6
CONTINUOUS
 70
0
 71
3
 72
16
 73
12
 74
0
 42
0.0000001
 43
0.0000001
 44
0.0000000001
 40
0.0
 40
0.0
 40
0.0
 40
0.0
 40
0.1265442831
 40
0.2289562457
 40
0.2747404482
 40
0.320345256
 40
0.4215334978
 40
0.5466310106
 40
0.6929061231
 40
0.8488841356
 40
1.0
 40
1.0
 40
1.0
 40
1.0
 10
293.5063630491
 20
190.3376488352
 30
0.0
 10
293.4781037835
 20
190.1359159993
 30
0.0
 10
293.4691713166
 20
189.7615025049
 30
0.0
 10
293.6407880113
 20
189.3301247832
 30
0.0
 10
293.8815331215
 20
189.1227863398
 30
0.0
 10
294.1754047161
 20
189.0069828395
 30
0.0
 10
294.632920196
 20
189.0600504343
 30
0.0
 10
295.1587457282
 20
189.3664279783
 30
0.0
 10
295.6469682368
 20
189.8605175439
 30
0.0
 10
296.0365263712
 20
190.4836016379
 30
0.0
 10
296.2062733258
 20
190.9535600195
 30
0.0
 10
296.2581003426
 20
191.1912311203
 30
0.0
  0
SPLINE
  5
378
100
AcDbEntity
  8
0
100
AcDbSpline
 62
7
  6
CONTINUOUS
 70
0
 71
3
 72
10
 73
6
 74
0
 42
0.0000001
 43
0.0000001
 44
0.0000000001
 40
0.0
 40
0.0
 40
0.0
 40
0.0
 40
0.2284390825
 40
0.4806563966
 40
1.0
 40
1.0
 40
1.0
 40
1.0
 10
293.2834596569
 20
195.8179637802
 30
0.0
 10
293.321928563
 20
195.8592238052
 30
0.0
 10
293.4306019734
 20
195.9182453731
 30
0.0
 10
293.6722179265
 20
195.9712799813
 30
0.0
 10
293.866909529
 20
195.9599643349
 30
0.0
 10
293.9930152398
 20
195.9366201547
 30
0.0
  0
SPLINE
  5
379
100
AcDbEntity
  8
0
100
AcDbSpline
 62
7
  6
CONTINUOUS
 70
0
 71
3
 72
8
 73
4
 74
0
 42
0.0000001
 43
0.0000001
 44
0.0000000001
 40
0.0
 40
0.0
 40
0.0
 40
0.0
 40
1.0
 40
1.0
 40
1.0
 40
1.0
 10
293.2406777393
 20
195.68993367
 30
0.0
 10
293.2297440585
 20
195.7335891464
 30
0.0
 10
293.2523626548
 20
195.7852066185
 30
0.0
 10
293.283052348
 20
195.8181230084
 30
0.0
  0
SPLINE
  5
37A
100
AcDbEntity
  8
0
100
AcDbSpline
 62
7
  6
CONTINUOUS
 70
0
 71
3
 72
9
 73
5
 74
0
 42
0.0000001
 43
0.0000001
 44
0.0000000001
 40
0.0
 40
0.0
 40
0.0
 40
0.0
 40
0.5011998634
 40
1.0
 40
1.0
 40
1.0
 40
1.0
 10
290.5402146107
 20
193.4128254087
 30
0.0
 10
290.5723842187
 20
193.6193551386
 30
0.0
 10
290.7596479904
 20
194.0074996518
 30
0.0
 10
291.0149864001
 20
194.3357278659
 30
0.0
 10
291.1511702501
 20
194.4929729195
 30
0.0
  0
SPLINE
  5
37B
100
AcDbEntity
  8
0
100
AcDbSpline
 62
7
  6
CONTINUOUS
 70
0
 71
3
 72
8
 73
4
 74
0
 42
0.0000001
 43
0.0000001
 44
0.0000000001
 40
0.0
 40
0.0
 40
0.0
 40
0.0
 40
1.0
 40
1.0
 40
1.0
 40
1.0
 10
290.5506865526
 20
193.1276529472
 30
0.0
 10
290.5241428926
 20
193.2189978042
 30
0.0
 10
290.5255800403
 20
193.3188409748
 30
0.0
 10
290.5402201634
 20
193.4128309507
 30
0.0
  0
SPLINE
  5
37C
100
AcDbEntity
  8
0
100
AcDbSpline
 62
7
  6
CONTINUOUS
 70
0
 71
3
 72
9
 73
5
 74
0
 42
0.0000001
 43
0.0000001
 44
0.0000000001
 40
0.0
 40
0.0
 40
0.0
 40
0.0
 40
0.5046312387
 40
1.0
 40
1.0
 40
1.0
 40
1.0
 10
289.7846150387
 20
189.8226646313
 30
0.0
 10
289.6914992752
 20
189.973392885
 30
0.0
 10
289.5769682197
 20
190.3169956257
 30
0.0
 10
289.5736663083
 20
190.6702365242
 30
0.0
 10
289.5824372217
 20
190.8439342253
 30
0.0
  0
SPLINE
  5
37D
100
AcDbEntity
  8
0
100
AcDbSpline
 62
7
  6
CONTINUOUS
 70
0
 71
3
 72
9
 73
5
 74
0
 42
0.0000001
 43
0.0000001
 44
0.0000000001
 40
0.0
 40
0.0
 40
0.0
 40
0.0
 40
0.2813850982
 40
1.0
 40
1.0
 40
1.0
 40
1.0
 10
288.9854163123
 20
191.2541152347
 30
0.0
 10
288.968377996
 20
191.0841951102
 30
0.0
 10
288.9397178223
 20
190.4802891734
 30
0.0
 10
289.0543585031
 20
189.8502222818
 30
0.0
 10
289.2673191125
 20
189.4696253777
 30
0.0
  0
SPLINE
  5
37E
100
AcDbEntity
  8
0
100
AcDbSpline
 62
7
  6
CONTINUOUS
 70
0
 71
3
 72
9
 73
5
 74
0
 42
0.0000001
 43
0.0000001
 44
0.0000000001
 40
0.0
 40
0.0
 40
0.0
 40
0.0
 40
0.2605455426
 40
1.0
 40
1.0
 40
1.0
 40
1.0
 10
289.2844478271
 20
189.4396673374
 30
0.0
 10
289.3169218719
 20
189.3840775168
 30
0.0
 10
289.4523464947
 20
189.1773602369
 30
0.0
 10
289.6357911958
 20
189.0009023486
 30
0.0
 10
289.7898518536
 20
188.9026636383
 30
0.0
  0
SPLINE
  5
37F
100
AcDbEntity
  8
0
100
AcDbSpline
 62
7
  6
CONTINUOUS
 70
0
 71
3
 72
9
 73
5
 74
0
 42
0.0000001
 43
0.0000001
 44
0.0000000001
 40
0.0
 40
0.0
 40
0.0
 40
0.0
 40
0.2445523532
 40
1.0
 40
1.0
 40
1.0
 40
1.0
 10
289.8309206692
 20
188.8774545547
 30
0.0
 10
289.8842622028
 20
188.8459576984
 30
0.0
 10
290.1107681823
 20
188.7314367043
 30
0.0
 10
290.3667191162
 20
188.6794236192
 30
0.0
 10
290.5579537016
 20
188.6725177606
 30
0.0
  0
SPLINE
  5
380
100
AcDbEntity
  8
0
100
AcDbSpline
 62
7
  6
CONTINUOUS
 70
0
 71
3
 72
9
 73
5
 74
0
 42
0.0000001
 43
0.0000001
 44
0.0000000001
 40
0.0
 40
0.0
 40
0.0
 40
0.0
 40
0.5023075341
 40
1.0
 40
1.0
 40
1.0
 40
1.0
 10
290.1924277033
 20
192.733894052
 30
0.0
 10
290.0470216339
 20
192.5937847467
 30
0.0
 10
289.8491338326
 20
192.2273067027
 30
0.0
 10
289.7385999439
 20
191.8421104662
 30
0.0
 10
289.6949144002
 20
191.6468687579
 30
0.0
  0
SPLINE
  5
381
100
AcDbEntity
  8
0
100
AcDbSpline
 62
7
  6
CONTINUOUS
 70
0
 71
3
 72
9
 73
5
 74
0
 42
0.0000001
 43
0.0000001
 44
0.0000000001
 40
0.0
 40
0.0
 40
0.0
 40
0.0
 40
0.2416250252
 40
1.0
 40
1.0
 40
1.0
 40
1.0
 10
290.4226099429
 20
192.8773402203
 30
0.0
 10
290.4014926541
 20
192.8710689709
 30
0.0
 10
290.316379442
 20
192.8373841013
 30
0.0
 10
290.2420620324
 20
192.7807701699
 30
0.0
 10
290.1922738326
 20
192.7327956244
 30
0.0
  0
SPLINE
  5
382
100
AcDbEntity
  8
0
100
AcDbSpline
 62
7
  6
CONTINUOUS
 70
0
 71
3
 72
9
 73
5
 74
0
 42
0.0000001
 43
0.0000001
 44
0.0000000001
 40
0.0
 40
0.0
 40
0.0
 40
0.0
 40
0.2641184007
 40
1.0
 40
1.0
 40
1.0
 40
1.0
 10
289.9625995427
 20
189.5934897344
 30
0.0
 10
289.9736512755
 20
189.5818145307
 30
0.0
 10
290.0166586781
 20
189.5388273472
 30
0.0
 10
290.06430641
 20
189.4997061667
 30
0.0
 10
290.1030974685
 20
189.4773106453
 30
0.0
  0
SPLINE
  5
383
100
AcDbEntity
  8
0
100
AcDbSpline
 62
7
  6
CONTINUOUS
 70
0
 71
3
 72
8
 73
4
 74
0
 42
0.0000001
 43
0.0000001
 44
0.0000000001
 40
0.0
 40
0.0
 40
0.0
 40
0.0
 40
1.0
 40
1.0
 40
1.0
 40
1.0
 10
290.4226099424
 20
192.8773402203
 30
0.0
 10
290.4723254455
 20
192.8921043467
 30
0.0
 10
290.5328518857
 20
192.891726864
 30
0.0
 10
290.5777654786
 20
192.8657965757
 30
0.0
  0
SPLINE
  5
384
100
AcDbEntity
  8
0
100
AcDbSpline
 62
7
  6
CONTINUOUS
 70
0
 71
3
 72
11
 73
7
 74
0
 42
0.0000001
 43
0.0000001
 44
0.0000000001
 40
0.0
 40
0.0
 40
0.0
 40
0.0
 40
0.2750776565
 40
0.5307477903
 40
0.7649531671
 40
1.0
 40
1.0
 40
1.0
 40
1.0
 10
293.8050939404
 20
193.588102144
 30
0.0
 10
293.9075471997
 20
193.7149145172
 30
0.0
 10
294.086638367
 20
193.97642164
 30
0.0
 10
294.2529084062
 20
194.4030800989
 30
0.0
 10
294.2471940138
 20
194.8552787699
 30
0.0
 10
294.0449391316
 20
195.0855946746
 30
0.0
 10
293.9242984675
 20
195.1552450187
 30
0.0
  0
SPLINE
  5
385
100
AcDbEntity
  8
0
100
AcDbSpline
 62
7
  6
CONTINUOUS
 70
0
 71
3
 72
10
 73
6
 74
0
 42
0.0000001
 43
0.0000001
 44
0.0000000001
 40
0.0
 40
0.0
 40
0.0
 40
0.0
 40
0.4804745037
 40
0.7429793955
 40
1.0
 40
1.0
 40
1.0
 40
1.0
 10
291.3511624863
 20
192.5871075828
 30
0.0
 10
291.6426847012
 20
192.4188009612
 30
0.0
 10
292.2409347452
 20
192.4769734873
 30
0.0
 10
292.86664184
 20
192.7695771623
 30
0.0
 10
293.1692215338
 20
192.9791245513
 30
0.0
 10
293.3088522987
 20
193.0928244958
 30
0.0
  0
SPLINE
  5
386
100
AcDbEntity
  8
0
100
AcDbSpline
 62
7
  6
CONTINUOUS
 70
0
 71
3
 72
8
 73
4
 74
0
 42
0.0000001
 43
0.0000001
 44
0.0000000001
 40
0.0
 40
0.0
 40
0.0
 40
0.0
 40
1.0
 40
1.0
 40
1.0
 40
1.0
 10
290.5506865526
 20
193.1276529472
 30
0.0
 10
290.5657485786
 20
193.0758199065
 30
0.0
 10
290.5973069455
 20
193.022336436
 30
0.0
 10
290.6440527611
 20
192.9953483373
 30
0.0
  0
SPLINE
  5
387
100
AcDbEntity
  8
0
100
AcDbSpline
 62
7
  6
CONTINUOUS
 70
0
 71
3
 72
9
 73
5
 74
0
 42
0.0000001
 43
0.0000001
 44
0.0000000001
 40
0.0
 40
0.0
 40
0.0
 40
0.0
 40
0.2560338721
 40
1.0
 40
1.0
 40
1.0
 40
1.0
 10
292.7514168082
 20
195.6197321494
 30
0.0
 10
292.6558030164
 20
195.6079353207
 30
0.0
 10
292.2879298168
 20
195.5116198333
 30
0.0
 10
291.9737694549
 20
195.2833144741
 30
0.0
 10
291.7608997219
 20
195.1015179376
 30
0.0
  0
SPLINE
  5
388
100
AcDbEntity
  8
0
100
AcDbSpline
 62
7
  6
CONTINUOUS
 70
0
 71
3
 72
9
 73
5
 74
0
 42
0.0000001
 43
0.0000001
 44
0.0000000001
 40
0.0
 40
0.0
 40
0.0
 40
0.0
 40
0.2651288589
 40
1.0
 40
1.0
 40
1.0
 40
1.0
 10
293.0443648531
 20
195.6164870561
 30
0.0
 10
293.0602410593
 20
195.6143272689
 30
0.0
 10
293.1196959978
 20
195.6041441295
 30
0.0
 10
293.1787281517
 20
195.5856905033
 30
0.0
 10
293.2171887423
 20
195.5634857732
 30
0.0
  0
SPLINE
  5
389
100
AcDbEntity
  8
0
100
AcDbSpline
 62
7
  6
CONTINUOUS
 70
0
 71
3
 72
9
 73
5
 74
0
 42
0.0000001
 43
0.0000001
 44
0.0000000001
 40
0.0
 40
0.0
 40
0.0
 40
0.0
 40
0.2022274754
 40
1.0
 40
1.0
 40
1.0
 40
1.0
 10
293.2406777393
 20
195.68993367
 30
0.0
 10
293.2426408941
 20
195.6820952797
 30
0.0
 10
293.2575034623
 20
195.6445115804
 30
0.0
 10
293.2911859672
 20
195.6174369768
 30
0.0
 10
293.3187923665
 20
195.6014987753
 30
0.0
  0
SPLINE
  5
38A
100
AcDbEntity
  8
0
100
AcDbSpline
 62
7
  6
CONTINUOUS
 70
0
 71
3
 72
9
 73
5
 74
0
 42
0.0000001
 43
0.0000001
 44
0.0000000001
 40
0.0
 40
0.0
 40
0.0
 40
0.0
 40
0.541532807
 40
1.0
 40
1.0
 40
1.0
 40
1.0
 10
294.0259020916
 20
195.1932580208
 30
0.0
 10
294.3332344556
 20
195.0158236118
 30
0.0
 10
294.9183742377
 20
194.7191592904
 30
0.0
 10
295.5147226479
 20
194.4470855437
 30
0.0
 10
295.7920289026
 20
194.3314748677
 30
0.0
  0
SPLINE
  5
38B
100
AcDbEntity
  8
0
100
AcDbSpline
 62
7
  6
CONTINUOUS
 70
0
 71
3
 72
10
 73
6
 74
0
 42
0.0000001
 43
0.0000001
 44
0.0000000001
 40
0.0
 40
0.0
 40
0.0
 40
0.0
 40
0.5039109145
 40
0.7642294928
 40
1.0
 40
1.0
 40
1.0
 40
1.0
 10
292.012554845
 20
190.5593427744
 30
0.0
 10
292.0258766715
 20
190.9134404827
 30
0.0
 10
291.9651221219
 20
191.4626937771
 30
0.0
 10
291.6759337116
 20
192.1086438236
 30
0.0
 10
291.4284568905
 20
192.374660771
 30
0.0
 10
291.2848752037
 20
192.4575558212
 30
0.0
  0
SPLINE
  5
38C
100
AcDbEntity
  8
0
100
AcDbSpline
 62
7
  6
CONTINUOUS
 70
0
 71
3
 72
9
 73
5
 74
0
 42
0.0000001
 43
0.0000001
 44
0.0000000001
 40
0.0
 40
0.0
 40
0.0
 40
0.0
 40
0.5215502336
 40
1.0
 40
1.0
 40
1.0
 40
1.0
 10
290.8394933574
 20
189.0530307845
 30
0.0
 10
290.940600851
 20
189.0006114508
 30
0.0
 10
291.167848671
 20
188.9433222237
 30
0.0
 10
291.3804559743
 20
189.0367471262
 30
0.0
 10
291.4643890998
 20
189.0989610855
 30
0.0
  0
SPLINE
  5
38D
100
AcDbEntity
  8
0
100
AcDbSpline
 62
7
  6
CONTINUOUS
 70
0
 71
3
 72
9
 73
5
 74
0
 42
0.0000001
 43
0.0000001
 44
0.0000000001
 40
0.0
 40
0.0
 40
0.0
 40
0.0
 40
0.4716458943
 40
1.0
 40
1.0
 40
1.0
 40
1.0
 10
291.4643890998
 20
189.0989610855
 30
0.0
 10
291.5830599588
 20
189.1869237815
 30
0.0
 10
291.7766328498
 20
189.4482865621
 30
0.0
 10
291.8801145339
 20
189.7455133696
 30
0.0
 10
291.9210128377
 20
189.9058569758
 30
0.0
  0
SPLINE
  5
38E
100
AcDbEntity
  8
0
100
AcDbSpline
 62
7
  6
CONTINUOUS
 70
0
 71
3
 72
9
 73
5
 74
0
 42
0.0000001
 43
0.0000001
 44
0.0000000001
 40
0.0
 40
0.0
 40
0.0
 40
0.0
 40
0.2014665131
 40
1.0
 40
1.0
 40
1.0
 40
1.0
 10
290.0308358167
 20
189.4166236234
 30
0.0
 10
290.0353119579
 20
189.4173425139
 30
0.0
 10
290.0578846349
 20
189.4187727118
 30
0.0
 10
290.0802982344
 20
189.4125035411
 30
0.0
 10
290.0970363744
 20
189.4059674923
 30
0.0
  0
SPLINE
  5
38F
100
AcDbEntity
  8
0
100
AcDbSpline
 62
7
  6
CONTINUOUS
 70
0
 71
3
 72
8
 73
4
 74
0
 42
0.0000001
 43
0.0000001
 44
0.0000000001
 40
0.0
 40
0.0
 40
0.0
 40
0.0
 40
1.0
 40
1.0
 40
1.0
 40
1.0
 10
290.0308358167
 20
189.4166236234
 30
0.0
 10
290.0099328994
 20
189.4132665106
 30
0.0
 10
289.9892327107
 20
189.3977267522
 30
0.0
 10
289.9798537933
 20
189.3787468137
 30
0.0
  0
SPLINE
  5
390
100
AcDbEntity
  8
0
100
AcDbSpline
 62
7
  6
CONTINUOUS
 70
0
 71
3
 72
8
 73
4
 74
0
 42
0.0000001
 43
0.0000001
 44
0.0000000001
 40
0.0
 40
0.0
 40
0.0
 40
0.0
 40
1.0
 40
1.0
 40
1.0
 40
1.0
 10
289.9798537933
 20
189.3787468137
 30
0.0
 10
289.9742587759
 20
189.3674242823
 30
0.0
 10
289.9712115125
 20
189.3547331773
 30
0.0
 10
289.970001207
 20
189.3421618171
 30
0.0
  0
SPLINE
  5
391
100
AcDbEntity
  8
0
100
AcDbSpline
 62
7
  6
CONTINUOUS
 70
0
 71
3
 72
9
 73
5
 74
0
 42
0.0000001
 43
0.0000001
 44
0.0000000001
 40
0.0
 40
0.0
 40
0.0
 40
0.0
 40
0.4521055221
 40
1.0
 40
1.0
 40
1.0
 40
1.0
 10
289.9689339407
 20
189.3425790407
 30
0.0
 10
289.9641396586
 20
189.2927811603
 30
0.0
 10
290.0041787712
 20
189.182021621
 30
0.0
 10
290.0675691739
 20
189.0922515082
 30
0.0
 10
290.1072939365
 20
189.0464512192
 30
0.0
  0
SPLINE
  5
392
100
AcDbEntity
  8
0
100
AcDbSpline
 62
7
  6
CONTINUOUS
 70
0
 71
3
 72
8
 73
4
 74
0
 42
0.0000001
 43
0.0000001
 44
0.0000000001
 40
0.0
 40
0.0
 40
0.0
 40
0.0
 40
1.0
 40
1.0
 40
1.0
 40
1.0
 10
290.1072939365
 20
189.0464512192
 30
0.0
 10
290.1792668707
 20
188.963470706
 30
0.0
 10
290.2658008739
 20
188.8921805374
 30
0.0
 10
290.3582968896
 20
188.8329322808
 30
0.0
  0
SPLINE
  5
393
100
AcDbEntity
  8
0
100
AcDbSpline
 62
7
  6
CONTINUOUS
 70
0
 71
3
 72
9
 73
5
 74
0
 42
0.0000001
 43
0.0000001
 44
0.0000000001
 40
0.0
 40
0.0
 40
0.0
 40
0.0
 40
0.2589413903
 40
1.0
 40
1.0
 40
1.0
 40
1.0
 10
46.6652685327
 20
308.758414079
 30
0.0
 10
46.7665030598
 20
308.8566316118
 30
0.0
 10
47.1656274255
 20
309.2273105032
 30
0.0
 10
47.5976900037
 20
309.5634104707
 30
0.0
 10
47.9356345311
 20
309.7841848478
 30
0.0
  0
SPLINE
  5
394
100
AcDbEntity
  8
0
100
AcDbSpline
 62
7
  6
CONTINUOUS
 70
0
 71
3
 72
13
 73
9
 74
0
 42
0.0000001
 43
0.0000001
 44
0.0000000001
 40
0.0
 40
0.0
 40
0.0
 40
0.0
 40
0.1045311248
 40
0.2095112241
 40
0.3202836962
 40
0.4393022496
 40
0.7032795871
 40
1.0
 40
1.0
 40
1.0
 40
1.0
 10
293.276970466
 20
215.1249011288
 30
0.0
 10
293.433176408
 20
215.1052186673
 30
0.0
 10
293.7419159052
 20
215.0087269252
 30
0.0
 10
294.1330260622
 20
214.7139900882
 30
0.0
 10
294.4418299611
 20
214.3092239183
 30
0.0
 10
294.7603574466
 20
213.632651312
 30
0.0
 10
294.9548041893
 20
212.6126927802
 30
0.0
 10
294.9200580591
 20
211.7625235451
 30
0.0
 10
294.8586611342
 20
211.3198512206
 30
0.0
  0
SPLINE
  5
395
100
AcDbEntity
  8
0
100
AcDbSpline
 62
7
  6
CONTINUOUS
 70
0
 71
3
 72
9
 73
5
 74
0
 42
0.0000001
 43
0.0000001
 44
0.0000000001
 40
0.0
 40
0.0
 40
0.0
 40
0.0
 40
0.5078928226
 40
1.0
 40
1.0
 40
1.0
 40
1.0
 10
289.9624640019
 20
222.5336115738
 30
0.0
 10
290.7132698977
 20
221.3776382527
 30
0.0
 10
292.0185187923
 20
218.9848394222
 30
0.0
 10
292.9399327155
 20
216.4172417858
 30
0.0
 10
293.2769683616
 20
215.1249102977
 30
0.0
  0
SPLINE
  5
396
100
AcDbEntity
  8
0
100
AcDbSpline
 62
7
  6
CONTINUOUS
 70
0
 71
3
 72
13
 73
9
 74
0
 42
0.0000001
 43
0.0000001
 44
0.0000000001
 40
0.0
 40
0.0
 40
0.0
 40
0.0
 40
0.264044035
 40
0.5308410388
 40
0.6586688532
 40
0.7800787084
 40
0.893727086
 40
1.0
 40
1.0
 40
1.0
 40
1.0
 10
284.937557717
 20
228.1580063759
 30
0.0
 10
285.6798777632
 20
228.1473475178
 30
0.0
 10
287.1603279471
 20
227.6573599437
 30
0.0
 10
288.629739414
 20
226.4843683336
 30
0.0
 10
289.508349263
 20
225.320455088
 30
0.0
 10
289.9571331763
 20
224.3952340135
 30
0.0
 10
290.1589490227
 20
223.4451617965
 30
0.0
 10
290.0718148254
 20
222.8120829573
 30
0.0
 10
289.9621100043
 20
222.5341496091
 30
0.0
  0
SPLINE
  5
397
100
AcDbEntity
  8
0
100
AcDbSpline
 62
7
  6
CONTINUOUS
 70
0
 71
3
 72
9
 73
5
 74
0
 42
0.0000001
 43
0.0000001
 44
0.0000000001
 40
0.0
 40
0.0
 40
0.0
 40
0.0
 40
0.4643421639
 40
1.0
 40
1.0
 40
1.0
 40
1.0
 10
279.1585545286
 20
230.9273007657
 30
0.0
 10
280.1469558435
 20
230.776472701
 30
0.0
 10
282.2175525885
 20
230.0626881292
 30
0.0
 10
284.0324413832
 20
228.8738414486
 30
0.0
 10
284.9371124567
 20
228.1583629301
 30
0.0
  0
SPLINE
  5
398
100
AcDbEntity
  8
0
100
AcDbSpline
 62
7
  6
CONTINUOUS
 70
0
 71
3
 72
9
 73
5
 74
0
 42
0.0000001
 43
0.0000001
 44
0.0000000001
 40
0.0
 40
0.0
 40
0.0
 40
0.0
 40
0.4525684295
 40
1.0
 40
1.0
 40
1.0
 40
1.0
 10
279.1585476396
 20
230.9273016628
 30
0.0
 10
278.8130483825
 20
230.6135863476
 30
0.0
 10
277.9943658915
 20
229.9830464863
 30
0.0
 10
277.1502918262
 20
229.3913311004
 30
0.0
 10
276.68309583
 20
229.0744956492
 30
0.0
  0
SPLINE
  5
399
100
AcDbEntity
  8
0
100
AcDbSpline
 62
7
  6
CONTINUOUS
 70
0
 71
3
 72
9
 73
5
 74
0
 42
0.0000001
 43
0.0000001
 44
0.0000000001
 40
0.0
 40
0.0
 40
0.0
 40
0.0
 40
0.2405850043
 40
1.0
 40
1.0
 40
1.0
 40
1.0
 10
276.68309583
 20
229.0744956492
 30
0.0
 10
276.5363466965
 20
228.9749756869
 30
0.0
 10
275.9244851128
 20
228.5641100194
 30
0.0
 10
275.3059616451
 20
228.163221584
 30
0.0
 10
274.83378721
 20
227.8627123809
 30
0.0
  0
SPLINE
  5
39A
100
AcDbEntity
  8
0
100
AcDbSpline
 62
7
  6
CONTINUOUS
 70
0
 71
3
 72
9
 73
5
 74
0
 42
0.0000001
 43
0.0000001
 44
0.0000000001
 40
0.0
 40
0.0
 40
0.0
 40
0.0
 40
0.4892328954
 40
1.0
 40
1.0
 40
1.0
 40
1.0
 10
277.2054014823
 20
226.7262374243
 30
0.0
 10
278.4220625169
 20
227.1451966155
 30
0.0
 10
280.959839583
 20
227.8550564575
 30
0.0
 10
283.5942817244
 20
228.1772925719
 30
0.0
 10
284.937557717
 20
228.1580063759
 30
0.0
  0
SPLINE
  5
39B
100
AcDbEntity
  8
0
100
AcDbSpline
 62
7
  6
CONTINUOUS
 70
0
 71
3
 72
9
 73
5
 74
0
 42
0.0000001
 43
0.0000001
 44
0.0000000001
 40
0.0
 40
0.0
 40
0.0
 40
0.0
 40
0.4986938492
 40
1.0
 40
1.0
 40
1.0
 40
1.0
 10
289.9621100043
 20
222.5341496091
 30
0.0
 10
289.7149589615
 20
221.9080044478
 30
0.0
 10
289.0602574311
 20
220.7150101897
 30
0.0
 10
288.2373448407
 20
219.6414336609
 30
0.0
 10
287.7970288092
 20
219.1276019795
 30
0.0
  0
SPLINE
  5
39C
100
AcDbEntity
  8
0
100
AcDbSpline
 62
7
  6
CONTINUOUS
 70
0
 71
3
 72
9
 73
5
 74
0
 42
0.0000001
 43
0.0000001
 44
0.0000000001
 40
0.0
 40
0.0
 40
0.0
 40
0.0
 40
0.2549428091
 40
1.0
 40
1.0
 40
1.0
 40
1.0
 10
291.8419176493
 20
215.1539061766
 30
0.0
 10
291.9637152564
 20
215.1621253333
 30
0.0
 10
292.4418782003
 20
215.1856414159
 30
0.0
 10
292.9230125012
 20
215.1695009347
 30
0.0
 10
293.276970466
 20
215.1249011288
 30
0.0
  0
SPLINE
  5
39D
100
AcDbEntity
  8
0
100
AcDbSpline
 62
7
  6
CONTINUOUS
 70
0
 71
3
 72
11
 73
7
 74
0
 42
0.0000001
 43
0.0000001
 44
0.0000000001
 40
0.0
 40
0.0
 40
0.0
 40
0.0
 40
0.2985426807
 40
0.5617321009
 40
0.7914253009
 40
1.0
 40
1.0
 40
1.0
 40
1.0
 10
288.1590994506
 20
191.7683142028
 30
0.0
 10
288.1173563663
 20
191.4703251854
 30
0.0
 10
288.084942194
 20
190.9010303417
 30
0.0
 10
288.2135129414
 20
190.1057391781
 30
0.0
 10
288.5242983506
 20
189.4567321816
 30
0.0
 10
288.8609209987
 20
189.1487970221
 30
0.0
 10
289.0429882296
 20
189.0437054929
 30
0.0
  0
SPLINE
  5
39E
100
AcDbEntity
  8
0
100
AcDbSpline
 62
7
  6
CONTINUOUS
 70
0
 71
3
 72
11
 73
7
 74
0
 42
0.0000001
 43
0.0000001
 44
0.0000000001
 40
0.0
 40
0.0
 40
0.0
 40
0.0
 40
0.2273451963
 40
0.4843538773
 40
0.7497968546
 40
1.0
 40
1.0
 40
1.0
 40
1.0
 10
291.5699824803
 20
196.7610400572
 30
0.0
 10
291.1426934694
 20
196.5574733483
 30
0.0
 10
290.3124725668
 20
195.9549933322
 30
0.0
 10
289.298671366
 20
194.7538606632
 30
0.0
 10
288.5309919286
 20
193.3279300999
 30
0.0
 10
288.231361498
 20
192.2841672318
 30
0.0
 10
288.1590994506
 20
191.7683142028
 30
0.0
  0
SPLINE
  5
39F
100
AcDbEntity
  8
0
100
AcDbSpline
 62
7
  6
CONTINUOUS
 70
0
 71
3
 72
11
 73
7
 74
0
 42
0.0000001
 43
0.0000001
 44
0.0000000001
 40
0.0
 40
0.0
 40
0.0
 40
0.0
 40
0.2159934784
 40
0.4529558984
 40
0.7142669742
 40
1.0
 40
1.0
 40
1.0
 40
1.0
 10
282.6956392536
 20
219.6079372296
 30
0.0
 10
281.104360407
 20
219.8506387186
 30
0.0
 10
277.6864130737
 20
219.8870592634
 30
0.0
 10
272.4562747931
 20
218.7233956105
 30
0.0
 10
267.0611875767
 20
216.4093662027
 30
0.0
 10
263.5928140048
 20
214.2370426179
 30
0.0
 10
261.8626153289
 20
212.9957507745
 30
0.0
  0
LINE
  5
3A0
100
AcDbEntity
  8
0
100
AcDbLine
 62
7
  6
CONTINUOUS
 10
241.5296530652
 20
188.6842247722
 11
241.4692916913
 21
188.5677675202
  0
LINE
  5
3A1
100
AcDbEntity
  8
0
100
AcDbLine
 62
7
  6
CONTINUOUS
 10
241.1863005475
 20
188.015215614
 11
241.1252685116
 21
187.8945950529
  0
SPLINE
  5
3A2
100
AcDbEntity
  8
0
100
AcDbSpline
 62
7
  6
CONTINUOUS
 70
0
 71
3
 72
10
 73
6
 74
0
 42
0.0000001
 43
0.0000001
 44
0.0000000001
 40
0.0
 40
0.0
 40
0.0
 40
0.0
 40
0.5408214616
 40
0.7768068237
 40
1.0
 40
1.0
 40
1.0
 40
1.0
 10
291.0750056727
 20
197.0468085853
 30
0.0
 10
291.4076403771
 20
197.2052806038
 30
0.0
 10
291.9327104086
 20
197.3682341283
 30
0.0
 10
292.619087638
 20
197.3144778337
 30
0.0
 10
292.9161904604
 20
197.1996760412
 30
0.0
 10
293.0478351805
 20
197.123573751
 30
0.0
  0
SPLINE
  5
3A3
100
AcDbEntity
  8
0
100
AcDbSpline
 62
7
  6
CONTINUOUS
 70
0
 71
3
 72
11
 73
7
 74
0
 42
0.0000001
 43
0.0000001
 44
0.0000000001
 40
0.0
 40
0.0
 40
0.0
 40
0.0
 40
0.2921841571
 40
0.5527459997
 40
0.7848217372
 40
1.0
 40
1.0
 40
1.0
 40
1.0
 10
240.4446536815
 20
167.8254667644
 30
0.0
 10
240.653325643
 20
167.9572310472
 30
0.0
 10
241.0696786958
 20
168.1753203205
 30
0.0
 10
241.7139081383
 20
168.3556832065
 30
0.0
 10
242.3207126104
 20
168.3574022671
 30
0.0
 10
242.6860050629
 20
168.2290111134
 30
0.0
 10
242.8434395043
 20
168.1381983639
 30
0.0
  0
SPLINE
  5
3A4
100
AcDbEntity
  8
0
100
AcDbSpline
 62
7
  6
CONTINUOUS
 70
0
 71
3
 72
11
 73
7
 74
0
 42
0.0000001
 43
0.0000001
 44
0.0000000001
 40
0.0
 40
0.0
 40
0.0
 40
0.0
 40
0.2901530449
 40
0.549960396
 40
0.7828543584
 40
1.0
 40
1.0
 40
1.0
 40
1.0
 10
265.662219655
 20
211.3744055371
 30
0.0
 10
265.8621458785
 20
211.4922646671
 30
0.0
 10
266.2603785711
 20
211.6858408973
 30
0.0
 10
266.8731926531
 20
211.8394385442
 30
0.0
 10
267.4488626878
 20
211.828585652
 30
0.0
 10
267.7951878669
 20
211.7035059031
 30
0.0
 10
267.9456137333
 20
211.616681178
 30
0.0
  0
SPLINE
  5
3A5
100
AcDbEntity
  8
0
100
AcDbSpline
 62
7
  6
CONTINUOUS
 70
0
 71
3
 72
11
 73
7
 74
0
 42
0.0000001
 43
0.0000001
 44
0.0000000001
 40
0.0
 40
0.0
 40
0.0
 40
0.0
 40
0.2897421308
 40
0.5493999794
 40
0.782455869
 40
1.0
 40
1.0
 40
1.0
 40
1.0
 10
265.6846333528
 20
153.4158559261
 30
0.0
 10
265.8828299095
 20
153.5310831799
 30
0.0
 10
266.2775000404
 20
153.720022984
 30
0.0
 10
266.8841848327
 20
153.8686170524
 30
0.0
 10
267.4538438239
 20
153.8554776226
 30
0.0
 10
267.7965297793
 20
153.7310524042
 30
0.0
 10
267.9456032586
 20
153.644992466
 30
0.0
  0
SPLINE
  5
3A6
100
AcDbEntity
  8
0
100
AcDbSpline
 62
7
  6
CONTINUOUS
 70
0
 71
3
 72
12
 73
8
 74
0
 42
0.0000001
 43
0.0000001
 44
0.0000000001
 40
0.0
 40
0.0
 40
0.0
 40
0.0
 40
0.2837362565
 40
0.3986719691
 40
0.508262181
 40
0.7391824035
 40
1.0
 40
1.0
 40
1.0
 40
1.0
 10
277.2054014823
 20
226.7262374243
 30
0.0
 10
277.0538596795
 20
226.6740537599
 30
0.0
 10
276.8400490683
 20
226.558985049
 30
0.0
 10
276.6957345039
 20
226.3032499358
 30
0.0
 10
276.6561702252
 20
226.0444192454
 30
0.0
 10
276.7454657879
 20
225.7063378709
 30
0.0
 10
276.8796853684
 20
225.4628814519
 30
0.0
 10
276.9577453385
 20
225.3379317984
 30
0.0
  0
SPLINE
  5
3A7
100
AcDbEntity
  8
0
100
AcDbSpline
 62
7
  6
CONTINUOUS
 70
0
 71
3
 72
16
 73
12
 74
0
 42
0.0000001
 43
0.0000001
 44
0.0000000001
 40
0.0
 40
0.0
 40
0.0
 40
0.0
 40
0.0927877492
 40
0.1445619376
 40
0.2001175719
 40
0.3218364713
 40
0.4552533697
 40
0.5955479637
 40
0.7369428299
 40
0.8735136824
 40
1.0
 40
1.0
 40
1.0
 40
1.0
 10
278.6492429956
 20
222.4281831385
 30
0.0
 10
276.1370470943
 20
222.652591028
 30
0.0
 10
272.1357837538
 20
222.1916566663
 30
0.0
 10
266.9812419684
 20
220.4393087143
 30
0.0
 10
261.3697925507
 20
217.7027782869
 30
0.0
 10
254.4635729683
 20
212.7378517248
 30
0.0
 10
246.9231579176
 20
205.0170367659
 30
0.0
 10
240.3263401137
 20
195.8123283229
 30
0.0
 10
235.0742070441
 20
185.6834080114
 30
0.0
 10
231.4857376676
 20
175.2500214049
 30
0.0
 10
230.2883935755
 20
168.1518728969
 30
0.0
 10
230.0752754163
 20
164.7202756337
 30
0.0
  0
SPLINE
  5
3A8
100
AcDbEntity
  8
0
100
AcDbSpline
 62
7
  6
CONTINUOUS
 70
0
 71
3
 72
9
 73
5
 74
0
 42
0.0000001
 43
0.0000001
 44
0.0000000001
 40
0.0
 40
0.0
 40
0.0
 40
0.0
 40
0.530426693
 40
1.0
 40
1.0
 40
1.0
 40
1.0
 10
230.0752754163
 20
164.7202756337
 30
0.0
 10
229.9088394939
 20
162.0403488857
 30
0.0
 10
230.0083382824
 20
156.9470369048
 30
0.0
 10
231.2188815209
 20
151.9669201859
 30
0.0
 10
232.1173375876
 20
149.7662144076
 30
0.0
  0
SPLINE
  5
3A9
100
AcDbEntity
  8
0
100
AcDbSpline
 62
7
  6
CONTINUOUS
 70
0
 71
3
 72
9
 73
5
 74
0
 42
0.0000001
 43
0.0000001
 44
0.0000000001
 40
0.0
 40
0.0
 40
0.0
 40
0.0
 40
0.2546413674
 40
1.0
 40
1.0
 40
1.0
 40
1.0
 10
232.1173375876
 20
149.7662144076
 30
0.0
 10
232.2032530836
 20
149.5557703632
 30
0.0
 10
232.5525607395
 20
148.7342738442
 30
0.0
 10
232.9505466656
 20
147.9332859021
 30
0.0
 10
233.2753977584
 20
147.3526330797
 30
0.0
  0
SPLINE
  5
3AA
100
AcDbEntity
  8
0
100
AcDbSpline
 62
7
  6
CONTINUOUS
 70
0
 71
3
 72
9
 73
5
 74
0
 42
0.0000001
 43
0.0000001
 44
0.0000000001
 40
0.0
 40
0.0
 40
0.0
 40
0.0
 40
0.5096043037
 40
1.0
 40
1.0
 40
1.0
 40
1.0
 10
233.5858471713
 20
146.8171586545
 30
0.0
 10
234.0936847273
 20
145.9716873988
 30
0.0
 10
235.2167158076
 20
144.384102053
 30
0.0
 10
236.592987942
 20
143.0073987952
 30
0.0
 10
237.3219627297
 20
142.3996418249
 30
0.0
  0
SPLINE
  5
3AB
100
AcDbEntity
  8
0
100
AcDbSpline
 62
7
  6
CONTINUOUS
 70
0
 71
3
 72
11
 73
7
 74
0
 42
0.0000001
 43
0.0000001
 44
0.0000000001
 40
0.0
 40
0.0
 40
0.0
 40
0.0
 40
0.236773422
 40
0.4958879687
 40
0.7571988542
 40
1.0
 40
1.0
 40
1.0
 40
1.0
 10
240.9396304891
 20
167.5396982362
 30
0.0
 10
240.5406622342
 20
167.2877728428
 30
0.0
 10
239.7840350116
 20
166.6329826906
 30
0.0
 10
238.8753842669
 20
165.4166707261
 30
0.0
 10
238.2148613103
 20
164.036317674
 30
0.0
 10
237.9760688844
 20
163.0488310869
 30
0.0
 10
237.9290437812
 20
162.5672597546
 30
0.0
  0
SPLINE
  5
3AC
100
AcDbEntity
  8
0
100
AcDbSpline
 62
7
  6
CONTINUOUS
 70
0
 71
3
 72
11
 73
7
 74
0
 42
0.0000001
 43
0.0000001
 44
0.0000000001
 40
0.0
 40
0.0
 40
0.0
 40
0.0
 40
0.2959724308
 40
0.5579735088
 40
0.7886025869
 40
1.0
 40
1.0
 40
1.0
 40
1.0
 10
237.9290437812
 20
162.5672597546
 30
0.0
 10
237.9021208052
 20
162.2915488567
 30
0.0
 10
237.8937852251
 20
161.7657323228
 30
0.0
 10
238.0407073295
 20
161.0350584468
 30
0.0
 10
238.3492425807
 20
160.4405234695
 30
0.0
 10
238.6671929524
 20
160.1571821374
 30
0.0
 10
238.8385816507
 20
160.058311439
 30
0.0
  0
SPLINE
  5
3AD
100
AcDbEntity
  8
0
100
AcDbSpline
 62
7
  6
CONTINUOUS
 70
0
 71
3
 72
9
 73
5
 74
0
 42
0.0000001
 43
0.0000001
 44
0.0000000001
 40
0.0
 40
0.0
 40
0.0
 40
0.0
 40
0.5067497196
 40
1.0
 40
1.0
 40
1.0
 40
1.0
 10
239.6237289692
 20
160.68868921
 30
0.0
 10
239.524948082
 20
160.8317292233
 30
0.0
 10
239.3927845279
 20
161.159836788
 30
0.0
 10
239.3722869299
 20
161.5048655013
 30
0.0
 10
239.3729756937
 20
161.6740668684
 30
0.0
  0
SPLINE
  5
3AE
100
AcDbEntity
  8
0
100
AcDbSpline
 62
7
  6
CONTINUOUS
 70
0
 71
3
 72
8
 73
4
 74
0
 42
0.0000001
 43
0.0000001
 44
0.0000000001
 40
0.0
 40
0.0
 40
0.0
 40
0.0
 40
1.0
 40
1.0
 40
1.0
 40
1.0
 10
239.8106212845
 20
160.4683399091
 30
0.0
 10
239.7659463958
 20
160.5125617698
 30
0.0
 10
239.7233562245
 20
160.5590695418
 30
0.0
 10
239.6839598338
 20
160.6080526311
 30
0.0
  0
SPLINE
  5
3AF
100
AcDbEntity
  8
0
100
AcDbSpline
 62
7
  6
CONTINUOUS
 70
0
 71
3
 72
9
 73
5
 74
0
 42
0.0000001
 43
0.0000001
 44
0.0000000001
 40
0.0
 40
0.0
 40
0.0
 40
0.0
 40
0.284595067
 40
1.0
 40
1.0
 40
1.0
 40
1.0
 10
238.7795990561
 20
162.254661623
 30
0.0
 10
238.7616319803
 20
162.070665671
 30
0.0
 10
238.735654149
 20
161.4250664021
 30
0.0
 10
238.8808230728
 20
160.7445659811
 30
0.0
 10
239.1399017229
 20
160.3587614192
 30
0.0
  0
SPLINE
  5
3B0
100
AcDbEntity
  8
0
100
AcDbSpline
 62
7
  6
CONTINUOUS
 70
0
 71
3
 72
9
 73
5
 74
0
 42
0.0000001
 43
0.0000001
 44
0.0000000001
 40
0.0
 40
0.0
 40
0.0
 40
0.0
 40
0.2589623441
 40
1.0
 40
1.0
 40
1.0
 40
1.0
 10
239.1399017229
 20
160.3587614192
 30
0.0
 10
239.176949394
 20
160.3035922243
 30
0.0
 10
239.3318088407
 20
160.0988286727
 30
0.0
 10
239.5390684947
 20
159.9328313031
 30
0.0
 10
239.7088281483
 20
159.8471358251
 30
0.0
  0
SPLINE
  5
3B1
100
AcDbEntity
  8
0
100
AcDbSpline
 62
7
  6
CONTINUOUS
 70
0
 71
3
 72
9
 73
5
 74
0
 42
0.0000001
 43
0.0000001
 44
0.0000000001
 40
0.0
 40
0.0
 40
0.0
 40
0.0
 40
0.2426536981
 40
1.0
 40
1.0
 40
1.0
 40
1.0
 10
239.7756097167
 20
159.8155860887
 30
0.0
 10
239.8268769423
 20
159.7929785387
 30
0.0
 10
240.0435843882
 20
159.7121961586
 30
0.0
 10
240.2781152032
 20
159.6832211417
 30
0.0
 10
240.4529652612
 20
159.686297233
 30
0.0
  0
SPLINE
  5
3B2
100
AcDbEntity
  8
0
100
AcDbSpline
 62
7
  6
CONTINUOUS
 70
0
 71
3
 72
16
 73
12
 74
0
 42
0.0000001
 43
0.0000001
 44
0.0000000001
 40
0.0
 40
0.0
 40
0.0
 40
0.0
 40
0.0957457514
 40
0.1492051632
 40
0.2063951962
 40
0.3308126962
 40
0.4656464995
 40
0.6057356152
 40
0.7452051696
 40
0.8782617024
 40
1.0
 40
1.0
 40
1.0
 40
1.0
 10
276.6947941117
 20
222.6016493883
 30
0.0
 10
274.0592062293
 20
222.5632350221
 30
0.0
 10
269.9511260495
 20
221.7087805482
 30
0.0
 10
264.715876324
 20
219.4907417064
 30
0.0
 10
259.0794223521
 20
216.280179964
 30
0.0
 10
252.2398296141
 20
210.7960461659
 30
0.0
 10
244.8908266908
 20
202.5634297657
 30
0.0
 10
238.613053135
 20
192.9896606211
 30
0.0
 10
233.7905478222
 20
182.659080113
 30
0.0
 10
230.7170660978
 20
172.2062795813
 30
0.0
 10
229.9162635506
 20
165.1839832881
 30
0.0
 10
229.9162623756
 20
161.8325441258
 30
0.0
  0
SPLINE
  5
3B3
100
AcDbEntity
  8
0
100
AcDbSpline
 62
7
  6
CONTINUOUS
 70
0
 71
3
 72
9
 73
5
 74
0
 42
0.0000001
 43
0.0000001
 44
0.0000000001
 40
0.0
 40
0.0
 40
0.0
 40
0.0
 40
0.2666372549
 40
1.0
 40
1.0
 40
1.0
 40
1.0
 10
229.921545144
 20
161.1593735045
 30
0.0
 10
229.9362449827
 20
160.2269114528
 30
0.0
 10
230.1067616139
 20
156.7348781502
 30
0.0
 10
230.7682686204
 20
153.249494488
 30
0.0
 10
231.6168380237
 20
150.828951818
 30
0.0
  0
SPLINE
  5
3B4
100
AcDbEntity
  8
0
100
AcDbSpline
 62
7
  6
CONTINUOUS
 70
0
 71
3
 72
9
 73
5
 74
0
 42
0.0000001
 43
0.0000001
 44
0.0000000001
 40
0.0
 40
0.0
 40
0.0
 40
0.0
 40
0.4833664382
 40
1.0
 40
1.0
 40
1.0
 40
1.0
 10
242.9270356387
 20
166.7882299026
 30
0.0
 10
243.0069374788
 20
166.8824727448
 30
0.0
 10
243.2703329284
 20
166.9762918138
 30
0.0
 10
243.5235457752
 20
166.9827072941
 30
0.0
 10
243.6549931826
 20
166.9700093249
 30
0.0
  0
SPLINE
  5
3B5
100
AcDbEntity
  8
0
100
AcDbSpline
 62
7
  6
CONTINUOUS
 70
0
 71
3
 72
8
 73
4
 74
0
 42
0.0000001
 43
0.0000001
 44
0.0000000001
 40
0.0
 40
0.0
 40
0.0
 40
0.0
 40
1.0
 40
1.0
 40
1.0
 40
1.0
 10
242.8825612608
 20
166.6484725957
 30
0.0
 10
242.8717876752
 20
166.6961543157
 30
0.0
 10
242.8949976428
 20
166.751065682
 30
0.0
 10
242.9266100826
 20
166.7883520095
 30
0.0
  0
SPLINE
  5
3B6
100
AcDbEntity
  8
0
100
AcDbSpline
 62
7
  6
CONTINUOUS
 70
0
 71
3
 72
9
 73
5
 74
0
 42
0.0000001
 43
0.0000001
 44
0.0000000001
 40
0.0
 40
0.0
 40
0.0
 40
0.0
 40
0.5007159667
 40
1.0
 40
1.0
 40
1.0
 40
1.0
 10
240.2272766732
 20
164.2344493213
 30
0.0
 10
240.253700121
 20
164.4431715689
 30
0.0
 10
240.4297258992
 20
164.8398113581
 30
0.0
 10
240.676158123
 20
165.1786962692
 30
0.0
 10
240.8080591072
 20
165.3418296577
 30
0.0
  0
SPLINE
  5
3B7
100
AcDbEntity
  8
0
100
AcDbSpline
 62
7
  6
CONTINUOUS
 70
0
 71
3
 72
8
 73
4
 74
0
 42
0.0000001
 43
0.0000001
 44
0.0000000001
 40
0.0
 40
0.0
 40
0.0
 40
0.0
 40
1.0
 40
1.0
 40
1.0
 40
1.0
 10
240.244964258
 20
163.9463769725
 30
0.0
 10
240.2165308672
 20
164.0382860896
 30
0.0
 10
240.2151991311
 20
164.139010159
 30
0.0
 10
240.2272821056
 20
164.2344551445
 30
0.0
  0
SPLINE
  5
3B8
100
AcDbEntity
  8
0
100
AcDbSpline
 62
7
  6
CONTINUOUS
 70
0
 71
3
 72
16
 73
12
 74
0
 42
0.0000001
 43
0.0000001
 44
0.0000000001
 40
0.0
 40
0.0
 40
0.0
 40
0.0
 40
0.1228530229
 40
0.2222279398
 40
0.2675887455
 40
0.3136990056
 40
0.4179115929
 40
0.5464413608
 40
0.6948453476
 40
0.8509033672
 40
1.0
 40
1.0
 40
1.0
 40
1.0
 10
246.099011775
 20
162.4903692229
 30
0.0
 10
246.1182476465
 20
162.6873585673
 30
0.0
 10
246.1106107489
 20
163.052232814
 30
0.0
 10
245.9102152901
 20
163.4607206744
 30
0.0
 10
245.6537475241
 20
163.640928094
 30
0.0
 10
245.3452810558
 20
163.7291198774
 30
0.0
 10
244.8834142911
 20
163.6407184167
 30
0.0
 10
244.3603793505
 20
163.3044942595
 30
0.0
 10
243.8827754875
 20
162.7869974795
 30
0.0
 10
243.5119399726
 20
162.1516809926
 30
0.0
 10
243.3584008769
 20
161.6787289906
 30
0.0
 10
243.3163054059
 20
161.4422393908
 30
0.0
  0
SPLINE
  5
3B9
100
AcDbEntity
  8
0
100
AcDbSpline
 62
7
  6
CONTINUOUS
 70
0
 71
3
 72
16
 73
12
 74
0
 42
0.0000001
 43
0.0000001
 44
0.0000000001
 40
0.0
 40
0.0
 40
0.0
 40
0.0
 40
0.1219829053
 40
0.2199834276
 40
0.2651033731
 40
0.3115594389
 40
0.4181681355
 40
0.5499183271
 40
0.7003356705
 40
0.855505418
 40
1.0
 40
1.0
 40
1.0
 40
1.0
 10
243.2905758393
 20
161.2564385667
 30
0.0
 10
243.2707435791
 20
161.0533417673
 30
0.0
 10
243.2791176831
 20
160.6774635767
 30
0.0
 10
243.4978500275
 20
160.2607621818
 30
0.0
 10
243.7722466386
 20
160.0885869325
 30
0.0
 10
244.1020641366
 20
160.0169093344
 30
0.0
 10
244.584587405
 20
160.1397528953
 30
0.0
 10
245.1205787504
 20
160.5212597888
 30
0.0
 10
245.5971295413
 20
161.0856908591
 30
0.0
 10
245.9479807586
 20
161.7578259499
 30
0.0
 10
246.0755195149
 20
162.249791356
 30
0.0
 10
246.099011775
 20
162.4903692229
 30
0.0
  0
SPLINE
  5
3BA
100
AcDbEntity
  8
0
100
AcDbSpline
 62
7
  6
CONTINUOUS
 70
0
 71
3
 72
10
 73
6
 74
0
 42
0.0000001
 43
0.0000001
 44
0.0000000001
 40
0.0
 40
0.0
 40
0.0
 40
0.0
 40
0.5006340993
 40
0.7622953615
 40
1.0
 40
1.0
 40
1.0
 40
1.0
 10
241.7737681072
 20
161.4003512634
 30
0.0
 10
241.7723069064
 20
161.7513135809
 30
0.0
 10
241.6888515911
 20
162.2937949209
 30
0.0
 10
241.3808522234
 20
162.9279274464
 30
0.0
 10
241.129975992
 20
163.1906580754
 30
0.0
 10
240.9856599629
 20
163.2739770887
 30
0.0
  0
SPLINE
  5
3BB
100
AcDbEntity
  8
0
100
AcDbSpline
 62
7
  6
CONTINUOUS
 70
0
 71
3
 72
9
 73
5
 74
0
 42
0.0000001
 43
0.0000001
 44
0.0000000001
 40
0.0
 40
0.0
 40
0.0
 40
0.0
 40
0.5277720515
 40
1.0
 40
1.0
 40
1.0
 40
1.0
 10
240.6970988356
 20
159.9267010989
 30
0.0
 10
240.7959965084
 20
159.8765398918
 30
0.0
 10
241.0138537335
 20
159.8198462286
 30
0.0
 10
241.2192599004
 20
159.9094754421
 30
0.0
 10
241.2982450334
 20
159.9695265114
 30
0.0
  0
SPLINE
  5
3BC
100
AcDbEntity
  8
0
100
AcDbSpline
 62
7
  6
CONTINUOUS
 70
0
 71
3
 72
9
 73
5
 74
0
 42
0.0000001
 43
0.0000001
 44
0.0000000001
 40
0.0
 40
0.0
 40
0.0
 40
0.0
 40
0.4689472129
 40
1.0
 40
1.0
 40
1.0
 40
1.0
 10
241.2982450334
 20
159.9695265114
 30
0.0
 10
241.4106730432
 20
160.055003638
 30
0.0
 10
241.590148798
 20
160.3125579666
 30
0.0
 10
241.6779018156
 20
160.6021631107
 30
0.0
 10
241.7111030043
 20
160.7586149342
 30
0.0
  0
SPLINE
  5
3BD
100
AcDbEntity
  8
0
100
AcDbSpline
 62
7
  6
CONTINUOUS
 70
0
 71
3
 72
9
 73
5
 74
0
 42
0.0000001
 43
0.0000001
 44
0.0000000001
 40
0.0
 40
0.0
 40
0.0
 40
0.0
 40
0.2413252922
 40
1.0
 40
1.0
 40
1.0
 40
1.0
 10
240.1255215132
 20
163.6931477952
 30
0.0
 10
240.1049114336
 20
163.6867380926
 30
0.0
 10
240.0219309867
 20
163.6523391954
 30
0.0
 10
239.9503524474
 20
163.5948938866
 30
0.0
 10
239.9027918939
 20
163.5464969623
 30
0.0
  0
SPLINE
  5
3BE
100
AcDbEntity
  8
0
100
AcDbSpline
 62
7
  6
CONTINUOUS
 70
0
 71
3
 72
9
 73
5
 74
0
 42
0.0000001
 43
0.0000001
 44
0.0000000001
 40
0.0
 40
0.0
 40
0.0
 40
0.0
 40
0.2638166827
 40
1.0
 40
1.0
 40
1.0
 40
1.0
 10
239.8106212845
 20
160.4683399091
 30
0.0
 10
239.8220529014
 20
160.457024215
 30
0.0
 10
239.8664126703
 20
160.4152646869
 30
0.0
 10
239.9147440823
 20
160.3770981093
 30
0.0
 10
239.9536161381
 20
160.3546558251
 30
0.0
  0
SPLINE
  5
3BF
100
AcDbEntity
  8
0
100
AcDbSpline
 62
7
  6
CONTINUOUS
 70
0
 71
3
 72
9
 73
5
 74
0
 42
0.0000001
 43
0.0000001
 44
0.0000000001
 40
0.0
 40
0.0
 40
0.0
 40
0.0
 40
0.5026725028
 40
1.0
 40
1.0
 40
1.0
 40
1.0
 10
239.9028972261
 20
163.5475756406
 30
0.0
 10
239.7635550765
 20
163.405783105
 30
0.0
 10
239.5805897036
 20
163.0386079265
 30
0.0
 10
239.4855317665
 20
162.656009591
 30
0.0
 10
239.4499719731
 20
162.4625648904
 30
0.0
  0
SPLINE
  5
3C0
100
AcDbEntity
  8
0
100
AcDbSpline
 62
7
  6
CONTINUOUS
 70
0
 71
3
 72
8
 73
4
 74
0
 42
0.0000001
 43
0.0000001
 44
0.0000000001
 40
0.0
 40
0.0
 40
0.0
 40
0.0
 40
1.0
 40
1.0
 40
1.0
 40
1.0
 10
240.1255215128
 20
163.6931477951
 30
0.0
 10
240.1743539904
 20
163.7083346193
 30
0.0
 10
240.2342618639
 20
163.7077871694
 30
0.0
 10
240.2785502378
 20
163.6822178433
 30
0.0
  0
SPLINE
  5
3C1
100
AcDbEntity
  8
0
100
AcDbSpline
 62
7
  6
CONTINUOUS
 70
0
 71
3
 72
11
 73
7
 74
0
 42
0.0000001
 43
0.0000001
 44
0.0000000001
 40
0.0
 40
0.0
 40
0.0
 40
0.0
 40
0.2746641824
 40
0.531683037
 40
0.7676031844
 40
1.0
 40
1.0
 40
1.0
 40
1.0
 10
243.4681758261
 20
164.4837642474
 30
0.0
 10
243.5683982563
 20
164.6169915685
 30
0.0
 10
243.743023317
 20
164.8912624888
 30
0.0
 10
243.900913733
 20
165.3341572179
 30
0.0
 10
243.8904662783
 20
165.7954455349
 30
0.0
 10
243.6870531745
 20
166.0329727679
 30
0.0
 10
243.5648908789
 20
166.1035016065
 30
0.0
  0
SPLINE
  5
3C2
100
AcDbEntity
  8
0
100
AcDbSpline
 62
7
  6
CONTINUOUS
 70
0
 71
3
 72
9
 73
5
 74
0
 42
0.0000001
 43
0.0000001
 44
0.0000000001
 40
0.0
 40
0.0
 40
0.0
 40
0.0
 40
0.2544388034
 40
1.0
 40
1.0
 40
1.0
 40
1.0
 10
242.982679633
 20
163.9633509515
 30
0.0
 10
243.0281339894
 20
164.0031583987
 30
0.0
 10
243.2027373033
 20
164.1641342698
 30
0.0
 10
243.3617421978
 20
164.3422802787
 30
0.0
 10
243.4681758261
 20
164.4837642474
 30
0.0
  0
SPLINE
  5
3C3
100
AcDbEntity
  8
0
100
AcDbSpline
 62
7
  6
CONTINUOUS
 70
0
 71
3
 72
11
 73
7
 74
0
 42
0.0000001
 43
0.0000001
 44
0.0000000001
 40
0.0
 40
0.0
 40
0.0
 40
0.0
 40
0.2285955611
 40
0.4185987721
 40
0.6137065661
 40
1.0
 40
1.0
 40
1.0
 40
1.0
 10
241.0474787055
 20
163.4050382874
 30
0.0
 10
241.1874532368
 20
163.3242257823
 30
0.0
 10
241.4957565514
 20
163.2675025993
 30
0.0
 10
241.9252009866
 20
163.3427194255
 30
0.0
 10
242.435430395
 20
163.5440321889
 30
0.0
 10
242.7772083932
 20
163.7834059215
 30
0.0
 10
242.982679633
 20
163.9633509515
 30
0.0
  0
SPLINE
  5
3C4
100
AcDbEntity
  8
0
100
AcDbSpline
 62
7
  6
CONTINUOUS
 70
0
 71
3
 72
8
 73
4
 74
0
 42
0.0000001
 43
0.0000001
 44
0.0000000001
 40
0.0
 40
0.0
 40
0.0
 40
0.0
 40
1.0
 40
1.0
 40
1.0
 40
1.0
 10
242.6846394854
 20
166.5615125398
 30
0.0
 10
242.5866916219
 20
166.5718658853
 30
0.0
 10
242.4864319814
 20
166.568374173
 30
0.0
 10
242.3893127589
 20
166.5519780652
 30
0.0
  0
SPLINE
  5
3C5
100
AcDbEntity
  8
0
100
AcDbSpline
 62
7
  6
CONTINUOUS
 70
0
 71
3
 72
9
 73
5
 74
0
 42
0.0000001
 43
0.0000001
 44
0.0000000001
 40
0.0
 40
0.0
 40
0.0
 40
0.0
 40
0.2645235982
 40
1.0
 40
1.0
 40
1.0
 40
1.0
 10
240.244964258
 20
163.9463769725
 30
0.0
 10
240.249281864
 20
163.9324205873
 30
0.0
 10
240.2685130357
 20
163.8809134591
 30
0.0
 10
240.3051920924
 20
163.8335879682
 30
0.0
 10
240.3403689804
 20
163.8132790419
 30
0.0
  0
SPLINE
  5
3C6
100
AcDbEntity
  8
0
100
AcDbSpline
 62
7
  6
CONTINUOUS
 70
0
 71
3
 72
9
 73
5
 74
0
 42
0.0000001
 43
0.0000001
 44
0.0000000001
 40
0.0
 40
0.0
 40
0.0
 40
0.0
 40
0.2548134789
 40
1.0
 40
1.0
 40
1.0
 40
1.0
 10
242.3905930973
 20
166.553350485
 30
0.0
 10
242.2942105016
 20
166.5370787379
 30
0.0
 10
241.9242892623
 20
166.4209536835
 30
0.0
 10
241.6146914586
 20
166.1750794539
 30
0.0
 10
241.4045842834
 20
165.981256655
 30
0.0
  0
SPLINE
  5
3C7
100
AcDbEntity
  8
0
100
AcDbSpline
 62
7
  6
CONTINUOUS
 70
0
 71
3
 72
9
 73
5
 74
0
 42
0.0000001
 43
0.0000001
 44
0.0000000001
 40
0.0
 40
0.0
 40
0.0
 40
0.0
 40
0.2654536399
 40
1.0
 40
1.0
 40
1.0
 40
1.0
 10
242.6846394854
 20
166.5615125398
 30
0.0
 10
242.7005458771
 20
166.5598311925
 30
0.0
 10
242.7600676579
 20
166.5513314815
 30
0.0
 10
242.8194503408
 20
166.5338721656
 30
0.0
 10
242.8577811538
 20
166.5117423611
 30
0.0
  0
SPLINE
  5
3C8
100
AcDbEntity
  8
0
100
AcDbSpline
 62
7
  6
CONTINUOUS
 70
0
 71
3
 72
9
 73
5
 74
0
 42
0.0000001
 43
0.0000001
 44
0.0000000001
 40
0.0
 40
0.0
 40
0.0
 40
0.0
 40
0.2080926235
 40
1.0
 40
1.0
 40
1.0
 40
1.0
 10
242.8825612608
 20
166.6484725957
 30
0.0
 10
242.8844297257
 20
166.6402031466
 30
0.0
 10
242.8984233342
 20
166.6014629252
 30
0.0
 10
242.932276627
 20
166.5728806658
 30
0.0
 10
242.960217474
 20
166.5567493752
 30
0.0
  0
SPLINE
  5
3C9
100
AcDbEntity
  8
0
100
AcDbSpline
 62
7
  6
CONTINUOUS
 70
0
 71
3
 72
14
 73
10
 74
0
 42
0.0000001
 43
0.0000001
 44
0.0000000001
 40
0.0
 40
0.0
 40
0.0
 40
0.0
 40
0.2970799679
 40
0.4358661307
 40
0.5663356892
 40
0.687719266
 40
0.7998814211
 40
0.9034564703
 40
1.0
 40
1.0
 40
1.0
 40
1.0
 10
193.3739722463
 20
207.2790779185
 30
0.0
 10
191.9663884489
 20
203.6512144472
 30
0.0
 10
190.321654591
 20
198.1403674409
 30
0.0
 10
189.2701338067
 20
190.7865742902
 30
0.0
 10
189.1000952561
 20
185.6605570286
 30
0.0
 10
189.5362897446
 20
180.8983473699
 30
0.0
 10
190.5755453922
 20
176.5873976829
 30
0.0
 10
192.2044473296
 20
172.8115123399
 30
0.0
 10
193.7158504283
 20
170.6404940279
 30
0.0
 10
194.554166216
 20
169.6936964531
 30
0.0
  0
SPLINE
  5
3CA
100
AcDbEntity
  8
0
100
AcDbSpline
 62
7
  6
CONTINUOUS
 70
0
 71
3
 72
13
 73
9
 74
0
 42
0.0000001
 43
0.0000001
 44
0.0000000001
 40
0.0
 40
0.0
 40
0.0
 40
0.0
 40
0.4045336682
 40
0.698681295
 40
0.798896611
 40
0.8679725295
 40
0.9222175838
 40
1.0
 40
1.0
 40
1.0
 40
1.0
 10
245.8942239813
 20
165.2425839153
 30
0.0
 10
245.9429561737
 20
165.2311967374
 30
0.0
 10
246.0272460174
 20
165.2137658684
 30
0.0
 10
246.1267301029
 20
165.2016061614
 30
0.0
 10
246.1831604959
 20
165.2065874274
 30
0.0
 10
246.2113196383
 20
165.2160068857
 30
0.0
 10
246.2213411342
 20
165.2421192011
 30
0.0
 10
246.2123867337
 20
165.2576193213
 30
0.0
 10
246.2072439371
 20
165.265752197
 30
0.0
  0
SPLINE
  5
3CB
100
AcDbEntity
  8
0
100
AcDbSpline
 62
7
  6
CONTINUOUS
 70
0
 71
3
 72
9
 73
5
 74
0
 42
0.0000001
 43
0.0000001
 44
0.0000000001
 40
0.0
 40
0.0
 40
0.0
 40
0.0
 40
0.2807645869
 40
1.0
 40
1.0
 40
1.0
 40
1.0
 10
245.4701526113
 20
165.3643503709
 30
0.0
 10
245.5094158834
 20
165.3515474504
 30
0.0
 10
245.6495945223
 20
165.3070310527
 30
0.0
 10
245.791206015
 20
165.2666559681
 30
0.0
 10
245.8942239813
 20
165.2425839153
 30
0.0
  0
SPLINE
  5
3CC
100
AcDbEntity
  8
0
100
AcDbSpline
 62
7
  6
CONTINUOUS
 70
0
 71
3
 72
9
 73
5
 74
0
 42
0.0000001
 43
0.0000001
 44
0.0000000001
 40
0.0
 40
0.0
 40
0.0
 40
0.0
 40
0.5404065159
 40
1.0
 40
1.0
 40
1.0
 40
1.0
 10
243.6673271992
 20
166.1485086207
 30
0.0
 10
243.9743471363
 20
165.9712545874
 30
0.0
 10
244.5709971728
 20
165.6939047707
 30
0.0
 10
245.1835072317
 20
165.4578193512
 30
0.0
 10
245.4701526113
 20
165.3643503709
 30
0.0
  0
SPLINE
  5
3CD
100
AcDbEntity
  8
0
100
AcDbSpline
 62
7
  6
CONTINUOUS
 70
0
 71
3
 72
15
 73
11
 74
0
 42
0.0000001
 43
0.0000001
 44
0.0000000001
 40
0.0
 40
0.0
 40
0.0
 40
0.0
 40
0.0926350202
 40
0.1961150647
 40
0.3114409648
 40
0.4377705529
 40
0.5729818023
 40
0.7141052438
 40
0.8576597526
 40
1.0
 40
1.0
 40
1.0
 40
1.0
 10
236.0677160161
 20
245.1378149514
 30
0.0
 10
234.2120825085
 20
245.3035738395
 30
0.0
 10
230.2183497364
 20
245.0317963038
 30
0.0
 10
224.2150777914
 20
243.0967611006
 30
0.0
 10
218.104174901
 20
239.7307679944
 30
0.0
 10
212.0997367933
 20
235.063112885
 30
0.0
 10
206.4126084939
 20
229.2678194258
 30
0.0
 10
201.2524390091
 20
222.558951119
 30
0.0
 10
196.8113863544
 20
215.1885256643
 30
0.0
 10
194.4094561533
 20
209.947902502
 30
0.0
 10
193.3739722463
 20
207.2790779185
 30
0.0
  0
SPLINE
  5
3CE
100
AcDbEntity
  8
0
100
AcDbSpline
 62
7
  6
CONTINUOUS
 70
0
 71
3
 72
8
 73
4
 74
0
 42
0.0000001
 43
0.0000001
 44
0.0000000001
 40
0.0
 40
0.0
 40
0.0
 40
0.0
 40
1.0
 40
1.0
 40
1.0
 40
1.0
 10
239.8891003125
 20
160.3020707897
 30
0.0
 10
239.9029086035
 20
160.3034954232
 30
0.0
 10
239.9171065194
 20
160.3009351597
 30
0.0
 10
239.9304470209
 20
160.2970972567
 30
0.0
  0
SPLINE
  5
3CF
100
AcDbEntity
  8
0
100
AcDbSpline
 62
7
  6
CONTINUOUS
 70
0
 71
3
 72
9
 73
5
 74
0
 42
0.0000001
 43
0.0000001
 44
0.0000000001
 40
0.0
 40
0.0
 40
0.0
 40
0.0
 40
0.283557847
 40
1.0
 40
1.0
 40
1.0
 40
1.0
 10
239.8891003125
 20
160.3020707897
 30
0.0
 10
239.8836811262
 20
160.3015116796
 30
0.0
 10
239.8646833089
 20
160.2976927925
 30
0.0
 10
239.8489326958
 20
160.2824211417
 30
0.0
 10
239.8433800613
 20
160.2698258863
 30
0.0
  0
SPLINE
  5
3D0
100
AcDbEntity
  8
0
100
AcDbSpline
 62
7
  6
CONTINUOUS
 70
0
 71
3
 72
8
 73
4
 74
0
 42
0.0000001
 43
0.0000001
 44
0.0000000001
 40
0.0
 40
0.0
 40
0.0
 40
0.0
 40
1.0
 40
1.0
 40
1.0
 40
1.0
 10
239.8433800613
 20
160.2698258863
 30
0.0
 10
239.8388789546
 20
160.259615852
 30
0.0
 10
239.8370503066
 20
160.2481338935
 30
0.0
 10
239.8369423633
 20
160.2369762454
 30
0.0
  0
SPLINE
  5
3D1
100
AcDbEntity
  8
0
100
AcDbSpline
 62
7
  6
CONTINUOUS
 70
0
 71
3
 72
9
 73
5
 74
0
 42
0.0000001
 43
0.0000001
 44
0.0000000001
 40
0.0
 40
0.0
 40
0.0
 40
0.0
 40
0.4427334393
 40
1.0
 40
1.0
 40
1.0
 40
1.0
 10
239.8358272841
 20
160.2372962007
 30
0.0
 10
239.8353747851
 20
160.1905232634
 30
0.0
 10
239.885833414
 20
160.0894362813
 30
0.0
 10
239.9542852099
 20
160.01045084
 30
0.0
 10
239.997065066
 20
159.9700005664
 30
0.0
  0
SPLINE
  5
3D2
100
AcDbEntity
  8
0
100
AcDbSpline
 62
7
  6
CONTINUOUS
 70
0
 71
3
 72
9
 73
5
 74
0
 42
0.0000001
 43
0.0000001
 44
0.0000000001
 40
0.0
 40
0.0
 40
0.0
 40
0.0
 40
0.2430122268
 40
1.0
 40
1.0
 40
1.0
 40
1.0
 10
239.997065066
 20
159.9700005664
 30
0.0
 10
240.0163291321
 20
159.9517855275
 30
0.0
 10
240.098781492
 20
159.88021936
 30
0.0
 10
240.1918173271
 20
159.8212518906
 30
0.0
 10
240.2652974588
 20
159.7835547711
 30
0.0
  0
SPLINE
  5
3D3
100
AcDbEntity
  8
0
100
AcDbSpline
 62
7
  6
CONTINUOUS
 70
0
 71
3
 72
11
 73
7
 74
0
 42
0.0000001
 43
0.0000001
 44
0.0000000001
 40
0.0
 40
0.0
 40
0.0
 40
0.0
 40
0.2389490544
 40
0.5028774355
 40
0.76523525
 40
1.0
 40
1.0
 40
1.0
 40
1.0
 10
266.1571964626
 20
211.088637009
 30
0.0
 10
265.6987245123
 20
210.8183617834
 30
0.0
 10
264.8348078703
 20
210.0768266575
 30
0.0
 10
263.8360866726
 20
208.6797583551
 30
0.0
 10
263.1688388113
 20
207.1075273233
 30
0.0
 10
262.9947820517
 20
205.9941550603
 30
0.0
 10
263.0106370871
 20
205.4715072572
 30
0.0
  0
SPLINE
  5
3D4
100
AcDbEntity
  8
0
100
AcDbSpline
 62
7
  6
CONTINUOUS
 70
0
 71
3
 72
11
 73
7
 74
0
 42
0.0000001
 43
0.0000001
 44
0.0000000001
 40
0.0
 40
0.0
 40
0.0
 40
0.0
 40
0.2875169496
 40
0.5463723999
 40
0.7803446892
 40
1.0
 40
1.0
 40
1.0
 40
1.0
 10
263.0106370871
 20
205.4715072572
 30
0.0
 10
263.0171363356
 20
205.2572650391
 30
0.0
 10
263.0620612736
 20
204.8498072026
 30
0.0
 10
263.242750867
 20
204.2916087731
 30
0.0
 10
263.5328585092
 20
203.8384908393
 30
0.0
 10
263.7990222593
 20
203.6188054423
 30
0.0
 10
263.9408537184
 20
203.5369634279
 30
0.0
  0
SPLINE
  5
3D5
100
AcDbEntity
  8
0
100
AcDbSpline
 62
7
  6
CONTINUOUS
 70
0
 71
3
 72
9
 73
5
 74
0
 42
0.0000001
 43
0.0000001
 44
0.0000000001
 40
0.0
 40
0.0
 40
0.0
 40
0.0
 40
0.5145684761
 40
1.0
 40
1.0
 40
1.0
 40
1.0
 10
264.889221417
 20
203.7969908939
 30
0.0
 10
264.7761135434
 20
203.9176358212
 30
0.0
 10
264.5980525382
 20
204.1962268275
 30
0.0
 10
264.5281746763
 20
204.5138682926
 30
0.0
 10
264.5065189339
 20
204.6683679035
 30
0.0
  0
SPLINE
  5
3D6
100
AcDbEntity
  8
0
100
AcDbSpline
 62
7
  6
CONTINUOUS
 70
0
 71
3
 72
8
 73
4
 74
0
 42
0.0000001
 43
0.0000001
 44
0.0000000001
 40
0.0
 40
0.0
 40
0.0
 40
0.0
 40
1.0
 40
1.0
 40
1.0
 40
1.0
 10
265.0997499227
 20
203.6034086969
 30
0.0
 10
265.0514952976
 20
203.6430406913
 30
0.0
 10
265.0041663874
 20
203.6839045701
 30
0.0
 10
264.9589193614
 20
203.7269383993
 30
0.0
  0
SPLINE
  5
3D7
100
AcDbEntity
  8
0
100
AcDbSpline
 62
7
  6
CONTINUOUS
 70
0
 71
3
 72
9
 73
5
 74
0
 42
0.0000001
 43
0.0000001
 44
0.0000000001
 40
0.0
 40
0.0
 40
0.0
 40
0.0
 40
0.5394062033
 40
1.0
 40
1.0
 40
1.0
 40
1.0
 10
263.8623364128
 20
205.1908122238
 30
0.0
 10
263.8713262155
 20
204.8944709974
 30
0.0
 10
263.9494882495
 20
204.3424832979
 30
0.0
 10
264.2157982833
 20
203.8413927645
 30
0.0
 10
264.3851279909
 20
203.6531984383
 30
0.0
  0
SPLINE
  5
3D8
100
AcDbEntity
  8
0
100
AcDbSpline
 62
7
  6
CONTINUOUS
 70
0
 71
3
 72
9
 73
5
 74
0
 42
0.0000001
 43
0.0000001
 44
0.0000000001
 40
0.0
 40
0.0
 40
0.0
 40
0.0
 40
0.7468220533
 40
1.0
 40
1.0
 40
1.0
 40
1.0
 10
264.4967121349
 20
203.5413824684
 30
0.0
 10
264.6257823397
 20
203.4250124057
 30
0.0
 10
264.8299982496
 20
203.2993605232
 30
0.0
 10
265.0520549218
 20
203.2290381802
 30
0.0
 10
265.1091425141
 20
203.2144816357
 30
0.0
  0
SPLINE
  5
3D9
100
AcDbEntity
  8
0
100
AcDbSpline
 62
7
  6
CONTINUOUS
 70
0
 71
3
 72
8
 73
4
 74
0
 42
0.0000001
 43
0.0000001
 44
0.0000000001
 40
0.0
 40
0.0
 40
0.0
 40
0.0
 40
1.0
 40
1.0
 40
1.0
 40
1.0
 10
265.2179467132
 20
203.1908939579
 30
0.0
 10
265.3260477966
 20
203.1714690058
 30
0.0
 10
265.4365821411
 20
203.1632946109
 30
0.0
 10
265.5464050229
 20
203.1647463795
 30
0.0
  0
SPLINE
  5
3DA
100
AcDbEntity
  8
0
100
AcDbSpline
 62
7
  6
CONTINUOUS
 70
0
 71
3
 72
9
 73
5
 74
0
 42
0.0000001
 43
0.0000001
 44
0.0000000001
 40
0.0
 40
0.0
 40
0.0
 40
0.0
 40
0.4948473238
 40
1.0
 40
1.0
 40
1.0
 40
1.0
 10
267.5992095595
 20
210.0874042061
 30
0.0
 10
267.6783661417
 20
210.2048866391
 30
0.0
 10
267.9439860394
 20
210.3592081413
 30
0.0
 10
268.2212435563
 20
210.4241202508
 30
0.0
 10
268.3647755724
 20
210.4417551717
 30
0.0
  0
SPLINE
  5
3DB
100
AcDbEntity
  8
0
100
AcDbSpline
 62
7
  6
CONTINUOUS
 70
0
 71
3
 72
8
 73
4
 74
0
 42
0.0000001
 43
0.0000001
 44
0.0000000001
 40
0.0
 40
0.0
 40
0.0
 40
0.0
 40
1.0
 40
1.0
 40
1.0
 40
1.0
 10
267.5527562825
 20
209.916305135
 30
0.0
 10
267.5420283411
 20
209.9743851814
 30
0.0
 10
267.5657377463
 20
210.0384400136
 30
0.0
 10
267.5987403452
 20
210.0874217345
 30
0.0
  0
SPLINE
  5
3DC
100
AcDbEntity
  8
0
100
AcDbSpline
 62
7
  6
CONTINUOUS
 70
0
 71
3
 72
9
 73
5
 74
0
 42
0.0000001
 43
0.0000001
 44
0.0000000001
 40
0.0
 40
0.0
 40
0.0
 40
0.0
 40
0.499427459
 40
1.0
 40
1.0
 40
1.0
 40
1.0
 10
265.062756402
 20
207.1634174404
 30
0.0
 10
265.0719804219
 20
207.3752028888
 30
0.0
 10
265.2131349968
 20
207.7897368485
 30
0.0
 10
265.4311425046
 20
208.1527175571
 30
0.0
 10
265.549198516
 20
208.3293732691
 30
0.0
  0
SPLINE
  5
3DD
100
AcDbEntity
  8
0
100
AcDbSpline
 62
7
  6
CONTINUOUS
 70
0
 71
3
 72
8
 73
4
 74
0
 42
0.0000001
 43
0.0000001
 44
0.0000000001
 40
0.0
 40
0.0
 40
0.0
 40
0.0
 40
1.0
 40
1.0
 40
1.0
 40
1.0
 10
265.1021016966
 20
206.8707750288
 30
0.0
 10
265.0680901359
 20
206.9631390257
 30
0.0
 10
265.0584786203
 20
207.0650900687
 30
0.0
 10
265.0627614153
 20
207.1634239482
 30
0.0
  0
SPLINE
  5
3DE
100
AcDbEntity
  8
0
100
AcDbSpline
 62
7
  6
CONTINUOUS
 70
0
 71
3
 72
15
 73
11
 74
0
 42
0.0000001
 43
0.0000001
 44
0.0000000001
 40
0.0
 40
0.0
 40
0.0
 40
0.0
 40
0.1126230639
 40
0.2054952447
 40
0.298868357
 40
0.4124960679
 40
0.5499821516
 40
0.7029715506
 40
0.8577362561
 40
1.0
 40
1.0
 40
1.0
 40
1.0
 10
271.2103504029
 20
206.2240972792
 30
0.0
 10
271.2048408863
 20
206.4057138245
 30
0.0
 10
271.1492696869
 20
206.7436341221
 30
0.0
 10
270.8159955119
 20
207.1384284461
 30
0.0
 10
270.3035767353
 20
207.2150675498
 30
0.0
 10
269.7726771769
 20
207.0071023136
 30
0.0
 10
269.2601683934
 20
206.5932119474
 30
0.0
 10
268.8193573024
 20
206.0181934642
 30
0.0
 10
268.5054103196
 20
205.3582833823
 30
0.0
 10
268.4002102067
 20
204.8839270471
 30
0.0
 10
268.3864250427
 20
204.6548205942
 30
0.0
  0
SPLINE
  5
3DF
100
AcDbEntity
  8
0
100
AcDbSpline
 62
7
  6
CONTINUOUS
 70
0
 71
3
 72
16
 73
12
 74
0
 42
0.0000001
 43
0.0000001
 44
0.0000000001
 40
0.0
 40
0.0
 40
0.0
 40
0.0
 40
0.1119592466
 40
0.1599561796
 40
0.2052257791
 40
0.2995748528
 40
0.4159959874
 40
0.5563762532
 40
0.7105176023
 40
0.8632757205
 40
1.0
 40
1.0
 40
1.0
 40
1.0
 10
268.3836096536
 20
204.4797170515
 30
0.0
 10
268.3892884199
 20
204.292521332
 30
0.0
 10
268.4390527649
 20
204.0169646204
 30
0.0
 10
268.6361679189
 20
203.7300943266
 30
0.0
 10
268.893170193
 20
203.5383804505
 30
0.0
 10
269.3496708631
 20
203.495969148
 30
0.0
 10
269.8985076536
 20
203.7432128117
 30
0.0
 10
270.4202327768
 20
204.201326858
 30
0.0
 10
270.854138617
 20
204.8191415077
 30
0.0
 10
271.1425088665
 20
205.5085111774
 30
0.0
 10
271.2172852944
 20
205.9954944559
 30
0.0
 10
271.2103504029
 20
206.2240972792
 30
0.0
  0
SPLINE
  5
3E0
100
AcDbEntity
  8
0
100
AcDbSpline
 62
7
  6
CONTINUOUS
 70
0
 71
3
 72
10
 73
6
 74
0
 42
0.0000001
 43
0.0000001
 44
0.0000000001
 40
0.0
 40
0.0
 40
0.0
 40
0.0
 40
0.4910457609
 40
0.7564902042
 40
1.0
 40
1.0
 40
1.0
 40
1.0
 10
266.8195192498
 20
204.4108491913
 30
0.0
 10
266.7752090282
 20
204.7481170529
 30
0.0
 10
266.6278352103
 20
205.2635748982
 30
0.0
 10
266.2687747934
 20
205.8589118188
 30
0.0
 10
266.0083395975
 20
206.1107270499
 30
0.0
 10
265.8622502173
 20
206.1950698848
 30
0.0
  0
SPLINE
  5
3E1
100
AcDbEntity
  8
0
100
AcDbSpline
 62
7
  6
CONTINUOUS
 70
0
 71
3
 72
9
 73
5
 74
0
 42
0.0000001
 43
0.0000001
 44
0.0000000001
 40
0.0
 40
0.0
 40
0.0
 40
0.0
 40
0.547953436
 40
1.0
 40
1.0
 40
1.0
 40
1.0
 10
266.0144142474
 20
203.058435664
 30
0.0
 10
266.1063566286
 20
203.014336619
 30
0.0
 10
266.2964983376
 20
202.9591757763
 30
0.0
 10
266.4817960879
 20
203.0347788701
 30
0.0
 10
266.5473488687
 20
203.087500668
 30
0.0
  0
SPLINE
  5
3E2
100
AcDbEntity
  8
0
100
AcDbSpline
 62
7
  6
CONTINUOUS
 70
0
 71
3
 72
9
 73
5
 74
0
 42
0.0000001
 43
0.0000001
 44
0.0000000001
 40
0.0
 40
0.0
 40
0.0
 40
0.0
 40
0.4592820408
 40
1.0
 40
1.0
 40
1.0
 40
1.0
 10
266.5473488687
 20
203.087500668
 30
0.0
 10
266.6421740992
 20
203.1637652685
 30
0.0
 10
266.7816618176
 20
203.4067619994
 30
0.0
 10
266.825652549
 20
203.6690781114
 30
0.0
 10
266.8376908802
 20
203.8118367972
 30
0.0
  0
SPLINE
  5
3E3
100
AcDbEntity
  8
0
100
AcDbSpline
 62
7
  6
CONTINUOUS
 70
0
 71
3
 72
9
 73
5
 74
0
 42
0.0000001
 43
0.0000001
 44
0.0000000001
 40
0.0
 40
0.0
 40
0.0
 40
0.0
 40
0.2408339464
 40
1.0
 40
1.0
 40
1.0
 40
1.0
 10
265.0084351326
 20
206.6135232947
 30
0.0
 10
264.9893510667
 20
206.606969965
 30
0.0
 10
264.9128575586
 20
206.571686442
 30
0.0
 10
264.8493309411
 20
206.5131392547
 30
0.0
 10
264.808298733
 20
206.4645385858
 30
0.0
  0
SPLINE
  5
3E4
100
AcDbEntity
  8
0
100
AcDbSpline
 62
7
  6
CONTINUOUS
 70
0
 71
3
 72
9
 73
5
 74
0
 42
0.0000001
 43
0.0000001
 44
0.0000000001
 40
0.0
 40
0.0
 40
0.0
 40
0.0
 40
0.2631219613
 40
1.0
 40
1.0
 40
1.0
 40
1.0
 10
265.0997499227
 20
203.6034086969
 30
0.0
 10
265.11218902
 20
203.5931923449
 30
0.0
 10
265.1601204083
 20
203.5552055566
 30
0.0
 10
265.2103249307
 20
203.5198220481
 30
0.0
 10
265.2493649022
 20
203.4972828199
 30
0.0
  0
SPLINE
  5
3E5
100
AcDbEntity
  8
0
100
AcDbSpline
 62
7
  6
CONTINUOUS
 70
0
 71
3
 72
9
 73
5
 74
0
 42
0.0000001
 43
0.0000001
 44
0.0000000001
 40
0.0
 40
0.0
 40
0.0
 40
0.0
 40
0.5032567498
 40
1.0
 40
1.0
 40
1.0
 40
1.0
 10
264.8082681888
 20
206.4655454505
 30
0.0
 10
264.6869590713
 20
206.3218606592
 30
0.0
 10
264.5471861605
 20
205.9585226851
 30
0.0
 10
264.4965254074
 20
205.5895729852
 30
0.0
 10
264.484191548
 20
205.4043712533
 30
0.0
  0
SPLINE
  5
3E6
100
AcDbEntity
  8
0
100
AcDbSpline
 62
7
  6
CONTINUOUS
 70
0
 71
3
 72
8
 73
4
 74
0
 42
0.0000001
 43
0.0000001
 44
0.0000000001
 40
0.0
 40
0.0
 40
0.0
 40
0.0
 40
1.0
 40
1.0
 40
1.0
 40
1.0
 10
265.0084351322
 20
206.6135232947
 30
0.0
 10
265.0547979047
 20
206.6294439343
 30
0.0
 10
265.1126875716
 20
206.62782029
 30
0.0
 10
265.1551404921
 20
206.6033106393
 30
0.0
  0
SPLINE
  5
3E7
100
AcDbEntity
  8
0
100
AcDbSpline
 62
7
  6
CONTINUOUS
 70
0
 71
3
 72
11
 73
7
 74
0
 42
0.0000001
 43
0.0000001
 44
0.0000000001
 40
0.0
 40
0.0
 40
0.0
 40
0.0
 40
0.272887718
 40
0.532600306
 40
0.7727902757
 40
1.0
 40
1.0
 40
1.0
 40
1.0
 10
268.2155810625
 20
207.5961603999
 30
0.0
 10
268.3076082083
 20
207.7451946757
 30
0.0
 10
268.4658275609
 20
208.0509163558
 30
0.0
 10
268.5962540171
 20
208.5335594786
 30
0.0
 10
268.5674599966
 20
209.0166427489
 30
0.0
 10
268.3602107536
 20
209.2710161969
 30
0.0
 10
268.2339102206
 20
209.343934194
 30
0.0
  0
SPLINE
  5
3E8
100
AcDbEntity
  8
0
100
AcDbSpline
 62
7
  6
CONTINUOUS
 70
0
 71
3
 72
8
 73
4
 74
0
 42
0.0000001
 43
0.0000001
 44
0.0000000001
 40
0.0
 40
0.0
 40
0.0
 40
0.0
 40
1.0
 40
1.0
 40
1.0
 40
1.0
 10
267.7675432069
 20
207.0145622183
 30
0.0
 10
267.9355780508
 20
207.1924738649
 30
0.0
 10
268.0870057348
 20
207.3879378078
 30
0.0
 10
268.2155810625
 20
207.5961603999
 30
0.0
  0
SPLINE
  5
3E9
100
AcDbEntity
  8
0
100
AcDbSpline
 62
7
  6
CONTINUOUS
 70
0
 71
3
 72
11
 73
7
 74
0
 42
0.0000001
 43
0.0000001
 44
0.0000000001
 40
0.0
 40
0.0
 40
0.0
 40
0.0
 40
0.2256750775
 40
0.4765147133
 40
0.7378416619
 40
1.0
 40
1.0
 40
1.0
 40
1.0
 10
265.9107282494
 20
206.3282129964
 30
0.0
 10
266.0477899709
 20
206.2490821647
 30
0.0
 10
266.400033122
 20
206.1919994425
 30
0.0
 10
266.9028591269
 20
206.3454456343
 30
0.0
 10
267.3689103665
 20
206.6318916553
 30
0.0
 10
267.6413047553
 20
206.880903685
 30
0.0
 10
267.7675432069
 20
207.0145622183
 30
0.0
  0
SPLINE
  5
3EA
100
AcDbEntity
  8
0
100
AcDbSpline
 62
7
  6
CONTINUOUS
 70
0
 71
3
 72
8
 73
4
 74
0
 42
0.0000001
 43
0.0000001
 44
0.0000000001
 40
0.0
 40
0.0
 40
0.0
 40
0.0
 40
1.0
 40
1.0
 40
1.0
 40
1.0
 10
267.3535444932
 20
209.7933716447
 30
0.0
 10
267.2541616046
 20
209.7959823258
 30
0.0
 10
267.1534510656
 20
209.7811536101
 30
0.0
 10
267.057981224
 20
209.7534176488
 30
0.0
  0
SPLINE
  5
3EB
100
AcDbEntity
  8
0
100
AcDbSpline
 62
7
  6
CONTINUOUS
 70
0
 71
3
 72
9
 73
5
 74
0
 42
0.0000001
 43
0.0000001
 44
0.0000000001
 40
0.0
 40
0.0
 40
0.0
 40
0.0
 40
0.266125707
 40
1.0
 40
1.0
 40
1.0
 40
1.0
 10
265.1021016966
 20
206.8707750288
 30
0.0
 10
265.1073137823
 20
206.8566207513
 30
0.0
 10
265.1296308283
 20
206.8048103774
 30
0.0
 10
265.1675965413
 20
206.7572505819
 30
0.0
 10
265.2036185242
 20
206.7364537509
 30
0.0
  0
SPLINE
  5
3EC
100
AcDbEntity
  8
0
100
AcDbSpline
 62
7
  6
CONTINUOUS
 70
0
 71
3
 72
9
 73
5
 74
0
 42
0.0000001
 43
0.0000001
 44
0.0000000001
 40
0.0
 40
0.0
 40
0.0
 40
0.0
 40
0.4978311882
 40
1.0
 40
1.0
 40
1.0
 40
1.0
 10
267.0591627783
 20
209.7549514238
 30
0.0
 10
266.8671540979
 20
209.6991689353
 30
0.0
 10
266.5144189982
 20
209.4818431801
 30
0.0
 10
266.2336062432
 20
209.1948005776
 30
0.0
 10
266.0996989662
 20
209.0439775909
 30
0.0
  0
SPLINE
  5
3ED
100
AcDbEntity
  8
0
100
AcDbSpline
 62
7
  6
CONTINUOUS
 70
0
 71
3
 72
9
 73
5
 74
0
 42
0.0000001
 43
0.0000001
 44
0.0000000001
 40
0.0
 40
0.0
 40
0.0
 40
0.0
 40
0.2662516194
 40
1.0
 40
1.0
 40
1.0
 40
1.0
 10
267.3535444932
 20
209.7933716447
 30
0.0
 10
267.3694208967
 20
209.7929545888
 30
0.0
 10
267.4287536059
 20
209.7889107782
 30
0.0
 10
267.4888960712
 20
209.774058583
 30
0.0
 10
267.5268004954
 20
209.7521749486
 30
0.0
  0
SPLINE
  5
3EE
100
AcDbEntity
  8
0
100
AcDbSpline
 62
7
  6
CONTINUOUS
 70
0
 71
3
 72
9
 73
5
 74
0
 42
0.0000001
 43
0.0000001
 44
0.0000000001
 40
0.0
 40
0.0
 40
0.0
 40
0.0
 40
0.2229345377
 40
1.0
 40
1.0
 40
1.0
 40
1.0
 10
267.5527562825
 20
209.916305135
 30
0.0
 10
267.5544984383
 20
209.9068732703
 30
0.0
 10
267.566854927
 20
209.8652704681
 30
0.0
 10
267.6009513214
 20
209.8325160926
 30
0.0
 10
267.6299044748
 20
209.8158003599
 30
0.0
  0
SPLINE
  5
3EF
100
AcDbEntity
  8
0
100
AcDbSpline
 62
7
  6
CONTINUOUS
 70
0
 71
3
 72
13
 73
9
 74
0
 42
0.0000001
 43
0.0000001
 44
0.0000000001
 40
0.0
 40
0.0
 40
0.0
 40
0.0
 40
0.3362272723
 40
0.4713445845
 40
0.5833652162
 40
0.6751616843
 40
0.7600062764
 40
1.0
 40
1.0
 40
1.0
 40
1.0
 10
270.6980644086
 20
208.8229853078
 30
0.0
 10
270.7652930665
 20
208.8264116227
 30
0.0
 10
270.8598607223
 20
208.8353379705
 30
0.0
 10
270.9727657762
 20
208.8668958564
 30
0.0
 10
271.0341874728
 20
208.8965708503
 30
0.0
 10
271.0779048516
 20
208.937399385
 30
0.0
 10
271.0994090024
 20
209.0230356292
 30
0.0
 10
271.0539833857
 20
209.083625017
 30
0.0
 10
271.0215473923
 20
209.1190738004
 30
0.0
  0
SPLINE
  5
3F0
100
AcDbEntity
  8
0
100
AcDbSpline
 62
7
  6
CONTINUOUS
 70
0
 71
3
 72
9
 73
5
 74
0
 42
0.0000001
 43
0.0000001
 44
0.0000000001
 40
0.0
 40
0.0
 40
0.0
 40
0.0
 40
0.2765325157
 40
1.0
 40
1.0
 40
1.0
 40
1.0
 10
270.230517391
 20
208.8406104273
 30
0.0
 10
270.2734345393
 20
208.8361381252
 30
0.0
 10
270.4288119619
 20
208.8222089609
 30
0.0
 10
270.5853224119
 20
208.8172394013
 30
0.0
 10
270.6980644086
 20
208.8229853078
 30
0.0
  0
SPLINE
  5
3F1
100
AcDbEntity
  8
0
100
AcDbSpline
 62
7
  6
CONTINUOUS
 70
0
 71
3
 72
10
 73
6
 74
0
 42
0.0000001
 43
0.0000001
 44
0.0000000001
 40
0.0
 40
0.0
 40
0.0
 40
0.0
 40
0.2600123039
 40
0.5354336646
 40
1.0
 40
1.0
 40
1.0
 40
1.0
 10
268.3370141999
 20
209.4075596054
 30
0.0
 10
268.4861515404
 20
209.3214570696
 30
0.0
 10
268.8113673961
 20
209.1758047129
 30
0.0
 10
269.4410354234
 20
208.9698655834
 30
0.0
 10
269.9244889473
 20
208.8725009821
 30
0.0
 10
270.230517391
 20
208.8406104273
 30
0.0
  0
SPLINE
  5
3F2
100
AcDbEntity
  8
0
100
AcDbSpline
 62
7
  6
CONTINUOUS
 70
0
 71
3
 72
9
 73
5
 74
0
 42
0.0000001
 43
0.0000001
 44
0.0000000001
 40
0.0
 40
0.0
 40
0.0
 40
0.0
 40
0.4150717391
 40
1.0
 40
1.0
 40
1.0
 40
1.0
 10
265.1747379499
 20
203.4321277323
 30
0.0
 10
265.1883247628
 20
203.3944955187
 30
0.0
 10
265.2652189996
 20
203.326244688
 30
0.0
 10
265.344880398
 20
203.2752399272
 30
0.0
 10
265.3951391986
 20
203.2496848321
 30
0.0
  0
SPLINE
  5
3F3
100
AcDbEntity
  8
0
100
AcDbSpline
 62
7
  6
CONTINUOUS
 70
0
 71
3
 72
8
 73
4
 74
0
 42
0.0000001
 43
0.0000001
 44
0.0000000001
 40
0.0
 40
0.0
 40
0.0
 40
0.0
 40
1.0
 40
1.0
 40
1.0
 40
1.0
 10
265.3951391986
 20
203.2496848321
 30
0.0
 10
265.4465223584
 20
203.223558034
 30
0.0
 10
265.5001284334
 20
203.2015557206
 30
0.0
 10
265.5547358911
 20
203.1830932115
 30
0.0
  0
SPLINE
  5
3F4
100
AcDbEntity
  8
0
100
AcDbSpline
 62
7
  6
CONTINUOUS
 70
0
 71
3
 72
9
 73
5
 74
0
 42
0.0000001
 43
0.0000001
 44
0.0000000001
 40
0.0
 40
0.0
 40
0.0
 40
0.0
 40
0.2360632617
 40
1.0
 40
1.0
 40
1.0
 40
1.0
 10
266.1796101604
 20
153.130087398
 30
0.0
 10
266.0825584292
 20
153.07366359
 30
0.0
 10
265.6810542611
 20
152.8181958146
 30
0.0
 10
265.3174858598
 20
152.5053329162
 30
0.0
 10
265.0625499808
 20
152.2465055083
 30
0.0
  0
SPLINE
  5
3F5
100
AcDbEntity
  8
0
100
AcDbSpline
 62
7
  6
CONTINUOUS
 70
0
 71
3
 72
11
 73
7
 74
0
 42
0.0000001
 43
0.0000001
 44
0.0000000001
 40
0.0
 40
0.0
 40
0.0
 40
0.0
 40
0.2645969456
 40
0.5334191663
 40
0.7842106597
 40
1.0
 40
1.0
 40
1.0
 40
1.0
 10
265.0625499808
 20
152.2465055083
 30
0.0
 10
264.6959796298
 20
151.8743395578
 30
0.0
 10
264.0439739283
 20
151.0353817675
 30
0.0
 10
263.3512698614
 20
149.6392221035
 30
0.0
 10
262.9866496975
 20
148.2231080221
 30
0.0
 10
262.9947842646
 20
147.2825573372
 30
0.0
 10
263.0857210412
 20
146.8663539297
 30
0.0
  0
SPLINE
  5
3F6
100
AcDbEntity
  8
0
100
AcDbSpline
 62
7
  6
CONTINUOUS
 70
0
 71
3
 72
9
 73
5
 74
0
 42
0.0000001
 43
0.0000001
 44
0.0000000001
 40
0.0
 40
0.0
 40
0.0
 40
0.0
 40
0.5315302789
 40
1.0
 40
1.0
 40
1.0
 40
1.0
 10
263.0857210412
 20
146.8663539297
 30
0.0
 10
263.1459346223
 20
146.5907657845
 30
0.0
 10
263.3328416625
 20
146.0799471696
 30
0.0
 10
263.7254017744
 20
145.6893630822
 30
0.0
 10
263.9407694984
 20
145.5651459129
 30
0.0
  0
SPLINE
  5
3F7
100
AcDbEntity
  8
0
100
AcDbSpline
 62
7
  6
CONTINUOUS
 70
0
 71
3
 72
9
 73
5
 74
0
 42
0.0000001
 43
0.0000001
 44
0.0000000001
 40
0.0
 40
0.0
 40
0.0
 40
0.0
 40
0.5277210107
 40
1.0
 40
1.0
 40
1.0
 40
1.0
 10
265.1666926542
 20
145.4691084907
 30
0.0
 10
265.0386880705
 20
145.5616795055
 30
0.0
 10
264.8144647307
 20
145.770261639
 30
0.0
 10
264.6814405336
 20
146.0441233735
 30
0.0
 10
264.6330302814
 20
146.1769504353
 30
0.0
  0
SPLINE
  5
3F8
100
AcDbEntity
  8
0
100
AcDbSpline
 62
7
  6
CONTINUOUS
 70
0
 71
3
 72
9
 73
5
 74
0
 42
0.0000001
 43
0.0000001
 44
0.0000000001
 40
0.0
 40
0.0
 40
0.0
 40
0.0
 40
0.2680767859
 40
1.0
 40
1.0
 40
1.0
 40
1.0
 10
263.9332490362
 20
146.6208523248
 30
0.0
 10
263.9513938863
 20
146.537806183
 30
0.0
 10
264.0330908149
 20
146.2316850599
 30
0.0
 10
264.1770192526
 20
145.9389169017
 30
0.0
 10
264.3212551481
 20
145.7570908122
 30
0.0
  0
SPLINE
  5
3F9
100
AcDbEntity
  8
0
100
AcDbSpline
 62
7
  6
CONTINUOUS
 70
0
 71
3
 72
9
 73
5
 74
0
 42
0.0000001
 43
0.0000001
 44
0.0000000001
 40
0.0
 40
0.0
 40
0.0
 40
0.0
 40
0.4935742358
 40
1.0
 40
1.0
 40
1.0
 40
1.0
 10
264.3212551481
 20
145.7570908122
 30
0.0
 10
264.4610682762
 20
145.5808401344
 30
0.0
 10
264.8295191622
 20
145.2798101487
 30
0.0
 10
265.295244873
 20
145.1924637536
 30
0.0
 10
265.5260733575
 20
145.1928818125
 30
0.0
  0
SPLINE
  5
3FA
100
AcDbEntity
  8
0
100
AcDbSpline
 62
7
  6
CONTINUOUS
 70
0
 71
3
 72
9
 73
5
 74
0
 42
0.0000001
 43
0.0000001
 44
0.0000000001
 40
0.0
 40
0.0
 40
0.0
 40
0.0
 40
0.501466092
 40
1.0
 40
1.0
 40
1.0
 40
1.0
 10
267.0731735225
 20
151.7927600995
 30
0.0
 10
267.1487321377
 20
151.9368287973
 30
0.0
 10
267.4111560991
 20
152.1571077564
 30
0.0
 10
267.7045961278
 20
152.2924571962
 30
0.0
 10
267.8569348449
 20
152.3467639347
 30
0.0
  0
SPLINE
  5
3FB
100
AcDbEntity
  8
0
100
AcDbSpline
 62
7
  6
CONTINUOUS
 70
0
 71
3
 72
9
 73
5
 74
0
 42
0.0000001
 43
0.0000001
 44
0.0000000001
 40
0.0
 40
0.0
 40
0.0
 40
0.0
 40
0.7383953106
 40
1.0
 40
1.0
 40
1.0
 40
1.0
 10
267.0297090777
 20
151.5868342214
 30
0.0
 10
267.0209151615
 20
151.6382669001
 30
0.0
 10
267.0351497465
 20
151.7121468391
 30
0.0
 10
267.0640799985
 20
151.7762790158
 30
0.0
 10
267.072666212
 20
151.7926504726
 30
0.0
  0
SPLINE
  5
3FC
100
AcDbEntity
  8
0
100
AcDbSpline
 62
7
  6
CONTINUOUS
 70
0
 71
3
 72
9
 73
5
 74
0
 42
0.0000001
 43
0.0000001
 44
0.0000000001
 40
0.0
 40
0.0
 40
0.0
 40
0.0
 40
0.4982284846
 40
1.0
 40
1.0
 40
1.0
 40
1.0
 10
264.8141918741
 20
148.5125573996
 30
0.0
 10
264.8006779234
 20
148.7219096597
 30
0.0
 10
264.8928923029
 20
149.1462373702
 30
0.0
 10
265.0700220706
 20
149.5273793509
 30
0.0
 10
265.1678691362
 20
149.71463618
 30
0.0
  0
SPLINE
  5
3FD
100
AcDbEntity
  8
0
100
AcDbSpline
 62
7
  6
CONTINUOUS
 70
0
 71
3
 72
8
 73
4
 74
0
 42
0.0000001
 43
0.0000001
 44
0.0000000001
 40
0.0
 40
0.0
 40
0.0
 40
0.0
 40
1.0
 40
1.0
 40
1.0
 40
1.0
 10
264.8824423623
 20
148.2213208449
 30
0.0
 10
264.8412094142
 20
148.3121069284
 30
0.0
 10
264.8206193194
 20
148.4130606986
 30
0.0
 10
264.8141962224
 20
148.5125645316
 30
0.0
  0
SPLINE
  5
3FE
100
AcDbEntity
  8
0
100
AcDbSpline
 62
7
  6
CONTINUOUS
 70
0
 71
3
 72
10
 73
6
 74
0
 42
0.0000001
 43
0.0000001
 44
0.0000000001
 40
0.0
 40
0.0
 40
0.0
 40
0.0
 40
0.4791612865
 40
0.7491292473
 40
1.0
 40
1.0
 40
1.0
 40
1.0
 10
266.8292727168
 20
145.9111890453
 30
0.0
 10
266.7300877075
 20
146.2215671021
 30
0.0
 10
266.5057315351
 20
146.6884115318
 30
0.0
 10
266.0882795218
 20
147.2267166329
 30
0.0
 10
265.816154575
 20
147.4624544512
 30
0.0
 10
265.6684116084
 20
147.5477519631
 30
0.0
  0
SPLINE
  5
3FF
100
AcDbEntity
  8
0
100
AcDbSpline
 62
7
  6
CONTINUOUS
 70
0
 71
3
 72
8
 73
4
 74
0
 42
0.0000001
 43
0.0000001
 44
0.0000000001
 40
0.0
 40
0.0
 40
0.0
 40
0.0
 40
1.0
 40
1.0
 40
1.0
 40
1.0
 10
266.2671104984
 20
144.8076007595
 30
0.0
 10
266.2949851457
 20
144.7915076884
 30
0.0
 10
266.3235700735
 20
144.776564335
 30
0.0
 10
266.3528079333
 20
144.7631058635
 30
0.0
  0
SPLINE
  5
400
100
AcDbEntity
  8
0
100
AcDbSpline
 62
7
  6
CONTINUOUS
 70
0
 71
3
 72
9
 73
5
 74
0
 42
0.0000001
 43
0.0000001
 44
0.0000000001
 40
0.0
 40
0.0
 40
0.0
 40
0.0
 40
0.5797939118
 40
1.0
 40
1.0
 40
1.0
 40
1.0
 10
266.3528079333
 20
144.7631058635
 30
0.0
 10
266.435046486
 20
144.7252506569
 30
0.0
 10
266.5895599638
 20
144.6718608983
 30
0.0
 10
266.7512987681
 20
144.7235086518
 30
0.0
 10
266.8018456523
 20
144.7653437657
 30
0.0
  0
SPLINE
  5
401
100
AcDbEntity
  8
0
100
AcDbSpline
 62
7
  6
CONTINUOUS
 70
0
 71
3
 72
9
 73
5
 74
0
 42
0.0000001
 43
0.0000001
 44
0.0000000001
 40
0.0
 40
0.0
 40
0.0
 40
0.0
 40
0.4397753234
 40
1.0
 40
1.0
 40
1.0
 40
1.0
 10
266.8018456523
 20
144.7653437657
 30
0.0
 10
266.87530242
 20
144.826140238
 30
0.0
 10
266.9646128054
 20
145.0454074651
 30
0.0
 10
266.9570413199
 20
145.2618942514
 30
0.0
 10
266.9447346753
 20
145.3827377154
 30
0.0
  0
SPLINE
  5
402
100
AcDbEntity
  8
0
100
AcDbSpline
 62
7
  6
CONTINUOUS
 70
0
 71
3
 72
9
 73
5
 74
0
 42
0.0000001
 43
0.0000001
 44
0.0000000001
 40
0.0
 40
0.0
 40
0.0
 40
0.0
 40
0.7390692219
 40
1.0
 40
1.0
 40
1.0
 40
1.0
 10
264.8229265465
 20
147.9672899546
 30
0.0
 10
264.7708088906
 20
147.9481767458
 30
0.0
 10
264.7093704982
 20
147.8977807644
 30
0.0
 10
264.6636897518
 20
147.8385295609
 30
0.0
 10
264.6525125068
 20
147.8224306254
 30
0.0
  0
SPLINE
  5
403
100
AcDbEntity
  8
0
100
AcDbSpline
 62
7
  6
CONTINUOUS
 70
0
 71
3
 72
9
 73
5
 74
0
 42
0.0000001
 43
0.0000001
 44
0.0000000001
 40
0.0
 40
0.0
 40
0.0
 40
0.0
 40
0.502420664
 40
1.0
 40
1.0
 40
1.0
 40
1.0
 10
264.6523184297
 20
147.8233188858
 30
0.0
 10
264.5546423603
 20
147.6826329887
 30
0.0
 10
264.4700271266
 20
147.3346976589
 30
0.0
 10
264.4747042192
 20
146.9950742239
 30
0.0
 10
264.4911627857
 20
146.8262557802
 30
0.0
  0
SPLINE
  5
404
100
AcDbEntity
  8
0
100
AcDbSpline
 62
7
  6
CONTINUOUS
 70
0
 71
3
 72
9
 73
5
 74
0
 42
0.0000001
 43
0.0000001
 44
0.0000000001
 40
0.0
 40
0.0
 40
0.0
 40
0.0
 40
0.7307865374
 40
1.0
 40
1.0
 40
1.0
 40
1.0
 10
264.8229265461
 20
147.9672899545
 30
0.0
 10
264.8553190448
 20
147.9791693182
 30
0.0
 10
264.9069523019
 20
147.9818745623
 30
0.0
 10
264.9502944882
 20
147.9623476963
 30
0.0
 10
264.9613018832
 20
147.9559927176
 30
0.0
  0
SPLINE
  5
405
100
AcDbEntity
  8
0
100
AcDbSpline
 62
7
  6
CONTINUOUS
 70
0
 71
3
 72
11
 73
7
 74
0
 42
0.0000001
 43
0.0000001
 44
0.0000000001
 40
0.0
 40
0.0
 40
0.0
 40
0.0
 40
0.2694926368
 40
0.5308280709
 40
0.7755733019
 40
1.0
 40
1.0
 40
1.0
 40
1.0
 10
267.8202474291
 20
149.1196809798
 30
0.0
 10
267.8986612038
 20
149.2835720671
 30
0.0
 10
268.029669992
 20
149.6189770009
 30
0.0
 10
268.11868434
 20
150.1381963025
 30
0.0
 10
268.0586822327
 20
150.6401162915
 30
0.0
 10
267.8452269196
 20
150.9085308005
 30
0.0
 10
267.7141950481
 20
150.9841803754
 30
0.0
  0
SPLINE
  5
406
100
AcDbEntity
  8
0
100
AcDbSpline
 62
7
  6
CONTINUOUS
 70
0
 71
3
 72
11
 73
7
 74
0
 42
0.0000001
 43
0.0000001
 44
0.0000000001
 40
0.0
 40
0.0
 40
0.0
 40
0.0
 40
0.2242325921
 40
0.4708781812
 40
0.7324624708
 40
1.0
 40
1.0
 40
1.0
 40
1.0
 10
265.699214592
 20
147.679228096
 30
0.0
 10
265.83222867
 20
147.6024341195
 30
0.0
 10
266.1765653879
 20
147.5508829277
 30
0.0
 10
266.6541951926
 20
147.7382819944
 30
0.0
 10
267.0801302384
 20
148.0625746409
 30
0.0
 10
267.3209988757
 20
148.3362264592
 30
0.0
 10
267.4316478912
 20
148.4823030312
 30
0.0
  0
SPLINE
  5
407
100
AcDbEntity
  8
0
100
AcDbSpline
 62
7
  6
CONTINUOUS
 70
0
 71
3
 72
8
 73
4
 74
0
 42
0.0000001
 43
0.0000001
 44
0.0000000001
 40
0.0
 40
0.0
 40
0.0
 40
0.0
 40
1.0
 40
1.0
 40
1.0
 40
1.0
 10
266.8352008158
 20
151.4242171721
 30
0.0
 10
266.735530965
 20
151.4180946327
 30
0.0
 10
266.6363618629
 20
151.3906312486
 30
0.0
 10
266.5447231332
 20
151.3509587409
 30
0.0
  0
SPLINE
  5
408
100
AcDbEntity
  8
0
100
AcDbSpline
 62
7
  6
CONTINUOUS
 70
0
 71
3
 72
9
 73
5
 74
0
 42
0.0000001
 43
0.0000001
 44
0.0000000001
 40
0.0
 40
0.0
 40
0.0
 40
0.0
 40
0.266848984
 40
1.0
 40
1.0
 40
1.0
 40
1.0
 10
264.8824423623
 20
148.2213208449
 30
0.0
 10
264.8888563111
 20
148.2071987092
 30
0.0
 10
264.9153763957
 20
148.1557578533
 30
0.0
 10
264.9551998992
 20
148.1087754615
 30
0.0
 10
264.9921048668
 20
148.0874688505
 30
0.0
  0
SPLINE
  5
409
100
AcDbEntity
  8
0
100
AcDbSpline
 62
7
  6
CONTINUOUS
 70
0
 71
3
 72
9
 73
5
 74
0
 42
0.0000001
 43
0.0000001
 44
0.0000000001
 40
0.0
 40
0.0
 40
0.0
 40
0.0
 40
0.4976642673
 40
1.0
 40
1.0
 40
1.0
 40
1.0
 10
266.5457479384
 20
151.3526396168
 30
0.0
 10
266.3551769741
 20
151.270137076
 30
0.0
 10
266.0219382459
 20
150.9979433545
 30
0.0
 10
265.7660929249
 20
150.6691115448
 30
0.0
 10
265.6453382548
 20
150.4977766056
 30
0.0
  0
SPLINE
  5
40A
100
AcDbEntity
  8
0
100
AcDbSpline
 62
7
  6
CONTINUOUS
 70
0
 71
3
 72
9
 73
5
 74
0
 42
0.0000001
 43
0.0000001
 44
0.0000000001
 40
0.0
 40
0.0
 40
0.0
 40
0.0
 40
0.2667973186
 40
1.0
 40
1.0
 40
1.0
 40
1.0
 10
266.8352008158
 20
151.4242171721
 30
0.0
 10
266.8508225819
 20
151.425176789
 30
0.0
 10
266.9092479531
 20
151.426008425
 30
0.0
 10
266.9698355483
 20
151.4139268108
 30
0.0
 10
267.0070853229
 20
151.3924211299
 30
0.0
  0
SPLINE
  5
40B
100
AcDbEntity
  8
0
100
AcDbSpline
 62
7
  6
CONTINUOUS
 70
0
 71
3
 72
9
 73
5
 74
0
 42
0.0000001
 43
0.0000001
 44
0.0000000001
 40
0.0
 40
0.0
 40
0.0
 40
0.0
 40
0.7249482511
 40
1.0
 40
1.0
 40
1.0
 40
1.0
 10
267.0297090777
 20
151.5868342214
 30
0.0
 10
267.0353209096
 20
151.5540124909
 30
0.0
 10
267.0591192675
 20
151.509560349
 30
0.0
 10
267.0968138964
 20
151.4829018245
 30
0.0
 10
267.1077549464
 20
151.4765851493
 30
0.0
  0
SPLINE
  5
40C
100
AcDbEntity
  8
0
100
AcDbSpline
 62
7
  6
CONTINUOUS
 70
0
 71
3
 72
9
 73
5
 74
0
 42
0.0000001
 43
0.0000001
 44
0.0000000001
 40
0.0
 40
0.0
 40
0.0
 40
0.0
 40
0.5343683457
 40
1.0
 40
1.0
 40
1.0
 40
1.0
 10
269.3191890696
 20
152.2781111427
 30
0.0
 10
269.1825852405
 20
152.3540646584
 30
0.0
 10
268.9096439765
 20
152.4739445597
 30
0.0
 10
268.6121769189
 20
152.489466761
 30
0.0
 10
268.4762714593
 20
152.4805990154
 30
0.0
  0
SPLINE
  5
40D
100
AcDbEntity
  8
0
100
AcDbSpline
 62
7
  6
CONTINUOUS
 70
0
 71
3
 72
11
 73
7
 74
0
 42
0.0000001
 43
0.0000001
 44
0.0000000001
 40
0.0
 40
0.0
 40
0.0
 40
0.0
 40
0.3023582966
 40
0.5477445651
 40
0.751496833
 40
1.0
 40
1.0
 40
1.0
 40
1.0
 10
270.2929774724
 20
150.8744943387
 30
0.0
 10
270.3736211994
 20
150.9014833642
 30
0.0
 10
270.5160198407
 20
150.960877149
 30
0.0
 10
270.6933089657
 20
151.0849124884
 30
0.0
 10
270.7719167585
 20
151.2853185297
 30
0.0
 10
270.698165302
 20
151.4083655983
 30
0.0
 10
270.651554805
 20
151.4604472207
 30
0.0
  0
SPLINE
  5
40E
100
AcDbEntity
  8
0
100
AcDbSpline
 62
7
  6
CONTINUOUS
 70
0
 71
3
 72
9
 73
5
 74
0
 42
0.0000001
 43
0.0000001
 44
0.0000000001
 40
0.0
 40
0.0
 40
0.0
 40
0.0
 40
0.2231016461
 40
1.0
 40
1.0
 40
1.0
 40
1.0
 10
270.651554805
 20
151.4604472207
 30
0.0
 10
270.6400606748
 20
151.4732905283
 30
0.0
 10
270.5858160941
 20
151.5284160603
 30
0.0
 10
270.5230295701
 20
151.5746073031
 30
0.0
 10
270.4723109592
 20
151.6066991027
 30
0.0
  0
SPLINE
  5
40F
100
AcDbEntity
  8
0
100
AcDbSpline
 62
7
  6
CONTINUOUS
 70
0
 71
3
 72
9
 73
5
 74
0
 42
0.0000001
 43
0.0000001
 44
0.0000000001
 40
0.0
 40
0.0
 40
0.0
 40
0.0
 40
0.2702263214
 40
1.0
 40
1.0
 40
1.0
 40
1.0
 10
269.7874935039
 20
150.7654958612
 30
0.0
 10
269.8337552538
 20
150.7712503246
 30
0.0
 10
270.004455508
 20
150.7959081769
 30
0.0
 10
270.1735886784
 20
150.8345385067
 30
0.0
 10
270.2929774724
 20
150.8744943387
 30
0.0
  0
SPLINE
  5
410
100
AcDbEntity
  8
0
100
AcDbSpline
 62
7
  6
CONTINUOUS
 70
0
 71
3
 72
10
 73
6
 74
0
 42
0.0000001
 43
0.0000001
 44
0.0000000001
 40
0.0
 40
0.0
 40
0.0
 40
0.0
 40
0.2540028828
 40
0.5258395848
 40
1.0
 40
1.0
 40
1.0
 40
1.0
 10
267.8148646716
 20
151.0683443947
 30
0.0
 10
267.9630697818
 20
150.9827800702
 30
0.0
 10
268.2987736271
 20
150.8565962898
 30
0.0
 10
268.9610808749
 20
150.7289139053
 30
0.0
 10
269.4704764557
 20
150.7260623549
 30
0.0
 10
269.7874935039
 20
150.7654958612
 30
0.0
  0
SPLINE
  5
411
100
AcDbEntity
  8
0
100
AcDbSpline
 62
7
  6
CONTINUOUS
 70
0
 71
3
 72
8
 73
4
 74
0
 42
0.0000001
 43
0.0000001
 44
0.0000000001
 40
0.0
 40
0.0
 40
0.0
 40
0.0
 40
1.0
 40
1.0
 40
1.0
 40
1.0
 10
268.3919669925
 20
146.3831442805
 30
0.0
 10
268.397502739
 20
146.3305579284
 30
0.0
 10
268.4056934262
 20
146.2781562639
 30
0.0
 10
268.4169802999
 20
146.2264980081
 30
0.0
  0
SPLINE
  5
412
100
AcDbEntity
  8
0
100
AcDbSpline
 62
7
  6
CONTINUOUS
 70
0
 71
3
 72
16
 73
12
 74
0
 42
0.0000001
 43
0.0000001
 44
0.0000000001
 40
0.0
 40
0.0
 40
0.0
 40
0.0
 40
0.1008798351
 40
0.1462484577
 40
0.1916468762
 40
0.2929672721
 40
0.4181810121
 40
0.5640888606
 40
0.7190731805
 40
0.868653554
 40
1.0
 40
1.0
 40
1.0
 40
1.0
 10
271.1769797566
 20
148.5339730903
 30
0.0
 10
271.1420767011
 20
148.6937189174
 30
0.0
 10
271.0437082648
 20
148.9257989504
 30
0.0
 10
270.7989433108
 20
149.1256110673
 30
0.0
 10
270.5006275094
 20
149.2336413828
 30
0.0
 10
270.0418985848
 20
149.1708221533
 30
0.0
 10
269.5167104671
 20
148.8560574475
 30
0.0
 10
269.0313581072
 20
148.3556115442
 30
0.0
 10
268.6466679228
 20
147.7282299239
 30
0.0
 10
268.4106376766
 20
147.0570298045
 30
0.0
 10
268.3696716998
 20
146.594870827
 30
0.0
 10
268.3919669925
 20
146.3831442805
 30
0.0
  0
SPLINE
  5
413
100
AcDbEntity
  8
0
100
AcDbSpline
 62
7
  6
CONTINUOUS
 70
0
 71
3
 72
8
 73
4
 74
0
 42
0.0000001
 43
0.0000001
 44
0.0000000001
 40
0.0
 40
0.0
 40
0.0
 40
0.0
 40
1.0
 40
1.0
 40
1.0
 40
1.0
 10
271.201993064
 20
148.3773268178
 30
0.0
 10
271.1964573175
 20
148.4299131699
 30
0.0
 10
271.1882666302
 20
148.4823148344
 30
0.0
 10
271.1769797566
 20
148.5339730903
 30
0.0
  0
SPLINE
  5
414
100
AcDbEntity
  8
0
100
AcDbSpline
 62
7
  6
CONTINUOUS
 70
0
 71
3
 72
16
 73
12
 74
0
 42
0.0000001
 43
0.0000001
 44
0.0000000001
 40
0.0
 40
0.0
 40
0.0
 40
0.0
 40
0.1008798351
 40
0.1462484577
 40
0.1916468762
 40
0.2929672721
 40
0.4181810121
 40
0.5640888606
 40
0.7190731805
 40
0.868653554
 40
1.0
 40
1.0
 40
1.0
 40
1.0
 10
268.4169802999
 20
146.2264980081
 30
0.0
 10
268.4518833553
 20
146.066752181
 30
0.0
 10
268.5502517917
 20
145.8346721479
 30
0.0
 10
268.7950167457
 20
145.634860031
 30
0.0
 10
269.0933325471
 20
145.5268297155
 30
0.0
 10
269.5520614716
 20
145.589648945
 30
0.0
 10
270.0772495894
 20
145.9044136508
 30
0.0
 10
270.5626019493
 20
146.4048595542
 30
0.0
 10
270.9472921337
 20
147.0322411744
 30
0.0
 10
271.1833223799
 20
147.7034412938
 30
0.0
 10
271.2242883567
 20
148.1656002713
 30
0.0
 10
271.201993064
 20
148.3773268178
 30
0.0
  0
SPLINE
  5
415
100
AcDbEntity
  8
0
100
AcDbSpline
 62
7
  6
CONTINUOUS
 70
0
 71
3
 72
8
 73
4
 74
0
 42
0.0000001
 43
0.0000001
 44
0.0000000001
 40
0.0
 40
0.0
 40
0.0
 40
0.0
 40
1.0
 40
1.0
 40
1.0
 40
1.0
 10
269.5501972591
 20
152.141489539
 30
0.0
 10
269.5005033213
 20
152.1706263474
 30
0.0
 10
269.451244034
 20
152.2004994719
 30
0.0
 10
269.4015974938
 20
152.2297169684
 30
0.0
  0
SPLINE
  5
416
100
AcDbEntity
  8
0
100
AcDbSpline
 62
7
  6
CONTINUOUS
 70
0
 71
3
 72
8
 73
4
 74
0
 42
0.0000001
 43
0.0000001
 44
0.0000000001
 40
0.0
 40
0.0
 40
0.0
 40
0.0
 40
1.0
 40
1.0
 40
1.0
 40
1.0
 10
269.4015974938
 20
152.2297169684
 30
0.0
 10
269.3738543959
 20
152.2460440652
 30
0.0
 10
269.345994207
 20
152.2621807739
 30
0.0
 10
269.3178597703
 20
152.2778238887
 30
0.0
  0
SPLINE
  5
417
100
AcDbEntity
  8
0
100
AcDbSpline
 62
7
  6
CONTINUOUS
 70
0
 71
3
 72
11
 73
7
 74
0
 42
0.0000001
 43
0.0000001
 44
0.0000000001
 40
0.0
 40
0.0
 40
0.0
 40
0.0
 40
0.2211751143
 40
0.4405657074
 40
0.6955024828
 40
1.0
 40
1.0
 40
1.0
 40
1.0
 10
269.5696646115
 20
152.147707581
 30
0.0
 10
269.4392324896
 20
152.3833575671
 30
0.0
 10
269.0614370918
 20
152.8084196273
 30
0.0
 10
268.1981373782
 20
153.0240525986
 30
0.0
 10
267.2525531418
 20
152.7959869727
 30
0.0
 10
266.6644490772
 20
152.4355918437
 30
0.0
 10
266.3706380194
 20
152.2093794161
 30
0.0
  0
SPLINE
  5
418
100
AcDbEntity
  8
0
100
AcDbSpline
 62
7
  6
CONTINUOUS
 70
0
 71
3
 72
9
 73
5
 74
0
 42
0.0000001
 43
0.0000001
 44
0.0000000001
 40
0.0
 40
0.0
 40
0.0
 40
0.0
 40
0.2429166105
 40
1.0
 40
1.0
 40
1.0
 40
1.0
 10
266.3246490268
 20
152.1735460597
 30
0.0
 10
266.2679157433
 20
152.1288146617
 30
0.0
 10
266.0383020809
 20
151.9397031116
 30
0.0
 10
265.8242681574
 20
151.7319165418
 30
0.0
 10
265.6710937177
 20
151.5668786639
 30
0.0
  0
SPLINE
  5
419
100
AcDbEntity
  8
0
100
AcDbSpline
 62
7
  6
CONTINUOUS
 70
0
 71
3
 72
9
 73
5
 74
0
 42
0.0000001
 43
0.0000001
 44
0.0000000001
 40
0.0
 40
0.0
 40
0.0
 40
0.0
 40
0.5137697038
 40
1.0
 40
1.0
 40
1.0
 40
1.0
 10
265.33473176
 20
151.1746542461
 30
0.0
 10
264.9515485004
 20
150.6914727272
 30
0.0
 10
264.3267801141
 20
149.6512853927
 30
0.0
 10
263.9723082246
 20
148.4853404723
 30
0.0
 10
263.8981415442
 20
147.9064481894
 30
0.0
  0
SPLINE
  5
41A
100
AcDbEntity
  8
0
100
AcDbSpline
 62
7
  6
CONTINUOUS
 70
0
 71
3
 72
9
 73
5
 74
0
 42
0.0000001
 43
0.0000001
 44
0.0000000001
 40
0.0
 40
0.0
 40
0.0
 40
0.0
 40
0.2685561251
 40
1.0
 40
1.0
 40
1.0
 40
1.0
 10
263.8981415442
 20
147.9064481894
 30
0.0
 10
263.8834735459
 20
147.7919602425
 30
0.0
 10
263.8438957283
 20
147.3642382753
 30
0.0
 10
263.8661450084
 20
146.9279769672
 30
0.0
 10
263.9332490362
 20
146.6208523248
 30
0.0
  0
SPLINE
  5
41B
100
AcDbEntity
  8
0
100
AcDbSpline
 62
7
  6
CONTINUOUS
 70
0
 71
3
 72
15
 73
11
 74
0
 42
0.0000001
 43
0.0000001
 44
0.0000000001
 40
0.0
 40
0.0
 40
0.0
 40
0.0
 40
0.0869211705
 40
0.1863363447
 40
0.3036395514
 40
0.4373622754
 40
0.5818070853
 40
0.7291249781
 40
0.8710017917
 40
1.0
 40
1.0
 40
1.0
 40
1.0
 10
263.4458839861
 20
145.8510713848
 30
0.0
 10
263.2214518628
 20
145.9806357764
 30
0.0
 10
262.8139174786
 20
146.3960928935
 30
0.0
 10
262.5168884964
 20
147.2723587417
 30
0.0
 10
262.490777325
 20
148.327956617
 30
0.0
 10
262.726597741
 20
149.4913028773
 30
0.0
 10
263.2028519717
 20
150.6737438754
 30
0.0
 10
263.8815554727
 20
151.7814044983
 30
0.0
 10
264.7070189736
 20
152.7236059621
 30
0.0
 10
265.3521464296
 20
153.2225551155
 30
0.0
 10
265.6846333528
 20
153.4158559261
 30
0.0
  0
SPLINE
  5
41C
100
AcDbEntity
  8
0
100
AcDbSpline
 62
7
  6
CONTINUOUS
 70
0
 71
3
 72
11
 73
7
 74
0
 42
0.0000001
 43
0.0000001
 44
0.0000000001
 40
0.0
 40
0.0
 40
0.0
 40
0.0
 40
0.2175914147
 40
0.4506393065
 40
0.7101224843
 40
1.0
 40
1.0
 40
1.0
 40
1.0
 10
268.4406713615
 20
153.3593808816
 30
0.0
 10
268.291528625
 20
153.4454016103
 30
0.0
 10
267.9487326369
 20
153.5696095925
 30
0.0
 10
267.3792205332
 20
153.5828107551
 30
0.0
 10
266.7724763246
 20
153.4344838885
 30
0.0
 10
266.3779027549
 20
153.2453704861
 30
0.0
 10
266.1796101604
 20
153.130087398
 30
0.0
  0
SPLINE
  5
41D
100
AcDbEntity
  8
0
100
AcDbSpline
 62
7
  6
CONTINUOUS
 70
0
 71
3
 72
9
 73
5
 74
0
 42
0.0000001
 43
0.0000001
 44
0.0000000001
 40
0.0
 40
0.0
 40
0.0
 40
0.0
 40
0.4991754893
 40
1.0
 40
1.0
 40
1.0
 40
1.0
 10
265.2001534141
 20
203.4694980502
 30
0.0
 10
265.1912000982
 20
203.4698315475
 30
0.0
 10
265.1686954337
 20
203.4628536102
 30
0.0
 10
265.1729148367
 20
203.4405367438
 30
0.0
 10
265.1759674261
 20
203.432081803
 30
0.0
  0
SPLINE
  5
41E
100
AcDbEntity
  8
0
100
AcDbSpline
 62
7
  6
CONTINUOUS
 70
0
 71
3
 72
9
 73
5
 74
0
 42
0.0000001
 43
0.0000001
 44
0.0000000001
 40
0.0
 40
0.0
 40
0.0
 40
0.0
 40
0.262032984
 40
1.0
 40
1.0
 40
1.0
 40
1.0
 10
269.5512000109
 20
210.1125779868
 30
0.0
 10
269.538903415
 20
210.1222596828
 30
0.0
 10
269.4917298744
 20
210.1588887199
 30
0.0
 10
269.4433871146
 20
210.1940577514
 30
0.0
 10
269.4067375292
 20
210.2185443029
 30
0.0
  0
SPLINE
  5
41F
100
AcDbEntity
  8
0
100
AcDbSpline
 62
7
  6
CONTINUOUS
 70
0
 71
3
 72
9
 73
5
 74
0
 42
0.0000001
 43
0.0000001
 44
0.0000000001
 40
0.0
 40
0.0
 40
0.0
 40
0.0
 40
0.2661791826
 40
1.0
 40
1.0
 40
1.0
 40
1.0
 10
269.4067375292
 20
210.2185443029
 30
0.0
 10
269.3689294585
 20
210.2438048689
 30
0.0
 10
269.2230775862
 20
210.3329118501
 30
0.0
 10
269.0600716917
 20
210.393606676
 30
0.0
 10
268.9376034084
 20
210.4203561437
 30
0.0
  0
SPLINE
  5
420
100
AcDbEntity
  8
0
100
AcDbSpline
 62
7
  6
CONTINUOUS
 70
0
 71
3
 72
11
 73
7
 74
0
 42
0.0000001
 43
0.0000001
 44
0.0000000001
 40
0.0
 40
0.0
 40
0.0
 40
0.0
 40
0.2220969757
 40
0.4423141144
 40
0.6967998458
 40
1.0
 40
1.0
 40
1.0
 40
1.0
 10
269.5637827334
 20
210.1302591658
 30
0.0
 10
269.4344743399
 20
210.3598934766
 30
0.0
 10
269.064584401
 20
210.7734185857
 30
0.0
 10
268.2257319261
 20
210.9931057525
 30
0.0
 10
267.3021422039
 20
210.7861830822
 30
0.0
 10
266.7251053898
 20
210.4456554267
 30
0.0
 10
266.4364871251
 20
210.2308589353
 30
0.0
  0
SPLINE
  5
421
100
AcDbEntity
  8
0
100
AcDbSpline
 62
7
  6
CONTINUOUS
 70
0
 71
3
 72
9
 73
5
 74
0
 42
0.0000001
 43
0.0000001
 44
0.0000000001
 40
0.0
 40
0.0
 40
0.0
 40
0.0
 40
0.2430845397
 40
1.0
 40
1.0
 40
1.0
 40
1.0
 10
266.4364871251
 20
210.2308589353
 30
0.0
 10
266.3850832447
 20
210.1926029602
 30
0.0
 10
266.1767161504
 20
210.0310852845
 30
0.0
 10
265.980605799
 20
209.8539186858
 30
0.0
 10
265.839306979
 20
209.7130496221
 30
0.0
  0
SPLINE
  5
422
100
AcDbEntity
  8
0
100
AcDbSpline
 62
7
  6
CONTINUOUS
 70
0
 71
3
 72
9
 73
5
 74
0
 42
0.0000001
 43
0.0000001
 44
0.0000000001
 40
0.0
 40
0.0
 40
0.0
 40
0.0
 40
0.5088041886
 40
1.0
 40
1.0
 40
1.0
 40
1.0
 10
265.6618460064
 20
209.5286220471
 30
0.0
 10
265.2046426451
 20
209.033682258
 30
0.0
 10
264.4525124405
 20
207.9217116313
 30
0.0
 10
264.0147601244
 20
206.6477057489
 30
0.0
 10
263.9161327026
 20
206.004749168
 30
0.0
  0
SPLINE
  5
423
100
AcDbEntity
  8
0
100
AcDbSpline
 62
7
  6
CONTINUOUS
 70
0
 71
3
 72
9
 73
5
 74
0
 42
0.0000001
 43
0.0000001
 44
0.0000000001
 40
0.0
 40
0.0
 40
0.0
 40
0.0
 40
0.2594476931
 40
1.0
 40
1.0
 40
1.0
 40
1.0
 10
263.9061848744
 20
205.9369041018
 30
0.0
 10
263.8972286546
 20
205.8728500272
 30
0.0
 10
263.8674122871
 20
205.6253575394
 30
0.0
 10
263.8567386385
 20
205.3753381091
 30
0.0
 10
263.8623364128
 20
205.1908122238
 30
0.0
  0
SPLINE
  5
424
100
AcDbEntity
  8
0
100
AcDbSpline
 62
7
  6
CONTINUOUS
 70
0
 71
3
 72
15
 73
11
 74
0
 42
0.0000001
 43
0.0000001
 44
0.0000000001
 40
0.0
 40
0.0
 40
0.0
 40
0.0
 40
0.0868985735
 40
0.186238345
 40
0.3034069609
 40
0.4369745455
 40
0.5813082906
 40
0.7286266006
 40
0.8706652101
 40
1.0
 40
1.0
 40
1.0
 40
1.0
 10
263.4458735115
 20
203.8227259051
 30
0.0
 10
263.222135461
 20
203.951865894
 30
0.0
 10
262.8157514878
 20
204.3654918609
 30
0.0
 10
262.5181765057
 20
205.2379398684
 30
0.0
 10
262.4900536878
 20
206.2893538294
 30
0.0
 10
262.7224941967
 20
207.448654026
 30
0.0
 10
263.19434689
 20
208.6280321975
 30
0.0
 10
263.8681698415
 20
209.7344203427
 30
0.0
 10
264.6890008408
 20
210.6777866694
 30
0.0
 10
265.3310017626
 20
211.1791482471
 30
0.0
 10
265.662219655
 20
211.3744055371
 30
0.0
  0
SPLINE
  5
425
100
AcDbEntity
  8
0
100
AcDbSpline
 62
7
  6
CONTINUOUS
 70
0
 71
3
 72
11
 73
7
 74
0
 42
0.0000001
 43
0.0000001
 44
0.0000000001
 40
0.0
 40
0.0
 40
0.0
 40
0.0
 40
0.2171792908
 40
0.4500718688
 40
0.7098397999
 40
1.0
 40
1.0
 40
1.0
 40
1.0
 10
268.4405871416
 20
211.3309065989
 30
0.0
 10
268.2901268144
 20
211.4177277902
 30
0.0
 10
267.9438009079
 20
211.5428877431
 30
0.0
 10
267.3681206126
 20
211.5536556466
 30
0.0
 10
266.7553280246
 20
211.4001034756
 30
0.0
 10
266.3571289584
 20
211.2064998365
 30
0.0
 10
266.1571964626
 20
211.088637009
 30
0.0
  0
SPLINE
  5
426
100
AcDbEntity
  8
0
100
AcDbSpline
 62
7
  6
CONTINUOUS
 70
0
 71
3
 72
9
 73
5
 74
0
 42
0.0000001
 43
0.0000001
 44
0.0000000001
 40
0.0
 40
0.0
 40
0.0
 40
0.0
 40
0.2601583252
 40
1.0
 40
1.0
 40
1.0
 40
1.0
 10
244.4600161529
 20
166.6245266943
 30
0.0
 10
244.4374285071
 20
166.6444137318
 30
0.0
 10
244.3485911289
 20
166.7185184379
 30
0.0
 10
244.250669853
 20
166.7818726146
 30
0.0
 10
244.1745220795
 20
166.8209383002
 30
0.0
  0
SPLINE
  5
427
100
AcDbEntity
  8
0
100
AcDbSpline
 62
7
  6
CONTINUOUS
 70
0
 71
3
 72
11
 73
7
 74
0
 42
0.0000001
 43
0.0000001
 44
0.0000000001
 40
0.0
 40
0.0
 40
0.0
 40
0.0
 40
0.2200497298
 40
0.4424316414
 40
0.6982844309
 40
1.0
 40
1.0
 40
1.0
 40
1.0
 10
244.3872227528
 20
166.7726644714
 30
0.0
 10
244.2510388081
 20
166.9754615258
 30
0.0
 10
243.8770411581
 20
167.3317691312
 30
0.0
 10
243.0885291373
 20
167.5048679901
 30
0.0
 10
242.2253560773
 20
167.311452428
 30
0.0
 10
241.681259494
 20
167.0013439446
 30
0.0
 10
241.4087182063
 20
166.8066521634
 30
0.0
  0
SPLINE
  5
428
100
AcDbEntity
  8
0
100
AcDbSpline
 62
7
  6
CONTINUOUS
 70
0
 71
3
 72
9
 73
5
 74
0
 42
0.0000001
 43
0.0000001
 44
0.0000000001
 40
0.0
 40
0.0
 40
0.0
 40
0.0
 40
0.4938729531
 40
1.0
 40
1.0
 40
1.0
 40
1.0
 10
241.0371704691
 20
166.5135499574
 30
0.0
 10
240.5625298647
 20
166.102867656
 30
0.0
 10
239.7373572229
 20
165.1114637915
 30
0.0
 10
239.1869478941
 20
163.9477333857
 30
0.0
 10
238.9996989932
 20
163.3323690353
 30
0.0
  0
SPLINE
  5
429
100
AcDbEntity
  8
0
100
AcDbSpline
 62
7
  6
CONTINUOUS
 70
0
 71
3
 72
9
 73
5
 74
0
 42
0.0000001
 43
0.0000001
 44
0.0000000001
 40
0.0
 40
0.0
 40
0.0
 40
0.0
 40
0.2552029493
 40
1.0
 40
1.0
 40
1.0
 40
1.0
 10
238.9996989932
 20
163.3323690353
 30
0.0
 10
238.982312817
 20
163.2752320752
 30
0.0
 10
238.9173584764
 20
163.0503974439
 30
0.0
 10
238.8651547358
 20
162.8218260067
 30
0.0
 10
238.8345287408
 20
162.6502373055
 30
0.0
  0
SPLINE
  5
42A
100
AcDbEntity
  8
0
100
AcDbSpline
 62
7
  6
CONTINUOUS
 70
0
 71
3
 72
15
 73
11
 74
0
 42
0.0000001
 43
0.0000001
 44
0.0000000001
 40
0.0
 40
0.0
 40
0.0
 40
0.0
 40
0.0868160124
 40
0.1857436925
 40
0.3021758679
 40
0.4349273718
 40
0.5787014375
 40
0.7260409044
 40
0.8689330967
 40
1.0
 40
1.0
 40
1.0
 40
1.0
 10
238.3436752983
 20
160.3442021781
 30
0.0
 10
238.1234755971
 20
160.4712197489
 30
0.0
 10
237.7229537433
 20
160.875306687
 30
0.0
 10
237.4228524683
 20
161.7279783064
 30
0.0
 10
237.3844604847
 20
162.7574280253
 30
0.0
 10
237.5994955807
 20
163.8955860193
 30
0.0
 10
238.0487199427
 20
165.058961091
 30
0.0
 10
238.6974285813
 20
166.1585393805
 30
0.0
 10
239.4943516338
 20
167.1073664788
 30
0.0
 10
240.1201527003
 20
167.6205631503
 30
0.0
 10
240.4446536815
 20
167.8254667644
 30
0.0
  0
SPLINE
  5
42B
100
AcDbEntity
  8
0
100
AcDbSpline
 62
7
  6
CONTINUOUS
 70
0
 71
3
 72
11
 73
7
 74
0
 42
0.0000001
 43
0.0000001
 44
0.0000000001
 40
0.0
 40
0.0
 40
0.0
 40
0.0
 40
0.2152208687
 40
0.447295412
 40
0.7077446635
 40
1.0
 40
1.0
 40
1.0
 40
1.0
 10
243.3384867671
 20
167.8525520467
 30
0.0
 10
243.1810225066
 20
167.9433900165
 30
0.0
 10
242.8155957419
 20
168.0715536496
 30
0.0
 10
242.2088962307
 20
168.0698931496
 30
0.0
 10
241.5646268549
 20
167.8896913566
 30
0.0
 10
241.1483560928
 20
167.671496391
 30
0.0
 10
240.9396304891
 20
167.5396982362
 30
0.0
  0
SPLINE
  5
42C
100
AcDbEntity
  8
0
100
AcDbSpline
 62
7
  6
CONTINUOUS
 70
0
 71
3
 72
9
 73
5
 74
0
 42
0.0000001
 43
0.0000001
 44
0.0000000001
 40
0.0
 40
0.0
 40
0.0
 40
0.0
 40
0.2771866285
 40
1.0
 40
1.0
 40
1.0
 40
1.0
 10
274.240135153
 20
227.6368406078
 30
0.0
 10
274.2975004489
 20
227.649863589
 30
0.0
 10
274.5027324167
 20
227.7025064099
 30
0.0
 10
274.7043767671
 20
227.7803508081
 30
0.0
 10
274.83378721
 20
227.8627123809
 30
0.0
  0
SPLINE
  5
42D
100
AcDbEntity
  8
0
100
AcDbSpline
 62
7
  6
CONTINUOUS
 70
0
 71
3
 72
14
 73
10
 74
0
 42
0.0000001
 43
0.0000001
 44
0.0000000001
 40
0.0
 40
0.0
 40
0.0
 40
0.0
 40
0.3385420739
 40
0.4553954517
 40
0.5406810575
 40
0.6102807338
 40
0.696215839
 40
0.8226174372
 40
1.0
 40
1.0
 40
1.0
 40
1.0
 10
278.8525675526
 20
231.3168620739
 30
0.0
 10
278.9522495745
 20
231.3271368993
 30
0.0
 10
279.0887882003
 20
231.3365517368
 30
0.0
 10
279.2463292178
 20
231.3093819591
 30
0.0
 10
279.3224527734
 20
231.2739134102
 30
0.0
 10
279.3561323922
 20
231.2038749897
 30
0.0
 10
279.3290834856
 20
231.1196638206
 30
0.0
 10
279.2616963867
 20
231.0263592546
 30
0.0
 10
279.1974200196
 20
230.9625980139
 30
0.0
 10
279.1585476396
 20
230.9273016628
 30
0.0
  0
SPLINE
  5
42E
100
AcDbEntity
  8
0
100
AcDbSpline
 62
7
  6
CONTINUOUS
 70
0
 71
3
 72
9
 73
5
 74
0
 42
0.0000001
 43
0.0000001
 44
0.0000000001
 40
0.0
 40
0.0
 40
0.0
 40
0.0
 40
0.4999622291
 40
1.0
 40
1.0
 40
1.0
 40
1.0
 10
295.0736864945
 20
218.9918916535
 30
0.0
 10
294.6515002155
 20
220.3419660321
 30
0.0
 10
293.4864777978
 20
222.9474870428
 30
0.0
 10
291.8125556002
 20
225.2591837752
 30
0.0
 10
290.8543589531
 20
226.3000516715
 30
0.0
  0
SPLINE
  5
42F
100
AcDbEntity
  8
0
100
AcDbSpline
 62
7
  6
CONTINUOUS
 70
0
 71
3
 72
23
 73
19
 74
0
 42
0.0000001
 43
0.0000001
 44
0.0000000001
 40
0.0
 40
0.0
 40
0.0
 40
0.0
 40
0.0460468632
 40
0.0963141796
 40
0.1516703436
 40
0.2122721356
 40
0.2777209584
 40
0.3472107248
 40
0.4196495215
 40
0.4937599313
 40
0.5681664316
 40
0.6414765861
 40
0.7123612752
 40
0.779638619
 40
0.8423683536
 40
0.8999619546
 40
0.952323537
 40
1.0
 40
1.0
 40
1.0
 40
1.0
 10
198.2501072416
 20
165.5190966969
 30
0.0
 10
197.1949175259
 20
166.7108325944
 30
0.0
 10
195.3366696446
 20
169.5251254587
 30
0.0
 10
193.5312582558
 20
174.4860100185
 30
0.0
 10
192.6241430211
 20
180.1898479389
 30
0.0
 10
192.6275091391
 20
186.4823231338
 30
0.0
 10
193.5331568747
 20
193.1983631573
 30
0.0
 10
195.3144970555
 20
200.1571326959
 30
0.0
 10
197.9219393362
 20
207.1689311329
 30
0.0
 10
201.283551963
 20
214.0408111765
 30
0.0
 10
205.3064211823
 20
220.5829296804
 30
0.0
 10
209.8793465014
 20
226.6144193684
 30
0.0
 10
214.8762566882
 20
231.9688601984
 30
0.0
 10
220.1606442705
 20
236.4991323275
 30
0.0
 10
225.5899045377
 20
240.0811571597
 30
0.0
 10
231.0234688926
 20
242.6154954577
 30
0.0
 10
236.3191718771
 20
244.0266517517
 30
0.0
 10
239.8127112777
 20
244.1822353224
 30
0.0
 10
241.454254427
 20
244.0356005661
 30
0.0
  0
SPLINE
  5
430
100
AcDbEntity
  8
0
100
AcDbSpline
 62
7
  6
CONTINUOUS
 70
0
 71
3
 72
9
 73
5
 74
0
 42
0.0000001
 43
0.0000001
 44
0.0000000001
 40
0.0
 40
0.0
 40
0.0
 40
0.0
 40
0.4919666124
 40
1.0
 40
1.0
 40
1.0
 40
1.0
 10
285.2474941454
 20
220.4230416947
 30
0.0
 10
284.2573468713
 20
220.9827730782
 30
0.0
 10
282.1098063386
 20
221.8957078219
 30
0.0
 10
279.8191357545
 20
222.323679678
 30
0.0
 10
278.6492429956
 20
222.4281831384
 30
0.0
  0
SPLINE
  5
431
100
AcDbEntity
  8
0
100
AcDbSpline
 62
7
  6
CONTINUOUS
 70
0
 71
3
 72
9
 73
5
 74
0
 42
0.0000001
 43
0.0000001
 44
0.0000000001
 40
0.0
 40
0.0
 40
0.0
 40
0.0
 40
0.4903170562
 40
1.0
 40
1.0
 40
1.0
 40
1.0
 10
286.306666926
 20
219.817727059
 30
0.0
 10
285.355443668
 20
220.22173774
 30
0.0
 10
283.3282195222
 20
220.8516836067
 30
0.0
 10
281.2217153797
 20
221.0917244613
 30
0.0
 10
280.147942636
 20
221.1248515335
 30
0.0
  0
SPLINE
  5
432
100
AcDbEntity
  8
0
100
AcDbSpline
 62
7
  6
CONTINUOUS
 70
0
 71
3
 72
16
 73
12
 74
0
 42
0.0000001
 43
0.0000001
 44
0.0000000001
 40
0.0
 40
0.0
 40
0.0
 40
0.0
 40
0.0945722113
 40
0.1474840807
 40
0.2042167844
 40
0.3281024217
 40
0.4629613183
 40
0.6035353285
 40
0.7437598481
 40
0.8776136454
 40
1.0
 40
1.0
 40
1.0
 40
1.0
 10
280.147942636
 20
221.1248515335
 30
0.0
 10
277.5172663319
 20
221.2060107959
 30
0.0
 10
273.3755633428
 20
220.4990643902
 30
0.0
 10
268.0819783486
 20
218.4196900917
 30
0.0
 10
262.3524348547
 20
215.3166212316
 30
0.0
 10
255.3731324185
 20
209.8927093726
 30
0.0
 10
247.8547299542
 20
201.6493732409
 30
0.0
 10
241.4132770061
 20
191.9902052504
 30
0.0
 10
236.4543645115
 20
181.5224154028
 30
0.0
 10
233.2887151321
 20
170.9080071627
 30
0.0
 10
232.4618573854
 20
163.7688680365
 30
0.0
 10
232.4618573854
 20
160.3628774099
 30
0.0
  0
SPLINE
  5
433
100
AcDbEntity
  8
0
100
AcDbSpline
 62
7
  6
CONTINUOUS
 70
0
 71
3
 72
10
 73
6
 74
0
 42
0.0000001
 43
0.0000001
 44
0.0000000001
 40
0.0
 40
0.0
 40
0.0
 40
0.0
 40
0.2232506143
 40
0.4591943303
 40
1.0
 40
1.0
 40
1.0
 40
1.0
 10
293.5428250726
 20
196.8378278426
 30
0.0
 10
293.4110957901
 20
196.9138636655
 30
0.0
 10
293.1140519869
 20
197.0288078759
 30
0.0
 10
292.4276234737
 20
197.0823789859
 30
0.0
 10
291.9026093202
 20
196.9195083289
 30
0.0
 10
291.5699824803
 20
196.7610400572
 30
0.0
  0
SPLINE
  5
434
100
AcDbEntity
  8
0
100
AcDbSpline
 62
7
  6
CONTINUOUS
 70
0
 71
3
 72
15
 73
11
 74
0
 42
0.0000001
 43
0.0000001
 44
0.0000000001
 40
0.0
 40
0.0
 40
0.0
 40
0.0
 40
0.0872361177
 40
0.1878293997
 40
0.3071220608
 40
0.4429751874
 40
0.5888092505
 40
0.7359499187
 40
0.8754912767
 40
1.0
 40
1.0
 40
1.0
 40
1.0
 10
288.5480245065
 20
189.3294966408
 30
0.0
 10
288.3147206039
 20
189.4643669288
 30
0.0
 10
287.8927569602
 20
189.9043968912
 30
0.0
 10
287.6032604937
 20
190.8306580228
 30
0.0
 10
287.6043489974
 20
191.9412655398
 30
0.0
 10
287.8853307669
 20
193.1564474116
 30
0.0
 10
288.4192978863
 20
194.3761340959
 30
0.0
 10
289.160776819
 20
195.4960407844
 30
0.0
 10
290.0441664906
 20
196.4180858621
 30
0.0
 10
290.7277762154
 20
196.881383414
 30
0.0
 10
291.0750056727
 20
197.0468085853
 30
0.0
  0
SPLINE
  5
435
100
AcDbEntity
  8
0
100
AcDbSpline
 62
7
  6
CONTINUOUS
 70
0
 71
3
 72
11
 73
7
 74
0
 42
0.0000001
 43
0.0000001
 44
0.0000000001
 40
0.0
 40
0.0
 40
0.0
 40
0.0
 40
0.2184270218
 40
0.4367801782
 40
0.6931084496
 40
1.0
 40
1.0
 40
1.0
 40
1.0
 10
294.6685502475
 20
195.6324703626
 30
0.0
 10
294.5335136617
 20
195.8738037558
 30
0.0
 10
294.1373587223
 20
196.3089374949
 30
0.0
 10
293.2343736067
 20
196.5044771225
 30
0.0
 10
292.2568608752
 20
196.2335449446
 30
0.0
 10
291.6528386291
 20
195.8383518634
 30
0.0
 10
291.3522861667
 20
195.5921067273
 30
0.0
  0
SPLINE
  5
436
100
AcDbEntity
  8
0
100
AcDbSpline
 62
7
  6
CONTINUOUS
 70
0
 71
3
 72
9
 73
5
 74
0
 42
0.0000001
 43
0.0000001
 44
0.0000000001
 40
0.0
 40
0.0
 40
0.0
 40
0.0
 40
0.493196801
 40
1.0
 40
1.0
 40
1.0
 40
1.0
 10
291.2815901444
 20
195.5331560638
 30
0.0
 10
290.7973006252
 20
195.1222447314
 30
0.0
 10
289.9549642852
 20
194.1218103461
 30
0.0
 10
289.3947133706
 20
192.9433682384
 30
0.0
 10
289.2045565092
 20
192.3190372943
 30
0.0
  0
SPLINE
  5
437
100
AcDbEntity
  8
0
100
AcDbSpline
 62
7
  6
CONTINUOUS
 70
0
 71
3
 72
9
 73
5
 74
0
 42
0.0000001
 43
0.0000001
 44
0.0000000001
 40
0.0
 40
0.0
 40
0.0
 40
0.0
 40
0.254895485
 40
1.0
 40
1.0
 40
1.0
 40
1.0
 10
289.2045565092
 20
192.3190372943
 30
0.0
 10
289.1884114379
 20
192.2660291221
 30
0.0
 10
289.1277813514
 20
192.0572583618
 30
0.0
 10
289.078071377
 20
191.8452739764
 30
0.0
 10
289.0480912118
 20
191.6860924857
 30
0.0
  0
SPLINE
  5
438
100
AcDbEntity
  8
0
100
AcDbSpline
 62
7
  6
CONTINUOUS
 70
0
 71
3
 72
9
 73
5
 74
0
 42
0.0000001
 43
0.0000001
 44
0.0000000001
 40
0.0
 40
0.0
 40
0.0
 40
0.0
 40
0.2437221253
 40
1.0
 40
1.0
 40
1.0
 40
1.0
 10
43.3098128291
 20
301.410164164
 30
0.0
 10
43.3098212313
 20
301.4801206685
 30
0.0
 10
43.314416472
 20
301.7671446203
 30
0.0
 10
43.3366670936
 20
302.0538139518
 30
0.0
 10
43.3621404975
 20
302.2693915213
 30
0.0
  0
SPLINE
  5
439
100
AcDbEntity
  8
0
100
AcDbSpline
 62
7
  6
CONTINUOUS
 70
0
 71
3
 72
9
 73
5
 74
0
 42
0.0000001
 43
0.0000001
 44
0.0000000001
 40
0.0
 40
0.0
 40
0.0
 40
0.0
 40
0.2394073852
 40
1.0
 40
1.0
 40
1.0
 40
1.0
 10
43.4212114918
 20
302.6804740507
 30
0.0
 10
43.4629842969
 20
302.9279841811
 30
0.0
 10
43.681983461
 20
303.9541150527
 30
0.0
 10
44.0622227443
 20
304.9433487826
 30
0.0
 10
44.4191380969
 20
305.6564730962
 30
0.0
  0
SPLINE
  5
43A
100
AcDbEntity
  8
0
100
AcDbSpline
 62
7
  6
CONTINUOUS
 70
0
 71
3
 72
9
 73
5
 74
0
 42
0.0000001
 43
0.0000001
 44
0.0000000001
 40
0.0
 40
0.0
 40
0.0
 40
0.0
 40
0.2546555043
 40
1.0
 40
1.0
 40
1.0
 40
1.0
 10
44.6175634389
 20
306.0358770564
 30
0.0
 10
44.747551638
 20
306.2740097942
 30
0.0
 10
45.2892219441
 20
307.1915116488
 30
0.0
 10
45.9524676287
 20
308.0390647951
 30
0.0
 10
46.5100450763
 20
308.6044352818
 30
0.0
  0
ENDSEC
  0
SECTION
  2
OBJECTS
  0
DICTIONARY
  5
C
100
AcDbDictionary
280
0
281
1
  3
ACAD_GROUP
350
D
  3
ACAD_MLINESTYLE
350
17
  3
ACAD_LAYOUT
350
1A
  3
ACAD_PLOTSETTINGS
350
19
  3
ACAD_PLOTSTYLENAME
350
E
  0
DICTIONARY
  5
D
102
{ACAD_REACTORS
330
C
102
}
100
AcDbDictionary
280
0
281
1
  0
ACDBDICTIONARYWDFLT
  5
E
102
{ACAD_REACTORS
330
C
102
}
100
AcDbDictionary
281
1
  3
Normal
350
F
100
AcDbDictionaryWithDefault
340
F
  0
DICTIONARY
  5
17
102
{ACAD_REACTORS
330
C
102
}
100
AcDbDictionary
280
0
281
1
  3
Standard
350
18
  0
DICTIONARY
  5
19
102
{ACAD_REACTORS
330
C
102
}
100
AcDbDictionary
281
1
  0
DICTIONARY
  5
1A
102
{ACAD_REACTORS
330
C
102
}
100
AcDbDictionary
281
1
  3
Model
350
43B
  3
Layout1
350
43C
  0
ACDBPLACEHOLDER
  5
F
102
{ACAD_REACTORS
330
E
102
}
  0
MLINESTYLE
  5
18
102
{ACAD_REACTORS
330
17
102
}
100
AcDbMlineStyle
  2
STANDARD
 70
0
  3

 62
256
 51
90.0
 52
90.0
 71
2
 49
0.5
 62
256
  6
BYLAYER
 49
-0.5
 62
256
  6
BYLAYER
  0
LAYOUT
  5
43B
102
{ACAD_REACTORS
330
1A
102
}
100
AcDbPlotSettings
  1

  2
none_device
  4

  6

 40
0.0
 41
0.0
 42
0.0
 43
0.0
 44
210.0
 45
297.0
 46
0.0
 47
0.0
 48
0.0
 49
0.0
140
0.0
141
0.0
142
1.0
143
1.0
 70
1024
 72
1
 73
0
 74
0
  7

 75
0
147
1.0
148
0.0
149
0.0
100
AcDbLayout
  1
Model
 70
0
 71
0
 10
0.0
 20
0.0
 11
210.0
 21
297.0
 12
0.0
 22
0.0
 32
0.0
 14
0.0
 24
0.0
 34
0.0
 15
0.0
 25
0.0
 35
0.0
146
0.0
 13
0.0
 23
0.0
 33
0.0
 16
1.0
 26
0.0
 36
0.0
 17
0.0
 27
1.0
 37
0.0
 76
0
330
214
345
0
346
0
  0
LAYOUT
  5
43C
102
{ACAD_REACTORS
330
1A
102
}
100
AcDbPlotSettings
  1

  2
none_device
  4

  6

 40
0.0
 41
0.0
 42
0.0
 43
0.0
 44
210.0
 45
297.0
 46
0.0
 47
0.0
 48
0.0
 49
0.0
140
0.0
141
0.0
142
1.0
143
1.0
 70
0
 72
1
 73
0
 74
0
  7

 75
0
147
1.0
148
0.0
149
0.0
100
AcDbLayout
  1
Layout1
 70
0
 71
1
 10
0.0
 20
0.0
 11
210.0
 21
297.0
 12
0.0
 22
0.0
 32
0.0
 14
0.0
 24
0.0
 34
0.0
 15
0.0
 25
0.0
 35
0.0
146
0.0
 13
0.0
 23
0.0
 33
0.0
 16
1.0
 26
0.0
 36
0.0
 17
0.0
 27
1.0
 37
0.0
 76
0
330
215
345
0
346
0
  0
ENDSEC
  0
EOF
