999
DXF file: C:\Users\SESA654545\Desktop\sachin babu tesys\Gen2D (4)\Gen2D\CAD\SB115111_3D-CAD\drw0001_5.dxf
999
Pro/ENGINEER 2019471 by Parametric Technology Corporation
  0
SECTION
  2
HEADER
  9
$ACADVER
  1
AC1024
  9
$DWGCODEPAGE
  3
ANSI_1252
  9
$EXTMAX
 10
34.6102638586
 20
48.9488017429
 30
0.0
  9
$EXTMIN
 10
0.0
 20
0.0
 30
0.0
  9
$LIMMIN
 10
0.0
 20
0.0
  9
$LIMMAX
 10
34.6102638586
 20
48.9488017429
  9
$VIEWCTR
 10
17.3051319293
 20
24.4744008715
  9
$VIEWSIZE
 40
48.9488017429
  9
$CLAYER
  8
0
  9
$LTSCALE
 40
3.1907367062
  9
$CELTYPE
  6
BYLAYER
  9
$DIMSCALE
 40
1.0
  9
$DIMASZ
 40
0.4120269507
  9
$DIMEXO
 40
1.0
  9
$DIMDLI
 40
2.204508997
  9
$DIMEXE
 40
1.0
  9
$DIMCEN
 40
0.5221205519
  9
$DIMLFAC
 40
1.0
  9
$DIMBLK
  1
_FILLED
  9
$DIMALT
 70
0
  9
$DIMALTF
 40
0.0393700787
  9
$DIMTXT
 40
0.576837731
  9
$DIMTOL
 70
1
  9
$DIMLIM
 70
0
  9
$DIMTFAC
 40
1.0
  9
$DIMTP
 40
0.01
  9
$DIMTM
 40
0.01
  9
$DIMGAP
 40
0.625
  9
$DIMDSEP
 70
46
  9
$AUNITS
 70
0
  9
$PDMODE
 70
3
  9
$PDSIZE
 40
0.3125
  9
$HANDSEED
  5
25B
  9
$TILEMODE
 70
1
  9
$MEASUREMENT
 70
1
  9
$INSUNITS
 70
4
  0
ENDSEC
  0
SECTION
  2
CLASSES
  0
CLASS
  1
ACDBDICTIONARYWDFLT
  2
AcDbDictionaryWithDefault
  3
AutoCAD 2000
 90
0
 91
1
280
0
281
0
  0
CLASS
  1
ACDBPLACEHOLDER
  2
AcDbPlaceHolder
  3
AutoCAD 2000
 90
0
 91
1
280
0
281
0
  0
CLASS
  1
LAYOUT
  2
AcDbLayout
  3
AutoCAD 2000
 90
0
 91
0
280
0
281
0
  0
ENDSEC
  0
SECTION
  2
TABLES
  0
TABLE
  2
VPORT
  5
8
100
AcDbSymbolTable
 70
2
  0
VPORT
  5
1F4
100
AcDbSymbolTableRecord
100
AcDbViewportTableRecord
  2
*ACTIVE
 70
0
 10
0.0
 20
0.0
 11
1.0
 21
1.0
 12
17.3051319293
 22
24.4744008715
 13
0.0
 23
0.0
 14
1.0
 24
1.0
 15
0.0
 25
0.0
 16
0.0
 26
0.0
 36
1.0
 17
0.0
 27
0.0
 37
0.0
 40
48.9488017429
 41
0.7070707071
 42
50.0
 43
0.0
 44
0.0
 50
0.0
 51
0.0
 71
0
 72
100
 73
1
 74
1
 75
0
 76
0
 77
0
 78
0
  0
ENDTAB
  0
TABLE
  2
LTYPE
  5
5
100
AcDbSymbolTable
 70
6
  0
LTYPE
  5
14
100
AcDbSymbolTableRecord
100
AcDbLinetypeTableRecord
  2
BYBLOCK
 70
0
  3

 72
65
 73
0
 40
0.0
  0
LTYPE
  5
15
100
AcDbSymbolTableRecord
100
AcDbLinetypeTableRecord
  2
BYLAYER
 70
0
  3

 72
65
 73
0
 40
0.0
  0
LTYPE
  5
16
100
AcDbSymbolTableRecord
100
AcDbLinetypeTableRecord
  2
CONTINUOUS
 70
64
  3
Solid line
 72
65
 73
0
 40
0.0
  0
LTYPE
  5
1F5
100
AcDbSymbolTableRecord
100
AcDbLinetypeTableRecord
  2
CENTER
 70
64
  3
____ _ ____ _ ____ _ ____ _ ____ _ ____ _ ____
 72
65
 73
4
 40
0.6
 49
0.375
 74
0
 49
-0.075
 74
0
 49
0.075
 74
0
 49
-0.075
 74
0
  0
LTYPE
  5
1F6
100
AcDbSymbolTableRecord
100
AcDbLinetypeTableRecord
  2
HIDDEN
 70
64
  3
- - - - - - - - - - - - - - - - - - - -
 72
65
 73
2
 40
0.2
 49
0.1
 74
0
 49
-0.1
 74
0
  0
LTYPE
  5
1F7
100
AcDbSymbolTableRecord
100
AcDbLinetypeTableRecord
  2
PHANTOM
 70
64
  3
_____ _ _ _____ _ _ _____ _ _ _____
 72
65
 73
6
 40
0.8
 49
0.45
 74
0
 49
-0.05
 74
0
 49
0.1
 74
0
 49
-0.05
 74
0
 49
0.1
 74
0
 49
-0.05
 74
0
  0
LTYPE
  5
1F8
100
AcDbSymbolTableRecord
100
AcDbLinetypeTableRecord
  2
DOT
 70
64
  3
. . . . . . . . . . . . . . . . . . . .
 72
65
 73
2
 40
0.2
 49
0.1
 74
0
 49
-0.1
 74
0
  0
LTYPE
  5
1F9
100
AcDbSymbolTableRecord
100
AcDbLinetypeTableRecord
  2
DASHED
 70
64
  3
- - - - - - - - - - - - - - - - - - - -
 72
65
 73
2
 40
0.2
 49
0.1
 74
0
 49
-0.1
 74
0
  0
ENDTAB
  0
TABLE
  2
LAYER
  5
2
100
AcDbSymbolTable
 70
36
  0
LAYER
  5
10
100
AcDbSymbolTableRecord
100
AcDbLayerTableRecord
  2
0
 70
0
 62
7
  6
CONTINUOUS
370
-3
390
F
  0
LAYER
  5
1FA
100
AcDbSymbolTableRecord
100
AcDbLayerTableRecord
  2
DEFAULT_1
 70
0
 62
7
  6
CENTER
370
-3
390
F
  0
LAYER
  5
1FB
100
AcDbSymbolTableRecord
100
AcDbLayerTableRecord
  2
DEFAULT_2
 70
0
 62
8
  6
HIDDEN
370
-3
390
F
  0
LAYER
  5
1FC
100
AcDbSymbolTableRecord
100
AcDbLayerTableRecord
  2
DEFAULT_3
 70
0
 62
7
  6
PHANTOM
370
-3
390
F
  0
LAYER
  5
1FD
100
AcDbSymbolTableRecord
100
AcDbLayerTableRecord
  2
00_COMPONENTS
 70
0
 62
7
  6
CONTINUOUS
370
-3
390
F
  0
LAYER
  5
1FE
100
AcDbSymbolTableRecord
100
AcDbLayerTableRecord
  2
01_1_DEFAULT_DATUMS
 70
0
 62
7
  6
CONTINUOUS
370
-3
390
F
  0
LAYER
  5
1FF
100
AcDbSymbolTableRecord
100
AcDbLayerTableRecord
  2
01_PLANES
 70
0
 62
7
  6
CONTINUOUS
370
-3
390
F
  0
LAYER
  5
200
100
AcDbSymbolTableRecord
100
AcDbLayerTableRecord
  2
02_COORD_SYS
 70
0
 62
7
  6
CONTINUOUS
370
-3
390
F
  0
LAYER
  5
201
100
AcDbSymbolTableRecord
100
AcDbLayerTableRecord
  2
03_AXES
 70
0
 62
7
  6
CONTINUOUS
370
-3
390
F
  0
LAYER
  5
202
100
AcDbSymbolTableRecord
100
AcDbLayerTableRecord
  2
04_POINTS
 70
0
 62
7
  6
CONTINUOUS
370
-3
390
F
  0
LAYER
  5
203
100
AcDbSymbolTableRecord
100
AcDbLayerTableRecord
  2
05_CURVES
 70
0
 62
7
  6
CONTINUOUS
370
-3
390
F
  0
LAYER
  5
204
100
AcDbSymbolTableRecord
100
AcDbLayerTableRecord
  2
06_SURFS
 70
0
 62
7
  6
CONTINUOUS
370
-3
390
F
  0
LAYER
  5
205
100
AcDbSymbolTableRecord
100
AcDbLayerTableRecord
  2
07_COSMETICS
 70
0
 62
7
  6
CONTINUOUS
370
-3
390
F
  0
LAYER
  5
206
100
AcDbSymbolTableRecord
100
AcDbLayerTableRecord
  2
10_NOTES
 70
0
 62
7
  6
CONTINUOUS
370
-3
390
F
  0
LAYER
  5
207
100
AcDbSymbolTableRecord
100
AcDbLayerTableRecord
  2
11_NOTES_PUB
 70
0
 62
7
  6
CONTINUOUS
370
-3
390
F
  0
LAYER
  5
208
100
AcDbSymbolTableRecord
100
AcDbLayerTableRecord
  2
13_REF_GTOL
 70
0
 62
7
  6
CONTINUOUS
370
-3
390
F
  0
LAYER
  5
209
100
AcDbSymbolTableRecord
100
AcDbLayerTableRecord
  2
16_MISC
 70
0
 62
7
  6
CONTINUOUS
370
-3
390
F
  0
LAYER
  5
20A
100
AcDbSymbolTableRecord
100
AcDbLayerTableRecord
  2
17_NO_PRINT
 70
0
 62
7
  6
CONTINUOUS
370
-3
390
F
  0
LAYER
  5
20B
100
AcDbSymbolTableRecord
100
AcDbLayerTableRecord
  2
18_DATUM_CAMS_JOINTS
 70
0
 62
7
  6
CONTINUOUS
370
-3
390
F
  0
LAYER
  5
20C
100
AcDbSymbolTableRecord
100
AcDbLayerTableRecord
  2
19_DATUM_FUNCTIONAL
 70
0
 62
7
  6
CONTINUOUS
370
-3
390
F
  0
LAYER
  5
20D
100
AcDbSymbolTableRecord
100
AcDbLayerTableRecord
  2
20_DATUM_KINEMATIC_SCHEME
 70
0
 62
7
  6
CONTINUOUS
370
-3
390
F
  0
ENDTAB
  0
TABLE
  2
STYLE
  5
3
100
AcDbSymbolTable
 70
1
  0
STYLE
  5
11
100
AcDbSymbolTableRecord
100
AcDbTextStyleTableRecord
  2
STANDARD
 70
0
 40
0.0
 41
0.8
 50
0.0
 71
0
 42
0.2
  3
txt
  4

  0
STYLE
  5
20E
100
AcDbSymbolTableRecord
100
AcDbTextStyleTableRecord
  2
TEXTSTYLE_1
 70
0
 40
0.0
 41
0.8
 50
0.0
 71
0
 42
0.2
  3
gdt
  4

  0
ENDTAB
  0
TABLE
  2
VIEW
  5
6
100
AcDbSymbolTable
 70
0
  0
ENDTAB
  0
TABLE
  2
UCS
  5
7
100
AcDbSymbolTable
 70
0
  0
ENDTAB
  0
TABLE
  2
APPID
  5
9
100
AcDbSymbolTable
 70
1
  0
APPID
  5
20F
100
AcDbSymbolTableRecord
100
AcDbRegAppTableRecord
  2
ACAD
 70
0
  0
ENDTAB
  0
TABLE
  2
BLOCK_RECORD
  5
1
100
AcDbSymbolTable
 70
0
  0
BLOCK_RECORD
  5
210
100
AcDbSymbolTableRecord
100
AcDbBlockTableRecord
  2
*Model_Space
  0
BLOCK_RECORD
  5
211
100
AcDbSymbolTableRecord
100
AcDbBlockTableRecord
  2
*Paper_Space
  0
BLOCK_RECORD
  5
212
100
AcDbSymbolTableRecord
100
AcDbBlockTableRecord
  2
_FILLED
  0
ENDTAB
  0
TABLE
  2
DIMSTYLE
  5
A
100
AcDbSymbolTable
 70
1
100
AcDbDimStyleTable
 71
0
  0
DIMSTYLE
105
213
100
AcDbSymbolTableRecord
100
AcDbDimStyleTableRecord
  2
STANDARD
 70
0
  3

  4

 40
1.0
 41
0.4120269507
 42
1.0
 43
0.38
 44
1.0
 45
0.0
 46
0.0
 47
0.01
 48
0.01
140
0.576837731
141
0.09
142
0.0
143
25.4
144
1.0
145
0.0
146
1.0
147
0.625
 71
1
 72
0
 73
0
 74
0
 75
0
 76
0
 77
1
 78
8
 79
2
170
0
171
1
172
0
173
0
174
0
175
0
176
0
177
0
178
0
270
2
179
2
271
2
272
2
273
2
274
2
275
0
280
0
281
0
282
0
283
1
284
8
285
0
286
0
287
3
288
0
340
11
278
46
341
212
342
212
343
212
344
212
  0
ENDTAB
  0
ENDSEC
  0
SECTION
  2
BLOCKS
  0
BLOCK
  5
20
100
AcDbEntity
  8
0
100
AcDbBlockBegin
  2
*Model_Space
 70
0
 10
0.0
 20
0.0
 30
0.0
  3
*Model_Space
  1

  0
ENDBLK
  5
21
100
AcDbEntity
  8
0
100
AcDbBlockEnd
  0
BLOCK
  5
1C
100
AcDbEntity
  8
0
100
AcDbBlockBegin
  2
*Paper_Space
 70
0
 10
0.0
 20
0.0
 30
0.0
  3
*Paper_Space
  1

  0
ENDBLK
  5
1D
100
AcDbEntity
  8
0
100
AcDbBlockEnd
  0
BLOCK
  5
214
100
AcDbEntity
  8
0
100
AcDbBlockBegin
  2
_FILLED
 70
64
 10
0.0
 20
0.0
  3
_FILLED
  1

  0
SOLID
  5
215
100
AcDbEntity
  8
0
  6
BYBLOCK
 62
0
100
AcDbTrace
 10
0.0
 20
0.0
 11
-1.0
 21
0.25
 12
-1.0
 22
-0.25
 13
-1.0
 23
-0.25
  0
ENDBLK
  5
216
100
AcDbEntity
  8
0
  6
BYBLOCK
 62
0
100
AcDbBlockEnd
  0
ENDSEC
  0
SECTION
  2
ENTITIES
  0
LINE
  5
217
100
AcDbEntity
  8
0
100
AcDbLine
 62
7
  6
CONTINUOUS
 10
8.9344347616
 20
6.3843137255
 11
23.9125705161
 21
6.3843137255
  0
LINE
  5
218
100
AcDbEntity
  8
0
100
AcDbLine
 62
7
  6
CONTINUOUS
 10
10.6344347616
 20
7.3590086035
 11
8.9344347616
 21
7.3590086035
  0
LINE
  5
219
100
AcDbEntity
  8
0
100
AcDbLine
 62
7
  6
CONTINUOUS
 10
21.2044347615
 20
7.8843137255
 11
28.0344347616
 21
7.8843137255
  0
LINE
  5
21A
100
AcDbEntity
  8
0
100
AcDbLine
 62
7
  6
CONTINUOUS
 10
4.0344347616
 20
25.136796914
 11
4.0344347616
 21
21.3712239222
  0
LINE
  5
21B
100
AcDbEntity
  8
0
100
AcDbLine
 62
7
  6
CONTINUOUS
 10
8.0344347616
 20
10.5843137255
 11
8.9344347616
 21
10.5843137255
  0
LINE
  5
21C
100
AcDbEntity
  8
0
100
AcDbLine
 62
7
  6
CONTINUOUS
 10
6.6344347616
 20
29.5521016785
 11
6.6344347616
 21
26.7528344009
  0
LINE
  5
21D
100
AcDbEntity
  8
0
100
AcDbLine
 62
7
  6
CONTINUOUS
 10
6.9344347616
 20
16.5343137255
 11
6.9344347616
 21
13.6343137255
  0
LINE
  5
21E
100
AcDbEntity
  8
0
100
AcDbLine
 62
7
  6
CONTINUOUS
 10
8.0344347616
 20
13.2343137255
 11
10.6344347616
 21
13.2343137255
  0
LINE
  5
21F
100
AcDbEntity
  8
0
100
AcDbLine
 62
7
  6
CONTINUOUS
 10
6.9344347616
 20
13.6343137255
 11
8.0344347616
 21
13.6343137255
  0
LINE
  5
220
100
AcDbEntity
  8
0
100
AcDbLine
 62
7
  6
CONTINUOUS
 10
8.0344347616
 20
19.8830820591
 11
8.0344347616
 21
10.5843137255
  0
LINE
  5
221
100
AcDbEntity
  8
0
100
AcDbLine
 62
7
  6
CONTINUOUS
 10
8.9344347616
 20
26.7528344009
 11
8.9344347616
 21
25.136796914
  0
LINE
  5
222
100
AcDbEntity
  8
0
100
AcDbLine
 62
7
  6
CONTINUOUS
 10
8.9344347616
 20
21.3712239222
 11
8.9344347616
 21
19.8830820591
  0
LINE
  5
223
100
AcDbEntity
  8
0
100
AcDbLine
 62
7
  6
CONTINUOUS
 10
8.9344347616
 20
6.3843137255
 11
8.9344347616
 21
13.2343137255
  0
LINE
  5
224
100
AcDbEntity
  8
0
100
AcDbLine
 62
7
  6
CONTINUOUS
 10
8.9344347616
 20
29.5521016785
 11
8.9344347616
 21
42.6843137255
  0
LINE
  5
225
100
AcDbEntity
  8
0
100
AcDbLine
 62
7
  6
CONTINUOUS
 10
9.0344347616
 20
35.0892281961
 11
9.0344347616
 21
33.071155565
  0
LINE
  5
226
100
AcDbEntity
  8
0
100
AcDbLine
 62
7
  6
CONTINUOUS
 10
9.0344347616
 20
30.597403778
 11
9.0344347616
 21
26.7843137255
  0
LINE
  5
227
100
AcDbEntity
  8
0
100
AcDbLine
 62
7
  6
CONTINUOUS
 10
9.0344347616
 20
26.7528344009
 11
9.0344347616
 21
26.7275893341
  0
LINE
  5
228
100
AcDbEntity
  8
0
100
AcDbLine
 62
7
  6
CONTINUOUS
 10
9.4344347616
 20
39.3443137255
 11
9.4344347616
 21
37.0443137255
  0
LINE
  5
229
100
AcDbEntity
  8
0
100
AcDbLine
 62
7
  6
CONTINUOUS
 10
9.7344347616
 20
38.3343137255
 11
9.7344347616
 21
35.4343137255
  0
LINE
  5
22A
100
AcDbEntity
  8
0
100
AcDbLine
 62
7
  6
CONTINUOUS
 10
10.2344347616
 20
26.7843137255
 11
10.2344347616
 21
26.7528344009
  0
LINE
  5
22B
100
AcDbEntity
  8
0
100
AcDbLine
 62
7
  6
CONTINUOUS
 10
10.3344347616
 20
41.2802071452
 11
10.3344347616
 21
38.5668385344
  0
LINE
  5
22C
100
AcDbEntity
  8
0
100
AcDbLine
 62
7
  6
CONTINUOUS
 10
6.9344347616
 20
16.5343137255
 11
8.0344347616
 21
16.5343137255
  0
LINE
  5
22D
100
AcDbEntity
  8
0
100
AcDbLine
 62
7
  6
CONTINUOUS
 10
10.6344347616
 20
6.3843137255
 11
10.6344347616
 21
42.6843137255
  0
LINE
  5
22E
100
AcDbEntity
  8
0
100
AcDbLine
 62
7
  6
CONTINUOUS
 10
8.0344347616
 20
18.8843137255
 11
10.6344347616
 21
18.8843137255
  0
LINE
  5
22F
100
AcDbEntity
  8
0
100
AcDbLine
 62
7
  6
CONTINUOUS
 10
8.0344347616
 20
19.8830820591
 11
10.6344347616
 21
19.8830820591
  0
LINE
  5
230
100
AcDbEntity
  8
0
100
AcDbLine
 62
7
  6
CONTINUOUS
 10
4.0344347616
 20
21.3712239222
 11
10.6344347616
 21
21.3712239222
  0
LINE
  5
231
100
AcDbEntity
  8
0
100
AcDbLine
 62
7
  6
CONTINUOUS
 10
4.0344347616
 20
25.136796914
 11
10.6344347616
 21
25.136796914
  0
LINE
  5
232
100
AcDbEntity
  8
0
100
AcDbLine
 62
7
  6
CONTINUOUS
 10
9.0344347616
 20
26.7275893341
 11
10.6344347616
 21
26.7275893341
  0
LINE
  5
233
100
AcDbEntity
  8
0
100
AcDbLine
 62
7
  6
CONTINUOUS
 10
10.2344347616
 20
26.7528344009
 11
6.6344347616
 21
26.7528344009
  0
LINE
  5
234
100
AcDbEntity
  8
0
100
AcDbLine
 62
7
  6
CONTINUOUS
 10
9.0344347616
 20
26.7843137255
 11
10.6344347616
 21
26.7843137255
  0
LINE
  5
235
100
AcDbEntity
  8
0
100
AcDbLine
 62
7
  6
CONTINUOUS
 10
27.0833850515
 20
28.6343137255
 11
31.5344347616
 21
28.6343137255
  0
LINE
  5
236
100
AcDbEntity
  8
0
100
AcDbLine
 62
7
  6
CONTINUOUS
 10
22.9665576075
 20
7.8843137255
 11
22.9665576075
 21
6.3843137255
  0
LINE
  5
237
100
AcDbEntity
  8
0
100
AcDbLine
 62
7
  6
CONTINUOUS
 10
23.9125705161
 20
7.8843137255
 11
23.9125705161
 21
6.3843137255
  0
LINE
  5
238
100
AcDbEntity
  8
0
100
AcDbLine
 62
7
  6
CONTINUOUS
 10
23.9982993611
 20
7.8843137255
 11
23.9982993611
 21
7.8587808322
  0
LINE
  5
239
100
AcDbEntity
  8
0
100
AcDbLine
 62
7
  6
CONTINUOUS
 10
27.0728753973
 20
29.4132410601
 11
31.5344347616
 21
29.4132410601
  0
LINE
  5
23A
100
AcDbEntity
  8
0
100
AcDbLine
 62
7
  6
CONTINUOUS
 10
6.6344347616
 20
29.5521016785
 11
9.0344347616
 21
29.5521016785
  0
LINE
  5
23B
100
AcDbEntity
  8
0
100
AcDbLine
 62
7
  6
CONTINUOUS
 10
9.0344347616
 20
30.5843137255
 11
10.6344347616
 21
30.5843137255
  0
LINE
  5
23C
100
AcDbEntity
  8
0
100
AcDbLine
 62
7
  6
CONTINUOUS
 10
9.0344347616
 20
30.597403778
 11
10.6344347616
 21
30.597403778
  0
LINE
  5
23D
100
AcDbEntity
  8
0
100
AcDbLine
 62
7
  6
CONTINUOUS
 10
26.0217813652
 20
7.8843137255
 11
26.0217813652
 21
42.6843137255
  0
LINE
  5
23E
100
AcDbEntity
  8
0
100
AcDbLine
 62
7
  6
CONTINUOUS
 10
9.0344347616
 20
33.071155565
 11
10.6344347616
 21
33.071155565
  0
LINE
  5
23F
100
AcDbEntity
  8
0
100
AcDbLine
 62
7
  6
CONTINUOUS
 10
27.2479157502
 20
40.8897540182
 11
27.2479157502
 21
33.1928054284
  0
LINE
  5
240
100
AcDbEntity
  8
0
100
AcDbLine
 62
7
  6
CONTINUOUS
 10
28.0344347616
 20
7.8843137255
 11
28.0344347616
 21
12.7730732631
  0
LINE
  5
241
100
AcDbEntity
  8
0
100
AcDbLine
 62
7
  6
CONTINUOUS
 10
28.0344347616
 20
17.3955541879
 11
28.0344347616
 21
28.6343137255
  0
LINE
  5
242
100
AcDbEntity
  8
0
100
AcDbLine
 62
7
  6
CONTINUOUS
 10
28.0344347616
 20
40.8897540182
 11
28.0344347616
 21
42.6843137255
  0
LINE
  5
243
100
AcDbEntity
  8
0
100
AcDbLine
 62
7
  6
CONTINUOUS
 10
9.0344347616
 20
35.0892281961
 11
10.6344347616
 21
35.0892281961
  0
LINE
  5
244
100
AcDbEntity
  8
0
100
AcDbLine
 62
7
  6
CONTINUOUS
 10
9.7344347616
 20
35.4343137255
 11
10.6344347616
 21
35.4343137255
  0
LINE
  5
245
100
AcDbEntity
  8
0
100
AcDbLine
 62
7
  6
CONTINUOUS
 10
31.5344347616
 20
40.8897540182
 11
31.5344347616
 21
28.6343137255
  0
LINE
  5
246
100
AcDbEntity
  8
0
100
AcDbLine
 62
7
  6
CONTINUOUS
 10
9.4344347616
 20
37.0443137255
 11
9.7344347616
 21
37.0443137255
  0
LINE
  5
247
100
AcDbEntity
  8
0
100
AcDbLine
 62
7
  6
CONTINUOUS
 10
9.7344347616
 20
38.3343137255
 11
10.6344347616
 21
38.3343137255
  0
LINE
  5
248
100
AcDbEntity
  8
0
100
AcDbLine
 62
7
  6
CONTINUOUS
 10
10.3344347616
 20
38.5668385344
 11
10.6344347616
 21
38.5668385344
  0
LINE
  5
249
100
AcDbEntity
  8
0
100
AcDbLine
 62
7
  6
CONTINUOUS
 10
9.4344347616
 20
39.3443137255
 11
10.3344347616
 21
39.3443137255
  0
LINE
  5
24A
100
AcDbEntity
  8
0
100
AcDbLine
 62
7
  6
CONTINUOUS
 10
27.2479157502
 20
40.8897540182
 11
31.5344347616
 21
40.8897540182
  0
LINE
  5
24B
100
AcDbEntity
  8
0
100
AcDbLine
 62
7
  6
CONTINUOUS
 10
10.3344347616
 20
41.2802071452
 11
10.6344347616
 21
41.2802071452
  0
LINE
  5
24C
100
AcDbEntity
  8
0
100
AcDbLine
 62
7
  6
CONTINUOUS
 10
8.9344347616
 20
41.3273322313
 11
10.6344347616
 21
41.3273322313
  0
LINE
  5
24D
100
AcDbEntity
  8
0
100
AcDbLine
 62
7
  6
CONTINUOUS
 10
8.9344347616
 20
42.6843137255
 11
28.0344347616
 21
42.6843137255
  0
ARC
  5
24E
100
AcDbEntity
  8
0
100
AcDbCircle
 62
7
  6
CONTINUOUS
 10
16.3544347615
 20
14.9751470588
 40
8.5908333333
100
AcDbArc
 50
270.0000000002
 51
304.3714122885
  0
ARC
  5
24F
100
AcDbEntity
  8
0
100
AcDbCircle
 62
7
  6
CONTINUOUS
 10
19.3344347616
 20
14.4976470588
 40
8.1133333333
100
AcDbArc
 50
304.4057140024
 51
305.0883941182
  0
SPLINE
  5
250
100
AcDbEntity
  8
0
100
AcDbSpline
 62
7
  6
CONTINUOUS
 70
0
 71
3
 72
36
 73
32
 74
0
 42
0.0000001
 43
0.0000001
 44
0.0000000001
 40
0.0
 40
0.0
 40
0.0
 40
0.0
 40
0.0009793864
 40
0.0020549098
 40
0.0032941198
 40
0.0047405544
 40
0.0083450245
 40
0.0129756827
 40
0.0186569304
 40
0.0253756375
 40
0.0331021846
 40
0.0417960569
 40
0.0514113595
 40
0.061897843
 40
0.0852773625
 40
0.1115241891
 40
0.1402471482
 40
0.1710891254
 40
0.2037314219
 40
0.2733242043
 40
0.3471623521
 40
0.4237842418
 40
0.5019949988
 40
0.5807485439
 40
0.6590488183
 40
0.7358581985
 40
0.8099993365
 40
0.8800396219
 40
0.9441565729
 40
0.9732840255
 40
1.0
 40
1.0
 40
1.0
 40
1.0
 10
27.4324137994
 20
25.3605653859
 30
0.0
 10
27.4298395381
 20
25.3605653865
 30
0.0
 10
27.4244108469
 20
25.3614762932
 30
0.0
 10
27.4165656625
 20
25.365343732
 30
0.0
 10
27.4088141109
 20
25.3715721994
 30
0.0
 10
27.3977178062
 20
25.3838955495
 30
0.0
 10
27.384285119
 20
25.4056970101
 30
0.0
 10
27.3691044408
 20
25.4390117287
 30
0.0
 10
27.3539117896
 20
25.48116323
 30
0.0
 10
27.33876251
 20
25.5318654492
 30
0.0
 10
27.3237334127
 20
25.5908131878
 30
0.0
 10
27.3088823412
 20
25.6576239184
 30
0.0
 10
27.2942657794
 20
25.7318931994
 30
0.0
 10
27.2744250169
 20
25.8444518638
 30
0.0
 10
27.250923057
 20
26.0007215376
 30
0.0
 10
27.2250827224
 20
26.2050433119
 30
0.0
 10
27.2009196701
 20
26.4293075037
 30
0.0
 10
27.1785852432
 20
26.6706452869
 30
0.0
 10
27.1508076468
 20
27.0193336923
 30
0.0
 10
27.1218423972
 20
27.4812595421
 30
0.0
 10
27.0959523942
 20
28.0591007338
 30
0.0
 10
27.0784902201
 20
28.6599182776
 30
0.0
 10
27.0695485395
 20
29.2738414678
 30
0.0
 10
27.0691665599
 20
29.89224072
 30
0.0
 10
27.0773442998
 20
30.5069028804
 30
0.0
 10
27.0940515444
 20
31.1092657342
 30
0.0
 10
27.1191868361
 20
31.6896108554
 30
0.0
 10
27.1525467747
 20
32.2361231537
 30
0.0
 10
27.1877818036
 20
32.6639112062
 30
0.0
 10
27.2206412939
 20
32.9775146017
 30
0.0
 10
27.2385300431
 20
33.1232140802
 30
0.0
 10
27.2479157502
 20
33.1928054284
 30
0.0
  0
SPLINE
  5
251
100
AcDbEntity
  8
0
100
AcDbSpline
 62
7
  6
CONTINUOUS
 70
0
 71
3
 72
15
 73
11
 74
0
 42
0.0000001
 43
0.0000001
 44
0.0000000001
 40
0.0
 40
0.0
 40
0.0
 40
0.0
 40
0.0912857687
 40
0.2107454787
 40
0.3502291652
 40
0.4999984229
 40
0.6497645422
 40
0.7892508698
 40
0.9087092525
 40
1.0
 40
1.0
 40
1.0
 40
1.0
 10
28.0344347612
 20
17.395673725
 30
0.0
 10
28.0344341577
 20
17.2550111102
 30
0.0
 10
28.0330721738
 20
16.9302739089
 30
0.0
 10
28.0302933511
 20
16.3906122226
 30
0.0
 10
28.0278552424
 20
15.7608293435
 30
0.0
 10
28.0268511682
 20
15.0843429497
 30
0.0
 10
28.0278554218
 20
14.4078524873
 30
0.0
 10
28.0302927331
 20
13.7780724166
 30
0.0
 10
28.0330720874
 20
13.2384010359
 30
0.0
 10
28.0344340089
 20
12.9136582084
 30
0.0
 10
28.034434761
 20
12.7729879218
 30
0.0
  0
SPLINE
  5
252
100
AcDbEntity
  8
0
100
AcDbSpline
 62
7
  6
CONTINUOUS
 70
0
 71
3
 72
45
 73
41
 74
0
 42
0.0000001
 43
0.0000001
 44
0.0000000001
 40
0.0
 40
0.0
 40
0.0
 40
0.0
 40
0.0007958614
 40
0.0017034465
 40
0.0027949405
 40
0.004111751
 40
0.0075001501
 40
0.0119618694
 40
0.0175261614
 40
0.024200156
 40
0.0319815952
 40
0.0408638971
 40
0.0618827823
 40
0.087070868
 40
0.1161813634
 40
0.1489388825
 40
0.1850454038
 40
0.2241745735
 40
0.3100268742
 40
0.4031541302
 40
0.4999898641
 40
0.5968102097
 40
0.6899491546
 40
0.7758171535
 40
0.8149427574
 40
0.8510511714
 40
0.8838163202
 40
0.9129305744
 40
0.9381166386
 40
0.9591349544
 40
0.9680186979
 40
0.9758019478
 40
0.9824774228
 40
0.9880421869
 40
0.9925030091
 40
0.9958898412
 40
0.9972059197
 40
0.9982968689
 40
0.999204178
 40
1.0
 40
1.0
 40
1.0
 40
1.0
 10
27.7778302211
 20
17.7418104354
 30
0.0
 10
27.7764082613
 20
17.7418104354
 30
0.0
 10
27.7733472348
 20
17.7411716431
 30
0.0
 10
27.7690261736
 20
17.7385468837
 30
0.0
 10
27.764768987
 20
17.7343777584
 30
0.0
 10
27.7585780249
 20
17.7260399171
 30
0.0
 10
27.7511143597
 20
17.7113651425
 30
0.0
 10
27.7426128497
 20
17.6889432796
 30
0.0
 10
27.7340186014
 20
17.6603469794
 30
0.0
 10
27.7253613595
 20
17.6256339746
 30
0.0
 10
27.7166836767
 20
17.5848423301
 30
0.0
 10
27.7044364427
 20
17.5186325122
 30
0.0
 10
27.6897030489
 20
17.4212903495
 30
0.0
 10
27.6732080232
 20
17.2877262989
 30
0.0
 10
27.6573456298
 20
17.1329851697
 30
0.0
 10
27.642352611
 20
16.958571871
 30
0.0
 10
27.6284763096
 20
16.7661153344
 30
0.0
 10
27.6112295155
 20
16.4788120747
 30
0.0
 10
27.5943544342
 20
16.0894553105
 30
0.0
 10
27.5818993565
 20
15.5967929007
 30
0.0
 10
27.5775503572
 20
15.0843929812
 30
0.0
 10
27.5818792551
 20
14.5719715406
 30
0.0
 10
27.5943755636
 20
14.0792890441
 30
0.0
 10
27.6112082315
 20
13.6898877859
 30
0.0
 10
27.6284763553
 20
13.4025605911
 30
0.0
 10
27.6423572
 20
13.210093792
 30
0.0
 10
27.6573451757
 20
13.035656266
 30
0.0
 10
27.6732044235
 20
12.8808979486
 30
0.0
 10
27.6897033028
 20
12.7473322117
 30
0.0
 10
27.7044393728
 20
12.6499925955
 30
0.0
 10
27.7166854429
 20
12.5837777098
 30
0.0
 10
27.7253624935
 20
12.5429772903
 30
0.0
 10
27.7340188071
 20
12.508257136
 30
0.0
 10
27.7426119331
 20
12.4796584787
 30
0.0
 10
27.7511132965
 20
12.457240308
 30
0.0
 10
27.7585776444
 20
12.442572072
 30
0.0
 10
27.7647690815
 20
12.4342408635
 30
0.0
 10
27.7690265565
 20
12.4300759526
 30
0.0
 10
27.7733478529
 20
12.4274546191
 30
0.0
 10
27.7764083316
 20
12.4268170156
 30
0.0
 10
27.7778302211
 20
12.4268170156
 30
0.0
  0
SPLINE
  5
253
100
AcDbEntity
  8
0
100
AcDbSpline
 62
7
  6
CONTINUOUS
 70
0
 71
3
 72
37
 73
33
 74
0
 42
0.0000001
 43
0.0000001
 44
0.0000000001
 40
0.0
 40
0.0
 40
0.0
 40
0.0
 40
0.0162929562
 40
0.02246181
 40
0.0295909497
 40
0.0377066697
 40
0.0468221116
 40
0.0569422616
 40
0.0680601805
 40
0.0932062951
 40
0.1220761403
 40
0.154439946
 40
0.1900362246
 40
0.2285684626
 40
0.3130448034
 40
0.4046867181
 40
0.4999990875
 40
0.5952969135
 40
0.6869421399
 40
0.771427036
 40
0.8099543909
 40
0.8455527067
 40
0.877924071
 40
0.9067964917
 40
0.9319390246
 40
0.943055427
 40
0.9531755274
 40
0.9622921557
 40
0.9704095388
 40
0.977540101
 40
0.9837094965
 40
1.0
 40
1.0
 40
1.0
 40
1.0
 10
26.8285580537
 20
17.7418104354
 30
0.0
 10
26.7988597612
 20
17.7418104354
 30
0.0
 10
26.7639030104
 20
17.7061580399
 30
0.0
 10
26.7358029993
 20
17.6616712171
 30
0.0
 10
26.7175137429
 20
17.6268233141
 30
0.0
 10
26.6996024221
 20
17.5862670486
 30
0.0
 10
26.681782892
 20
17.5396555547
 30
0.0
 10
26.6642158317
 20
17.4871863599
 30
0.0
 10
26.6401564433
 20
17.4061167099
 30
0.0
 10
26.6114645667
 20
17.2908556525
 30
0.0
 10
26.5798937489
 20
17.1365696481
 30
0.0
 10
26.5503452705
 20
16.9625333851
 30
0.0
 10
26.5232095762
 20
16.7703068916
 30
0.0
 10
26.4897251347
 20
16.4831292839
 30
0.0
 10
26.4572162218
 20
16.0931115627
 30
0.0
 10
26.433417111
 20
15.5988452109
 30
0.0
 10
26.42515025
 20
15.0843423317
 30
0.0
 10
26.4333716992
 20
14.5698308484
 30
0.0
 10
26.4572577251
 20
14.0755746051
 30
0.0
 10
26.4896921885
 20
13.6855378112
 30
0.0
 10
26.523214516
 20
13.3983537611
 30
0.0
 10
26.5503554502
 20
13.2061196537
 30
0.0
 10
26.5798914476
 20
13.0320588465
 30
0.0
 10
26.6114562291
 20
12.8777591797
 30
0.0
 10
26.640155651
 20
12.7625045746
 30
0.0
 10
26.6642189563
 20
12.6814459162
 30
0.0
 10
26.6817870977
 20
12.6289778532
 30
0.0
 10
26.6996061409
 20
12.5823607999
 30
0.0
 10
26.7175160845
 20
12.5417953596
 30
0.0
 10
26.7358038329
 20
12.50693948
 30
0.0
 10
26.7638970507
 20
12.4624477134
 30
0.0
 10
26.7988642318
 20
12.4268170156
 30
0.0
 10
26.8285580537
 20
12.4268170156
 30
0.0
  0
SPLINE
  5
254
100
AcDbEntity
  8
0
100
AcDbSpline
 62
7
  6
CONTINUOUS
 70
0
 71
3
 72
37
 73
33
 74
0
 42
0.0000001
 43
0.0000001
 44
0.0000000001
 40
0.0
 40
0.0
 40
0.0
 40
0.0
 40
0.0162929562
 40
0.02246181
 40
0.0295909497
 40
0.0377066697
 40
0.0468221116
 40
0.0569422616
 40
0.0680601805
 40
0.0932062951
 40
0.1220761403
 40
0.154439946
 40
0.1900362246
 40
0.2285684626
 40
0.3130448034
 40
0.4046867181
 40
0.4999990875
 40
0.5952969135
 40
0.6869421399
 40
0.771427036
 40
0.8099543909
 40
0.8455527067
 40
0.877924071
 40
0.9067964917
 40
0.9319390246
 40
0.943055427
 40
0.9531755274
 40
0.9622921557
 40
0.9704095388
 40
0.977540101
 40
0.9837094965
 40
1.0
 40
1.0
 40
1.0
 40
1.0
 10
26.8285580537
 20
39.5418104354
 30
0.0
 10
26.7988597612
 20
39.5418104354
 30
0.0
 10
26.7639030104
 20
39.5061580399
 30
0.0
 10
26.7358029993
 20
39.4616712171
 30
0.0
 10
26.7175137429
 20
39.4268233141
 30
0.0
 10
26.6996024221
 20
39.3862670486
 30
0.0
 10
26.681782892
 20
39.3396555547
 30
0.0
 10
26.6642158317
 20
39.2871863599
 30
0.0
 10
26.6401564433
 20
39.2061167099
 30
0.0
 10
26.6114645667
 20
39.0908556525
 30
0.0
 10
26.5798937489
 20
38.9365696481
 30
0.0
 10
26.5503452705
 20
38.7625333851
 30
0.0
 10
26.5232095762
 20
38.5703068916
 30
0.0
 10
26.4897251347
 20
38.2831292839
 30
0.0
 10
26.4572162218
 20
37.8931115627
 30
0.0
 10
26.433417111
 20
37.3988452109
 30
0.0
 10
26.42515025
 20
36.8843423317
 30
0.0
 10
26.4333716992
 20
36.3698308484
 30
0.0
 10
26.4572577251
 20
35.8755746051
 30
0.0
 10
26.4896921885
 20
35.4855378112
 30
0.0
 10
26.523214516
 20
35.1983537611
 30
0.0
 10
26.5503554502
 20
35.0061196537
 30
0.0
 10
26.5798914476
 20
34.8320588465
 30
0.0
 10
26.6114562291
 20
34.6777591797
 30
0.0
 10
26.640155651
 20
34.5625045746
 30
0.0
 10
26.6642189563
 20
34.4814459162
 30
0.0
 10
26.6817870977
 20
34.4289778532
 30
0.0
 10
26.6996061409
 20
34.3823607999
 30
0.0
 10
26.7175160845
 20
34.3417953596
 30
0.0
 10
26.7358038329
 20
34.30693948
 30
0.0
 10
26.7638970507
 20
34.2624477134
 30
0.0
 10
26.7988642318
 20
34.2268170156
 30
0.0
 10
26.8285580537
 20
34.2268170156
 30
0.0
  0
SPLINE
  5
255
100
AcDbEntity
  8
0
100
AcDbSpline
 62
7
  6
CONTINUOUS
 70
0
 71
3
 72
27
 73
23
 74
0
 42
0.0000001
 43
0.0000001
 44
0.0000000001
 40
0.0
 40
0.0
 40
0.0
 40
0.0
 40
0.0023059709
 40
0.0048127882
 40
0.0076867903
 40
0.0110372621
 40
0.0193965544
 40
0.0301674971
 40
0.0434176986
 40
0.0591224448
 40
0.0772155792
 40
0.097604617
 40
0.1201829073
 40
0.1448330668
 40
0.1998628737
 40
0.2617255858
 40
0.3294937332
 40
0.4023177374
 40
0.479438596
 40
0.643969968
 40
0.818647337
 40
1.0
 40
1.0
 40
1.0
 40
1.0
 10
27.4324138085
 20
25.3605653859
 30
0.0
 10
27.4349568175
 20
25.3605653862
 30
0.0
 10
27.4402944263
 20
25.3614514599
 30
0.0
 10
27.4479631691
 20
25.3652758724
 30
0.0
 10
27.4554373063
 20
25.3714427578
 30
0.0
 10
27.4659959405
 20
25.3836438407
 30
0.0
 10
27.4785070923
 20
25.405241679
 30
0.0
 10
27.4922971433
 20
25.4382156114
 30
0.0
 10
27.5057719011
 20
25.4799467314
 30
0.0
 10
27.5188954747
 20
25.5301600842
 30
0.0
 10
27.5316167133
 20
25.5885611977
 30
0.0
 10
27.5439040646
 20
25.6547756373
 30
0.0
 10
27.5557314936
 20
25.7284057739
 30
0.0
 10
27.5714470052
 20
25.8400805959
 30
0.0
 10
27.5894288076
 20
25.9951554136
 30
0.0
 10
27.6084407339
 20
26.1979188031
 30
0.0
 10
27.625582536
 20
26.4205340596
 30
0.0
 10
27.6409082963
 20
26.6601420914
 30
0.0
 10
27.6594020546
 20
27.0064558852
 30
0.0
 10
27.6778454551
 20
27.4652301911
 30
0.0
 10
27.6936989901
 20
28.0390928792
 30
0.0
 10
27.7005658691
 20
28.4316672534
 30
0.0
 10
27.7032038157
 20
28.6316443365
 30
0.0
  0
SPLINE
  5
256
100
AcDbEntity
  8
0
100
AcDbSpline
 62
7
  6
CONTINUOUS
 70
0
 71
3
 72
43
 73
39
 74
0
 42
0.0000001
 43
0.0000001
 44
0.0000000001
 40
0.0
 40
0.0
 40
0.0
 40
0.0
 40
0.0033587651
 40
0.0070764952
 40
0.0114320193
 40
0.0165950391
 40
0.0226621143
 40
0.0296875385
 40
0.0377013023
 40
0.0467191931
 40
0.0677858498
 40
0.0928263622
 40
0.121639679
 40
0.1539870175
 40
0.1895902588
 40
0.2281519756
 40
0.2693219875
 40
0.3127230108
 40
0.4045254303
 40
0.4999904584
 40
0.5954532424
 40
0.6872670543
 40
0.7306681645
 40
0.771834787
 40
0.8103966114
 40
0.8460069308
 40
0.8783611666
 40
0.9071745573
 40
0.9322121977
 40
0.9532790321
 40
0.962298182
 40
0.9703133037
 40
0.9773396943
 40
0.983406924
 40
0.9885693612
 40
0.9929241021
 40
0.9966413197
 40
1.0
 40
1.0
 40
1.0
 40
1.0
 10
26.8285580537
 20
34.2268170156
 30
0.0
 10
26.8346629252
 20
34.2268170156
 30
0.0
 10
26.8476069645
 20
34.2292502998
 30
0.0
 10
26.8659394796
 20
34.2395706116
 30
0.0
 10
26.8836721749
 20
34.2560579441
 30
0.0
 10
26.9009879898
 20
34.2785911944
 30
0.0
 10
26.9179669933
 20
34.3071644688
 30
0.0
 10
26.9346114455
 20
34.3417685703
 30
0.0
 10
26.950906577
 20
34.3823717874
 30
0.0
 10
26.9732960393
 20
34.4479256089
 30
0.0
 10
26.999453588
 20
34.5447440873
 30
0.0
 10
27.0276335619
 20
34.6780120274
 30
0.0
 10
27.0537937698
 20
34.8325274509
 30
0.0
 10
27.0776979204
 20
35.0067947342
 30
0.0
 10
27.0991835722
 20
35.1992120536
 30
0.0
 10
27.1180675617
 20
35.4080048144
 30
0.0
 10
27.1342428943
 20
35.6312355282
 30
0.0
 10
27.1523582541
 20
35.9513093969
 30
0.0
 10
27.1671411039
 20
36.3703617736
 30
0.0
 10
27.1730975919
 20
36.884260508
 30
0.0
 10
27.1671234522
 20
37.3981792837
 30
0.0
 10
27.1523730262
 20
37.8172495885
 30
0.0
 10
27.1342560481
 20
38.1373382272
 30
0.0
 10
27.1180696695
 20
38.3605623445
 30
0.0
 10
27.099177199
 20
38.5693611926
 30
0.0
 10
27.0776962114
 20
38.7618046836
 30
0.0
 10
27.0538001136
 20
38.9360988942
 30
0.0
 10
27.0276381779
 20
39.0906217414
 30
0.0
 10
26.9994508463
 20
39.2238833098
 30
0.0
 10
26.9732916602
 20
39.3206984258
 30
0.0
 10
26.9509038207
 20
39.3862581238
 30
0.0
 10
26.9346095197
 20
39.4268686744
 30
0.0
 10
26.9179663823
 20
39.4614784107
 30
0.0
 10
26.9009884437
 20
39.4900535698
 30
0.0
 10
26.8836724773
 20
39.5125841221
 30
0.0
 10
26.865939076
 20
39.5290659544
 30
0.0
 10
26.8476057711
 20
39.5393798237
 30
0.0
 10
26.834662771
 20
39.5418104354
 30
0.0
 10
26.8285580537
 20
39.5418104354
 30
0.0
  0
SPLINE
  5
257
100
AcDbEntity
  8
0
100
AcDbSpline
 62
7
  6
CONTINUOUS
 70
0
 71
3
 72
41
 73
37
 74
0
 42
0.0000001
 43
0.0000001
 44
0.0000000001
 40
0.0
 40
0.0
 40
0.0
 40
0.0
 40
0.0038931664
 40
0.005432114
 40
0.0072316646
 40
0.0116406453
 40
0.0171550757
 40
0.0237835143
 40
0.0315243957
 40
0.0403715412
 40
0.0503159432
 40
0.0613385217
 40
0.0864989037
 40
0.1156061046
 40
0.1483834158
 40
0.2237161806
 40
0.3097068029
 40
0.4029936884
 40
0.4999947596
 40
0.5969813762
 40
0.6902743218
 40
0.7762763359
 40
0.8516066439
 40
0.8843920844
 40
0.9135025819
 40
0.9386596835
 40
0.9496809004
 40
0.9596255998
 40
0.9684745682
 40
0.976217867
 40
0.9828483874
 40
0.9883636542
 40
0.992771764
 40
0.99457049
 40
0.9961085395
 40
1.0
 40
1.0
 40
1.0
 40
1.0
 10
27.7778302211
 20
12.4268170156
 30
0.0
 10
27.7847703729
 20
12.4268170156
 30
0.0
 10
27.7925534054
 20
12.4361600791
 30
0.0
 10
27.7985022595
 20
12.4471539083
 30
0.0
 10
27.8041801756
 20
12.4598809613
 30
0.0
 10
27.8108005245
 20
12.479668271
 30
0.0
 10
27.8182241565
 20
12.5082660786
 30
0.0
 10
27.8254394076
 20
12.5429712194
 30
0.0
 10
27.8324628585
 20
12.5837665849
 30
0.0
 10
27.8392598371
 20
12.6305770224
 30
0.0
 10
27.8458156783
 20
12.6833225475
 30
0.0
 10
27.8546087171
 20
12.7650827854
 30
0.0
 10
27.8646718416
 20
12.8810478414
 30
0.0
 10
27.875244522
 20
13.0358632642
 30
0.0
 10
27.8884940441
 20
13.2801208169
 30
0.0
 10
27.9014739373
 20
13.6259119331
 30
0.0
 10
27.9121053618
 20
14.0796770998
 30
0.0
 10
27.9184575379
 20
14.5721518082
 30
0.0
 10
27.9206150606
 20
15.0842630862
 30
0.0
 10
27.9184681559
 20
15.5963853403
 30
0.0
 10
27.9120956751
 20
16.088865029
 30
0.0
 10
27.9014863348
 20
16.5426575259
 30
0.0
 10
27.8884883712
 20
16.8884783954
 30
0.0
 10
27.8752456538
 20
17.1327522799
 30
0.0
 10
27.8646747527
 20
17.2875824174
 30
0.0
 10
27.8546088991
 20
17.4035448512
 30
0.0
 10
27.8458144146
 20
17.4852971389
 30
0.0
 10
27.8392581534
 20
17.5380439636
 30
0.0
 10
27.8324614038
 20
17.5848625992
 30
0.0
 10
27.8254384992
 20
17.6256694769
 30
0.0
 10
27.8182241151
 20
17.6603845334
 30
0.0
 10
27.810801645
 20
17.6889863596
 30
0.0
 10
27.8041810918
 20
17.7087722945
 30
0.0
 10
27.7985025383
 20
17.7214937217
 30
0.0
 10
27.7925531892
 20
17.7324815564
 30
0.0
 10
27.7847673317
 20
17.7418104354
 30
0.0
 10
27.7778302211
 20
17.7418104354
 30
0.0
  0
SPLINE
  5
258
100
AcDbEntity
  8
0
100
AcDbSpline
 62
7
  6
CONTINUOUS
 70
0
 71
3
 72
43
 73
39
 74
0
 42
0.0000001
 43
0.0000001
 44
0.0000000001
 40
0.0
 40
0.0
 40
0.0
 40
0.0
 40
0.0033587651
 40
0.0070764952
 40
0.0114320193
 40
0.0165950391
 40
0.0226621143
 40
0.0296875385
 40
0.0377013023
 40
0.0467191931
 40
0.0677858498
 40
0.0928263622
 40
0.121639679
 40
0.1539870175
 40
0.1895902588
 40
0.2281519756
 40
0.2693219875
 40
0.3127230108
 40
0.4045254303
 40
0.4999904584
 40
0.5954532424
 40
0.6872670543
 40
0.7306681645
 40
0.771834787
 40
0.8103966114
 40
0.8460069308
 40
0.8783611666
 40
0.9071745573
 40
0.9322121977
 40
0.9532790321
 40
0.962298182
 40
0.9703133037
 40
0.9773396943
 40
0.983406924
 40
0.9885693612
 40
0.9929241021
 40
0.9966413197
 40
1.0
 40
1.0
 40
1.0
 40
1.0
 10
26.8285580537
 20
12.4268170156
 30
0.0
 10
26.8346629252
 20
12.4268170156
 30
0.0
 10
26.8476069645
 20
12.4292502998
 30
0.0
 10
26.8659394796
 20
12.4395706116
 30
0.0
 10
26.8836721749
 20
12.4560579441
 30
0.0
 10
26.9009879898
 20
12.4785911944
 30
0.0
 10
26.9179669933
 20
12.5071644688
 30
0.0
 10
26.9346114455
 20
12.5417685703
 30
0.0
 10
26.950906577
 20
12.5823717874
 30
0.0
 10
26.9732960393
 20
12.6479256089
 30
0.0
 10
26.999453588
 20
12.7447440873
 30
0.0
 10
27.0276335619
 20
12.8780120274
 30
0.0
 10
27.0537937698
 20
13.0325274509
 30
0.0
 10
27.0776979204
 20
13.2067947342
 30
0.0
 10
27.0991835722
 20
13.3992120536
 30
0.0
 10
27.1180675617
 20
13.6080048144
 30
0.0
 10
27.1342428943
 20
13.8312355282
 30
0.0
 10
27.1523582541
 20
14.1513093969
 30
0.0
 10
27.1671411039
 20
14.5703617736
 30
0.0
 10
27.1730975919
 20
15.084260508
 30
0.0
 10
27.1671234522
 20
15.5981792837
 30
0.0
 10
27.1523730262
 20
16.0172495885
 30
0.0
 10
27.1342560481
 20
16.3373382272
 30
0.0
 10
27.1180696695
 20
16.5605623445
 30
0.0
 10
27.099177199
 20
16.7693611926
 30
0.0
 10
27.0776962114
 20
16.9618046836
 30
0.0
 10
27.0538001136
 20
17.1360988942
 30
0.0
 10
27.0276381779
 20
17.2906217414
 30
0.0
 10
26.9994508463
 20
17.4238833098
 30
0.0
 10
26.9732916602
 20
17.5206984258
 30
0.0
 10
26.9509038207
 20
17.5862581238
 30
0.0
 10
26.9346095197
 20
17.6268686744
 30
0.0
 10
26.9179663823
 20
17.6614784107
 30
0.0
 10
26.9009884437
 20
17.6900535698
 30
0.0
 10
26.8836724773
 20
17.7125841221
 30
0.0
 10
26.865939076
 20
17.7290659544
 30
0.0
 10
26.8476057711
 20
17.7393798237
 30
0.0
 10
26.834662771
 20
17.7418104354
 30
0.0
 10
26.8285580537
 20
17.7418104354
 30
0.0
  0
ENDSEC
  0
SECTION
  2
OBJECTS
  0
DICTIONARY
  5
C
100
AcDbDictionary
280
0
281
1
  3
ACAD_GROUP
350
D
  3
ACAD_MLINESTYLE
350
17
  3
ACAD_LAYOUT
350
1A
  3
ACAD_PLOTSETTINGS
350
19
  3
ACAD_PLOTSTYLENAME
350
E
  0
DICTIONARY
  5
D
102
{ACAD_REACTORS
330
C
102
}
100
AcDbDictionary
280
0
281
1
  0
ACDBDICTIONARYWDFLT
  5
E
102
{ACAD_REACTORS
330
C
102
}
100
AcDbDictionary
281
1
  3
Normal
350
F
100
AcDbDictionaryWithDefault
340
F
  0
DICTIONARY
  5
17
102
{ACAD_REACTORS
330
C
102
}
100
AcDbDictionary
280
0
281
1
  3
Standard
350
18
  0
DICTIONARY
  5
19
102
{ACAD_REACTORS
330
C
102
}
100
AcDbDictionary
281
1
  0
DICTIONARY
  5
1A
102
{ACAD_REACTORS
330
C
102
}
100
AcDbDictionary
281
1
  3
Model
350
259
  3
Layout1
350
25A
  0
ACDBPLACEHOLDER
  5
F
102
{ACAD_REACTORS
330
E
102
}
  0
MLINESTYLE
  5
18
102
{ACAD_REACTORS
330
17
102
}
100
AcDbMlineStyle
  2
STANDARD
 70
0
  3

 62
256
 51
90.0
 52
90.0
 71
2
 49
0.5
 62
256
  6
BYLAYER
 49
-0.5
 62
256
  6
BYLAYER
  0
LAYOUT
  5
259
102
{ACAD_REACTORS
330
1A
102
}
100
AcDbPlotSettings
  1

  2
none_device
  4

  6

 40
0.0
 41
0.0
 42
0.0
 43
0.0
 44
210.0
 45
297.0
 46
0.0
 47
0.0
 48
0.0
 49
0.0
140
0.0
141
0.0
142
1.0
143
1.0
 70
1024
 72
1
 73
0
 74
0
  7

 75
0
147
1.0
148
0.0
149
0.0
100
AcDbLayout
  1
Model
 70
0
 71
0
 10
0.0
 20
0.0
 11
210.0
 21
297.0
 12
0.0
 22
0.0
 32
0.0
 14
0.0
 24
0.0
 34
0.0
 15
0.0
 25
0.0
 35
0.0
146
0.0
 13
0.0
 23
0.0
 33
0.0
 16
1.0
 26
0.0
 36
0.0
 17
0.0
 27
1.0
 37
0.0
 76
0
330
210
345
0
346
0
  0
LAYOUT
  5
25A
102
{ACAD_REACTORS
330
1A
102
}
100
AcDbPlotSettings
  1

  2
none_device
  4

  6

 40
0.0
 41
0.0
 42
0.0
 43
0.0
 44
210.0
 45
297.0
 46
0.0
 47
0.0
 48
0.0
 49
0.0
140
0.0
141
0.0
142
1.0
143
1.0
 70
0
 72
1
 73
0
 74
0
  7

 75
0
147
1.0
148
0.0
149
0.0
100
AcDbLayout
  1
Layout1
 70
0
 71
1
 10
0.0
 20
0.0
 11
210.0
 21
297.0
 12
0.0
 22
0.0
 32
0.0
 14
0.0
 24
0.0
 34
0.0
 15
0.0
 25
0.0
 35
0.0
146
0.0
 13
0.0
 23
0.0
 33
0.0
 16
1.0
 26
0.0
 36
0.0
 17
0.0
 27
1.0
 37
0.0
 76
0
330
211
345
0
346
0
  0
ENDSEC
  0
EOF
