999
DXF file: C:\Users\sesa63760\Dev\_Creo\CAD\MCADUE0001469_3D-CAD\drw0001_2.dxf
999
Pro/ENGINEER 2019471 by Parametric Technology Corporation
  0
SECTION
  2
HEADER
  9
$ACADVER
  1
AC1024
  9
$DWGCODEPAGE
  3
ANSI_1252
  9
$EXTMAX
 10
125855.3795245031
 20
177995.4653275115
 30
0.0
  9
$EXTMIN
 10
0.0
 20
0.0
 30
0.0
  9
$LIMMIN
 10
0.0
 20
0.0
  9
$LIMMAX
 10
125855.3795245031
 20
177995.4653275115
  9
$VIEWCTR
 10
62927.6897622516
 20
88997.7326637558
  9
$VIEWSIZE
 40
177995.4653275115
  9
$CLAYER
  8
0
  9
$LTSCALE
 40
11602.667369497
  9
$CELTYPE
  6
BYLAYER
  9
$DIMSCALE
 40
1.0
  9
$DIMASZ
 40
1498.2783276727
  9
$DIMEXO
 40
1.0
  9
$DIMDLI
 40
8016.3883643798
  9
$DIMEXE
 40
1.0
  9
$DIMCEN
 40
1898.6182968268
  9
$DIMLFAC
 40
1.0
  9
$DIMBLK
  1
_FILLED
  9
$DIMALT
 70
0
  9
$DIMALTF
 40
0.0393700787
  9
$DIMTXT
 40
2097.5896587417
  9
$DIMTOL
 70
1
  9
$DIMLIM
 70
0
  9
$DIMTFAC
 40
1.0
  9
$DIMTP
 40
0.01
  9
$DIMTM
 40
0.01
  9
$DIMGAP
 40
0.625
  9
$DIMDSEP
 70
46
  9
$AUNITS
 70
0
  9
$PDMODE
 70
3
  9
$PDSIZE
 40
0.3125
  9
$HANDSEED
  5
400
  9
$TILEMODE
 70
1
  9
$MEASUREMENT
 70
1
  9
$INSUNITS
 70
4
  0
ENDSEC
  0
SECTION
  2
CLASSES
  0
CLASS
  1
ACDBDICTIONARYWDFLT
  2
AcDbDictionaryWithDefault
  3
AutoCAD 2000
 90
0
 91
1
280
0
281
0
  0
CLASS
  1
ACDBPLACEHOLDER
  2
AcDbPlaceHolder
  3
AutoCAD 2000
 90
0
 91
1
280
0
281
0
  0
CLASS
  1
LAYOUT
  2
AcDbLayout
  3
AutoCAD 2000
 90
0
 91
0
280
0
281
0
  0
ENDSEC
  0
SECTION
  2
TABLES
  0
TABLE
  2
VPORT
  5
8
100
AcDbSymbolTable
 70
2
  0
VPORT
  5
1F4
100
AcDbSymbolTableRecord
100
AcDbViewportTableRecord
  2
*ACTIVE
 70
0
 10
0.0
 20
0.0
 11
1.0
 21
1.0
 12
62927.6897622516
 22
88997.7326637558
 13
0.0
 23
0.0
 14
1.0
 24
1.0
 15
0.0
 25
0.0
 16
0.0
 26
0.0
 36
1.0
 17
0.0
 27
0.0
 37
0.0
 40
177995.4653275115
 41
0.7070707071
 42
50.0
 43
0.0
 44
0.0
 50
0.0
 51
0.0
 71
0
 72
100
 73
1
 74
1
 75
0
 76
0
 77
0
 78
0
  0
ENDTAB
  0
TABLE
  2
LTYPE
  5
5
100
AcDbSymbolTable
 70
6
  0
LTYPE
  5
14
100
AcDbSymbolTableRecord
100
AcDbLinetypeTableRecord
  2
BYBLOCK
 70
0
  3

 72
65
 73
0
 40
0.0
  0
LTYPE
  5
15
100
AcDbSymbolTableRecord
100
AcDbLinetypeTableRecord
  2
BYLAYER
 70
0
  3

 72
65
 73
0
 40
0.0
  0
LTYPE
  5
16
100
AcDbSymbolTableRecord
100
AcDbLinetypeTableRecord
  2
CONTINUOUS
 70
64
  3
Solid line
 72
65
 73
0
 40
0.0
  0
LTYPE
  5
1F5
100
AcDbSymbolTableRecord
100
AcDbLinetypeTableRecord
  2
CENTER
 70
64
  3
____ _ ____ _ ____ _ ____ _ ____ _ ____ _ ____
 72
65
 73
4
 40
0.6
 49
0.375
 74
0
 49
-0.075
 74
0
 49
0.075
 74
0
 49
-0.075
 74
0
  0
LTYPE
  5
1F6
100
AcDbSymbolTableRecord
100
AcDbLinetypeTableRecord
  2
HIDDEN
 70
64
  3
- - - - - - - - - - - - - - - - - - - -
 72
65
 73
2
 40
0.2
 49
0.1
 74
0
 49
-0.1
 74
0
  0
LTYPE
  5
1F7
100
AcDbSymbolTableRecord
100
AcDbLinetypeTableRecord
  2
PHANTOM
 70
64
  3
_____ _ _ _____ _ _ _____ _ _ _____
 72
65
 73
6
 40
0.8
 49
0.45
 74
0
 49
-0.05
 74
0
 49
0.1
 74
0
 49
-0.05
 74
0
 49
0.1
 74
0
 49
-0.05
 74
0
  0
LTYPE
  5
1F8
100
AcDbSymbolTableRecord
100
AcDbLinetypeTableRecord
  2
DOT
 70
64
  3
. . . . . . . . . . . . . . . . . . . .
 72
65
 73
2
 40
0.2
 49
0.1
 74
0
 49
-0.1
 74
0
  0
LTYPE
  5
1F9
100
AcDbSymbolTableRecord
100
AcDbLinetypeTableRecord
  2
DASHED
 70
64
  3
- - - - - - - - - - - - - - - - - - - -
 72
65
 73
2
 40
0.2
 49
0.1
 74
0
 49
-0.1
 74
0
  0
ENDTAB
  0
TABLE
  2
LAYER
  5
2
100
AcDbSymbolTable
 70
36
  0
LAYER
  5
10
100
AcDbSymbolTableRecord
100
AcDbLayerTableRecord
  2
0
 70
0
 62
7
  6
CONTINUOUS
370
-3
390
F
  0
LAYER
  5
1FA
100
AcDbSymbolTableRecord
100
AcDbLayerTableRecord
  2
DEFAULT_1
 70
0
 62
7
  6
CENTER
370
-3
390
F
  0
LAYER
  5
1FB
100
AcDbSymbolTableRecord
100
AcDbLayerTableRecord
  2
DEFAULT_2
 70
0
 62
8
  6
HIDDEN
370
-3
390
F
  0
LAYER
  5
1FC
100
AcDbSymbolTableRecord
100
AcDbLayerTableRecord
  2
DEFAULT_3
 70
0
 62
7
  6
PHANTOM
370
-3
390
F
  0
LAYER
  5
1FD
100
AcDbSymbolTableRecord
100
AcDbLayerTableRecord
  2
00_COMPONENTS
 70
0
 62
7
  6
CONTINUOUS
370
-3
390
F
  0
LAYER
  5
1FE
100
AcDbSymbolTableRecord
100
AcDbLayerTableRecord
  2
01_1_DEFAULT_DATUMS
 70
0
 62
7
  6
CONTINUOUS
370
-3
390
F
  0
LAYER
  5
1FF
100
AcDbSymbolTableRecord
100
AcDbLayerTableRecord
  2
01_PLANES
 70
0
 62
7
  6
CONTINUOUS
370
-3
390
F
  0
LAYER
  5
200
100
AcDbSymbolTableRecord
100
AcDbLayerTableRecord
  2
02_COORD_SYS
 70
0
 62
7
  6
CONTINUOUS
370
-3
390
F
  0
LAYER
  5
201
100
AcDbSymbolTableRecord
100
AcDbLayerTableRecord
  2
03_AXES
 70
0
 62
7
  6
CONTINUOUS
370
-3
390
F
  0
LAYER
  5
202
100
AcDbSymbolTableRecord
100
AcDbLayerTableRecord
  2
04_POINTS
 70
0
 62
7
  6
CONTINUOUS
370
-3
390
F
  0
LAYER
  5
203
100
AcDbSymbolTableRecord
100
AcDbLayerTableRecord
  2
05_CURVES
 70
0
 62
7
  6
CONTINUOUS
370
-3
390
F
  0
LAYER
  5
204
100
AcDbSymbolTableRecord
100
AcDbLayerTableRecord
  2
06_SURFS
 70
0
 62
7
  6
CONTINUOUS
370
-3
390
F
  0
LAYER
  5
205
100
AcDbSymbolTableRecord
100
AcDbLayerTableRecord
  2
07_COSMETICS
 70
0
 62
7
  6
CONTINUOUS
370
-3
390
F
  0
LAYER
  5
206
100
AcDbSymbolTableRecord
100
AcDbLayerTableRecord
  2
10_NOTES
 70
0
 62
7
  6
CONTINUOUS
370
-3
390
F
  0
LAYER
  5
207
100
AcDbSymbolTableRecord
100
AcDbLayerTableRecord
  2
11_NOTES_PUB
 70
0
 62
7
  6
CONTINUOUS
370
-3
390
F
  0
LAYER
  5
208
100
AcDbSymbolTableRecord
100
AcDbLayerTableRecord
  2
13_REF_GTOL
 70
0
 62
7
  6
CONTINUOUS
370
-3
390
F
  0
LAYER
  5
209
100
AcDbSymbolTableRecord
100
AcDbLayerTableRecord
  2
16_MISC
 70
0
 62
7
  6
CONTINUOUS
370
-3
390
F
  0
LAYER
  5
20A
100
AcDbSymbolTableRecord
100
AcDbLayerTableRecord
  2
17_NO_PRINT
 70
0
 62
7
  6
CONTINUOUS
370
-3
390
F
  0
LAYER
  5
20B
100
AcDbSymbolTableRecord
100
AcDbLayerTableRecord
  2
18_DATUM_CAMS_JOINTS
 70
0
 62
7
  6
CONTINUOUS
370
-3
390
F
  0
LAYER
  5
20C
100
AcDbSymbolTableRecord
100
AcDbLayerTableRecord
  2
19_DATUM_FUNCTIONAL
 70
0
 62
7
  6
CONTINUOUS
370
-3
390
F
  0
LAYER
  5
20D
100
AcDbSymbolTableRecord
100
AcDbLayerTableRecord
  2
20_DATUM_KINEMATIC_SCHEME
 70
0
 62
7
  6
CONTINUOUS
370
-3
390
F
  0
ENDTAB
  0
TABLE
  2
STYLE
  5
3
100
AcDbSymbolTable
 70
1
  0
STYLE
  5
11
100
AcDbSymbolTableRecord
100
AcDbTextStyleTableRecord
  2
STANDARD
 70
0
 40
0.0
 41
0.8
 50
0.0
 71
0
 42
0.2
  3
txt
  4

  0
STYLE
  5
20E
100
AcDbSymbolTableRecord
100
AcDbTextStyleTableRecord
  2
TEXTSTYLE_1
 70
0
 40
0.0
 41
0.8
 50
0.0
 71
0
 42
0.2
  3
gdt
  4

  0
ENDTAB
  0
TABLE
  2
VIEW
  5
6
100
AcDbSymbolTable
 70
0
  0
ENDTAB
  0
TABLE
  2
UCS
  5
7
100
AcDbSymbolTable
 70
0
  0
ENDTAB
  0
TABLE
  2
APPID
  5
9
100
AcDbSymbolTable
 70
1
  0
APPID
  5
20F
100
AcDbSymbolTableRecord
100
AcDbRegAppTableRecord
  2
ACAD
 70
0
  0
ENDTAB
  0
TABLE
  2
BLOCK_RECORD
  5
1
100
AcDbSymbolTable
 70
0
  0
BLOCK_RECORD
  5
210
100
AcDbSymbolTableRecord
100
AcDbBlockTableRecord
  2
*Model_Space
  0
BLOCK_RECORD
  5
211
100
AcDbSymbolTableRecord
100
AcDbBlockTableRecord
  2
*Paper_Space
  0
BLOCK_RECORD
  5
212
100
AcDbSymbolTableRecord
100
AcDbBlockTableRecord
  2
_FILLED
  0
ENDTAB
  0
TABLE
  2
DIMSTYLE
  5
A
100
AcDbSymbolTable
 70
1
100
AcDbDimStyleTable
 71
0
  0
DIMSTYLE
105
213
100
AcDbSymbolTableRecord
100
AcDbDimStyleTableRecord
  2
STANDARD
 70
0
  3

  4

 40
1.0
 41
1498.2783276727
 42
1.0
 43
0.38
 44
1.0
 45
0.0
 46
0.0
 47
0.01
 48
0.01
140
2097.5896587417
141
0.09
142
0.0
143
25.4
144
1.0
145
0.0
146
1.0
147
0.625
 71
1
 72
0
 73
0
 74
0
 75
0
 76
0
 77
1
 78
8
 79
2
170
0
171
1
172
0
173
0
174
0
175
0
176
0
177
0
178
0
270
2
179
2
271
2
272
2
273
2
274
2
275
0
280
0
281
0
282
0
283
1
284
8
285
0
286
0
287
3
288
0
340
11
278
46
341
212
342
212
343
212
344
212
  0
ENDTAB
  0
ENDSEC
  0
SECTION
  2
BLOCKS
  0
BLOCK
  5
20
100
AcDbEntity
  8
0
100
AcDbBlockBegin
  2
*Model_Space
 70
0
 10
0.0
 20
0.0
 30
0.0
  3
*Model_Space
  1

  0
ENDBLK
  5
21
100
AcDbEntity
  8
0
100
AcDbBlockEnd
  0
BLOCK
  5
1C
100
AcDbEntity
  8
0
100
AcDbBlockBegin
  2
*Paper_Space
 70
0
 10
0.0
 20
0.0
 30
0.0
  3
*Paper_Space
  1

  0
ENDBLK
  5
1D
100
AcDbEntity
  8
0
100
AcDbBlockEnd
  0
BLOCK
  5
214
100
AcDbEntity
  8
0
100
AcDbBlockBegin
  2
_FILLED
 70
64
 10
0.0
 20
0.0
  3
_FILLED
  1

  0
SOLID
  5
215
100
AcDbEntity
  8
0
  6
BYBLOCK
 62
0
100
AcDbTrace
 10
0.0
 20
0.0
 11
-1.0
 21
0.25
 12
-1.0
 22
-0.25
 13
-1.0
 23
-0.25
  0
ENDBLK
  5
216
100
AcDbEntity
  8
0
  6
BYBLOCK
 62
0
100
AcDbBlockEnd
  0
ENDSEC
  0
SECTION
  2
ENTITIES
  0
LINE
  5
217
100
AcDbEntity
  8
0
100
AcDbLine
 62
7
  6
CONTINUOUS
 10
13799.1985888244
 20
13670.935603791
 11
113799.0985888244
 21
13670.935603791
  0
LINE
  5
218
100
AcDbEntity
  8
0
100
AcDbLine
 62
7
  6
CONTINUOUS
 10
113606.098588822
 20
13864.9356037912
 11
63992.0985888265
 21
13864.9356037912
  0
LINE
  5
219
100
AcDbEntity
  8
0
100
AcDbLine
 62
7
  6
CONTINUOUS
 10
63606.1985888221
 20
13864.9356037912
 11
13992.1985888265
 21
13864.9356037912
  0
LINE
  5
21A
100
AcDbEntity
  8
0
100
AcDbLine
 62
7
  6
CONTINUOUS
 10
14999.1766661511
 20
14870.935603791
 11
62599.1985888245
 21
14870.935603791
  0
LINE
  5
21B
100
AcDbEntity
  8
0
100
AcDbLine
 62
7
  6
CONTINUOUS
 10
64999.076666151
 20
14870.935603791
 11
112599.0985888245
 21
14870.935603791
  0
LINE
  5
21C
100
AcDbEntity
  8
0
100
AcDbLine
 62
7
  6
CONTINUOUS
 10
19524.1985888244
 20
16820.8140765536
 11
58074.1985888244
 21
16820.8140765536
  0
LINE
  5
21D
100
AcDbEntity
  8
0
100
AcDbLine
 62
7
  6
CONTINUOUS
 10
69524.0985888244
 20
16820.8140765536
 11
108074.0985888244
 21
16820.8140765536
  0
LINE
  5
21E
100
AcDbEntity
  8
0
100
AcDbLine
 62
7
  6
CONTINUOUS
 10
64349.0985888244
 20
17286.7834027574
 11
63249.0985888244
 21
17286.7834027574
  0
LINE
  5
21F
100
AcDbEntity
  8
0
100
AcDbLine
 62
7
  6
CONTINUOUS
 10
59592.2856955764
 20
156131.6219719868
 11
59622.3985888244
 21
156141.6462467857
  0
LINE
  5
220
100
AcDbEntity
  8
0
100
AcDbLine
 62
7
  6
CONTINUOUS
 10
64366.119017543
 20
17286.7834027574
 11
64999.1985888244
 21
17411.5662131659
  0
LWPOLYLINE
  5
221
100
AcDbEntity
  8
0
100
AcDbPolyline
 62
7
  6
CONTINUOUS
 90
4
 70
0
 10
67338.6985888245
 20
21199.4268864926
 10
67241.0959446657
 20
21198.9218502147
 10
67170.9585823005
 20
21197.6614103436
 10
67145.0016589352
 20
21195.9452538467
  0
LWPOLYLINE
  5
222
100
AcDbEntity
  8
0
100
AcDbPolyline
 62
7
  6
CONTINUOUS
 90
4
 70
0
 10
63044.5503256232
 20
21181.5434005126
 10
63021.9435911166
 20
21181.4409846474
 10
63004.8122492554
 20
21181.1555091948
 10
62997.8506560832
 20
21180.7287813204
  0
LINE
  5
223
100
AcDbEntity
  8
0
100
AcDbLine
 62
7
  6
CONTINUOUS
 10
67120.6985888244
 20
21182.7614222119
 11
65440.6408914388
 21
21177.535603791
  0
LINE
  5
224
100
AcDbEntity
  8
0
100
AcDbLine
 62
7
  6
CONTINUOUS
 10
67951.5985888244
 20
21199.8137260022
 11
67338.6985888245
 21
21199.4268864926
  0
LINE
  5
225
100
AcDbEntity
  8
0
100
AcDbLine
 62
7
  6
CONTINUOUS
 10
62991.4093731382
 20
17494.335603791
 11
64606.5878045107
 21
17494.335603791
  0
LINE
  5
226
100
AcDbEntity
  8
0
100
AcDbLine
 62
7
  6
CONTINUOUS
 10
19524.1985888244
 20
17846.3006179781
 11
58074.1985888244
 21
17846.3006179781
  0
LINE
  5
227
100
AcDbEntity
  8
0
100
AcDbLine
 62
7
  6
CONTINUOUS
 10
69524.0985888244
 20
17846.3006179781
 11
108074.0985888244
 21
17846.3006179781
  0
LINE
  5
228
100
AcDbEntity
  8
0
100
AcDbLine
 62
7
  6
CONTINUOUS
 10
19524.1985888244
 20
17889.9356037912
 11
58074.1985888244
 21
17889.9356037912
  0
LINE
  5
229
100
AcDbEntity
  8
0
100
AcDbLine
 62
7
  6
CONTINUOUS
 10
69524.0985888244
 20
17889.9356037912
 11
108074.0985888244
 21
17889.9356037912
  0
LINE
  5
22A
100
AcDbEntity
  8
0
100
AcDbLine
 62
7
  6
CONTINUOUS
 10
19524.1985888244
 20
18170.9356037911
 11
58074.1985888244
 21
18170.9356037911
  0
LINE
  5
22B
100
AcDbEntity
  8
0
100
AcDbLine
 62
7
  6
CONTINUOUS
 10
69524.0985888244
 20
18170.9356037911
 11
108074.0985888244
 21
18170.9356037911
  0
LINE
  5
22C
100
AcDbEntity
  8
0
100
AcDbLine
 62
7
  6
CONTINUOUS
 10
19524.1985888244
 20
18321.9485979431
 11
58074.1985888244
 21
18321.9485979431
  0
LINE
  5
22D
100
AcDbEntity
  8
0
100
AcDbLine
 62
7
  6
CONTINUOUS
 10
69524.0985888244
 20
18321.9485979431
 11
108074.0985888244
 21
18321.9485979431
  0
LINE
  5
22E
100
AcDbEntity
  8
0
100
AcDbLine
 62
7
  6
CONTINUOUS
 10
109956.1908994403
 20
19395.935603791
 11
109622.5791270262
 21
19395.935603791
  0
LINE
  5
22F
100
AcDbEntity
  8
0
100
AcDbLine
 62
7
  6
CONTINUOUS
 10
109291.1065637331
 20
19395.935603791
 11
109147.9792962252
 21
19395.935603791
  0
LINE
  5
230
100
AcDbEntity
  8
0
100
AcDbLine
 62
7
  6
CONTINUOUS
 10
67975.5496155529
 20
19395.935603791
 11
67642.0065166193
 21
19395.935603791
  0
LINE
  5
231
100
AcDbEntity
  8
0
100
AcDbLine
 62
7
  6
CONTINUOUS
 10
59956.2908994403
 20
19395.935603791
 11
59622.6791270262
 21
19395.935603791
  0
LINE
  5
232
100
AcDbEntity
  8
0
100
AcDbLine
 62
7
  6
CONTINUOUS
 10
59291.2065637331
 20
19395.935603791
 11
59148.0792962252
 21
19395.935603791
  0
LINE
  5
233
100
AcDbEntity
  8
0
100
AcDbLine
 62
7
  6
CONTINUOUS
 10
17975.6496155529
 20
19395.935603791
 11
17642.1065166192
 21
19395.935603791
  0
LINE
  5
234
100
AcDbEntity
  8
0
100
AcDbLine
 62
7
  6
CONTINUOUS
 10
17449.1985888244
 20
19395.935603791
 11
17637.166554108
 21
19395.935603791
  0
LINE
  5
235
100
AcDbEntity
  8
0
100
AcDbLine
 62
7
  6
CONTINUOUS
 10
17976.1988276753
 20
19395.935603791
 11
18450.3178814236
 21
19395.935603791
  0
LINE
  5
236
100
AcDbEntity
  8
0
100
AcDbLine
 62
7
  6
CONTINUOUS
 10
59299.1985888245
 20
19395.935603791
 11
59622.1985888243
 21
19395.935603791
  0
LINE
  5
237
100
AcDbEntity
  8
0
100
AcDbLine
 62
7
  6
CONTINUOUS
 10
59966.2987704228
 20
19395.935603791
 11
60149.1985888244
 21
19395.935603791
  0
LINE
  5
238
100
AcDbEntity
  8
0
100
AcDbLine
 62
7
  6
CONTINUOUS
 10
67449.0985888244
 20
19395.935603791
 11
67637.066554108
 21
19395.935603791
  0
LINE
  5
239
100
AcDbEntity
  8
0
100
AcDbLine
 62
7
  6
CONTINUOUS
 10
67976.0988276752
 20
19395.935603791
 11
68450.2178814236
 21
19395.935603791
  0
LINE
  5
23A
100
AcDbEntity
  8
0
100
AcDbLine
 62
7
  6
CONTINUOUS
 10
109299.0985888245
 20
19395.935603791
 11
109622.0985888243
 21
19395.935603791
  0
LINE
  5
23B
100
AcDbEntity
  8
0
100
AcDbLine
 62
7
  6
CONTINUOUS
 10
109966.1987704228
 20
19395.935603791
 11
110149.0985888244
 21
19395.935603791
  0
LINE
  5
23C
100
AcDbEntity
  8
0
100
AcDbLine
 62
7
  6
CONTINUOUS
 10
59149.1985888244
 20
21170.935603791
 11
62151.4531900516
 21
21170.935603791
  0
LINE
  5
23D
100
AcDbEntity
  8
0
100
AcDbLine
 62
7
  6
CONTINUOUS
 10
65446.5597559073
 20
21170.935603791
 11
68299.0988380588
 21
21170.935603791
  0
LINE
  5
23E
100
AcDbEntity
  8
0
100
AcDbLine
 62
7
  6
CONTINUOUS
 10
68324.0988273863
 20
21170.935603791
 11
68449.0988273862
 21
21170.935603791
  0
LINE
  5
23F
100
AcDbEntity
  8
0
100
AcDbLine
 62
7
  6
CONTINUOUS
 10
64553.4173976169
 20
21181.5434005126
 11
63044.5503256232
 21
21181.5434005126
  0
LINE
  5
240
100
AcDbEntity
  8
0
100
AcDbLine
 62
7
  6
CONTINUOUS
 10
68449.0985888244
 20
21199.8276661647
 11
68306.4985888244
 21
21199.8276661647
  0
LINE
  5
241
100
AcDbEntity
  8
0
100
AcDbLine
 62
7
  6
CONTINUOUS
 10
59291.6985888244
 20
21199.8276661647
 11
59149.0985888244
 21
21199.8276661647
  0
LINE
  5
242
100
AcDbEntity
  8
0
100
AcDbLine
 62
7
  6
CONTINUOUS
 10
59299.0968476479
 20
21214.635603791
 11
59579.1090578766
 21
21214.635603791
  0
LINE
  5
243
100
AcDbEntity
  8
0
100
AcDbLine
 62
7
  6
CONTINUOUS
 10
68299.0985888244
 20
21214.6268911894
 11
68018.9881197722
 21
21214.635603791
  0
LINE
  5
244
100
AcDbEntity
  8
0
100
AcDbLine
 62
7
  6
CONTINUOUS
 10
60349.0985888244
 20
22170.935603791
 11
60453.1985271918
 21
22170.935603791
  0
LINE
  5
245
100
AcDbEntity
  8
0
100
AcDbLine
 62
7
  6
CONTINUOUS
 10
60477.4985888244
 20
22170.935603791
 11
62949.0985888244
 21
22170.935603791
  0
LINE
  5
246
100
AcDbEntity
  8
0
100
AcDbLine
 62
7
  6
CONTINUOUS
 10
64649.0985888244
 20
22170.935603791
 11
67120.6985888244
 21
22170.935603791
  0
LINE
  5
247
100
AcDbEntity
  8
0
100
AcDbLine
 62
7
  6
CONTINUOUS
 10
67145.0018685729
 20
22170.935603791
 11
67249.0985888244
 21
22170.935603791
  0
LINE
  5
248
100
AcDbEntity
  8
0
100
AcDbLine
 62
7
  6
CONTINUOUS
 10
13803.8211005707
 20
22375.935603791
 11
16899.1985888244
 21
22375.935603791
  0
LINE
  5
249
100
AcDbEntity
  8
0
100
AcDbLine
 62
7
  6
CONTINUOUS
 10
110699.0985888244
 20
22375.935603791
 11
113794.4760770781
 21
22375.935603791
  0
LINE
  5
24A
100
AcDbEntity
  8
0
100
AcDbLine
 62
7
  6
CONTINUOUS
 10
60259.3985888244
 20
21199.4390841348
 11
59622.3985888244
 21
21200.2249607963
  0
LINE
  5
24B
100
AcDbEntity
  8
0
100
AcDbLine
 62
7
  6
CONTINUOUS
 10
62158.4499857669
 20
21177.535603791
 11
60477.4985888244
 21
21182.7736198541
  0
LINE
  5
24C
100
AcDbEntity
  8
0
100
AcDbLine
 62
7
  6
CONTINUOUS
 10
17449.1988167141
 20
17757.1903207723
 11
17584.6423890969
 21
17756.3834584276
  0
LINE
  5
24D
100
AcDbEntity
  8
0
100
AcDbLine
 62
7
  6
CONTINUOUS
 10
67449.0988167141
 20
17757.1903207723
 11
67584.5423890969
 21
17756.3834584276
  0
LWPOLYLINE
  5
24E
100
AcDbEntity
  8
0
100
AcDbPolyline
 62
7
  6
CONTINUOUS
 90
4
 70
0
 10
60453.1985307293
 20
21195.9558175428
 10
60427.2437256166
 20
21197.6723913228
 10
60357.0815490553
 20
21198.9336223178
 10
60259.3985888244
 20
21199.4390841348
  0
LWPOLYLINE
  5
24F
100
AcDbEntity
  8
0
100
AcDbPolyline
 62
7
  6
CONTINUOUS
 90
4
 70
0
 10
64600.1457244516
 20
21180.7293016564
 10
64594.2620098739
 20
21181.1236847018
 10
64577.8799110498
 20
21181.4222142861
 10
64553.4173976169
 20
21181.5434005126
  0
LINE
  5
250
100
AcDbEntity
  8
0
100
AcDbLine
 62
7
  6
CONTINUOUS
 10
62599.0985888244
 20
17411.5618971462
 11
63232.1700173975
 21
17286.7834027574
  0
LINE
  5
251
100
AcDbEntity
  8
0
100
AcDbLine
 62
7
  6
CONTINUOUS
 10
59622.3985888244
 20
21200.2249607963
 11
59592.2856955763
 21
21210.2492355952
  0
LINE
  5
252
100
AcDbEntity
  8
0
100
AcDbLine
 62
7
  6
CONTINUOUS
 10
113794.4760770781
 20
24965.935603791
 11
110699.0985888244
 21
24965.935603791
  0
LINE
  5
253
100
AcDbEntity
  8
0
100
AcDbLine
 62
7
  6
CONTINUOUS
 10
16899.1985888244
 20
24965.935603791
 11
13803.8211005707
 21
24965.935603791
  0
LINE
  5
254
100
AcDbEntity
  8
0
100
AcDbLine
 62
7
  6
CONTINUOUS
 10
67249.0985888244
 20
25170.935603791
 11
67145.001846908
 21
25170.935603791
  0
LINE
  5
255
100
AcDbEntity
  8
0
100
AcDbLine
 62
7
  6
CONTINUOUS
 10
67120.6985888244
 20
25170.935603791
 11
64649.0985888244
 21
25170.935603791
  0
LINE
  5
256
100
AcDbEntity
  8
0
100
AcDbLine
 62
7
  6
CONTINUOUS
 10
62949.0985888244
 20
25170.935603791
 11
60477.4985888244
 21
25170.935603791
  0
LINE
  5
257
100
AcDbEntity
  8
0
100
AcDbLine
 62
7
  6
CONTINUOUS
 10
60453.19852667
 20
25170.935603791
 11
60349.0985888244
 21
25170.935603791
  0
LINE
  5
258
100
AcDbEntity
  8
0
100
AcDbLine
 62
7
  6
CONTINUOUS
 10
68462.4671155994
 20
156151.0147668413
 11
68482.3172427567
 21
156164.335603791
  0
LINE
  5
259
100
AcDbEntity
  8
0
100
AcDbLine
 62
7
  6
CONTINUOUS
 10
64600.1465215656
 20
156161.1424262615
 11
64601.4985888244
 21
156162.0250218549
  0
LINE
  5
25A
100
AcDbEntity
  8
0
100
AcDbLine
 62
7
  6
CONTINUOUS
 10
64601.4985888245
 20
21179.846185727
 11
64600.1457244516
 21
21180.7293016564
  0
LINE
  5
25B
100
AcDbEntity
  8
0
100
AcDbLine
 62
7
  6
CONTINUOUS
 10
68482.3172427567
 20
21177.535603791
 11
68462.4671155994
 21
21190.8564407406
  0
LINE
  5
25C
100
AcDbEntity
  8
0
100
AcDbLine
 62
7
  6
CONTINUOUS
 10
13803.8211005707
 20
22375.935603791
 11
13801.5098446976
 21
22870.935603791
  0
LINE
  5
25D
100
AcDbEntity
  8
0
100
AcDbLine
 62
7
  6
CONTINUOUS
 10
13803.8211005707
 20
72375.935603791
 11
13801.5098446976
 21
72870.935603791
  0
LINE
  5
25E
100
AcDbEntity
  8
0
100
AcDbLine
 62
7
  6
CONTINUOUS
 10
13803.8211005707
 20
102375.935603791
 11
13801.5098446976
 21
102870.935603791
  0
LINE
  5
25F
100
AcDbEntity
  8
0
100
AcDbLine
 62
7
  6
CONTINUOUS
 10
13803.8211005707
 20
152375.935603791
 11
13801.5098446976
 21
152870.935603791
  0
LINE
  5
260
100
AcDbEntity
  8
0
100
AcDbLine
 62
7
  6
CONTINUOUS
 10
13799.1985888244
 20
163670.935603791
 11
13799.1985888244
 21
154470.9356037909
  0
LINE
  5
261
100
AcDbEntity
  8
0
100
AcDbLine
 62
7
  6
CONTINUOUS
 10
13799.1985888244
 20
152870.935603791
 11
13799.1985888244
 21
104470.935603791
  0
LINE
  5
262
100
AcDbEntity
  8
0
100
AcDbLine
 62
7
  6
CONTINUOUS
 10
13799.1985888244
 20
102870.935603791
 11
13799.1985888244
 21
74470.935603791
  0
LINE
  5
263
100
AcDbEntity
  8
0
100
AcDbLine
 62
7
  6
CONTINUOUS
 10
13799.1985888244
 20
72870.935603791
 11
13799.1985888244
 21
24470.935603791
  0
LINE
  5
264
100
AcDbEntity
  8
0
100
AcDbLine
 62
7
  6
CONTINUOUS
 10
13799.1985888244
 20
22870.935603791
 11
13799.1985888244
 21
13670.935603791
  0
LINE
  5
265
100
AcDbEntity
  8
0
100
AcDbLine
 62
7
  6
CONTINUOUS
 10
13801.5098446976
 20
154470.9356037909
 11
13801.5098446976
 21
152870.935603791
  0
LINE
  5
266
100
AcDbEntity
  8
0
100
AcDbLine
 62
7
  6
CONTINUOUS
 10
13801.5098446976
 20
104470.935603791
 11
13801.5098446976
 21
102870.935603791
  0
LINE
  5
267
100
AcDbEntity
  8
0
100
AcDbLine
 62
7
  6
CONTINUOUS
 10
13801.5098446976
 20
74470.935603791
 11
13801.5098446976
 21
72870.935603791
  0
LINE
  5
268
100
AcDbEntity
  8
0
100
AcDbLine
 62
7
  6
CONTINUOUS
 10
13801.5098446976
 20
24470.935603791
 11
13801.5098446976
 21
22870.935603791
  0
LINE
  5
269
100
AcDbEntity
  8
0
100
AcDbLine
 62
7
  6
CONTINUOUS
 10
13992.1985888243
 20
13864.935603789
 11
13992.1985888243
 21
22375.935603791
  0
LINE
  5
26A
100
AcDbEntity
  8
0
100
AcDbLine
 62
7
  6
CONTINUOUS
 10
13992.1985888243
 20
24965.935603791
 11
13992.1985888243
 21
72375.935603791
  0
LINE
  5
26B
100
AcDbEntity
  8
0
100
AcDbLine
 62
7
  6
CONTINUOUS
 10
13992.1985888243
 20
74965.935603791
 11
13992.1985888243
 21
102375.9356037909
  0
LINE
  5
26C
100
AcDbEntity
  8
0
100
AcDbLine
 62
7
  6
CONTINUOUS
 10
13992.1985888243
 20
104965.935603791
 11
13992.1985888243
 21
152375.935603791
  0
LINE
  5
26D
100
AcDbEntity
  8
0
100
AcDbLine
 62
7
  6
CONTINUOUS
 10
13992.1985888243
 20
154965.935603791
 11
13992.1985888243
 21
163476.9356037932
  0
LINE
  5
26E
100
AcDbEntity
  8
0
100
AcDbLine
 62
7
  6
CONTINUOUS
 10
14999.3413485607
 20
152375.935603791
 11
14999.3413485607
 21
104965.935603791
  0
LINE
  5
26F
100
AcDbEntity
  8
0
100
AcDbLine
 62
7
  6
CONTINUOUS
 10
14999.3413485607
 20
102375.9356037909
 11
14999.3413485607
 21
74965.935603791
  0
LINE
  5
270
100
AcDbEntity
  8
0
100
AcDbLine
 62
7
  6
CONTINUOUS
 10
14999.3413485607
 20
72375.935603791
 11
14999.3413485607
 21
24965.935603791
  0
LINE
  5
271
100
AcDbEntity
  8
0
100
AcDbLine
 62
7
  6
CONTINUOUS
 10
14999.3413485607
 20
22375.935603791
 11
14999.3413485607
 21
14870.9399767837
  0
LINE
  5
272
100
AcDbEntity
  8
0
100
AcDbLine
 62
7
  6
CONTINUOUS
 10
14999.1985888244
 20
162470.9356037907
 11
14999.3413485607
 21
154965.935603791
  0
LINE
  5
273
100
AcDbEntity
  8
0
100
AcDbLine
 62
7
  6
CONTINUOUS
 10
13801.5098446976
 20
154470.9356037909
 11
13803.8211005707
 21
154965.935603791
  0
LINE
  5
274
100
AcDbEntity
  8
0
100
AcDbLine
 62
7
  6
CONTINUOUS
 10
13801.5098446976
 20
104470.935603791
 11
13803.8211005707
 21
104965.935603791
  0
LINE
  5
275
100
AcDbEntity
  8
0
100
AcDbLine
 62
7
  6
CONTINUOUS
 10
13801.5098446976
 20
74470.935603791
 11
13803.8211005707
 21
74965.935603791
  0
LINE
  5
276
100
AcDbEntity
  8
0
100
AcDbLine
 62
7
  6
CONTINUOUS
 10
13801.5098446976
 20
24470.935603791
 11
13803.8211005707
 21
24965.935603791
  0
LWPOLYLINE
  5
277
100
AcDbEntity
  8
0
100
AcDbPolyline
 62
7
  6
CONTINUOUS
 90
3
 70
0
 10
63606.1985888216
 20
163476.9356037908
 10
63739.7839687453
 20
163610.8083089401
 10
63799.1702345616
 20
163670.9079422727
  0
LINE
  5
278
100
AcDbEntity
  8
0
100
AcDbLine
 62
7
  6
CONTINUOUS
 10
60149.1983618892
 20
160016.7555582194
 11
62599.2027322591
 21
162471.0382615396
  0
LINE
  5
279
100
AcDbEntity
  8
0
100
AcDbLine
 62
7
  6
CONTINUOUS
 10
62518.3546687671
 20
159852.9261265818
 11
62599.1583424602
 21
159933.7277816001
  0
LINE
  5
27A
100
AcDbEntity
  8
0
100
AcDbLine
 62
7
  6
CONTINUOUS
 10
62599.2205114978
 20
162470.935603791
 11
63606.1985888224
 21
163476.9356037908
  0
LINE
  5
27B
100
AcDbEntity
  8
0
100
AcDbLine
 62
7
  6
CONTINUOUS
 10
62599.1985888245
 20
14870.935603791
 11
60749.1985888107
 21
16718.7803096873
  0
LINE
  5
27C
100
AcDbEntity
  8
0
100
AcDbLine
 62
7
  6
CONTINUOUS
 10
63606.1985888221
 20
13864.9356037912
 11
62599.1985888247
 21
14870.935603791
  0
LINE
  5
27D
100
AcDbEntity
  8
0
100
AcDbLine
 62
7
  6
CONTINUOUS
 10
62599.1985888244
 20
17411.5415563842
 11
62518.1395734274
 21
17492.5431295835
  0
LINE
  5
27E
100
AcDbEntity
  8
0
100
AcDbLine
 62
7
  6
CONTINUOUS
 10
60749.1985888107
 20
16718.7803096873
 11
60149.1985888244
 21
17319.6132508498
  0
LWPOLYLINE
  5
27F
100
AcDbEntity
  8
0
100
AcDbPolyline
 62
7
  6
CONTINUOUS
 90
3
 70
0
 10
63799.1235888244
 20
13670.9608160005
 10
63739.5139319805
 20
13731.3346128588
 10
63606.1985888216
 20
13864.9356037912
  0
LINE
  5
280
100
AcDbEntity
  8
0
100
AcDbLine
 62
7
  6
CONTINUOUS
 10
16899.1985888244
 20
22375.935603791
 11
16899.1985888244
 21
24965.935603791
  0
LINE
  5
281
100
AcDbEntity
  8
0
100
AcDbLine
 62
7
  6
CONTINUOUS
 10
16899.1985888244
 20
72375.935603791
 11
16899.1985888244
 21
74965.935603791
  0
LINE
  5
282
100
AcDbEntity
  8
0
100
AcDbLine
 62
7
  6
CONTINUOUS
 10
16899.1985888244
 20
102375.935603791
 11
16899.1985888244
 21
104965.935603791
  0
LINE
  5
283
100
AcDbEntity
  8
0
100
AcDbLine
 62
7
  6
CONTINUOUS
 10
16899.1985888244
 20
152375.935603791
 11
16899.1985888244
 21
154965.935603791
  0
LINE
  5
284
100
AcDbEntity
  8
0
100
AcDbLine
 62
7
  6
CONTINUOUS
 10
17449.1988157596
 20
17325.3926321957
 11
17449.1988269357
 21
159470.7563894906
  0
LINE
  5
285
100
AcDbEntity
  8
0
100
AcDbLine
 62
7
  6
CONTINUOUS
 10
17449.1985888244
 20
159538.0341758076
 11
17449.1985888244
 21
160022.2579567327
  0
LINE
  5
286
100
AcDbEntity
  8
0
100
AcDbLine
 62
7
  6
CONTINUOUS
 10
17642.1065166192
 20
19395.935603791
 11
17642.1065166192
 21
157945.935603791
  0
LINE
  5
287
100
AcDbEntity
  8
0
100
AcDbLine
 62
7
  6
CONTINUOUS
 10
17952.1988273738
 20
157945.935603791
 11
17952.1988273738
 21
19395.935603791
  0
LINE
  5
288
100
AcDbEntity
  8
0
100
AcDbLine
 62
7
  6
CONTINUOUS
 10
17976.1988276753
 20
19395.935603791
 11
17976.1988276753
 21
157945.935603791
  0
LINE
  5
289
100
AcDbEntity
  8
0
100
AcDbLine
 62
7
  6
CONTINUOUS
 10
18019.1988380589
 20
157945.935603791
 11
18019.1988380589
 21
19395.935603791
  0
LINE
  5
28A
100
AcDbEntity
  8
0
100
AcDbLine
 62
7
  6
CONTINUOUS
 10
18299.1988380588
 20
157945.935603791
 11
18299.1988380588
 21
19395.935603791
  0
LINE
  5
28B
100
AcDbEntity
  8
0
100
AcDbLine
 62
7
  6
CONTINUOUS
 10
18324.1988273862
 20
19395.935603791
 11
18324.1988273862
 21
157945.935603791
  0
LINE
  5
28C
100
AcDbEntity
  8
0
100
AcDbLine
 62
7
  6
CONTINUOUS
 10
18449.1988273862
 20
157945.935603791
 11
18449.1988273862
 21
19395.935603791
  0
LINE
  5
28D
100
AcDbEntity
  8
0
100
AcDbLine
 62
7
  6
CONTINUOUS
 10
19524.1985888244
 20
16820.8140765536
 11
19524.1985888244
 21
18321.9485979431
  0
LINE
  5
28E
100
AcDbEntity
  8
0
100
AcDbLine
 62
7
  6
CONTINUOUS
 10
19524.1985888244
 20
159019.9226096389
 11
19524.1985888244
 21
160521.0571310284
  0
LWPOLYLINE
  5
28F
100
AcDbEntity
  8
0
100
AcDbPolyline
 62
7
  6
CONTINUOUS
 90
3
 70
0
 10
113606.0985888216
 20
163476.9356037908
 10
113741.1242368602
 20
163612.2558436271
 10
113799.0985888244
 20
163670.9341793452
  0
LINE
  5
290
100
AcDbEntity
  8
0
100
AcDbLine
 62
7
  6
CONTINUOUS
 10
110149.0983618892
 20
160016.7555582194
 11
112599.1027322592
 21
162471.0382615396
  0
LINE
  5
291
100
AcDbEntity
  8
0
100
AcDbLine
 62
7
  6
CONTINUOUS
 10
112599.1205114978
 20
162470.935603791
 11
113606.0985888223
 21
163476.9356037908
  0
LINE
  5
292
100
AcDbEntity
  8
0
100
AcDbLine
 62
7
  6
CONTINUOUS
 10
112599.0985888245
 20
14870.935603791
 11
110749.0985888131
 21
16718.7803096848
  0
LINE
  5
293
100
AcDbEntity
  8
0
100
AcDbLine
 62
7
  6
CONTINUOUS
 10
113606.098588822
 20
13864.9356037912
 11
112599.0985888247
 21
14870.935603791
  0
LINE
  5
294
100
AcDbEntity
  8
0
100
AcDbLine
 62
7
  6
CONTINUOUS
 10
110749.0985888131
 20
16718.7803096848
 11
110149.0985888244
 21
17319.6132508497
  0
LINE
  5
295
100
AcDbEntity
  8
0
100
AcDbLine
 62
7
  6
CONTINUOUS
 10
60349.0985888244
 20
72170.935603791
 11
60453.1985271918
 21
72170.935603791
  0
LINE
  5
296
100
AcDbEntity
  8
0
100
AcDbLine
 62
7
  6
CONTINUOUS
 10
60477.4985888244
 20
72170.935603791
 11
62949.0985888244
 21
72170.935603791
  0
LINE
  5
297
100
AcDbEntity
  8
0
100
AcDbLine
 62
7
  6
CONTINUOUS
 10
64649.0985888244
 20
72170.935603791
 11
67120.6985888244
 21
72170.935603791
  0
LINE
  5
298
100
AcDbEntity
  8
0
100
AcDbLine
 62
7
  6
CONTINUOUS
 10
67145.0018685729
 20
72170.935603791
 11
67249.0985888244
 21
72170.935603791
  0
LINE
  5
299
100
AcDbEntity
  8
0
100
AcDbLine
 62
7
  6
CONTINUOUS
 10
13803.8211005707
 20
72375.935603791
 11
16899.1985888244
 21
72375.935603791
  0
LINE
  5
29A
100
AcDbEntity
  8
0
100
AcDbLine
 62
7
  6
CONTINUOUS
 10
110699.0985888244
 20
72375.935603791
 11
113794.4760770781
 21
72375.935603791
  0
LINE
  5
29B
100
AcDbEntity
  8
0
100
AcDbLine
 62
7
  6
CONTINUOUS
 10
113794.4760770781
 20
74965.935603791
 11
110699.0985888244
 21
74965.935603791
  0
LINE
  5
29C
100
AcDbEntity
  8
0
100
AcDbLine
 62
7
  6
CONTINUOUS
 10
16899.1985888244
 20
74965.935603791
 11
13803.8211005707
 21
74965.935603791
  0
LINE
  5
29D
100
AcDbEntity
  8
0
100
AcDbLine
 62
7
  6
CONTINUOUS
 10
67249.0985888244
 20
75170.935603791
 11
67145.001846908
 21
75170.935603791
  0
LINE
  5
29E
100
AcDbEntity
  8
0
100
AcDbLine
 62
7
  6
CONTINUOUS
 10
67120.6985888244
 20
75170.935603791
 11
64649.0985888244
 21
75170.935603791
  0
LINE
  5
29F
100
AcDbEntity
  8
0
100
AcDbLine
 62
7
  6
CONTINUOUS
 10
62949.0985888244
 20
75170.935603791
 11
60477.4985888244
 21
75170.935603791
  0
LINE
  5
2A0
100
AcDbEntity
  8
0
100
AcDbLine
 62
7
  6
CONTINUOUS
 10
60453.19852667
 20
75170.935603791
 11
60349.0985888244
 21
75170.935603791
  0
LWPOLYLINE
  5
2A1
100
AcDbEntity
  8
0
100
AcDbPolyline
 62
7
  6
CONTINUOUS
 90
3
 70
0
 10
113799.0985888244
 20
13670.9370282367
 10
113740.7981886542
 20
13729.9435859523
 10
113606.0985888216
 20
13864.9356037912
  0
LINE
  5
2A2
100
AcDbEntity
  8
0
100
AcDbLine
 62
7
  6
CONTINUOUS
 10
62518.1395734274
 20
17492.5431295835
 11
62158.8838624473
 21
21170.935603791
  0
LINE
  5
2A3
100
AcDbEntity
  8
0
100
AcDbLine
 62
7
  6
CONTINUOUS
 10
58074.1985888244
 20
16820.8140765536
 11
58074.1985888244
 21
18321.9485979431
  0
LINE
  5
2A4
100
AcDbEntity
  8
0
100
AcDbLine
 62
7
  6
CONTINUOUS
 10
58074.1985888244
 20
159019.9226096389
 11
58074.1985888244
 21
160521.0571310284
  0
LINE
  5
2A5
100
AcDbEntity
  8
0
100
AcDbLine
 62
7
  6
CONTINUOUS
 10
62158.7752787296
 20
156170.9356037909
 11
62518.3546687671
 21
159852.9261265818
  0
LINE
  5
2A6
100
AcDbEntity
  8
0
100
AcDbLine
 62
7
  6
CONTINUOUS
 10
62990.6648859329
 20
160010.8777867279
 11
62991.4093731381
 21
159847.535603791
  0
LINE
  5
2A7
100
AcDbEntity
  8
0
100
AcDbLine
 62
7
  6
CONTINUOUS
 10
64607.3171097189
 20
17334.3243854829
 11
64606.5878045107
 21
17494.335603791
  0
LINE
  5
2A8
100
AcDbEntity
  8
0
100
AcDbLine
 62
7
  6
CONTINUOUS
 10
59115.8322069411
 20
156164.335603791
 11
59114.9771808771
 21
158047.8134392435
  0
LINE
  5
2A9
100
AcDbEntity
  8
0
100
AcDbLine
 62
7
  6
CONTINUOUS
 10
62993.0713160971
 20
156164.3356037909
 11
62991.4093731381
 21
159847.5356037909
  0
LINE
  5
2AA
100
AcDbEntity
  8
0
100
AcDbLine
 62
7
  6
CONTINUOUS
 10
64604.9258615517
 20
21177.5356037911
 11
64606.5878045107
 21
17494.3356037886
  0
LINE
  5
2AB
100
AcDbEntity
  8
0
100
AcDbLine
 62
7
  6
CONTINUOUS
 10
59106.0985888244
 20
21170.935603791
 11
59106.0985888244
 21
156170.9356037909
  0
LINE
  5
2AC
100
AcDbEntity
  8
0
100
AcDbLine
 62
7
  6
CONTINUOUS
 10
59149.0985888244
 20
21199.8276661647
 11
59149.0985888244
 21
156142.0435414172
  0
LINE
  5
2AD
100
AcDbEntity
  8
0
100
AcDbLine
 62
7
  6
CONTINUOUS
 10
59149.1985888244
 20
157945.935603791
 11
59149.1985888244
 21
156170.9356037909
  0
LINE
  5
2AE
100
AcDbEntity
  8
0
100
AcDbLine
 62
7
  6
CONTINUOUS
 10
59149.1985888244
 20
21170.935603791
 11
59149.1985888244
 21
19395.935603791
  0
LINE
  5
2AF
100
AcDbEntity
  8
0
100
AcDbLine
 62
7
  6
CONTINUOUS
 10
59299.0968476479
 20
156127.235603791
 11
59299.0968476479
 21
21214.635603791
  0
LINE
  5
2B0
100
AcDbEntity
  8
0
100
AcDbLine
 62
7
  6
CONTINUOUS
 10
59299.1985888245
 20
157945.935603791
 11
59299.1985888245
 21
156170.9356037909
  0
LINE
  5
2B1
100
AcDbEntity
  8
0
100
AcDbLine
 62
7
  6
CONTINUOUS
 10
59299.1985888245
 20
21170.935603791
 11
59299.1985888245
 21
19395.935603791
  0
LINE
  5
2B2
100
AcDbEntity
  8
0
100
AcDbLine
 62
7
  6
CONTINUOUS
 10
59579.1090578766
 20
21214.635603791
 11
59579.1090578766
 21
156127.235603791
  0
LINE
  5
2B3
100
AcDbEntity
  8
0
100
AcDbLine
 62
7
  6
CONTINUOUS
 10
59579.1985888244
 20
157945.935603791
 11
59579.1985888244
 21
156170.935603791
  0
LINE
  5
2B4
100
AcDbEntity
  8
0
100
AcDbLine
 62
7
  6
CONTINUOUS
 10
59579.1985888244
 20
21170.935603791
 11
59579.1985888244
 21
19395.935603791
  0
LINE
  5
2B5
100
AcDbEntity
  8
0
100
AcDbLine
 62
7
  6
CONTINUOUS
 10
59622.1985888243
 20
157945.935603791
 11
59622.1985888243
 21
156170.935603791
  0
LINE
  5
2B6
100
AcDbEntity
  8
0
100
AcDbLine
 62
7
  6
CONTINUOUS
 10
59622.1985888243
 20
21170.935603791
 11
59622.1985888243
 21
19395.935603791
  0
LINE
  5
2B7
100
AcDbEntity
  8
0
100
AcDbLine
 62
7
  6
CONTINUOUS
 10
59622.3985888244
 20
21200.2249607964
 11
59622.3985888244
 21
156141.6462467857
  0
LINE
  5
2B8
100
AcDbEntity
  8
0
100
AcDbLine
 62
7
  6
CONTINUOUS
 10
59646.1985888245
 20
19395.935603791
 11
59646.1985888245
 21
21170.935603791
  0
LINE
  5
2B9
100
AcDbEntity
  8
0
100
AcDbLine
 62
7
  6
CONTINUOUS
 10
59646.1985888245
 20
156170.9356037909
 11
59646.1985888245
 21
157945.935603791
  0
LINE
  5
2BA
100
AcDbEntity
  8
0
100
AcDbLine
 62
7
  6
CONTINUOUS
 10
59956.2908994403
 20
157945.935603791
 11
59956.2908994403
 21
156170.9356037909
  0
LINE
  5
2BB
100
AcDbEntity
  8
0
100
AcDbLine
 62
7
  6
CONTINUOUS
 10
59956.2908994403
 20
21170.935603791
 11
59956.2908994403
 21
19395.935603791
  0
LINE
  5
2BC
100
AcDbEntity
  8
0
100
AcDbLine
 62
7
  6
CONTINUOUS
 10
60149.1985888244
 20
17803.8370317743
 11
60149.1985888244
 21
17319.6132508492
  0
LINE
  5
2BD
100
AcDbEntity
  8
0
100
AcDbLine
 62
7
  6
CONTINUOUS
 10
60149.1985888244
 20
17820.5388801842
 11
60149.1985888244
 21
21170.935603791
  0
LINE
  5
2BE
100
AcDbEntity
  8
0
100
AcDbLine
 62
7
  6
CONTINUOUS
 10
60149.1985888244
 20
156170.9356037909
 11
60149.1983618892
 21
160016.4785753862
  0
LINE
  5
2BF
100
AcDbEntity
  8
0
100
AcDbLine
 62
7
  6
CONTINUOUS
 10
60259.3985888244
 20
156142.4321234472
 11
60259.3985888244
 21
21199.4390841347
  0
LINE
  5
2C0
100
AcDbEntity
  8
0
100
AcDbLine
 62
7
  6
CONTINUOUS
 10
60349.0985888244
 20
22170.935603791
 11
60349.0985888244
 21
25170.935603791
  0
LINE
  5
2C1
100
AcDbEntity
  8
0
100
AcDbLine
 62
7
  6
CONTINUOUS
 10
60349.0985888244
 20
72170.935603791
 11
60349.0985888244
 21
75170.935603791
  0
LINE
  5
2C2
100
AcDbEntity
  8
0
100
AcDbLine
 62
7
  6
CONTINUOUS
 10
60349.0985888244
 20
102170.935603791
 11
60349.0985888244
 21
105170.935603791
  0
LINE
  5
2C3
100
AcDbEntity
  8
0
100
AcDbLine
 62
7
  6
CONTINUOUS
 10
60349.0985888244
 20
152170.935603791
 11
60349.0985888244
 21
155170.9356037909
  0
LINE
  5
2C4
100
AcDbEntity
  8
0
100
AcDbLine
 62
7
  6
CONTINUOUS
 10
60453.1985888244
 20
21195.9557860275
 11
60453.1985888244
 21
22170.9356037909
  0
LINE
  5
2C5
100
AcDbEntity
  8
0
100
AcDbLine
 62
7
  6
CONTINUOUS
 10
60453.1985888244
 20
25170.9356037909
 11
60453.1985888244
 21
72170.9356037909
  0
LINE
  5
2C6
100
AcDbEntity
  8
0
100
AcDbLine
 62
7
  6
CONTINUOUS
 10
60453.1985888244
 20
75170.9356037909
 11
60453.1985888244
 21
102170.9356037909
  0
LINE
  5
2C7
100
AcDbEntity
  8
0
100
AcDbLine
 62
7
  6
CONTINUOUS
 10
60453.1985888244
 20
105170.9356037909
 11
60453.1985888244
 21
152170.9356037909
  0
LINE
  5
2C8
100
AcDbEntity
  8
0
100
AcDbLine
 62
7
  6
CONTINUOUS
 10
60453.1985888244
 20
155170.9356037909
 11
60453.1985888244
 21
156145.9154215543
  0
LINE
  5
2C9
100
AcDbEntity
  8
0
100
AcDbLine
 62
7
  6
CONTINUOUS
 10
60477.4985888244
 20
21182.773619854
 11
60477.4985888244
 21
22170.9356037909
  0
LINE
  5
2CA
100
AcDbEntity
  8
0
100
AcDbLine
 62
7
  6
CONTINUOUS
 10
60477.4985888244
 20
25170.9356037909
 11
60477.4985888244
 21
72170.9356037909
  0
LINE
  5
2CB
100
AcDbEntity
  8
0
100
AcDbLine
 62
7
  6
CONTINUOUS
 10
60477.4985888244
 20
75170.9356037909
 11
60477.4985888244
 21
102170.9356037909
  0
LINE
  5
2CC
100
AcDbEntity
  8
0
100
AcDbLine
 62
7
  6
CONTINUOUS
 10
60477.4985888244
 20
105170.9356037909
 11
60477.4985888244
 21
152170.9356037909
  0
LINE
  5
2CD
100
AcDbEntity
  8
0
100
AcDbLine
 62
7
  6
CONTINUOUS
 10
60477.4985888244
 20
155170.9356037909
 11
60477.4985888244
 21
156159.0975877278
  0
LINE
  5
2CE
100
AcDbEntity
  8
0
100
AcDbLine
 62
7
  6
CONTINUOUS
 10
62599.0985888244
 20
17412.1086389004
 11
62599.0985888244
 21
22170.935603791
  0
LINE
  5
2CF
100
AcDbEntity
  8
0
100
AcDbLine
 62
7
  6
CONTINUOUS
 10
62599.0985888244
 20
25170.935603791
 11
62599.0985888244
 21
72170.935603791
  0
LINE
  5
2D0
100
AcDbEntity
  8
0
100
AcDbLine
 62
7
  6
CONTINUOUS
 10
62599.0985888244
 20
75170.935603791
 11
62599.0985888244
 21
102170.935603791
  0
LINE
  5
2D1
100
AcDbEntity
  8
0
100
AcDbLine
 62
7
  6
CONTINUOUS
 10
62599.0985888244
 20
105170.935603791
 11
62599.0985888244
 21
152170.935603791
  0
LINE
  5
2D2
100
AcDbEntity
  8
0
100
AcDbLine
 62
7
  6
CONTINUOUS
 10
62599.0985888244
 20
155170.9356037909
 11
62599.0985888244
 21
159929.7625686814
  0
LINE
  5
2D3
100
AcDbEntity
  8
0
100
AcDbLine
 62
7
  6
CONTINUOUS
 10
62599.1583424602
 20
159933.7277816001
 11
62599.1583424602
 21
162470.9312307982
  0
LINE
  5
2D4
100
AcDbEntity
  8
0
100
AcDbLine
 62
7
  6
CONTINUOUS
 10
62599.1985888244
 20
17411.5415563843
 11
62599.1985888244
 21
14870.9356037912
  0
LINE
  5
2D5
100
AcDbEntity
  8
0
100
AcDbLine
 62
7
  6
CONTINUOUS
 10
62949.0985888244
 20
22170.935603791
 11
62949.0985888244
 21
25170.935603791
  0
LINE
  5
2D6
100
AcDbEntity
  8
0
100
AcDbLine
 62
7
  6
CONTINUOUS
 10
62949.0985888244
 20
72170.935603791
 11
62949.0985888244
 21
75170.935603791
  0
LINE
  5
2D7
100
AcDbEntity
  8
0
100
AcDbLine
 62
7
  6
CONTINUOUS
 10
62949.0985888244
 20
102170.935603791
 11
62949.0985888244
 21
105170.935603791
  0
LINE
  5
2D8
100
AcDbEntity
  8
0
100
AcDbLine
 62
7
  6
CONTINUOUS
 10
62949.0985888244
 20
152170.935603791
 11
62949.0985888244
 21
155170.9356037909
  0
LINE
  5
2D9
100
AcDbEntity
  8
0
100
AcDbLine
 62
7
  6
CONTINUOUS
 10
62990.6985888244
 20
17334.3818471736
 11
62990.6985888244
 21
21180.6947931197
  0
LINE
  5
2DA
100
AcDbEntity
  8
0
100
AcDbLine
 62
7
  6
CONTINUOUS
 10
62990.6985888244
 20
156161.1764144621
 11
62990.6985888244
 21
160010.8852959025
  0
LINE
  5
2DB
100
AcDbEntity
  8
0
100
AcDbLine
 62
7
  6
CONTINUOUS
 10
62997.7985888244
 20
21180.6947931197
 11
62997.7985888244
 21
156161.1764144621
  0
LINE
  5
2DC
100
AcDbEntity
  8
0
100
AcDbLine
 62
7
  6
CONTINUOUS
 10
63047.7985888244
 20
21181.5434005126
 11
63047.7985888244
 21
156160.3278070694
  0
LINE
  5
2DD
100
AcDbEntity
  8
0
100
AcDbLine
 62
7
  6
CONTINUOUS
 10
63606.1985888245
 20
163476.9356037929
 11
63606.1985888245
 21
159450.9356037909
  0
LINE
  5
2DE
100
AcDbEntity
  8
0
100
AcDbLine
 62
7
  6
CONTINUOUS
 10
63606.1985888245
 20
17286.7834027574
 11
63606.1985888245
 21
13864.9356037888
  0
LINE
  5
2DF
100
AcDbEntity
  8
0
100
AcDbLine
 62
7
  6
CONTINUOUS
 10
63799.1418802987
 20
160055.0878048247
 11
63799.1418802987
 21
163670.8487912687
  0
LINE
  5
2E0
100
AcDbEntity
  8
0
100
AcDbLine
 62
7
  6
CONTINUOUS
 10
63799.1485888244
 20
13671.0139931353
 11
63799.1485888244
 21
17286.7834027574
  0
LINE
  5
2E1
100
AcDbEntity
  8
0
100
AcDbLine
 62
7
  6
CONTINUOUS
 10
63992.0985888244
 20
13864.935603789
 11
63992.0985888244
 21
17286.7834027574
  0
LINE
  5
2E2
100
AcDbEntity
  8
0
100
AcDbLine
 62
7
  6
CONTINUOUS
 10
63992.0985888244
 20
159450.9356037909
 11
63992.0985888244
 21
163476.9356037932
  0
LINE
  5
2E3
100
AcDbEntity
  8
0
100
AcDbLine
 62
7
  6
CONTINUOUS
 10
64550.1985888245
 20
156160.3278070694
 11
64550.1985888245
 21
21181.5434005126
  0
LINE
  5
2E4
100
AcDbEntity
  8
0
100
AcDbLine
 62
7
  6
CONTINUOUS
 10
64600.1985888245
 20
156161.1764144622
 11
64600.1985888245
 21
21180.6947931198
  0
LINE
  5
2E5
100
AcDbEntity
  8
0
100
AcDbLine
 62
7
  6
CONTINUOUS
 10
59114.9771808771
 20
19294.0577683384
 11
59115.8322069411
 21
21177.535603791
  0
LINE
  5
2E6
100
AcDbEntity
  8
0
100
AcDbLine
 62
7
  6
CONTINUOUS
 10
62991.4093731381
 20
17494.3356037888
 11
62993.0713160971
 21
21177.535603791
  0
LINE
  5
2E7
100
AcDbEntity
  8
0
100
AcDbLine
 62
7
  6
CONTINUOUS
 10
64606.5878045107
 20
159847.5356037911
 11
64604.9258615517
 21
156164.335603791
  0
LINE
  5
2E8
100
AcDbEntity
  8
0
100
AcDbLine
 62
7
  6
CONTINUOUS
 10
62991.4093731381
 20
17494.335603791
 11
62990.6803251705
 21
17334.3808246349
  0
LINE
  5
2E9
100
AcDbEntity
  8
0
100
AcDbLine
 62
7
  6
CONTINUOUS
 10
64606.5878045107
 20
159847.535603791
 11
64607.3171217403
 21
160007.5494596316
  0
LINE
  5
2EA
100
AcDbEntity
  8
0
100
AcDbLine
 62
7
  6
CONTINUOUS
 10
68482.3172427566
 20
21177.5356037912
 11
68483.1708339938
 21
19294.5168441643
  0
LINE
  5
2EB
100
AcDbEntity
  8
0
100
AcDbLine
 62
7
  6
CONTINUOUS
 10
64607.2985888245
 20
17338.3879117544
 11
64607.2985888245
 21
21180.6947931198
  0
LINE
  5
2EC
100
AcDbEntity
  8
0
100
AcDbLine
 62
7
  6
CONTINUOUS
 10
64607.2985888245
 20
156161.1764144622
 11
64607.2985888245
 21
160003.4832958245
  0
LINE
  5
2ED
100
AcDbEntity
  8
0
100
AcDbLine
 62
7
  6
CONTINUOUS
 10
64649.0985888244
 20
155170.9356037909
 11
64649.0985888244
 21
152170.935603791
  0
LINE
  5
2EE
100
AcDbEntity
  8
0
100
AcDbLine
 62
7
  6
CONTINUOUS
 10
64649.0985888244
 20
105170.935603791
 11
64649.0985888244
 21
102170.935603791
  0
LINE
  5
2EF
100
AcDbEntity
  8
0
100
AcDbLine
 62
7
  6
CONTINUOUS
 10
64649.0985888244
 20
75170.935603791
 11
64649.0985888244
 21
72170.935603791
  0
LINE
  5
2F0
100
AcDbEntity
  8
0
100
AcDbLine
 62
7
  6
CONTINUOUS
 10
64649.0985888244
 20
25170.935603791
 11
64649.0985888244
 21
22170.935603791
  0
LINE
  5
2F1
100
AcDbEntity
  8
0
100
AcDbLine
 62
7
  6
CONTINUOUS
 10
64999.0988103355
 20
14870.9399767836
 11
64999.1985888244
 21
22170.935603791
  0
LINE
  5
2F2
100
AcDbEntity
  8
0
100
AcDbLine
 62
7
  6
CONTINUOUS
 10
64999.1985888244
 20
25170.935603791
 11
64999.1985888244
 21
72170.935603791
  0
LINE
  5
2F3
100
AcDbEntity
  8
0
100
AcDbLine
 62
7
  6
CONTINUOUS
 10
64999.1985888244
 20
75170.935603791
 11
64999.1985888244
 21
102170.935603791
  0
LINE
  5
2F4
100
AcDbEntity
  8
0
100
AcDbLine
 62
7
  6
CONTINUOUS
 10
64999.1985888244
 20
105170.935603791
 11
64999.1985888244
 21
152170.935603791
  0
LINE
  5
2F5
100
AcDbEntity
  8
0
100
AcDbLine
 62
7
  6
CONTINUOUS
 10
64999.1985888244
 20
155170.9356037909
 11
64999.0985888244
 21
162470.9356037907
  0
LINE
  5
2F6
100
AcDbEntity
  8
0
100
AcDbLine
 62
7
  6
CONTINUOUS
 10
67120.6985888244
 20
21182.7614222119
 11
67120.6985888244
 21
22170.935603791
  0
LINE
  5
2F7
100
AcDbEntity
  8
0
100
AcDbLine
 62
7
  6
CONTINUOUS
 10
67120.6985888244
 20
25170.935603791
 11
67120.6985888244
 21
72170.935603791
  0
LINE
  5
2F8
100
AcDbEntity
  8
0
100
AcDbLine
 62
7
  6
CONTINUOUS
 10
67120.6985888244
 20
75170.935603791
 11
67120.6985888244
 21
102170.935603791
  0
LINE
  5
2F9
100
AcDbEntity
  8
0
100
AcDbLine
 62
7
  6
CONTINUOUS
 10
67120.6985888244
 20
105170.935603791
 11
67120.6985888244
 21
152170.935603791
  0
LINE
  5
2FA
100
AcDbEntity
  8
0
100
AcDbLine
 62
7
  6
CONTINUOUS
 10
67120.6985888244
 20
155170.9356037909
 11
67120.6985888244
 21
156159.10978537
  0
LINE
  5
2FB
100
AcDbEntity
  8
0
100
AcDbLine
 62
7
  6
CONTINUOUS
 10
67144.9985888244
 20
156145.9276191965
 11
67144.9985888244
 21
155170.9356037909
  0
LINE
  5
2FC
100
AcDbEntity
  8
0
100
AcDbLine
 62
7
  6
CONTINUOUS
 10
67144.9985888244
 20
152170.935603791
 11
67144.9985888244
 21
105170.935603791
  0
LINE
  5
2FD
100
AcDbEntity
  8
0
100
AcDbLine
 62
7
  6
CONTINUOUS
 10
67144.9985888244
 20
102170.935603791
 11
67144.9985888244
 21
75170.935603791
  0
LINE
  5
2FE
100
AcDbEntity
  8
0
100
AcDbLine
 62
7
  6
CONTINUOUS
 10
67144.9985888244
 20
72170.935603791
 11
67144.9985888244
 21
25170.935603791
  0
LINE
  5
2FF
100
AcDbEntity
  8
0
100
AcDbLine
 62
7
  6
CONTINUOUS
 10
67144.9985888244
 20
22170.935603791
 11
67144.9985888244
 21
21195.9435883854
  0
LINE
  5
300
100
AcDbEntity
  8
0
100
AcDbLine
 62
7
  6
CONTINUOUS
 10
67249.0985888244
 20
155170.9356037909
 11
67249.0985888244
 21
152170.935603791
  0
LINE
  5
301
100
AcDbEntity
  8
0
100
AcDbLine
 62
7
  6
CONTINUOUS
 10
67249.0985888244
 20
105170.935603791
 11
67249.0985888244
 21
102170.935603791
  0
LINE
  5
302
100
AcDbEntity
  8
0
100
AcDbLine
 62
7
  6
CONTINUOUS
 10
67249.0985888244
 20
75170.935603791
 11
67249.0985888244
 21
72170.935603791
  0
LINE
  5
303
100
AcDbEntity
  8
0
100
AcDbLine
 62
7
  6
CONTINUOUS
 10
67249.0985888244
 20
25170.935603791
 11
67249.0985888244
 21
22170.935603791
  0
LINE
  5
304
100
AcDbEntity
  8
0
100
AcDbLine
 62
7
  6
CONTINUOUS
 10
67338.6985888244
 20
21199.4268864926
 11
67338.6985888244
 21
156142.4443210894
  0
LINE
  5
305
100
AcDbEntity
  8
0
100
AcDbLine
 62
7
  6
CONTINUOUS
 10
67449.0985888244
 20
159470.7563894906
 11
67449.0985888244
 21
156170.9356037909
  0
LINE
  5
306
100
AcDbEntity
  8
0
100
AcDbLine
 62
7
  6
CONTINUOUS
 10
67449.0985888244
 20
159538.0341758076
 11
67449.0985888244
 21
160022.2579567327
  0
LINE
  5
307
100
AcDbEntity
  8
0
100
AcDbLine
 62
7
  6
CONTINUOUS
 10
67449.0988157596
 20
17325.3926321957
 11
67449.0988247256
 21
21170.935603791
  0
LINE
  5
308
100
AcDbEntity
  8
0
100
AcDbLine
 62
7
  6
CONTINUOUS
 10
67642.0065166193
 20
19395.935603791
 11
67642.0065166193
 21
21170.935603791
  0
LINE
  5
309
100
AcDbEntity
  8
0
100
AcDbLine
 62
7
  6
CONTINUOUS
 10
67642.0065166193
 20
156170.9356037909
 11
67642.0065166193
 21
157945.935603791
  0
LINE
  5
30A
100
AcDbEntity
  8
0
100
AcDbLine
 62
7
  6
CONTINUOUS
 10
67951.5985888244
 20
156142.0574815797
 11
67951.5985888244
 21
21199.8137260023
  0
LINE
  5
30B
100
AcDbEntity
  8
0
100
AcDbLine
 62
7
  6
CONTINUOUS
 10
67952.0988273738
 20
157945.935603791
 11
67952.0988273738
 21
156170.9356037909
  0
LINE
  5
30C
100
AcDbEntity
  8
0
100
AcDbLine
 62
7
  6
CONTINUOUS
 10
67952.0988273738
 20
21170.935603791
 11
67952.0988273738
 21
19395.935603791
  0
LINE
  5
30D
100
AcDbEntity
  8
0
100
AcDbLine
 62
7
  6
CONTINUOUS
 10
67975.6985888244
 20
21200.2249607964
 11
67975.6985888244
 21
156141.6462467857
  0
LINE
  5
30E
100
AcDbEntity
  8
0
100
AcDbLine
 62
7
  6
CONTINUOUS
 10
67976.0988276752
 20
19395.935603791
 11
67976.0988276752
 21
21170.935603791
  0
LINE
  5
30F
100
AcDbEntity
  8
0
100
AcDbLine
 62
7
  6
CONTINUOUS
 10
67976.0988276752
 20
156170.9356037909
 11
67976.0988276752
 21
157945.935603791
  0
LINE
  5
310
100
AcDbEntity
  8
0
100
AcDbLine
 62
7
  6
CONTINUOUS
 10
68018.9881197722
 20
156127.235603791
 11
68018.9881197722
 21
21214.635603791
  0
LINE
  5
311
100
AcDbEntity
  8
0
100
AcDbLine
 62
7
  6
CONTINUOUS
 10
68019.0988380589
 20
157945.935603791
 11
68019.0988380589
 21
156170.935603791
  0
LINE
  5
312
100
AcDbEntity
  8
0
100
AcDbLine
 62
7
  6
CONTINUOUS
 10
68019.0988380589
 20
21170.935603791
 11
68019.0988380589
 21
19395.935603791
  0
LINE
  5
313
100
AcDbEntity
  8
0
100
AcDbLine
 62
7
  6
CONTINUOUS
 10
68099.0271602491
 20
21214.635603791
 11
68099.027160252
 21
156127.235603791
  0
LINE
  5
314
100
AcDbEntity
  8
0
100
AcDbLine
 62
7
  6
CONTINUOUS
 10
68299.0985888244
 20
21214.6268911894
 11
68299.0985888244
 21
156127.2443163925
  0
LINE
  5
315
100
AcDbEntity
  8
0
100
AcDbLine
 62
7
  6
CONTINUOUS
 10
68299.0988380588
 20
157945.935603791
 11
68299.0988380588
 21
156170.9356037909
  0
LINE
  5
316
100
AcDbEntity
  8
0
100
AcDbLine
 62
7
  6
CONTINUOUS
 10
68299.0988380588
 20
21170.935603791
 11
68299.0988380588
 21
19395.935603791
  0
LINE
  5
317
100
AcDbEntity
  8
0
100
AcDbLine
 62
7
  6
CONTINUOUS
 10
68324.0988273862
 20
19395.935603791
 11
68324.0988273862
 21
21170.935603791
  0
LINE
  5
318
100
AcDbEntity
  8
0
100
AcDbLine
 62
7
  6
CONTINUOUS
 10
68324.0988273862
 20
156170.935603791
 11
68324.0988273862
 21
157945.935603791
  0
LINE
  5
319
100
AcDbEntity
  8
0
100
AcDbLine
 62
7
  6
CONTINUOUS
 10
68449.0988273862
 20
157945.935603791
 11
68449.0988273862
 21
156170.9356037909
  0
LINE
  5
31A
100
AcDbEntity
  8
0
100
AcDbLine
 62
7
  6
CONTINUOUS
 10
68449.0988273862
 20
21170.935603791
 11
68449.0988273862
 21
19395.935603791
  0
LINE
  5
31B
100
AcDbEntity
  8
0
100
AcDbLine
 62
7
  6
CONTINUOUS
 10
68449.0985888244
 20
21199.8276661648
 11
68449.0985888244
 21
156142.0435414171
  0
LINE
  5
31C
100
AcDbEntity
  8
0
100
AcDbLine
 62
7
  6
CONTINUOUS
 10
68492.0985888244
 20
156170.9356037909
 11
68492.0985888244
 21
21170.935603791
  0
LINE
  5
31D
100
AcDbEntity
  8
0
100
AcDbLine
 62
7
  6
CONTINUOUS
 10
69524.0985888244
 20
16820.8140765536
 11
69524.0985888244
 21
18321.9485979431
  0
LINE
  5
31E
100
AcDbEntity
  8
0
100
AcDbLine
 62
7
  6
CONTINUOUS
 10
69524.0985888244
 20
159019.9226096389
 11
69524.0985888244
 21
160521.0571310284
  0
LINE
  5
31F
100
AcDbEntity
  8
0
100
AcDbLine
 62
7
  6
CONTINUOUS
 10
68483.1708339938
 20
158047.3543634176
 11
68482.3172427567
 21
156164.335603791
  0
LINE
  5
320
100
AcDbEntity
  8
0
100
AcDbLine
 62
7
  6
CONTINUOUS
 10
65080.450509013
 20
159849.1715281853
 11
65440.2906230752
 21
156170.9356037909
  0
LINE
  5
321
100
AcDbEntity
  8
0
100
AcDbLine
 62
7
  6
CONTINUOUS
 10
65445.9063064887
 20
21170.935603791
 11
65081.8953772812
 21
17494.3356037911
  0
LWPOLYLINE
  5
322
100
AcDbEntity
  8
0
100
AcDbPolyline
 62
7
  6
CONTINUOUS
 90
3
 70
0
 10
13992.1985888269
 20
13864.9356037912
 10
13857.1729407873
 20
13729.6153639535
 10
13799.1985888244
 20
13670.9370282367
  0
LINE
  5
323
100
AcDbEntity
  8
0
100
AcDbLine
 62
7
  6
CONTINUOUS
 10
17449.1988157596
 20
17325.3926321957
 11
14999.1944452759
 21
14870.935603791
  0
LINE
  5
324
100
AcDbEntity
  8
0
100
AcDbLine
 62
7
  6
CONTINUOUS
 10
14999.1766661511
 20
14870.935603791
 11
13992.1985888265
 21
13864.9356037912
  0
LINE
  5
325
100
AcDbEntity
  8
0
100
AcDbLine
 62
7
  6
CONTINUOUS
 10
60349.0985888244
 20
102170.935603791
 11
60453.1985271918
 21
102170.935603791
  0
LINE
  5
326
100
AcDbEntity
  8
0
100
AcDbLine
 62
7
  6
CONTINUOUS
 10
60477.4985888244
 20
102170.935603791
 11
62949.0985888244
 21
102170.935603791
  0
LINE
  5
327
100
AcDbEntity
  8
0
100
AcDbLine
 62
7
  6
CONTINUOUS
 10
64649.0985888244
 20
102170.935603791
 11
67120.6985888244
 21
102170.935603791
  0
LINE
  5
328
100
AcDbEntity
  8
0
100
AcDbLine
 62
7
  6
CONTINUOUS
 10
67145.0018685729
 20
102170.935603791
 11
67249.0985888244
 21
102170.935603791
  0
LINE
  5
329
100
AcDbEntity
  8
0
100
AcDbLine
 62
7
  6
CONTINUOUS
 10
13803.8211005707
 20
102375.935603791
 11
16899.1985888244
 21
102375.935603791
  0
LINE
  5
32A
100
AcDbEntity
  8
0
100
AcDbLine
 62
7
  6
CONTINUOUS
 10
110699.0985888244
 20
102375.935603791
 11
113794.4760770781
 21
102375.935603791
  0
LINE
  5
32B
100
AcDbEntity
  8
0
100
AcDbLine
 62
7
  6
CONTINUOUS
 10
113794.4760770781
 20
104965.935603791
 11
110699.0985888244
 21
104965.935603791
  0
LINE
  5
32C
100
AcDbEntity
  8
0
100
AcDbLine
 62
7
  6
CONTINUOUS
 10
16899.1985888244
 20
104965.935603791
 11
13803.8211005707
 21
104965.935603791
  0
LINE
  5
32D
100
AcDbEntity
  8
0
100
AcDbLine
 62
7
  6
CONTINUOUS
 10
67249.0985888244
 20
105170.935603791
 11
67145.001846908
 21
105170.935603791
  0
LINE
  5
32E
100
AcDbEntity
  8
0
100
AcDbLine
 62
7
  6
CONTINUOUS
 10
67120.6985888244
 20
105170.935603791
 11
64649.0985888244
 21
105170.935603791
  0
LINE
  5
32F
100
AcDbEntity
  8
0
100
AcDbLine
 62
7
  6
CONTINUOUS
 10
62949.0985888244
 20
105170.935603791
 11
60477.4985888244
 21
105170.935603791
  0
LINE
  5
330
100
AcDbEntity
  8
0
100
AcDbLine
 62
7
  6
CONTINUOUS
 10
60453.19852667
 20
105170.935603791
 11
60349.0985888244
 21
105170.935603791
  0
LINE
  5
331
100
AcDbEntity
  8
0
100
AcDbLine
 62
7
  6
CONTINUOUS
 10
13992.1985888268
 20
163476.9356037908
 11
14999.1985888242
 21
162470.935603791
  0
LINE
  5
332
100
AcDbEntity
  8
0
100
AcDbLine
 62
7
  6
CONTINUOUS
 10
14999.341002127
 20
162470.9356037909
 11
17449.1985888244
 21
160022.2579567322
  0
LWPOLYLINE
  5
333
100
AcDbEntity
  8
0
100
AcDbPolyline
 62
7
  6
CONTINUOUS
 90
3
 70
0
 10
13799.1985888245
 20
163670.9341793452
 10
13857.4989889962
 20
163611.927621628
 10
13992.1985888272
 20
163476.9356037908
  0
LINE
  5
334
100
AcDbEntity
  8
0
100
AcDbLine
 62
7
  6
CONTINUOUS
 10
108074.0985888244
 20
16820.8140765536
 11
108074.0985888244
 21
18321.9485979431
  0
LINE
  5
335
100
AcDbEntity
  8
0
100
AcDbLine
 62
7
  6
CONTINUOUS
 10
108074.0985888244
 20
159019.9226096389
 11
108074.0985888244
 21
160521.0571310284
  0
LINE
  5
336
100
AcDbEntity
  8
0
100
AcDbLine
 62
7
  6
CONTINUOUS
 10
109149.0985888244
 20
157945.935603791
 11
109149.0985888244
 21
19395.935603791
  0
LINE
  5
337
100
AcDbEntity
  8
0
100
AcDbLine
 62
7
  6
CONTINUOUS
 10
109299.0985888245
 20
157945.935603791
 11
109299.0985888245
 21
19395.935603791
  0
LINE
  5
338
100
AcDbEntity
  8
0
100
AcDbLine
 62
7
  6
CONTINUOUS
 10
109579.0985888244
 20
157945.935603791
 11
109579.0985888244
 21
19395.935603791
  0
LINE
  5
339
100
AcDbEntity
  8
0
100
AcDbLine
 62
7
  6
CONTINUOUS
 10
109622.0985888243
 20
157945.935603791
 11
109622.0985888243
 21
19395.935603791
  0
LINE
  5
33A
100
AcDbEntity
  8
0
100
AcDbLine
 62
7
  6
CONTINUOUS
 10
109646.0985888245
 20
19395.935603791
 11
109646.0985888245
 21
157945.935603791
  0
LINE
  5
33B
100
AcDbEntity
  8
0
100
AcDbLine
 62
7
  6
CONTINUOUS
 10
109956.1908994403
 20
157945.935603791
 11
109956.1908994403
 21
19395.935603791
  0
LINE
  5
33C
100
AcDbEntity
  8
0
100
AcDbLine
 62
7
  6
CONTINUOUS
 10
110149.0985888244
 20
17803.8370317743
 11
110149.0985888244
 21
17319.6132508492
  0
LINE
  5
33D
100
AcDbEntity
  8
0
100
AcDbLine
 62
7
  6
CONTINUOUS
 10
110149.0985888245
 20
17820.5388801842
 11
110149.0983618892
 21
160016.4785753862
  0
LINE
  5
33E
100
AcDbEntity
  8
0
100
AcDbLine
 62
7
  6
CONTINUOUS
 10
110699.0985888244
 20
154965.935603791
 11
110699.0985888244
 21
152375.935603791
  0
LINE
  5
33F
100
AcDbEntity
  8
0
100
AcDbLine
 62
7
  6
CONTINUOUS
 10
110699.0985888244
 20
104965.935603791
 11
110699.0985888244
 21
102375.935603791
  0
LINE
  5
340
100
AcDbEntity
  8
0
100
AcDbLine
 62
7
  6
CONTINUOUS
 10
110699.0985888244
 20
74965.935603791
 11
110699.0985888244
 21
72375.935603791
  0
LINE
  5
341
100
AcDbEntity
  8
0
100
AcDbLine
 62
7
  6
CONTINUOUS
 10
110699.0985888244
 20
24965.935603791
 11
110699.0985888244
 21
22375.935603791
  0
LINE
  5
342
100
AcDbEntity
  8
0
100
AcDbLine
 62
7
  6
CONTINUOUS
 10
112599.0472376453
 20
159450.935603791
 11
112599.0983673133
 21
162470.9312307982
  0
LINE
  5
343
100
AcDbEntity
  8
0
100
AcDbLine
 62
7
  6
CONTINUOUS
 10
112599.0985888244
 20
159450.9356037909
 11
112599.0985888244
 21
154965.9356037909
  0
LINE
  5
344
100
AcDbEntity
  8
0
100
AcDbLine
 62
7
  6
CONTINUOUS
 10
112599.0985888244
 20
152375.9356037909
 11
112599.0985888244
 21
104965.9356037909
  0
LINE
  5
345
100
AcDbEntity
  8
0
100
AcDbLine
 62
7
  6
CONTINUOUS
 10
112599.0985888244
 20
102375.9356037909
 11
112599.0985888244
 21
74965.9356037909
  0
LINE
  5
346
100
AcDbEntity
  8
0
100
AcDbLine
 62
7
  6
CONTINUOUS
 10
112599.0985888244
 20
72375.9356037909
 11
112599.0985888244
 21
24965.935603791
  0
LINE
  5
347
100
AcDbEntity
  8
0
100
AcDbLine
 62
7
  6
CONTINUOUS
 10
112599.0985888244
 20
22375.935603791
 11
112599.0985888244
 21
14870.9356037912
  0
LINE
  5
348
100
AcDbEntity
  8
0
100
AcDbLine
 62
7
  6
CONTINUOUS
 10
113794.4760770781
 20
24965.935603791
 11
113796.7873329513
 21
24470.935603791
  0
LINE
  5
349
100
AcDbEntity
  8
0
100
AcDbLine
 62
7
  6
CONTINUOUS
 10
113794.4760770781
 20
74965.935603791
 11
113796.7873329513
 21
74470.935603791
  0
LINE
  5
34A
100
AcDbEntity
  8
0
100
AcDbLine
 62
7
  6
CONTINUOUS
 10
113794.4760770781
 20
104965.935603791
 11
113796.7873329513
 21
104470.935603791
  0
LINE
  5
34B
100
AcDbEntity
  8
0
100
AcDbLine
 62
7
  6
CONTINUOUS
 10
113794.4760770781
 20
154965.935603791
 11
113796.7873329513
 21
154470.9356037909
  0
LINE
  5
34C
100
AcDbEntity
  8
0
100
AcDbLine
 62
7
  6
CONTINUOUS
 10
113606.0985888245
 20
163476.935603793
 11
113606.0985888245
 21
154965.9356037909
  0
LINE
  5
34D
100
AcDbEntity
  8
0
100
AcDbLine
 62
7
  6
CONTINUOUS
 10
113606.0985888245
 20
152375.9356037909
 11
113606.0985888245
 21
104965.9356037909
  0
LINE
  5
34E
100
AcDbEntity
  8
0
100
AcDbLine
 62
7
  6
CONTINUOUS
 10
113606.0985888245
 20
102375.9356037909
 11
113606.0985888245
 21
74965.9356037909
  0
LINE
  5
34F
100
AcDbEntity
  8
0
100
AcDbLine
 62
7
  6
CONTINUOUS
 10
113606.0985888245
 20
72375.9356037909
 11
113606.0985888245
 21
24965.935603791
  0
LINE
  5
350
100
AcDbEntity
  8
0
100
AcDbLine
 62
7
  6
CONTINUOUS
 10
113606.0985888245
 20
22375.935603791
 11
113606.0985888245
 21
13864.9356037887
  0
LINE
  5
351
100
AcDbEntity
  8
0
100
AcDbLine
 62
7
  6
CONTINUOUS
 10
113796.7873329513
 20
22870.935603791
 11
113796.7873329513
 21
24470.935603791
  0
LINE
  5
352
100
AcDbEntity
  8
0
100
AcDbLine
 62
7
  6
CONTINUOUS
 10
113796.7873329513
 20
72870.935603791
 11
113796.7873329513
 21
74470.935603791
  0
LINE
  5
353
100
AcDbEntity
  8
0
100
AcDbLine
 62
7
  6
CONTINUOUS
 10
113796.7873329513
 20
102870.935603791
 11
113796.7873329513
 21
104470.935603791
  0
LINE
  5
354
100
AcDbEntity
  8
0
100
AcDbLine
 62
7
  6
CONTINUOUS
 10
113796.7873329513
 20
152870.935603791
 11
113796.7873329513
 21
154470.9356037909
  0
LINE
  5
355
100
AcDbEntity
  8
0
100
AcDbLine
 62
7
  6
CONTINUOUS
 10
113799.0985888244
 20
13670.9356037909
 11
113799.0985888244
 21
22870.935603791
  0
LINE
  5
356
100
AcDbEntity
  8
0
100
AcDbLine
 62
7
  6
CONTINUOUS
 10
113799.0985888244
 20
24470.935603791
 11
113799.0985888244
 21
72870.935603791
  0
LINE
  5
357
100
AcDbEntity
  8
0
100
AcDbLine
 62
7
  6
CONTINUOUS
 10
113799.0985888244
 20
74470.935603791
 11
113799.0985888244
 21
102870.935603791
  0
LINE
  5
358
100
AcDbEntity
  8
0
100
AcDbLine
 62
7
  6
CONTINUOUS
 10
113799.0985888244
 20
104470.935603791
 11
113799.0985888244
 21
152870.935603791
  0
LINE
  5
359
100
AcDbEntity
  8
0
100
AcDbLine
 62
7
  6
CONTINUOUS
 10
113799.0985888244
 20
154470.9356037909
 11
113799.0985888244
 21
163670.9356037909
  0
LINE
  5
35A
100
AcDbEntity
  8
0
100
AcDbLine
 62
7
  6
CONTINUOUS
 10
113796.7873329513
 20
152870.935603791
 11
113794.4760770781
 21
152375.935603791
  0
LINE
  5
35B
100
AcDbEntity
  8
0
100
AcDbLine
 62
7
  6
CONTINUOUS
 10
113796.7873329513
 20
102870.935603791
 11
113794.4760770781
 21
102375.935603791
  0
LINE
  5
35C
100
AcDbEntity
  8
0
100
AcDbLine
 62
7
  6
CONTINUOUS
 10
113796.7873329513
 20
72870.935603791
 11
113794.4760770781
 21
72375.935603791
  0
LINE
  5
35D
100
AcDbEntity
  8
0
100
AcDbLine
 62
7
  6
CONTINUOUS
 10
113796.7873329513
 20
22870.935603791
 11
113794.4760770781
 21
22375.935603791
  0
LWPOLYLINE
  5
35E
100
AcDbEntity
  8
0
100
AcDbPolyline
 62
7
  6
CONTINUOUS
 90
3
 70
0
 10
63992.0985888269
 20
13864.9356037912
 10
63858.4174035458
 20
13730.9666172521
 10
63799.1235888244
 20
13670.9608160005
  0
LINE
  5
35F
100
AcDbEntity
  8
0
100
AcDbLine
 62
7
  6
CONTINUOUS
 10
67449.0988157596
 20
17325.3926321957
 11
64999.0944452759
 21
14870.935603791
  0
LINE
  5
360
100
AcDbEntity
  8
0
100
AcDbLine
 62
7
  6
CONTINUOUS
 10
65081.8953772812
 20
17494.3356037911
 11
64999.0988103355
 21
17411.545921081
  0
LINE
  5
361
100
AcDbEntity
  8
0
100
AcDbLine
 62
7
  6
CONTINUOUS
 10
64999.076666151
 20
14870.935603791
 11
63992.0985888265
 21
13864.9356037912
  0
LINE
  5
362
100
AcDbEntity
  8
0
100
AcDbLine
 62
7
  6
CONTINUOUS
 10
59135.8065215552
 20
21190.9205480512
 11
59115.8322069411
 21
21177.535603791
  0
LINE
  5
363
100
AcDbEntity
  8
0
100
AcDbLine
 62
7
  6
CONTINUOUS
 10
59115.8322069411
 20
156164.335603791
 11
59135.8065215552
 21
156150.9506595307
  0
LINE
  5
364
100
AcDbEntity
  8
0
100
AcDbLine
 62
7
  6
CONTINUOUS
 10
63992.0985888268
 20
163476.9356037908
 11
64999.0985888242
 21
162470.935603791
  0
LINE
  5
365
100
AcDbEntity
  8
0
100
AcDbLine
 62
7
  6
CONTINUOUS
 10
64999.2410885768
 20
159930.3296511978
 11
65080.450509013
 21
159849.1715281853
  0
LINE
  5
366
100
AcDbEntity
  8
0
100
AcDbLine
 62
7
  6
CONTINUOUS
 10
64999.2410885768
 20
162470.9356037909
 11
67449.0985888244
 21
160022.2579567322
  0
LWPOLYLINE
  5
367
100
AcDbEntity
  8
0
100
AcDbPolyline
 62
7
  6
CONTINUOUS
 90
3
 70
0
 10
63799.0985888244
 20
163670.9341793452
 10
63857.3989889962
 20
163611.927621628
 10
63992.0985888272
 20
163476.9356037908
  0
LINE
  5
368
100
AcDbEntity
  8
0
100
AcDbLine
 62
7
  6
CONTINUOUS
 10
62997.8506560832
 20
21180.7287813204
 11
62996.4985888244
 21
21179.846185727
  0
LINE
  5
369
100
AcDbEntity
  8
0
100
AcDbLine
 62
7
  6
CONTINUOUS
 10
62996.4985888244
 20
156162.0250218549
 11
62997.8514531973
 21
156161.1419059255
  0
LINE
  5
36A
100
AcDbEntity
  8
0
100
AcDbLine
 62
7
  6
CONTINUOUS
 10
68005.9917543264
 20
21210.3092463884
 11
67975.6985888245
 21
21200.2249607963
  0
LINE
  5
36B
100
AcDbEntity
  8
0
100
AcDbLine
 62
7
  6
CONTINUOUS
 10
60349.0985888244
 20
152170.935603791
 11
60453.1985271918
 21
152170.935603791
  0
LINE
  5
36C
100
AcDbEntity
  8
0
100
AcDbLine
 62
7
  6
CONTINUOUS
 10
60477.4985888244
 20
152170.935603791
 11
62949.0985888244
 21
152170.935603791
  0
LINE
  5
36D
100
AcDbEntity
  8
0
100
AcDbLine
 62
7
  6
CONTINUOUS
 10
64649.0985888244
 20
152170.935603791
 11
67120.6985888244
 21
152170.935603791
  0
LINE
  5
36E
100
AcDbEntity
  8
0
100
AcDbLine
 62
7
  6
CONTINUOUS
 10
67145.0018685729
 20
152170.935603791
 11
67249.0985888244
 21
152170.935603791
  0
LINE
  5
36F
100
AcDbEntity
  8
0
100
AcDbLine
 62
7
  6
CONTINUOUS
 10
13803.8211005707
 20
152375.935603791
 11
16899.1985888244
 21
152375.935603791
  0
LINE
  5
370
100
AcDbEntity
  8
0
100
AcDbLine
 62
7
  6
CONTINUOUS
 10
110699.0985888244
 20
152375.935603791
 11
113794.4760770781
 21
152375.935603791
  0
LINE
  5
371
100
AcDbEntity
  8
0
100
AcDbLine
 62
7
  6
CONTINUOUS
 10
113794.4760770781
 20
154965.935603791
 11
110699.0280953719
 21
154965.935603791
  0
LINE
  5
372
100
AcDbEntity
  8
0
100
AcDbLine
 62
7
  6
CONTINUOUS
 10
16899.1985888244
 20
154965.935603791
 11
13803.8211005707
 21
154965.935603791
  0
LINE
  5
373
100
AcDbEntity
  8
0
100
AcDbLine
 62
7
  6
CONTINUOUS
 10
67249.0985888244
 20
155170.9356037909
 11
67145.001846908
 21
155170.9356037909
  0
LINE
  5
374
100
AcDbEntity
  8
0
100
AcDbLine
 62
7
  6
CONTINUOUS
 10
67120.6985888244
 20
155170.9356037909
 11
64649.0985888244
 21
155170.9356037909
  0
LINE
  5
375
100
AcDbEntity
  8
0
100
AcDbLine
 62
7
  6
CONTINUOUS
 10
62949.0985888244
 20
155170.9356037909
 11
60477.4985888244
 21
155170.9356037909
  0
LINE
  5
376
100
AcDbEntity
  8
0
100
AcDbLine
 62
7
  6
CONTINUOUS
 10
60453.19852667
 20
155170.9356037909
 11
60349.0985888244
 21
155170.9356037909
  0
LINE
  5
377
100
AcDbEntity
  8
0
100
AcDbLine
 62
7
  6
CONTINUOUS
 10
67975.6985888245
 20
156141.6462467857
 11
68005.9917543264
 21
156131.5619611935
  0
LINE
  5
378
100
AcDbEntity
  8
0
100
AcDbLine
 62
7
  6
CONTINUOUS
 10
62990.6985888244
 20
160010.8852959025
 11
62599.0985888244
 21
159933.703567598
  0
LINE
  5
379
100
AcDbEntity
  8
0
100
AcDbLine
 62
7
  6
CONTINUOUS
 10
63231.2542215319
 20
160056.6985999309
 11
62990.6648859329
 21
160010.8777867279
  0
LWPOLYLINE
  5
37A
100
AcDbEntity
  8
0
100
AcDbPolyline
 62
7
  6
CONTINUOUS
 90
4
 70
0
 10
60259.398588824
 20
156142.4321234472
 10
60357.0501309727
 20
156142.9372521286
 10
60427.2245053731
 20
156144.1982254735
 10
60453.1985307325
 20
156145.9153900409
  0
LWPOLYLINE
  5
37B
100
AcDbEntity
  8
0
100
AcDbPolyline
 62
7
  6
CONTINUOUS
 90
4
 70
0
 10
64553.4468520257
 20
156160.3278070693
 10
64576.0535865323
 20
156160.4302229345
 10
64593.1849283935
 20
156160.7156983872
 10
64600.1465215656
 20
156161.1424262615
  0
LINE
  5
37C
100
AcDbEntity
  8
0
100
AcDbLine
 62
7
  6
CONTINUOUS
 10
60477.4985888244
 20
156159.0975877278
 11
62158.4499857668
 21
156164.335603791
  0
LINE
  5
37D
100
AcDbEntity
  8
0
100
AcDbLine
 62
7
  6
CONTINUOUS
 10
59622.3985888244
 20
156141.6462467857
 11
60259.3985888241
 21
156142.4321234472
  0
LINE
  5
37E
100
AcDbEntity
  8
0
100
AcDbLine
 62
7
  6
CONTINUOUS
 10
68299.0985888244
 20
156127.2443163925
 11
68018.9881197722
 21
156127.235603791
  0
LINE
  5
37F
100
AcDbEntity
  8
0
100
AcDbLine
 62
7
  6
CONTINUOUS
 10
59579.1090578766
 20
156127.235603791
 11
59299.0968476479
 21
156127.235603791
  0
LINE
  5
380
100
AcDbEntity
  8
0
100
AcDbLine
 62
7
  6
CONTINUOUS
 10
59149.0985888244
 20
156142.0435414172
 11
59291.6985888244
 21
156142.0435414172
  0
LINE
  5
381
100
AcDbEntity
  8
0
100
AcDbLine
 62
7
  6
CONTINUOUS
 10
68306.4985888244
 20
156142.0435414172
 11
68449.0985888244
 21
156142.0435414172
  0
LINE
  5
382
100
AcDbEntity
  8
0
100
AcDbLine
 62
7
  6
CONTINUOUS
 10
63044.579780032
 20
156160.3278070693
 11
64553.4468520257
 21
156160.3278070693
  0
LINE
  5
383
100
AcDbEntity
  8
0
100
AcDbLine
 62
7
  6
CONTINUOUS
 10
68449.0988273862
 20
156170.9356037909
 11
68324.0988273863
 21
156170.9356037909
  0
LINE
  5
384
100
AcDbEntity
  8
0
100
AcDbLine
 62
7
  6
CONTINUOUS
 10
68299.0988380588
 20
156170.9356037909
 11
65446.5597559073
 21
156170.9356037909
  0
LINE
  5
385
100
AcDbEntity
  8
0
100
AcDbLine
 62
7
  6
CONTINUOUS
 10
62158.7752787297
 20
156170.9356037909
 11
59149.1985888244
 21
156170.9356037909
  0
LINE
  5
386
100
AcDbEntity
  8
0
100
AcDbLine
 62
7
  6
CONTINUOUS
 10
110149.0985888244
 20
157945.935603791
 11
109966.1987704226
 21
157945.935603791
  0
LINE
  5
387
100
AcDbEntity
  8
0
100
AcDbLine
 62
7
  6
CONTINUOUS
 10
109291.1065637329
 20
157945.935603791
 11
109147.9792962252
 21
157945.935603791
  0
LINE
  5
388
100
AcDbEntity
  8
0
100
AcDbLine
 62
7
  6
CONTINUOUS
 10
67637.0665541077
 20
157945.935603791
 11
67449.0985888244
 21
157945.935603791
  0
LINE
  5
389
100
AcDbEntity
  8
0
100
AcDbLine
 62
7
  6
CONTINUOUS
 10
60149.1985888244
 20
157945.935603791
 11
59966.2987704226
 21
157945.935603791
  0
LINE
  5
38A
100
AcDbEntity
  8
0
100
AcDbLine
 62
7
  6
CONTINUOUS
 10
59291.2065637329
 20
157945.935603791
 11
59148.0792962252
 21
157945.935603791
  0
LINE
  5
38B
100
AcDbEntity
  8
0
100
AcDbLine
 62
7
  6
CONTINUOUS
 10
17637.1665541078
 20
157945.935603791
 11
17449.1985888244
 21
157945.935603791
  0
LINE
  5
38C
100
AcDbEntity
  8
0
100
AcDbLine
 62
7
  6
CONTINUOUS
 10
17642.1065166192
 20
157945.935603791
 11
17975.6496155529
 21
157945.935603791
  0
LINE
  5
38D
100
AcDbEntity
  8
0
100
AcDbLine
 62
7
  6
CONTINUOUS
 10
17976.1988276753
 20
157945.935603791
 11
18450.3178814236
 21
157945.935603791
  0
LINE
  5
38E
100
AcDbEntity
  8
0
100
AcDbLine
 62
7
  6
CONTINUOUS
 10
59299.1985888245
 20
157945.935603791
 11
59622.1985888243
 21
157945.935603791
  0
LINE
  5
38F
100
AcDbEntity
  8
0
100
AcDbLine
 62
7
  6
CONTINUOUS
 10
59622.6791270262
 20
157945.935603791
 11
59956.2908994403
 21
157945.935603791
  0
LINE
  5
390
100
AcDbEntity
  8
0
100
AcDbLine
 62
7
  6
CONTINUOUS
 10
67642.0065166193
 20
157945.935603791
 11
67975.5496155529
 21
157945.935603791
  0
LINE
  5
391
100
AcDbEntity
  8
0
100
AcDbLine
 62
7
  6
CONTINUOUS
 10
67976.0988276752
 20
157945.935603791
 11
68450.2178814236
 21
157945.935603791
  0
LINE
  5
392
100
AcDbEntity
  8
0
100
AcDbLine
 62
7
  6
CONTINUOUS
 10
109299.0985888245
 20
157945.935603791
 11
109622.0985888243
 21
157945.935603791
  0
LINE
  5
393
100
AcDbEntity
  8
0
100
AcDbLine
 62
7
  6
CONTINUOUS
 10
109622.5791270262
 20
157945.935603791
 11
109956.1908994403
 21
157945.935603791
  0
LINE
  5
394
100
AcDbEntity
  8
0
100
AcDbLine
 62
7
  6
CONTINUOUS
 10
108074.0985888244
 20
159019.9226096389
 11
69524.0985888244
 21
159019.9226096389
  0
LINE
  5
395
100
AcDbEntity
  8
0
100
AcDbLine
 62
7
  6
CONTINUOUS
 10
58074.1985888244
 20
159019.9226096389
 11
19524.1985888244
 21
159019.9226096389
  0
LINE
  5
396
100
AcDbEntity
  8
0
100
AcDbLine
 62
7
  6
CONTINUOUS
 10
108074.0985888244
 20
159170.9356037909
 11
69524.0985888244
 21
159170.9356037909
  0
LINE
  5
397
100
AcDbEntity
  8
0
100
AcDbLine
 62
7
  6
CONTINUOUS
 10
58074.1985888244
 20
159170.9356037909
 11
19524.1985888244
 21
159170.9356037909
  0
LINE
  5
398
100
AcDbEntity
  8
0
100
AcDbLine
 62
7
  6
CONTINUOUS
 10
108074.0985888244
 20
159451.9356037908
 11
69524.0985888244
 21
159451.9356037908
  0
LINE
  5
399
100
AcDbEntity
  8
0
100
AcDbLine
 62
7
  6
CONTINUOUS
 10
58074.1985888244
 20
159451.9356037908
 11
19524.1985888244
 21
159451.9356037908
  0
LINE
  5
39A
100
AcDbEntity
  8
0
100
AcDbLine
 62
7
  6
CONTINUOUS
 10
108074.0985888244
 20
159495.5705896039
 11
69524.0985888244
 21
159495.5705896039
  0
LINE
  5
39B
100
AcDbEntity
  8
0
100
AcDbLine
 62
7
  6
CONTINUOUS
 10
58074.1985888244
 20
159495.5705896039
 11
19524.1985888244
 21
159495.5705896039
  0
LINE
  5
39C
100
AcDbEntity
  8
0
100
AcDbLine
 62
7
  6
CONTINUOUS
 10
62991.4093731381
 20
159847.535603791
 11
64606.5878045107
 21
159847.535603791
  0
LINE
  5
39D
100
AcDbEntity
  8
0
100
AcDbLine
 62
7
  6
CONTINUOUS
 10
63249.0985888244
 20
160055.0878048247
 11
64366.1271602506
 21
160055.0878048247
  0
LINE
  5
39E
100
AcDbEntity
  8
0
100
AcDbLine
 62
7
  6
CONTINUOUS
 10
108074.0985888244
 20
160521.0571310284
 11
69524.0985888244
 21
160521.0571310284
  0
LINE
  5
39F
100
AcDbEntity
  8
0
100
AcDbLine
 62
7
  6
CONTINUOUS
 10
58074.1985888244
 20
160521.0571310284
 11
19524.1985888244
 21
160521.0571310284
  0
LINE
  5
3A0
100
AcDbEntity
  8
0
100
AcDbLine
 62
7
  6
CONTINUOUS
 10
67338.6985888246
 20
156142.4443210894
 11
67951.5985888245
 21
156142.0574815797
  0
LINE
  5
3A1
100
AcDbEntity
  8
0
100
AcDbLine
 62
7
  6
CONTINUOUS
 10
65440.6408914388
 20
156164.335603791
 11
67120.6985888244
 21
156159.10978537
  0
LINE
  5
3A2
100
AcDbEntity
  8
0
100
AcDbLine
 62
7
  6
CONTINUOUS
 10
60149.1983609272
 20
159581.5798174275
 11
60017.6277389287
 21
159582.2070610627
  0
LINE
  5
3A3
100
AcDbEntity
  8
0
100
AcDbLine
 62
7
  6
CONTINUOUS
 10
110149.0983609272
 20
159581.5798174275
 11
110017.5277389287
 21
159582.2070610627
  0
LWPOLYLINE
  5
3A4
100
AcDbEntity
  8
0
100
AcDbPolyline
 62
7
  6
CONTINUOUS
 90
4
 70
0
 10
67145.001659105
 20
156145.9259536431
 10
67170.9393747501
 20
156144.2103876823
 10
67241.0645468455
 20
156142.9496903397
 10
67338.6985888246
 20
156142.4443210893
  0
LWPOLYLINE
  5
3A5
100
AcDbEntity
  8
0
100
AcDbPolyline
 62
7
  6
CONTINUOUS
 90
4
 70
0
 10
62997.8514531973
 20
156161.1419059255
 10
63003.735167775
 20
156160.7475228801
 10
63020.1172665991
 20
156160.4489932958
 10
63044.579780032
 20
156160.3278070693
  0
LINE
  5
3A6
100
AcDbEntity
  8
0
100
AcDbLine
 62
7
  6
CONTINUOUS
 10
64999.1985888244
 20
159930.3093109182
 11
64366.2525722575
 21
160055.0630862204
  0
LINE
  5
3A7
100
AcDbEntity
  8
0
100
AcDbLine
 62
7
  6
CONTINUOUS
 10
64999.0985888243
 20
162470.935603791
 11
112599.1205114978
 21
162470.935603791
  0
LINE
  5
3A8
100
AcDbEntity
  8
0
100
AcDbLine
 62
7
  6
CONTINUOUS
 10
62599.2205114978
 20
162470.935603791
 11
14999.1985888243
 21
162470.935603791
  0
LINE
  5
3A9
100
AcDbEntity
  8
0
100
AcDbLine
 62
7
  6
CONTINUOUS
 10
13992.1985888268
 20
163476.9356037908
 11
63606.1985888224
 21
163476.9356037908
  0
LINE
  5
3AA
100
AcDbEntity
  8
0
100
AcDbLine
 62
7
  6
CONTINUOUS
 10
63992.0985888268
 20
163476.9356037908
 11
113606.0985888223
 21
163476.9356037908
  0
LINE
  5
3AB
100
AcDbEntity
  8
0
100
AcDbLine
 62
7
  6
CONTINUOUS
 10
113799.0985888244
 20
163670.935603791
 11
13799.1985888244
 21
163670.935603791
  0
ARC
  5
3AC
100
AcDbEntity
  8
0
100
AcDbCircle
 62
7
  6
CONTINUOUS
 10
19524.1985888244
 20
19395.935603791
 40
2575.0152287903
100
AcDbArc
 50
216.3104322326
 51
270.0
  0
ARC
  5
3AD
100
AcDbEntity
  8
0
100
AcDbCircle
 62
7
  6
CONTINUOUS
 10
19524.1985888244
 20
19395.935603791
 40
1549.5286873658
100
AcDbArc
 50
180.0
 51
270.0
  0
ARC
  5
3AE
100
AcDbEntity
  8
0
100
AcDbCircle
 62
7
  6
CONTINUOUS
 10
19524.1985888244
 20
19395.935603791
 40
1506.8937015527
100
AcDbArc
 50
180.0
 51
270.0
  0
ARC
  5
3AF
100
AcDbEntity
  8
0
100
AcDbCircle
 62
7
  6
CONTINUOUS
 10
19524.1985888244
 20
19395.935603791
 40
1224.8937015526
100
AcDbArc
 50
180.0
 51
270.0
  0
ARC
  5
3B0
100
AcDbEntity
  8
0
100
AcDbCircle
 62
7
  6
CONTINUOUS
 10
19524.1985888244
 20
19395.935603791
 40
1073.8807074008
100
AcDbArc
 50
180.0
 51
270.0
  0
CIRCLE
  5
3B1
100
AcDbEntity
  8
0
100
AcDbCircle
 62
7
  6
CONTINUOUS
 10
15949.1985888244
 20
23670.935603791
 40
500.0
  0
CIRCLE
  5
3B2
100
AcDbEntity
  8
0
100
AcDbCircle
 62
7
  6
CONTINUOUS
 10
15949.1985888244
 20
23670.935603791
 40
300.0
  0
CIRCLE
  5
3B3
100
AcDbEntity
  8
0
100
AcDbCircle
 62
7
  6
CONTINUOUS
 10
15949.1985888244
 20
23670.935603791
 40
270.0
  0
CIRCLE
  5
3B4
100
AcDbEntity
  8
0
100
AcDbCircle
 62
7
  6
CONTINUOUS
 10
15949.1985888244
 20
73670.935603791
 40
500.0
  0
CIRCLE
  5
3B5
100
AcDbEntity
  8
0
100
AcDbCircle
 62
7
  6
CONTINUOUS
 10
15949.1985888244
 20
73670.935603791
 40
300.0
  0
CIRCLE
  5
3B6
100
AcDbEntity
  8
0
100
AcDbCircle
 62
7
  6
CONTINUOUS
 10
15949.1985888244
 20
73670.935603791
 40
270.0
  0
ARC
  5
3B7
100
AcDbEntity
  8
0
100
AcDbCircle
 62
7
  6
CONTINUOUS
 10
58074.1985888244
 20
19395.935603791
 40
2575.0152287903
100
AcDbArc
 50
270.0
 51
323.6895677674
  0
ARC
  5
3B8
100
AcDbEntity
  8
0
100
AcDbCircle
 62
7
  6
CONTINUOUS
 10
58074.1985888244
 20
19395.935603791
 40
1549.5286873658
100
AcDbArc
 50
270.0
 51
360.0
  0
ARC
  5
3B9
100
AcDbEntity
  8
0
100
AcDbCircle
 62
7
  6
CONTINUOUS
 10
58074.1985888244
 20
19395.935603791
 40
1506.8937015527
100
AcDbArc
 50
270.0
 51
360.0
  0
ARC
  5
3BA
100
AcDbEntity
  8
0
100
AcDbCircle
 62
7
  6
CONTINUOUS
 10
58074.1985888244
 20
19395.935603791
 40
1224.8937015526
100
AcDbArc
 50
270.0
 51
360.0
  0
ARC
  5
3BB
100
AcDbEntity
  8
0
100
AcDbCircle
 62
7
  6
CONTINUOUS
 10
58074.1985888244
 20
19395.935603791
 40
1073.8807074008
100
AcDbArc
 50
270.0
 51
360.0
  0
CIRCLE
  5
3BC
100
AcDbEntity
  8
0
100
AcDbCircle
 62
7
  6
CONTINUOUS
 10
60849.0985888244
 20
23670.935603791
 40
205.0
  0
CIRCLE
  5
3BD
100
AcDbEntity
  8
0
100
AcDbCircle
 62
7
  6
CONTINUOUS
 10
62449.0985888244
 20
23670.935603791
 40
205.0
  0
CIRCLE
  5
3BE
100
AcDbEntity
  8
0
100
AcDbCircle
 62
7
  6
CONTINUOUS
 10
60849.0985888244
 20
73670.935603791
 40
205.0
  0
CIRCLE
  5
3BF
100
AcDbEntity
  8
0
100
AcDbCircle
 62
7
  6
CONTINUOUS
 10
62449.0985888244
 20
73670.935603791
 40
205.0
  0
CIRCLE
  5
3C0
100
AcDbEntity
  8
0
100
AcDbCircle
 62
7
  6
CONTINUOUS
 10
15949.1985888244
 20
103670.935603791
 40
500.0
  0
CIRCLE
  5
3C1
100
AcDbEntity
  8
0
100
AcDbCircle
 62
7
  6
CONTINUOUS
 10
15949.1985888244
 20
103670.935603791
 40
300.0
  0
CIRCLE
  5
3C2
100
AcDbEntity
  8
0
100
AcDbCircle
 62
7
  6
CONTINUOUS
 10
15949.1985888244
 20
103670.935603791
 40
270.0
  0
ARC
  5
3C3
100
AcDbEntity
  8
0
100
AcDbCircle
 62
7
  6
CONTINUOUS
 10
19524.1985888244
 20
157945.935603791
 40
2575.0152287903
100
AcDbArc
 50
90.0
 51
143.6895677674
  0
ARC
  5
3C4
100
AcDbEntity
  8
0
100
AcDbCircle
 62
7
  6
CONTINUOUS
 10
19524.1985888244
 20
157945.935603791
 40
1549.5286873658
100
AcDbArc
 50
90.0
 51
180.0
  0
ARC
  5
3C5
100
AcDbEntity
  8
0
100
AcDbCircle
 62
7
  6
CONTINUOUS
 10
19524.1985888244
 20
157945.935603791
 40
1506.8937015527
100
AcDbArc
 50
90.0
 51
180.0
  0
ARC
  5
3C6
100
AcDbEntity
  8
0
100
AcDbCircle
 62
7
  6
CONTINUOUS
 10
19524.1985888244
 20
157945.9356037909
 40
1224.8937015526
100
AcDbArc
 50
90.0
 51
180.0
  0
ARC
  5
3C7
100
AcDbEntity
  8
0
100
AcDbCircle
 62
7
  6
CONTINUOUS
 10
19524.1985888244
 20
157945.935603791
 40
1073.8807074008
100
AcDbArc
 50
90.0
 51
180.0
  0
CIRCLE
  5
3C8
100
AcDbEntity
  8
0
100
AcDbCircle
 62
7
  6
CONTINUOUS
 10
15949.1985888244
 20
153670.9356037909
 40
500.0
  0
CIRCLE
  5
3C9
100
AcDbEntity
  8
0
100
AcDbCircle
 62
7
  6
CONTINUOUS
 10
15949.1985888244
 20
153670.9356037909
 40
300.0
  0
CIRCLE
  5
3CA
100
AcDbEntity
  8
0
100
AcDbCircle
 62
7
  6
CONTINUOUS
 10
15949.1985888244
 20
153670.9356037909
 40
270.0
  0
CIRCLE
  5
3CB
100
AcDbEntity
  8
0
100
AcDbCircle
 62
7
  6
CONTINUOUS
 10
60849.0985888244
 20
103670.935603791
 40
205.0
  0
CIRCLE
  5
3CC
100
AcDbEntity
  8
0
100
AcDbCircle
 62
7
  6
CONTINUOUS
 10
62449.0985888244
 20
103670.935603791
 40
205.0
  0
ARC
  5
3CD
100
AcDbEntity
  8
0
100
AcDbCircle
 62
7
  6
CONTINUOUS
 10
58074.1985888244
 20
157945.935603791
 40
2575.0152287903
100
AcDbArc
 50
36.3104322326
 51
90.0
  0
ARC
  5
3CE
100
AcDbEntity
  8
0
100
AcDbCircle
 62
7
  6
CONTINUOUS
 10
58074.1985888244
 20
157945.935603791
 40
1549.5286873658
100
AcDbArc
 50
0.0
 51
90.0
  0
ARC
  5
3CF
100
AcDbEntity
  8
0
100
AcDbCircle
 62
7
  6
CONTINUOUS
 10
58074.1985888244
 20
157945.935603791
 40
1506.8937015527
100
AcDbArc
 50
0.0
 51
90.0
  0
ARC
  5
3D0
100
AcDbEntity
  8
0
100
AcDbCircle
 62
7
  6
CONTINUOUS
 10
58074.1985888244
 20
157945.935603791
 40
1224.8937015526
100
AcDbArc
 50
0.0
 51
90.0
  0
ARC
  5
3D1
100
AcDbEntity
  8
0
100
AcDbCircle
 62
7
  6
CONTINUOUS
 10
58074.1985888244
 20
157945.935603791
 40
1073.8807074008
100
AcDbArc
 50
0.0
 51
90.0
  0
CIRCLE
  5
3D2
100
AcDbEntity
  8
0
100
AcDbCircle
 62
7
  6
CONTINUOUS
 10
60849.0985888244
 20
153670.9356037909
 40
205.0
  0
CIRCLE
  5
3D3
100
AcDbEntity
  8
0
100
AcDbCircle
 62
7
  6
CONTINUOUS
 10
62449.0985888244
 20
153670.9356037909
 40
205.0
  0
ARC
  5
3D4
100
AcDbEntity
  8
0
100
AcDbCircle
 62
7
  6
CONTINUOUS
 10
69524.0985888244
 20
19395.935603791
 40
2575.0152287903
100
AcDbArc
 50
216.3104322326
 51
270.0
  0
ARC
  5
3D5
100
AcDbEntity
  8
0
100
AcDbCircle
 62
7
  6
CONTINUOUS
 10
69524.0985888244
 20
19395.935603791
 40
1549.5286873658
100
AcDbArc
 50
180.0
 51
270.0
  0
ARC
  5
3D6
100
AcDbEntity
  8
0
100
AcDbCircle
 62
7
  6
CONTINUOUS
 10
69524.0985888244
 20
19395.935603791
 40
1506.8937015527
100
AcDbArc
 50
180.0
 51
270.0
  0
ARC
  5
3D7
100
AcDbEntity
  8
0
100
AcDbCircle
 62
7
  6
CONTINUOUS
 10
69524.0985888244
 20
19395.935603791
 40
1224.8937015526
100
AcDbArc
 50
180.0
 51
270.0
  0
ARC
  5
3D8
100
AcDbEntity
  8
0
100
AcDbCircle
 62
7
  6
CONTINUOUS
 10
69524.0985888244
 20
19395.935603791
 40
1073.8807074008
100
AcDbArc
 50
180.0
 51
270.0
  0
CIRCLE
  5
3D9
100
AcDbEntity
  8
0
100
AcDbCircle
 62
7
  6
CONTINUOUS
 10
65149.0985888244
 20
23670.935603791
 40
205.0
  0
CIRCLE
  5
3DA
100
AcDbEntity
  8
0
100
AcDbCircle
 62
7
  6
CONTINUOUS
 10
66749.0985888244
 20
23670.935603791
 40
205.0
  0
CIRCLE
  5
3DB
100
AcDbEntity
  8
0
100
AcDbCircle
 62
7
  6
CONTINUOUS
 10
65149.0985888244
 20
73670.935603791
 40
205.0
  0
CIRCLE
  5
3DC
100
AcDbEntity
  8
0
100
AcDbCircle
 62
7
  6
CONTINUOUS
 10
66749.0985888244
 20
73670.935603791
 40
205.0
  0
ARC
  5
3DD
100
AcDbEntity
  8
0
100
AcDbCircle
 62
7
  6
CONTINUOUS
 10
108074.0985888244
 20
19395.935603791
 40
2575.0152287903
100
AcDbArc
 50
270.0
 51
323.6895677674
  0
ARC
  5
3DE
100
AcDbEntity
  8
0
100
AcDbCircle
 62
7
  6
CONTINUOUS
 10
108074.0985888244
 20
19395.935603791
 40
1549.5286873658
100
AcDbArc
 50
270.0
 51
360.0
  0
ARC
  5
3DF
100
AcDbEntity
  8
0
100
AcDbCircle
 62
7
  6
CONTINUOUS
 10
108074.0985888244
 20
19395.935603791
 40
1506.8937015527
100
AcDbArc
 50
270.0
 51
360.0
  0
ARC
  5
3E0
100
AcDbEntity
  8
0
100
AcDbCircle
 62
7
  6
CONTINUOUS
 10
108074.0985888244
 20
19395.935603791
 40
1224.8937015526
100
AcDbArc
 50
270.0
 51
360.0
  0
ARC
  5
3E1
100
AcDbEntity
  8
0
100
AcDbCircle
 62
7
  6
CONTINUOUS
 10
108074.0985888244
 20
19395.935603791
 40
1073.8807074008
100
AcDbArc
 50
270.0
 51
360.0
  0
CIRCLE
  5
3E2
100
AcDbEntity
  8
0
100
AcDbCircle
 62
7
  6
CONTINUOUS
 10
111649.0985888244
 20
23670.935603791
 40
500.0
  0
CIRCLE
  5
3E3
100
AcDbEntity
  8
0
100
AcDbCircle
 62
7
  6
CONTINUOUS
 10
111649.0985888244
 20
23670.935603791
 40
300.0
  0
CIRCLE
  5
3E4
100
AcDbEntity
  8
0
100
AcDbCircle
 62
7
  6
CONTINUOUS
 10
111649.0985888244
 20
23670.935603791
 40
270.0
  0
CIRCLE
  5
3E5
100
AcDbEntity
  8
0
100
AcDbCircle
 62
7
  6
CONTINUOUS
 10
111649.0985888244
 20
73670.935603791
 40
500.0
  0
CIRCLE
  5
3E6
100
AcDbEntity
  8
0
100
AcDbCircle
 62
7
  6
CONTINUOUS
 10
111649.0985888244
 20
73670.935603791
 40
300.0
  0
CIRCLE
  5
3E7
100
AcDbEntity
  8
0
100
AcDbCircle
 62
7
  6
CONTINUOUS
 10
111649.0985888244
 20
73670.935603791
 40
270.0
  0
CIRCLE
  5
3E8
100
AcDbEntity
  8
0
100
AcDbCircle
 62
7
  6
CONTINUOUS
 10
65149.0985888244
 20
103670.935603791
 40
205.0
  0
CIRCLE
  5
3E9
100
AcDbEntity
  8
0
100
AcDbCircle
 62
7
  6
CONTINUOUS
 10
66749.0985888244
 20
103670.935603791
 40
205.0
  0
ARC
  5
3EA
100
AcDbEntity
  8
0
100
AcDbCircle
 62
7
  6
CONTINUOUS
 10
69524.0985888244
 20
157945.935603791
 40
2575.0152287903
100
AcDbArc
 50
90.0
 51
143.6895677674
  0
ARC
  5
3EB
100
AcDbEntity
  8
0
100
AcDbCircle
 62
7
  6
CONTINUOUS
 10
69524.0985888244
 20
157945.935603791
 40
1549.5286873658
100
AcDbArc
 50
90.0
 51
180.0
  0
ARC
  5
3EC
100
AcDbEntity
  8
0
100
AcDbCircle
 62
7
  6
CONTINUOUS
 10
69524.0985888244
 20
157945.935603791
 40
1506.8937015527
100
AcDbArc
 50
90.0
 51
180.0
  0
ARC
  5
3ED
100
AcDbEntity
  8
0
100
AcDbCircle
 62
7
  6
CONTINUOUS
 10
69524.0985888244
 20
157945.9356037909
 40
1224.8937015526
100
AcDbArc
 50
90.0
 51
180.0
  0
ARC
  5
3EE
100
AcDbEntity
  8
0
100
AcDbCircle
 62
7
  6
CONTINUOUS
 10
69524.0985888244
 20
157945.935603791
 40
1073.8807074008
100
AcDbArc
 50
90.0
 51
180.0
  0
CIRCLE
  5
3EF
100
AcDbEntity
  8
0
100
AcDbCircle
 62
7
  6
CONTINUOUS
 10
65149.0985888244
 20
153670.9356037909
 40
205.0
  0
CIRCLE
  5
3F0
100
AcDbEntity
  8
0
100
AcDbCircle
 62
7
  6
CONTINUOUS
 10
66749.0985888244
 20
153670.9356037909
 40
205.0
  0
CIRCLE
  5
3F1
100
AcDbEntity
  8
0
100
AcDbCircle
 62
7
  6
CONTINUOUS
 10
111649.0985888244
 20
103670.935603791
 40
500.0
  0
CIRCLE
  5
3F2
100
AcDbEntity
  8
0
100
AcDbCircle
 62
7
  6
CONTINUOUS
 10
111649.0985888244
 20
103670.935603791
 40
300.0
  0
CIRCLE
  5
3F3
100
AcDbEntity
  8
0
100
AcDbCircle
 62
7
  6
CONTINUOUS
 10
111649.0985888244
 20
103670.935603791
 40
270.0
  0
ARC
  5
3F4
100
AcDbEntity
  8
0
100
AcDbCircle
 62
7
  6
CONTINUOUS
 10
108074.0985888244
 20
157945.935603791
 40
2575.0152287903
100
AcDbArc
 50
36.3104322326
 51
90.0
  0
ARC
  5
3F5
100
AcDbEntity
  8
0
100
AcDbCircle
 62
7
  6
CONTINUOUS
 10
108074.0985888244
 20
157945.935603791
 40
1549.5286873658
100
AcDbArc
 50
0.0
 51
90.0
  0
ARC
  5
3F6
100
AcDbEntity
  8
0
100
AcDbCircle
 62
7
  6
CONTINUOUS
 10
108074.0985888244
 20
157945.935603791
 40
1506.8937015527
100
AcDbArc
 50
0.0
 51
90.0
  0
ARC
  5
3F7
100
AcDbEntity
  8
0
100
AcDbCircle
 62
7
  6
CONTINUOUS
 10
108074.0985888244
 20
157945.935603791
 40
1224.8937015526
100
AcDbArc
 50
0.0
 51
90.0
  0
ARC
  5
3F8
100
AcDbEntity
  8
0
100
AcDbCircle
 62
7
  6
CONTINUOUS
 10
108074.0985888244
 20
157945.935603791
 40
1073.8807074008
100
AcDbArc
 50
0.0
 51
90.0
  0
CIRCLE
  5
3F9
100
AcDbEntity
  8
0
100
AcDbCircle
 62
7
  6
CONTINUOUS
 10
111649.0985888244
 20
153670.9356037909
 40
500.0
  0
CIRCLE
  5
3FA
100
AcDbEntity
  8
0
100
AcDbCircle
 62
7
  6
CONTINUOUS
 10
111649.0985888244
 20
153670.9356037909
 40
300.0
  0
CIRCLE
  5
3FB
100
AcDbEntity
  8
0
100
AcDbCircle
 62
7
  6
CONTINUOUS
 10
111649.0985888244
 20
153670.9356037909
 40
270.0
  0
ELLIPSE
  5
3FC
100
AcDbEntity
  8
0
100
AcDbEllipse
 62
7
  6
CONTINUOUS
 10
67943.5742827511
 20
156141.4946543287
 30
0.0
 11
33.281439878
 21
0.0
 31
0.0
 40
0.0174252031
 41
0.2644673931
 42
1.3272925265
  0
ELLIPSE
  5
3FD
100
AcDbEntity
  8
0
100
AcDbEllipse
 62
7
  6
CONTINUOUS
 10
67943.5742827511
 20
21200.3765532533
 30
0.0
 11
33.2814398783
 21
0.0
 31
0.0
 40
0.0174252031
 41
-1.3272925265
 42
-0.2644673931
  0
ENDSEC
  0
SECTION
  2
OBJECTS
  0
DICTIONARY
  5
C
100
AcDbDictionary
280
0
281
1
  3
ACAD_GROUP
350
D
  3
ACAD_MLINESTYLE
350
17
  3
ACAD_LAYOUT
350
1A
  3
ACAD_PLOTSETTINGS
350
19
  3
ACAD_PLOTSTYLENAME
350
E
  0
DICTIONARY
  5
D
102
{ACAD_REACTORS
330
C
102
}
100
AcDbDictionary
280
0
281
1
  0
ACDBDICTIONARYWDFLT
  5
E
102
{ACAD_REACTORS
330
C
102
}
100
AcDbDictionary
281
1
  3
Normal
350
F
100
AcDbDictionaryWithDefault
340
F
  0
DICTIONARY
  5
17
102
{ACAD_REACTORS
330
C
102
}
100
AcDbDictionary
280
0
281
1
  3
Standard
350
18
  0
DICTIONARY
  5
19
102
{ACAD_REACTORS
330
C
102
}
100
AcDbDictionary
281
1
  0
DICTIONARY
  5
1A
102
{ACAD_REACTORS
330
C
102
}
100
AcDbDictionary
281
1
  3
Model
350
3FE
  3
Layout1
350
3FF
  0
ACDBPLACEHOLDER
  5
F
102
{ACAD_REACTORS
330
E
102
}
  0
MLINESTYLE
  5
18
102
{ACAD_REACTORS
330
17
102
}
100
AcDbMlineStyle
  2
STANDARD
 70
0
  3

 62
256
 51
90.0
 52
90.0
 71
2
 49
0.5
 62
256
  6
BYLAYER
 49
-0.5
 62
256
  6
BYLAYER
  0
LAYOUT
  5
3FE
102
{ACAD_REACTORS
330
1A
102
}
100
AcDbPlotSettings
  1

  2
none_device
  4

  6

 40
0.0
 41
0.0
 42
0.0
 43
0.0
 44
210.0
 45
297.0
 46
0.0
 47
0.0
 48
0.0
 49
0.0
140
0.0
141
0.0
142
1.0
143
1.0
 70
1024
 72
1
 73
0
 74
0
  7

 75
0
147
1.0
148
0.0
149
0.0
100
AcDbLayout
  1
Model
 70
0
 71
0
 10
0.0
 20
0.0
 11
210.0
 21
297.0
 12
0.0
 22
0.0
 32
0.0
 14
0.0
 24
0.0
 34
0.0
 15
0.0
 25
0.0
 35
0.0
146
0.0
 13
0.0
 23
0.0
 33
0.0
 16
1.0
 26
0.0
 36
0.0
 17
0.0
 27
1.0
 37
0.0
 76
0
330
210
345
0
346
0
  0
LAYOUT
  5
3FF
102
{ACAD_REACTORS
330
1A
102
}
100
AcDbPlotSettings
  1

  2
none_device
  4

  6

 40
0.0
 41
0.0
 42
0.0
 43
0.0
 44
210.0
 45
297.0
 46
0.0
 47
0.0
 48
0.0
 49
0.0
140
0.0
141
0.0
142
1.0
143
1.0
 70
0
 72
1
 73
0
 74
0
  7

 75
0
147
1.0
148
0.0
149
0.0
100
AcDbLayout
  1
Layout1
 70
0
 71
1
 10
0.0
 20
0.0
 11
210.0
 21
297.0
 12
0.0
 22
0.0
 32
0.0
 14
0.0
 24
0.0
 34
0.0
 15
0.0
 25
0.0
 35
0.0
146
0.0
 13
0.0
 23
0.0
 33
0.0
 16
1.0
 26
0.0
 36
0.0
 17
0.0
 27
1.0
 37
0.0
 76
0
330
211
345
0
346
0
  0
ENDSEC
  0
EOF
