999
DXF file: C:\Users\sesa63760\Dev\_Creo\CAD\MCADID0001054_3D-CAD\drw0001_4.dxf
999
Pro/ENGINEER 2019471 by Parametric Technology Corporation
  0
SECTION
  2
HEADER
  9
$ACADVER
  1
AC1024
  9
$DWGCODEPAGE
  3
ANSI_1252
  9
$EXTMAX
 10
683.4872029649
 20
966.6461870504
 30
0.0
  9
$EXTMIN
 10
0.0
 20
0.0
 30
0.0
  9
$LIMMIN
 10
0.0
 20
0.0
  9
$LIMMAX
 10
683.4872029649
 20
966.6461870504
  9
$VIEWCTR
 10
341.7436014825
 20
483.3230935252
  9
$VIEWSIZE
 40
966.6461870504
  9
$CLAYER
  8
0
  9
$LTSCALE
 40
63.0110107114
  9
$CELTYPE
  6
BYLAYER
  9
$DIMSCALE
 40
1.0
  9
$DIMASZ
 40
8.1367524162
  9
$DIMEXO
 40
1.0
  9
$DIMDLI
 40
43.5348801279
  9
$DIMEXE
 40
1.0
  9
$DIMCEN
 40
10.3108926619
  9
$DIMLFAC
 40
1.0
  9
$DIMBLK
  1
_FILLED
  9
$DIMALT
 70
0
  9
$DIMALTF
 40
0.0393700787
  9
$DIMTXT
 40
11.3914533827
  9
$DIMTOL
 70
1
  9
$DIMLIM
 70
0
  9
$DIMTFAC
 40
1.0
  9
$DIMTP
 40
0.01
  9
$DIMTM
 40
0.01
  9
$DIMGAP
 40
0.625
  9
$DIMDSEP
 70
46
  9
$AUNITS
 70
0
  9
$PDMODE
 70
3
  9
$PDSIZE
 40
0.3125
  9
$HANDSEED
  5
3FB
  9
$TILEMODE
 70
1
  9
$MEASUREMENT
 70
1
  9
$INSUNITS
 70
4
  0
ENDSEC
  0
SECTION
  2
CLASSES
  0
CLASS
  1
ACDBDICTIONARYWDFLT
  2
AcDbDictionaryWithDefault
  3
AutoCAD 2000
 90
0
 91
1
280
0
281
0
  0
CLASS
  1
ACDBPLACEHOLDER
  2
AcDbPlaceHolder
  3
AutoCAD 2000
 90
0
 91
1
280
0
281
0
  0
CLASS
  1
LAYOUT
  2
AcDbLayout
  3
AutoCAD 2000
 90
0
 91
0
280
0
281
0
  0
ENDSEC
  0
SECTION
  2
TABLES
  0
TABLE
  2
VPORT
  5
8
100
AcDbSymbolTable
 70
2
  0
VPORT
  5
1F4
100
AcDbSymbolTableRecord
100
AcDbViewportTableRecord
  2
*ACTIVE
 70
0
 10
0.0
 20
0.0
 11
1.0
 21
1.0
 12
341.7436014825
 22
483.3230935252
 13
0.0
 23
0.0
 14
1.0
 24
1.0
 15
0.0
 25
0.0
 16
0.0
 26
0.0
 36
1.0
 17
0.0
 27
0.0
 37
0.0
 40
966.6461870504
 41
0.7070707071
 42
50.0
 43
0.0
 44
0.0
 50
0.0
 51
0.0
 71
0
 72
100
 73
1
 74
1
 75
0
 76
0
 77
0
 78
0
  0
ENDTAB
  0
TABLE
  2
LTYPE
  5
5
100
AcDbSymbolTable
 70
6
  0
LTYPE
  5
14
100
AcDbSymbolTableRecord
100
AcDbLinetypeTableRecord
  2
BYBLOCK
 70
0
  3

 72
65
 73
0
 40
0.0
  0
LTYPE
  5
15
100
AcDbSymbolTableRecord
100
AcDbLinetypeTableRecord
  2
BYLAYER
 70
0
  3

 72
65
 73
0
 40
0.0
  0
LTYPE
  5
16
100
AcDbSymbolTableRecord
100
AcDbLinetypeTableRecord
  2
CONTINUOUS
 70
64
  3
Solid line
 72
65
 73
0
 40
0.0
  0
LTYPE
  5
1F5
100
AcDbSymbolTableRecord
100
AcDbLinetypeTableRecord
  2
CENTER
 70
64
  3
____ _ ____ _ ____ _ ____ _ ____ _ ____ _ ____
 72
65
 73
4
 40
0.6
 49
0.375
 74
0
 49
-0.075
 74
0
 49
0.075
 74
0
 49
-0.075
 74
0
  0
LTYPE
  5
1F6
100
AcDbSymbolTableRecord
100
AcDbLinetypeTableRecord
  2
HIDDEN
 70
64
  3
- - - - - - - - - - - - - - - - - - - -
 72
65
 73
2
 40
0.2
 49
0.1
 74
0
 49
-0.1
 74
0
  0
LTYPE
  5
1F7
100
AcDbSymbolTableRecord
100
AcDbLinetypeTableRecord
  2
PHANTOM
 70
64
  3
_____ _ _ _____ _ _ _____ _ _ _____
 72
65
 73
6
 40
0.8
 49
0.45
 74
0
 49
-0.05
 74
0
 49
0.1
 74
0
 49
-0.05
 74
0
 49
0.1
 74
0
 49
-0.05
 74
0
  0
LTYPE
  5
1F8
100
AcDbSymbolTableRecord
100
AcDbLinetypeTableRecord
  2
DOT
 70
64
  3
. . . . . . . . . . . . . . . . . . . .
 72
65
 73
2
 40
0.2
 49
0.1
 74
0
 49
-0.1
 74
0
  0
LTYPE
  5
1F9
100
AcDbSymbolTableRecord
100
AcDbLinetypeTableRecord
  2
DASHED
 70
64
  3
- - - - - - - - - - - - - - - - - - - -
 72
65
 73
2
 40
0.2
 49
0.1
 74
0
 49
-0.1
 74
0
  0
ENDTAB
  0
TABLE
  2
LAYER
  5
2
100
AcDbSymbolTable
 70
36
  0
LAYER
  5
10
100
AcDbSymbolTableRecord
100
AcDbLayerTableRecord
  2
0
 70
0
 62
7
  6
CONTINUOUS
370
-3
390
F
  0
LAYER
  5
1FA
100
AcDbSymbolTableRecord
100
AcDbLayerTableRecord
  2
DEFAULT_1
 70
0
 62
7
  6
CENTER
370
-3
390
F
  0
LAYER
  5
1FB
100
AcDbSymbolTableRecord
100
AcDbLayerTableRecord
  2
DEFAULT_2
 70
0
 62
8
  6
HIDDEN
370
-3
390
F
  0
LAYER
  5
1FC
100
AcDbSymbolTableRecord
100
AcDbLayerTableRecord
  2
DEFAULT_3
 70
0
 62
7
  6
PHANTOM
370
-3
390
F
  0
LAYER
  5
1FD
100
AcDbSymbolTableRecord
100
AcDbLayerTableRecord
  2
00_COMPONENTS
 70
0
 62
7
  6
CONTINUOUS
370
-3
390
F
  0
LAYER
  5
1FE
100
AcDbSymbolTableRecord
100
AcDbLayerTableRecord
  2
01_1_DEFAULT_DATUMS
 70
0
 62
7
  6
CONTINUOUS
370
-3
390
F
  0
LAYER
  5
1FF
100
AcDbSymbolTableRecord
100
AcDbLayerTableRecord
  2
01_PLANES
 70
0
 62
7
  6
CONTINUOUS
370
-3
390
F
  0
LAYER
  5
200
100
AcDbSymbolTableRecord
100
AcDbLayerTableRecord
  2
02_COORD_SYS
 70
0
 62
7
  6
CONTINUOUS
370
-3
390
F
  0
LAYER
  5
201
100
AcDbSymbolTableRecord
100
AcDbLayerTableRecord
  2
03_AXES
 70
0
 62
7
  6
CONTINUOUS
370
-3
390
F
  0
LAYER
  5
202
100
AcDbSymbolTableRecord
100
AcDbLayerTableRecord
  2
04_POINTS
 70
0
 62
7
  6
CONTINUOUS
370
-3
390
F
  0
LAYER
  5
203
100
AcDbSymbolTableRecord
100
AcDbLayerTableRecord
  2
05_CURVES
 70
0
 62
7
  6
CONTINUOUS
370
-3
390
F
  0
LAYER
  5
204
100
AcDbSymbolTableRecord
100
AcDbLayerTableRecord
  2
06_SURFS
 70
0
 62
7
  6
CONTINUOUS
370
-3
390
F
  0
LAYER
  5
205
100
AcDbSymbolTableRecord
100
AcDbLayerTableRecord
  2
07_COSMETICS
 70
0
 62
7
  6
CONTINUOUS
370
-3
390
F
  0
LAYER
  5
206
100
AcDbSymbolTableRecord
100
AcDbLayerTableRecord
  2
10_NOTES
 70
0
 62
7
  6
CONTINUOUS
370
-3
390
F
  0
LAYER
  5
207
100
AcDbSymbolTableRecord
100
AcDbLayerTableRecord
  2
11_NOTES_PUB
 70
0
 62
7
  6
CONTINUOUS
370
-3
390
F
  0
LAYER
  5
208
100
AcDbSymbolTableRecord
100
AcDbLayerTableRecord
  2
13_REF_GTOL
 70
0
 62
7
  6
CONTINUOUS
370
-3
390
F
  0
LAYER
  5
209
100
AcDbSymbolTableRecord
100
AcDbLayerTableRecord
  2
16_MISC
 70
0
 62
7
  6
CONTINUOUS
370
-3
390
F
  0
LAYER
  5
20A
100
AcDbSymbolTableRecord
100
AcDbLayerTableRecord
  2
17_NO_PRINT
 70
0
 62
7
  6
CONTINUOUS
370
-3
390
F
  0
LAYER
  5
20B
100
AcDbSymbolTableRecord
100
AcDbLayerTableRecord
  2
18_DATUM_CAMS_JOINTS
 70
0
 62
7
  6
CONTINUOUS
370
-3
390
F
  0
LAYER
  5
20C
100
AcDbSymbolTableRecord
100
AcDbLayerTableRecord
  2
19_DATUM_FUNCTIONAL
 70
0
 62
7
  6
CONTINUOUS
370
-3
390
F
  0
LAYER
  5
20D
100
AcDbSymbolTableRecord
100
AcDbLayerTableRecord
  2
20_DATUM_KINEMATIC_SCHEME
 70
0
 62
7
  6
CONTINUOUS
370
-3
390
F
  0
ENDTAB
  0
TABLE
  2
STYLE
  5
3
100
AcDbSymbolTable
 70
1
  0
STYLE
  5
11
100
AcDbSymbolTableRecord
100
AcDbTextStyleTableRecord
  2
STANDARD
 70
0
 40
0.0
 41
0.8
 50
0.0
 71
0
 42
0.2
  3
txt
  4

  0
STYLE
  5
20E
100
AcDbSymbolTableRecord
100
AcDbTextStyleTableRecord
  2
TEXTSTYLE_1
 70
0
 40
0.0
 41
0.8
 50
0.0
 71
0
 42
0.2
  3
gdt
  4

  0
ENDTAB
  0
TABLE
  2
VIEW
  5
6
100
AcDbSymbolTable
 70
0
  0
ENDTAB
  0
TABLE
  2
UCS
  5
7
100
AcDbSymbolTable
 70
0
  0
ENDTAB
  0
TABLE
  2
APPID
  5
9
100
AcDbSymbolTable
 70
1
  0
APPID
  5
20F
100
AcDbSymbolTableRecord
100
AcDbRegAppTableRecord
  2
ACAD
 70
0
  0
ENDTAB
  0
TABLE
  2
BLOCK_RECORD
  5
1
100
AcDbSymbolTable
 70
0
  0
BLOCK_RECORD
  5
210
100
AcDbSymbolTableRecord
100
AcDbBlockTableRecord
  2
*Model_Space
  0
BLOCK_RECORD
  5
211
100
AcDbSymbolTableRecord
100
AcDbBlockTableRecord
  2
*Paper_Space
  0
BLOCK_RECORD
  5
212
100
AcDbSymbolTableRecord
100
AcDbBlockTableRecord
  2
_FILLED
  0
ENDTAB
  0
TABLE
  2
DIMSTYLE
  5
A
100
AcDbSymbolTable
 70
1
100
AcDbDimStyleTable
 71
0
  0
DIMSTYLE
105
213
100
AcDbSymbolTableRecord
100
AcDbDimStyleTableRecord
  2
STANDARD
 70
0
  3

  4

 40
1.0
 41
8.1367524162
 42
1.0
 43
0.38
 44
1.0
 45
0.0
 46
0.0
 47
0.01
 48
0.01
140
11.3914533827
141
0.09
142
0.0
143
25.4
144
1.0
145
0.0
146
1.0
147
0.625
 71
1
 72
0
 73
0
 74
0
 75
0
 76
0
 77
1
 78
8
 79
2
170
0
171
1
172
0
173
0
174
0
175
0
176
0
177
0
178
0
270
2
179
2
271
2
272
2
273
2
274
2
275
0
280
0
281
0
282
0
283
1
284
8
285
0
286
0
287
3
288
0
340
11
278
46
341
212
342
212
343
212
344
212
  0
ENDTAB
  0
ENDSEC
  0
SECTION
  2
BLOCKS
  0
BLOCK
  5
20
100
AcDbEntity
  8
0
100
AcDbBlockBegin
  2
*Model_Space
 70
0
 10
0.0
 20
0.0
 30
0.0
  3
*Model_Space
  1

  0
ENDBLK
  5
21
100
AcDbEntity
  8
0
100
AcDbBlockEnd
  0
BLOCK
  5
1C
100
AcDbEntity
  8
0
100
AcDbBlockBegin
  2
*Paper_Space
 70
0
 10
0.0
 20
0.0
 30
0.0
  3
*Paper_Space
  1

  0
ENDBLK
  5
1D
100
AcDbEntity
  8
0
100
AcDbBlockEnd
  0
BLOCK
  5
214
100
AcDbEntity
  8
0
100
AcDbBlockBegin
  2
_FILLED
 70
64
 10
0.0
 20
0.0
  3
_FILLED
  1

  0
SOLID
  5
215
100
AcDbEntity
  8
0
  6
BYBLOCK
 62
0
100
AcDbTrace
 10
0.0
 20
0.0
 11
-1.0
 21
0.25
 12
-1.0
 22
-0.25
 13
-1.0
 23
-0.25
  0
ENDBLK
  5
216
100
AcDbEntity
  8
0
  6
BYBLOCK
 62
0
100
AcDbBlockEnd
  0
ENDSEC
  0
SECTION
  2
ENTITIES
  0
LINE
  5
217
100
AcDbEntity
  8
0
100
AcDbLine
 62
7
  6
CONTINUOUS
 10
464.1164214383
 20
69.2151798561
 11
417.118263541
 21
69.2151798561
  0
LINE
  5
218
100
AcDbEntity
  8
0
100
AcDbLine
 62
7
  6
CONTINUOUS
 10
374.1164214383
 20
69.2151798561
 11
327.118263541
 21
69.2151798561
  0
LINE
  5
219
100
AcDbEntity
  8
0
100
AcDbLine
 62
7
  6
CONTINUOUS
 10
284.1164214383
 20
69.2151798561
 11
237.118263541
 21
69.2151798561
  0
LINE
  5
21A
100
AcDbEntity
  8
0
100
AcDbLine
 62
7
  6
CONTINUOUS
 10
485.2673424896
 20
76.5151798561
 11
464.5673424896
 21
76.5151798561
  0
LINE
  5
21B
100
AcDbEntity
  8
0
100
AcDbLine
 62
7
  6
CONTINUOUS
 10
445.2673424896
 20
76.5151798561
 11
424.5673424896
 21
76.5151798561
  0
LINE
  5
21C
100
AcDbEntity
  8
0
100
AcDbLine
 62
7
  6
CONTINUOUS
 10
405.2673424896
 20
76.5151798561
 11
384.5673424896
 21
76.5151798561
  0
LINE
  5
21D
100
AcDbEntity
  8
0
100
AcDbLine
 62
7
  6
CONTINUOUS
 10
365.2673424896
 20
76.5151798561
 11
344.5673424896
 21
76.5151798561
  0
LINE
  5
21E
100
AcDbEntity
  8
0
100
AcDbLine
 62
7
  6
CONTINUOUS
 10
464.5673424896
 20
78.0151798561
 11
445.2673424896
 21
78.0151798561
  0
LINE
  5
21F
100
AcDbEntity
  8
0
100
AcDbLine
 62
7
  6
CONTINUOUS
 10
229.9173761342
 20
78.0151798561
 11
291.3173088451
 21
78.0151798561
  0
LINE
  5
220
100
AcDbEntity
  8
0
100
AcDbLine
 62
7
  6
CONTINUOUS
 10
319.9173761342
 20
78.0151798561
 11
344.5673424896
 21
78.0151798561
  0
LINE
  5
221
100
AcDbEntity
  8
0
100
AcDbLine
 62
7
  6
CONTINUOUS
 10
365.2673424896
 20
78.0151798561
 11
381.3173088451
 21
78.0151798561
  0
LINE
  5
222
100
AcDbEntity
  8
0
100
AcDbLine
 62
7
  6
CONTINUOUS
 10
409.9173761342
 20
78.0151798561
 11
424.5673424896
 21
78.0151798561
  0
LINE
  5
223
100
AcDbEntity
  8
0
100
AcDbLine
 62
7
  6
CONTINUOUS
 10
341.3074894803
 20
79.2831798561
 11
368.817313105
 21
79.2831798561
  0
LINE
  5
224
100
AcDbEntity
  8
0
100
AcDbLine
 62
7
  6
CONTINUOUS
 10
381.3074894803
 20
79.2831798561
 11
408.817313105
 21
79.2831798561
  0
LINE
  5
225
100
AcDbEntity
  8
0
100
AcDbLine
 62
7
  6
CONTINUOUS
 10
421.3074894803
 20
79.2831798561
 11
448.817313105
 21
79.2831798561
  0
LINE
  5
226
100
AcDbEntity
  8
0
100
AcDbLine
 62
7
  6
CONTINUOUS
 10
461.3074894803
 20
79.2831798561
 11
488.817313105
 21
79.2831798561
  0
LINE
  5
227
100
AcDbEntity
  8
0
100
AcDbLine
 62
7
  6
CONTINUOUS
 10
510.6173424896
 20
84.0151798561
 11
190.6173424896
 21
84.0151798561
  0
LINE
  5
228
100
AcDbEntity
  8
0
100
AcDbLine
 62
7
  6
CONTINUOUS
 10
500.1173424896
 20
90.7751798561
 11
499.1173424896
 21
90.7751798561
  0
LINE
  5
229
100
AcDbEntity
  8
0
100
AcDbLine
 62
7
  6
CONTINUOUS
 10
202.1173424896
 20
90.7751798561
 11
201.1173424896
 21
90.7751798561
  0
LINE
  5
22A
100
AcDbEntity
  8
0
100
AcDbLine
 62
7
  6
CONTINUOUS
 10
199.4673424896
 20
93.9751798561
 11
201.1173424896
 21
93.9751798561
  0
LINE
  5
22B
100
AcDbEntity
  8
0
100
AcDbLine
 62
7
  6
CONTINUOUS
 10
202.1173424896
 20
93.9751798561
 11
203.7673424896
 21
93.9751798561
  0
LINE
  5
22C
100
AcDbEntity
  8
0
100
AcDbLine
 62
7
  6
CONTINUOUS
 10
497.4673424896
 20
93.9751798561
 11
499.1173424896
 21
93.9751798561
  0
LINE
  5
22D
100
AcDbEntity
  8
0
100
AcDbLine
 62
7
  6
CONTINUOUS
 10
500.1173424896
 20
93.9751798561
 11
501.7673424896
 21
93.9751798561
  0
LINE
  5
22E
100
AcDbEntity
  8
0
100
AcDbLine
 62
7
  6
CONTINUOUS
 10
501.7673424896
 20
94.9751798561
 11
500.1173424896
 21
94.9751798561
  0
LINE
  5
22F
100
AcDbEntity
  8
0
100
AcDbLine
 62
7
  6
CONTINUOUS
 10
499.1173424896
 20
94.9751798561
 11
497.4673424896
 21
94.9751798561
  0
LINE
  5
230
100
AcDbEntity
  8
0
100
AcDbLine
 62
7
  6
CONTINUOUS
 10
203.7673424896
 20
94.9751798561
 11
202.1173424896
 21
94.9751798561
  0
LINE
  5
231
100
AcDbEntity
  8
0
100
AcDbLine
 62
7
  6
CONTINUOUS
 10
201.1173424896
 20
94.9751798561
 11
199.4673424896
 21
94.9751798561
  0
LINE
  5
232
100
AcDbEntity
  8
0
100
AcDbLine
 62
7
  6
CONTINUOUS
 10
500.1173424896
 20
98.1751798561
 11
499.1173424896
 21
98.1751798561
  0
LINE
  5
233
100
AcDbEntity
  8
0
100
AcDbLine
 62
7
  6
CONTINUOUS
 10
202.1173424896
 20
98.1751798561
 11
201.1173424896
 21
98.1751798561
  0
LINE
  5
234
100
AcDbEntity
  8
0
100
AcDbLine
 62
7
  6
CONTINUOUS
 10
500.1173424896
 20
217.2751798561
 11
499.1173424896
 21
217.2751798561
  0
LINE
  5
235
100
AcDbEntity
  8
0
100
AcDbLine
 62
7
  6
CONTINUOUS
 10
202.1173424896
 20
217.2751798561
 11
201.1173424896
 21
217.2751798561
  0
LINE
  5
236
100
AcDbEntity
  8
0
100
AcDbLine
 62
7
  6
CONTINUOUS
 10
199.4673424896
 20
220.4751798561
 11
201.1173424896
 21
220.4751798561
  0
LINE
  5
237
100
AcDbEntity
  8
0
100
AcDbLine
 62
7
  6
CONTINUOUS
 10
202.1173424896
 20
220.4751798561
 11
203.7673424896
 21
220.4751798561
  0
LINE
  5
238
100
AcDbEntity
  8
0
100
AcDbLine
 62
7
  6
CONTINUOUS
 10
497.4673424896
 20
220.4751798561
 11
499.1173424896
 21
220.4751798561
  0
LINE
  5
239
100
AcDbEntity
  8
0
100
AcDbLine
 62
7
  6
CONTINUOUS
 10
500.1173424896
 20
220.4751798561
 11
501.7673424896
 21
220.4751798561
  0
LINE
  5
23A
100
AcDbEntity
  8
0
100
AcDbLine
 62
7
  6
CONTINUOUS
 10
501.7673424896
 20
221.4751798561
 11
500.1173424896
 21
221.4751798561
  0
LINE
  5
23B
100
AcDbEntity
  8
0
100
AcDbLine
 62
7
  6
CONTINUOUS
 10
499.1173424896
 20
221.4751798561
 11
497.4673424896
 21
221.4751798561
  0
LINE
  5
23C
100
AcDbEntity
  8
0
100
AcDbLine
 62
7
  6
CONTINUOUS
 10
203.7673424896
 20
221.4751798561
 11
202.1173424896
 21
221.4751798561
  0
LINE
  5
23D
100
AcDbEntity
  8
0
100
AcDbLine
 62
7
  6
CONTINUOUS
 10
201.1173424896
 20
221.4751798561
 11
199.4673424896
 21
221.4751798561
  0
LINE
  5
23E
100
AcDbEntity
  8
0
100
AcDbLine
 62
7
  6
CONTINUOUS
 10
500.1173424896
 20
224.6751798561
 11
499.1173424896
 21
224.6751798561
  0
LINE
  5
23F
100
AcDbEntity
  8
0
100
AcDbLine
 62
7
  6
CONTINUOUS
 10
202.1173424896
 20
224.6751798561
 11
201.1173424896
 21
224.6751798561
  0
LINE
  5
240
100
AcDbEntity
  8
0
100
AcDbLine
 62
7
  6
CONTINUOUS
 10
510.6173424896
 20
244.0151798561
 11
190.6173424896
 21
244.0151798561
  0
LINE
  5
241
100
AcDbEntity
  8
0
100
AcDbLine
 62
7
  6
CONTINUOUS
 10
201.1173424896
 20
266.2651798561
 11
202.1173424896
 21
266.2651798561
  0
LINE
  5
242
100
AcDbEntity
  8
0
100
AcDbLine
 62
7
  6
CONTINUOUS
 10
499.1173424896
 20
266.2651798561
 11
500.1173424896
 21
266.2651798561
  0
LINE
  5
243
100
AcDbEntity
  8
0
100
AcDbLine
 62
7
  6
CONTINUOUS
 10
199.3673424896
 20
269.5151798561
 11
201.1173424896
 21
269.5151798561
  0
LINE
  5
244
100
AcDbEntity
  8
0
100
AcDbLine
 62
7
  6
CONTINUOUS
 10
202.1173424896
 20
269.5151798561
 11
203.8673424896
 21
269.5151798561
  0
LINE
  5
245
100
AcDbEntity
  8
0
100
AcDbLine
 62
7
  6
CONTINUOUS
 10
497.3673424896
 20
269.5151798561
 11
499.1173424896
 21
269.5151798561
  0
LINE
  5
246
100
AcDbEntity
  8
0
100
AcDbLine
 62
7
  6
CONTINUOUS
 10
500.1173424896
 20
269.5151798561
 11
501.8673424896
 21
269.5151798561
  0
LINE
  5
247
100
AcDbEntity
  8
0
100
AcDbLine
 62
7
  6
CONTINUOUS
 10
464.3673424897
 20
270.2127380664
 11
386.3673424896
 21
270.2127380664
  0
LINE
  5
248
100
AcDbEntity
  8
0
100
AcDbLine
 62
7
  6
CONTINUOUS
 10
314.3673424897
 20
270.2127380664
 11
236.3673424896
 21
270.2127380664
  0
LINE
  5
249
100
AcDbEntity
  8
0
100
AcDbLine
 62
7
  6
CONTINUOUS
 10
501.8673424896
 20
270.5151798561
 11
500.1173424896
 21
270.5151798561
  0
LINE
  5
24A
100
AcDbEntity
  8
0
100
AcDbLine
 62
7
  6
CONTINUOUS
 10
499.1173424896
 20
270.5151798561
 11
497.3673424896
 21
270.5151798561
  0
LINE
  5
24B
100
AcDbEntity
  8
0
100
AcDbLine
 62
7
  6
CONTINUOUS
 10
203.8673424896
 20
270.5151798561
 11
202.1173424896
 21
270.5151798561
  0
LINE
  5
24C
100
AcDbEntity
  8
0
100
AcDbLine
 62
7
  6
CONTINUOUS
 10
201.1173424896
 20
270.5151798561
 11
199.3673424896
 21
270.5151798561
  0
LINE
  5
24D
100
AcDbEntity
  8
0
100
AcDbLine
 62
7
  6
CONTINUOUS
 10
201.1173424896
 20
273.7651798561
 11
202.1173424896
 21
273.7651798561
  0
LINE
  5
24E
100
AcDbEntity
  8
0
100
AcDbLine
 62
7
  6
CONTINUOUS
 10
499.1173424896
 20
273.7651798561
 11
500.1173424896
 21
273.7651798561
  0
LINE
  5
24F
100
AcDbEntity
  8
0
100
AcDbLine
 62
7
  6
CONTINUOUS
 10
236.3673424896
 20
278.8176216458
 11
314.3673424897
 21
278.8176216458
  0
LINE
  5
250
100
AcDbEntity
  8
0
100
AcDbLine
 62
7
  6
CONTINUOUS
 10
386.3673424896
 20
278.8176216458
 11
464.3673424897
 21
278.8176216458
  0
LINE
  5
251
100
AcDbEntity
  8
0
100
AcDbLine
 62
7
  6
CONTINUOUS
 10
190.6173424896
 20
84.0151798561
 11
190.6173424896
 21
825.0151798561
  0
LINE
  5
252
100
AcDbEntity
  8
0
100
AcDbLine
 62
7
  6
CONTINUOUS
 10
195.6173424896
 20
825.0151798561
 11
195.6173424896
 21
850.0151798561
  0
LINE
  5
253
100
AcDbEntity
  8
0
100
AcDbLine
 62
7
  6
CONTINUOUS
 10
197.1173424896
 20
850.0151798561
 11
197.1173424896
 21
825.0151798561
  0
LINE
  5
254
100
AcDbEntity
  8
0
100
AcDbLine
 62
7
  6
CONTINUOUS
 10
199.3673424896
 20
269.5151798561
 11
199.3673424896
 21
270.5151798561
  0
LINE
  5
255
100
AcDbEntity
  8
0
100
AcDbLine
 62
7
  6
CONTINUOUS
 10
199.3673424896
 20
494.5151798561
 11
199.3673424896
 21
495.5151798561
  0
LINE
  5
256
100
AcDbEntity
  8
0
100
AcDbLine
 62
7
  6
CONTINUOUS
 10
199.3673424896
 20
799.5151798561
 11
199.3673424896
 21
800.5151798561
  0
LINE
  5
257
100
AcDbEntity
  8
0
100
AcDbLine
 62
7
  6
CONTINUOUS
 10
199.4673424896
 20
221.4751798561
 11
199.4673424896
 21
220.4751798561
  0
LINE
  5
258
100
AcDbEntity
  8
0
100
AcDbLine
 62
7
  6
CONTINUOUS
 10
199.4673424896
 20
94.9751798561
 11
199.4673424896
 21
93.9751798561
  0
LINE
  5
259
100
AcDbEntity
  8
0
100
AcDbLine
 62
7
  6
CONTINUOUS
 10
201.1173424896
 20
803.7651798561
 11
201.1173424896
 21
800.5151798561
  0
LINE
  5
25A
100
AcDbEntity
  8
0
100
AcDbLine
 62
7
  6
CONTINUOUS
 10
201.1173424896
 20
799.5151798561
 11
201.1173424896
 21
796.2651798561
  0
LINE
  5
25B
100
AcDbEntity
  8
0
100
AcDbLine
 62
7
  6
CONTINUOUS
 10
201.1173424896
 20
498.7651798561
 11
201.1173424896
 21
495.5151798561
  0
LINE
  5
25C
100
AcDbEntity
  8
0
100
AcDbLine
 62
7
  6
CONTINUOUS
 10
201.1173424896
 20
494.5151798561
 11
201.1173424896
 21
491.2651798561
  0
LINE
  5
25D
100
AcDbEntity
  8
0
100
AcDbLine
 62
7
  6
CONTINUOUS
 10
201.1173424896
 20
273.7651798561
 11
201.1173424896
 21
270.5151798561
  0
LINE
  5
25E
100
AcDbEntity
  8
0
100
AcDbLine
 62
7
  6
CONTINUOUS
 10
201.1173424896
 20
269.5151798561
 11
201.1173424896
 21
266.2651798561
  0
LINE
  5
25F
100
AcDbEntity
  8
0
100
AcDbLine
 62
7
  6
CONTINUOUS
 10
201.1173424896
 20
224.6751798561
 11
201.1173424896
 21
221.4751798561
  0
LINE
  5
260
100
AcDbEntity
  8
0
100
AcDbLine
 62
7
  6
CONTINUOUS
 10
201.1173424896
 20
220.4751798561
 11
201.1173424896
 21
217.2751798561
  0
LINE
  5
261
100
AcDbEntity
  8
0
100
AcDbLine
 62
7
  6
CONTINUOUS
 10
201.1173424896
 20
98.1751798561
 11
201.1173424896
 21
94.9751798561
  0
LINE
  5
262
100
AcDbEntity
  8
0
100
AcDbLine
 62
7
  6
CONTINUOUS
 10
201.1173424896
 20
93.9751798561
 11
201.1173424896
 21
90.7751798561
  0
LINE
  5
263
100
AcDbEntity
  8
0
100
AcDbLine
 62
7
  6
CONTINUOUS
 10
202.1173424896
 20
90.7751798561
 11
202.1173424896
 21
93.9751798561
  0
LINE
  5
264
100
AcDbEntity
  8
0
100
AcDbLine
 62
7
  6
CONTINUOUS
 10
202.1173424896
 20
94.9751798561
 11
202.1173424896
 21
98.1751798561
  0
LINE
  5
265
100
AcDbEntity
  8
0
100
AcDbLine
 62
7
  6
CONTINUOUS
 10
202.1173424896
 20
217.2751798561
 11
202.1173424896
 21
220.4751798561
  0
LINE
  5
266
100
AcDbEntity
  8
0
100
AcDbLine
 62
7
  6
CONTINUOUS
 10
202.1173424896
 20
221.4751798561
 11
202.1173424896
 21
224.6751798561
  0
LINE
  5
267
100
AcDbEntity
  8
0
100
AcDbLine
 62
7
  6
CONTINUOUS
 10
202.1173424896
 20
266.2651798561
 11
202.1173424896
 21
269.5151798561
  0
LINE
  5
268
100
AcDbEntity
  8
0
100
AcDbLine
 62
7
  6
CONTINUOUS
 10
202.1173424896
 20
270.5151798561
 11
202.1173424896
 21
273.7651798561
  0
LINE
  5
269
100
AcDbEntity
  8
0
100
AcDbLine
 62
7
  6
CONTINUOUS
 10
202.1173424896
 20
491.2651798561
 11
202.1173424896
 21
494.5151798561
  0
LINE
  5
26A
100
AcDbEntity
  8
0
100
AcDbLine
 62
7
  6
CONTINUOUS
 10
202.1173424896
 20
495.5151798561
 11
202.1173424896
 21
498.7651798561
  0
LINE
  5
26B
100
AcDbEntity
  8
0
100
AcDbLine
 62
7
  6
CONTINUOUS
 10
202.1173424896
 20
796.2651798561
 11
202.1173424896
 21
799.5151798561
  0
LINE
  5
26C
100
AcDbEntity
  8
0
100
AcDbLine
 62
7
  6
CONTINUOUS
 10
202.1173424896
 20
800.5151798561
 11
202.1173424896
 21
803.7651798561
  0
LINE
  5
26D
100
AcDbEntity
  8
0
100
AcDbLine
 62
7
  6
CONTINUOUS
 10
203.7673424896
 20
93.9751798561
 11
203.7673424896
 21
94.9751798561
  0
LINE
  5
26E
100
AcDbEntity
  8
0
100
AcDbLine
 62
7
  6
CONTINUOUS
 10
203.7673424896
 20
220.4751798561
 11
203.7673424896
 21
221.4751798561
  0
LINE
  5
26F
100
AcDbEntity
  8
0
100
AcDbLine
 62
7
  6
CONTINUOUS
 10
203.8673424896
 20
800.5151798561
 11
203.8673424896
 21
799.5151798561
  0
LINE
  5
270
100
AcDbEntity
  8
0
100
AcDbLine
 62
7
  6
CONTINUOUS
 10
203.8673424896
 20
495.5151798561
 11
203.8673424896
 21
494.5151798561
  0
LINE
  5
271
100
AcDbEntity
  8
0
100
AcDbLine
 62
7
  6
CONTINUOUS
 10
203.8673424896
 20
270.5151798561
 11
203.8673424896
 21
269.5151798561
  0
LINE
  5
272
100
AcDbEntity
  8
0
100
AcDbLine
 62
7
  6
CONTINUOUS
 10
206.1173424896
 20
840.0151798561
 11
206.1173424896
 21
833.9454654058
  0
LINE
  5
273
100
AcDbEntity
  8
0
100
AcDbLine
 62
7
  6
CONTINUOUS
 10
215.1173424896
 20
833.9454654058
 11
215.1173424896
 21
840.0151798561
  0
LINE
  5
274
100
AcDbEntity
  8
0
100
AcDbLine
 62
7
  6
CONTINUOUS
 10
222.1173424896
 20
825.0151798561
 11
222.1173424896
 21
891.5151798561
  0
LINE
  5
275
100
AcDbEntity
  8
0
100
AcDbLine
 62
7
  6
CONTINUOUS
 10
223.6173424896
 20
849.0151798561
 11
223.6173424896
 21
825.0151798561
  0
LINE
  5
276
100
AcDbEntity
  8
0
100
AcDbLine
 62
7
  6
CONTINUOUS
 10
224.1173424896
 20
830.5151798561
 11
224.1173424896
 21
845.5151798561
  0
LINE
  5
277
100
AcDbEntity
  8
0
100
AcDbLine
 62
7
  6
CONTINUOUS
 10
229.9173424897
 20
78.0151798561
 11
229.9173424897
 21
84.0151798561
  0
LINE
  5
278
100
AcDbEntity
  8
0
100
AcDbLine
 62
7
  6
CONTINUOUS
 10
230.1472341866
 20
78.0151798561
 11
230.1472341866
 21
84.0151798561
  0
LINE
  5
279
100
AcDbEntity
  8
0
100
AcDbLine
 62
7
  6
CONTINUOUS
 10
232.6677897204
 20
84.0151798561
 11
232.6677897204
 21
78.0151798561
  0
LINE
  5
27A
100
AcDbEntity
  8
0
100
AcDbLine
 62
7
  6
CONTINUOUS
 10
236.4200718556
 20
84.0151798561
 11
236.4200718556
 21
78.0151798561
  0
LINE
  5
27B
100
AcDbEntity
  8
0
100
AcDbLine
 62
7
  6
CONTINUOUS
 10
464.8673424898
 20
366.2127380664
 11
236.3673424895
 21
366.2127380664
  0
LINE
  5
27C
100
AcDbEntity
  8
0
100
AcDbLine
 62
7
  6
CONTINUOUS
 10
237.1173424897
 20
69.2151798561
 11
237.1173424897
 21
78.0151798561
  0
LINE
  5
27D
100
AcDbEntity
  8
0
100
AcDbLine
 62
7
  6
CONTINUOUS
 10
241.7233727145
 20
78.0151798561
 11
241.7233727145
 21
84.0151798561
  0
LINE
  5
27E
100
AcDbEntity
  8
0
100
AcDbLine
 62
7
  6
CONTINUOUS
 10
243.5056746249
 20
84.0151798561
 11
243.5056746249
 21
78.0151798561
  0
LINE
  5
27F
100
AcDbEntity
  8
0
100
AcDbLine
 62
7
  6
CONTINUOUS
 10
256.8673424897
 20
84.0151798561
 11
256.8673424897
 21
78.0151798561
  0
LINE
  5
280
100
AcDbEntity
  8
0
100
AcDbLine
 62
7
  6
CONTINUOUS
 10
264.3673424897
 20
78.0151798561
 11
264.3673424897
 21
84.0151798561
  0
LINE
  5
281
100
AcDbEntity
  8
0
100
AcDbLine
 62
7
  6
CONTINUOUS
 10
236.3673424895
 20
374.8176216458
 11
464.8673424898
 21
374.8176216458
  0
LINE
  5
282
100
AcDbEntity
  8
0
100
AcDbLine
 62
7
  6
CONTINUOUS
 10
277.7290103545
 20
78.0151798561
 11
277.7290103545
 21
84.0151798561
  0
LINE
  5
283
100
AcDbEntity
  8
0
100
AcDbLine
 62
7
  6
CONTINUOUS
 10
279.5113122648
 20
84.0151798561
 11
279.5113122648
 21
78.0151798561
  0
LINE
  5
284
100
AcDbEntity
  8
0
100
AcDbLine
 62
7
  6
CONTINUOUS
 10
284.1173424897
 20
69.2151798561
 11
284.1173424897
 21
78.0151798561
  0
LINE
  5
285
100
AcDbEntity
  8
0
100
AcDbLine
 62
7
  6
CONTINUOUS
 10
284.8146131237
 20
78.0151798561
 11
284.8146131237
 21
84.0151798561
  0
LINE
  5
286
100
AcDbEntity
  8
0
100
AcDbLine
 62
7
  6
CONTINUOUS
 10
288.5668952589
 20
78.0151798561
 11
288.5668952589
 21
84.0151798561
  0
LINE
  5
287
100
AcDbEntity
  8
0
100
AcDbLine
 62
7
  6
CONTINUOUS
 10
291.0874507927
 20
84.0151798561
 11
291.0874507927
 21
78.0151798561
  0
LINE
  5
288
100
AcDbEntity
  8
0
100
AcDbLine
 62
7
  6
CONTINUOUS
 10
291.3173424897
 20
78.0151798561
 11
291.3173424897
 21
84.0151798561
  0
LINE
  5
289
100
AcDbEntity
  8
0
100
AcDbLine
 62
7
  6
CONTINUOUS
 10
319.9173424896
 20
78.0151798561
 11
319.9173424896
 21
84.0151798561
  0
LINE
  5
28A
100
AcDbEntity
  8
0
100
AcDbLine
 62
7
  6
CONTINUOUS
 10
320.1472341866
 20
78.0151798561
 11
320.1472341866
 21
84.0151798561
  0
LINE
  5
28B
100
AcDbEntity
  8
0
100
AcDbLine
 62
7
  6
CONTINUOUS
 10
322.6677897204
 20
84.0151798561
 11
322.6677897204
 21
78.0151798561
  0
LINE
  5
28C
100
AcDbEntity
  8
0
100
AcDbLine
 62
7
  6
CONTINUOUS
 10
326.4200718556
 20
84.0151798561
 11
326.4200718556
 21
78.0151798561
  0
LINE
  5
28D
100
AcDbEntity
  8
0
100
AcDbLine
 62
7
  6
CONTINUOUS
 10
327.1173424896
 20
69.2151798561
 11
327.1173424896
 21
78.0151798561
  0
LINE
  5
28E
100
AcDbEntity
  8
0
100
AcDbLine
 62
7
  6
CONTINUOUS
 10
331.7233727145
 20
78.0151798561
 11
331.7233727145
 21
84.0151798561
  0
LINE
  5
28F
100
AcDbEntity
  8
0
100
AcDbLine
 62
7
  6
CONTINUOUS
 10
333.5056746248
 20
84.0151798561
 11
333.5056746248
 21
78.0151798561
  0
LINE
  5
290
100
AcDbEntity
  8
0
100
AcDbLine
 62
7
  6
CONTINUOUS
 10
341.3074894803
 20
84.0151798561
 11
341.3074894803
 21
79.2831798561
  0
LINE
  5
291
100
AcDbEntity
  8
0
100
AcDbLine
 62
7
  6
CONTINUOUS
 10
342.6755700536
 20
79.2831798561
 11
342.6755700536
 21
84.0151798561
  0
LINE
  5
292
100
AcDbEntity
  8
0
100
AcDbLine
 62
7
  6
CONTINUOUS
 10
344.0065505984
 20
84.0151798561
 11
344.0065505984
 21
79.2831798561
  0
LINE
  5
293
100
AcDbEntity
  8
0
100
AcDbLine
 62
7
  6
CONTINUOUS
 10
344.5673424896
 20
76.5151798561
 11
344.5673424896
 21
79.2831798561
  0
LINE
  5
294
100
AcDbEntity
  8
0
100
AcDbLine
 62
7
  6
CONTINUOUS
 10
346.3076103867
 20
84.0151798561
 11
346.3076103867
 21
79.2831798561
  0
LINE
  5
295
100
AcDbEntity
  8
0
100
AcDbLine
 62
7
  6
CONTINUOUS
 10
349.7717120019
 20
79.2831798561
 11
349.7717120019
 21
84.0151798561
  0
LINE
  5
296
100
AcDbEntity
  8
0
100
AcDbLine
 62
7
  6
CONTINUOUS
 10
350.4799119576
 20
84.0151798561
 11
350.4799119576
 21
79.2831798561
  0
LINE
  5
297
100
AcDbEntity
  8
0
100
AcDbLine
 62
7
  6
CONTINUOUS
 10
464.8673424898
 20
462.2127380664
 11
236.3673424895
 21
462.2127380664
  0
LINE
  5
298
100
AcDbEntity
  8
0
100
AcDbLine
 62
7
  6
CONTINUOUS
 10
236.3673424895
 20
470.8176216458
 11
464.8673424898
 21
470.8176216458
  0
LINE
  5
299
100
AcDbEntity
  8
0
100
AcDbLine
 62
7
  6
CONTINUOUS
 10
481.117342446
 20
481.5151798561
 11
370.117342446
 21
481.5151798561
  0
LINE
  5
29A
100
AcDbEntity
  8
0
100
AcDbLine
 62
7
  6
CONTINUOUS
 10
370.2267816067
 20
663.2744361593
 11
370.2294182192
 21
662.5138351224
  0
LINE
  5
29B
100
AcDbEntity
  8
0
100
AcDbLine
 62
7
  6
CONTINUOUS
 10
355.0903653672
 20
79.2831798561
 11
355.0903653672
 21
84.0151798561
  0
LINE
  5
29C
100
AcDbEntity
  8
0
100
AcDbLine
 62
7
  6
CONTINUOUS
 10
355.3363206306
 20
84.0151798561
 11
355.3363206306
 21
79.2831798561
  0
LINE
  5
29D
100
AcDbEntity
  8
0
100
AcDbLine
 62
7
  6
CONTINUOUS
 10
359.2755516427
 20
79.2831798561
 11
359.2755516427
 21
84.0151798561
  0
LINE
  5
29E
100
AcDbEntity
  8
0
100
AcDbLine
 62
7
  6
CONTINUOUS
 10
360.117342446
 20
491.5151798561
 11
360.117342446
 21
616.2151798561
  0
LINE
  5
29F
100
AcDbEntity
  8
0
100
AcDbLine
 62
7
  6
CONTINUOUS
 10
360.4673424896
 20
662.5151798561
 11
360.4673424896
 21
811.5151798561
  0
LINE
  5
2A0
100
AcDbEntity
  8
0
100
AcDbLine
 62
7
  6
CONTINUOUS
 10
363.0839610646
 20
79.2831798561
 11
363.0839610646
 21
84.0151798561
  0
LINE
  5
2A1
100
AcDbEntity
  8
0
100
AcDbLine
 62
7
  6
CONTINUOUS
 10
364.1689863459
 20
84.0151798561
 11
364.1689863459
 21
79.2831798561
  0
LINE
  5
2A2
100
AcDbEntity
  8
0
100
AcDbLine
 62
7
  6
CONTINUOUS
 10
365.2673424896
 20
76.5151798561
 11
365.2673424896
 21
79.2831798561
  0
LINE
  5
2A3
100
AcDbEntity
  8
0
100
AcDbLine
 62
7
  6
CONTINUOUS
 10
366.7401367847
 20
79.2831798561
 11
366.7401367847
 21
84.0151798561
  0
LINE
  5
2A4
100
AcDbEntity
  8
0
100
AcDbLine
 62
7
  6
CONTINUOUS
 10
367.2530499873
 20
79.2831798561
 11
367.2530499873
 21
84.0151798561
  0
LINE
  5
2A5
100
AcDbEntity
  8
0
100
AcDbLine
 62
7
  6
CONTINUOUS
 10
367.7290103544
 20
78.0151798561
 11
367.7290103544
 21
79.2831798561
  0
LINE
  5
2A6
100
AcDbEntity
  8
0
100
AcDbLine
 62
7
  6
CONTINUOUS
 10
368.6697851624
 20
84.0151798561
 11
368.6697851624
 21
79.2831798561
  0
LINE
  5
2A7
100
AcDbEntity
  8
0
100
AcDbLine
 62
7
  6
CONTINUOUS
 10
368.8173424896
 20
79.2831798561
 11
368.8173424896
 21
84.0151798561
  0
LINE
  5
2A8
100
AcDbEntity
  8
0
100
AcDbLine
 62
7
  6
CONTINUOUS
 10
369.5113122647
 20
84.0151798561
 11
369.5113122647
 21
78.0151798561
  0
LINE
  5
2A9
100
AcDbEntity
  8
0
100
AcDbLine
 62
7
  6
CONTINUOUS
 10
370.4874026922
 20
808.8151798561
 11
370.4874026922
 21
785.8051798561
  0
LINE
  5
2AA
100
AcDbEntity
  8
0
100
AcDbLine
 62
7
  6
CONTINUOUS
 10
370.4874026922
 20
739.4551798561
 11
370.4874026922
 21
676.9351798561
  0
LINE
  5
2AB
100
AcDbEntity
  8
0
100
AcDbLine
 62
7
  6
CONTINUOUS
 10
370.617342446
 20
626.2026720338
 11
370.617342446
 21
662.5151798561
  0
LINE
  5
2AC
100
AcDbEntity
  8
0
100
AcDbLine
 62
7
  6
CONTINUOUS
 10
374.1173424896
 20
69.2151798561
 11
374.1173424896
 21
78.0151798561
  0
LINE
  5
2AD
100
AcDbEntity
  8
0
100
AcDbLine
 62
7
  6
CONTINUOUS
 10
374.8146131237
 20
78.0151798561
 11
374.8146131237
 21
84.0151798561
  0
LINE
  5
2AE
100
AcDbEntity
  8
0
100
AcDbLine
 62
7
  6
CONTINUOUS
 10
378.5668952588
 20
78.0151798561
 11
378.5668952588
 21
84.0151798561
  0
LINE
  5
2AF
100
AcDbEntity
  8
0
100
AcDbLine
 62
7
  6
CONTINUOUS
 10
381.0874507927
 20
84.0151798561
 11
381.0874507927
 21
78.0151798561
  0
LINE
  5
2B0
100
AcDbEntity
  8
0
100
AcDbLine
 62
7
  6
CONTINUOUS
 10
381.3074894803
 20
84.0151798561
 11
381.3074894803
 21
79.2831798561
  0
LINE
  5
2B1
100
AcDbEntity
  8
0
100
AcDbLine
 62
7
  6
CONTINUOUS
 10
381.3173424896
 20
78.0151798561
 11
381.3173424896
 21
79.2831798561
  0
LINE
  5
2B2
100
AcDbEntity
  8
0
100
AcDbLine
 62
7
  6
CONTINUOUS
 10
381.8774026922
 20
785.8051798561
 11
381.8774026922
 21
739.4551798561
  0
LINE
  5
2B3
100
AcDbEntity
  8
0
100
AcDbLine
 62
7
  6
CONTINUOUS
 10
382.6755700536
 20
79.2831798561
 11
382.6755700536
 21
84.0151798561
  0
LINE
  5
2B4
100
AcDbEntity
  8
0
100
AcDbLine
 62
7
  6
CONTINUOUS
 10
422.4060343013
 20
488.0151798561
 11
428.8286505907
 21
488.0151798561
  0
LINE
  5
2B5
100
AcDbEntity
  8
0
100
AcDbLine
 62
7
  6
CONTINUOUS
 10
428.8286505907
 20
489.0151798561
 11
422.4060343013
 21
489.0151798561
  0
LINE
  5
2B6
100
AcDbEntity
  8
0
100
AcDbLine
 62
7
  6
CONTINUOUS
 10
201.1173424896
 20
491.2651798561
 11
202.1173424896
 21
491.2651798561
  0
LINE
  5
2B7
100
AcDbEntity
  8
0
100
AcDbLine
 62
7
  6
CONTINUOUS
 10
499.1173424896
 20
491.2651798561
 11
500.1173424896
 21
491.2651798561
  0
LINE
  5
2B8
100
AcDbEntity
  8
0
100
AcDbLine
 62
7
  6
CONTINUOUS
 10
199.3673424896
 20
494.5151798561
 11
201.1173424896
 21
494.5151798561
  0
LINE
  5
2B9
100
AcDbEntity
  8
0
100
AcDbLine
 62
7
  6
CONTINUOUS
 10
202.1173424896
 20
494.5151798561
 11
203.8673424896
 21
494.5151798561
  0
LINE
  5
2BA
100
AcDbEntity
  8
0
100
AcDbLine
 62
7
  6
CONTINUOUS
 10
497.3673424896
 20
494.5151798561
 11
499.1173424896
 21
494.5151798561
  0
LINE
  5
2BB
100
AcDbEntity
  8
0
100
AcDbLine
 62
7
  6
CONTINUOUS
 10
500.1173424896
 20
494.5151798561
 11
501.8673424896
 21
494.5151798561
  0
LINE
  5
2BC
100
AcDbEntity
  8
0
100
AcDbLine
 62
7
  6
CONTINUOUS
 10
501.8673424896
 20
495.5151798561
 11
500.1173424896
 21
495.5151798561
  0
LINE
  5
2BD
100
AcDbEntity
  8
0
100
AcDbLine
 62
7
  6
CONTINUOUS
 10
499.1173424896
 20
495.5151798561
 11
497.3673424896
 21
495.5151798561
  0
LINE
  5
2BE
100
AcDbEntity
  8
0
100
AcDbLine
 62
7
  6
CONTINUOUS
 10
203.8673424896
 20
495.5151798561
 11
202.1173424896
 21
495.5151798561
  0
LINE
  5
2BF
100
AcDbEntity
  8
0
100
AcDbLine
 62
7
  6
CONTINUOUS
 10
201.1173424896
 20
495.5151798561
 11
199.3673424896
 21
495.5151798561
  0
LINE
  5
2C0
100
AcDbEntity
  8
0
100
AcDbLine
 62
7
  6
CONTINUOUS
 10
201.1173424896
 20
498.7651798561
 11
202.1173424896
 21
498.7651798561
  0
LINE
  5
2C1
100
AcDbEntity
  8
0
100
AcDbLine
 62
7
  6
CONTINUOUS
 10
499.1173424896
 20
498.7651798561
 11
500.1173424896
 21
498.7651798561
  0
LINE
  5
2C2
100
AcDbEntity
  8
0
100
AcDbLine
 62
7
  6
CONTINUOUS
 10
384.0065505984
 20
84.0151798561
 11
384.0065505984
 21
79.2831798561
  0
LINE
  5
2C3
100
AcDbEntity
  8
0
100
AcDbLine
 62
7
  6
CONTINUOUS
 10
384.5673424896
 20
76.5151798561
 11
384.5673424896
 21
79.2831798561
  0
LINE
  5
2C4
100
AcDbEntity
  8
0
100
AcDbLine
 62
7
  6
CONTINUOUS
 10
385.4967667287
 20
798.9551798561
 11
385.4967667287
 21
686.5551795709
  0
LINE
  5
2C5
100
AcDbEntity
  8
0
100
AcDbLine
 62
7
  6
CONTINUOUS
 10
386.3076103867
 20
84.0151798561
 11
386.3076103867
 21
79.2831798561
  0
LINE
  5
2C6
100
AcDbEntity
  8
0
100
AcDbLine
 62
7
  6
CONTINUOUS
 10
389.7717120019
 20
79.2831798561
 11
389.7717120019
 21
84.0151798561
  0
LINE
  5
2C7
100
AcDbEntity
  8
0
100
AcDbLine
 62
7
  6
CONTINUOUS
 10
390.4799119576
 20
84.0151798561
 11
390.4799119576
 21
79.2831798561
  0
LINE
  5
2C8
100
AcDbEntity
  8
0
100
AcDbLine
 62
7
  6
CONTINUOUS
 10
395.0903653672
 20
79.2831798561
 11
395.0903653672
 21
84.0151798561
  0
LINE
  5
2C9
100
AcDbEntity
  8
0
100
AcDbLine
 62
7
  6
CONTINUOUS
 10
395.3363206306
 20
84.0151798561
 11
395.3363206306
 21
79.2831798561
  0
LINE
  5
2CA
100
AcDbEntity
  8
0
100
AcDbLine
 62
7
  6
CONTINUOUS
 10
395.5174026922
 20
750.5051798561
 11
395.5174026922
 21
788.0051798561
  0
LINE
  5
2CB
100
AcDbEntity
  8
0
100
AcDbLine
 62
7
  6
CONTINUOUS
 10
395.7174026922
 20
739.855180025
 11
395.7174026922
 21
733.0551798561
  0
LINE
  5
2CC
100
AcDbEntity
  8
0
100
AcDbLine
 62
7
  6
CONTINUOUS
 10
395.7174026922
 20
725.855180025
 11
395.7174026922
 21
719.0551798561
  0
LINE
  5
2CD
100
AcDbEntity
  8
0
100
AcDbLine
 62
7
  6
CONTINUOUS
 10
395.7174026922
 20
711.855180025
 11
395.7174026922
 21
705.0551798561
  0
LINE
  5
2CE
100
AcDbEntity
  8
0
100
AcDbLine
 62
7
  6
CONTINUOUS
 10
395.7174026922
 20
697.855180025
 11
395.7174026922
 21
691.0551798561
  0
LINE
  5
2CF
100
AcDbEntity
  8
0
100
AcDbLine
 62
7
  6
CONTINUOUS
 10
399.2755516427
 20
79.2831798561
 11
399.2755516427
 21
84.0151798561
  0
LINE
  5
2D0
100
AcDbEntity
  8
0
100
AcDbLine
 62
7
  6
CONTINUOUS
 10
403.0839610646
 20
79.2831798561
 11
403.0839610646
 21
84.0151798561
  0
LINE
  5
2D1
100
AcDbEntity
  8
0
100
AcDbLine
 62
7
  6
CONTINUOUS
 10
404.1689863459
 20
84.0151798561
 11
404.1689863459
 21
79.2831798561
  0
LINE
  5
2D2
100
AcDbEntity
  8
0
100
AcDbLine
 62
7
  6
CONTINUOUS
 10
405.2673424896
 20
76.5151798561
 11
405.2673424896
 21
79.2831798561
  0
LINE
  5
2D3
100
AcDbEntity
  8
0
100
AcDbLine
 62
7
  6
CONTINUOUS
 10
405.7174026922
 20
691.0551796872
 11
405.7174026922
 21
697.8551798561
  0
LINE
  5
2D4
100
AcDbEntity
  8
0
100
AcDbLine
 62
7
  6
CONTINUOUS
 10
405.7174026922
 20
705.0551796872
 11
405.7174026922
 21
711.8551798561
  0
LINE
  5
2D5
100
AcDbEntity
  8
0
100
AcDbLine
 62
7
  6
CONTINUOUS
 10
405.7174026922
 20
719.0551796872
 11
405.7174026922
 21
725.8551798561
  0
LINE
  5
2D6
100
AcDbEntity
  8
0
100
AcDbLine
 62
7
  6
CONTINUOUS
 10
405.7174026922
 20
733.0551796872
 11
405.7174026922
 21
739.8551798561
  0
LINE
  5
2D7
100
AcDbEntity
  8
0
100
AcDbLine
 62
7
  6
CONTINUOUS
 10
406.7401367847
 20
79.2831798561
 11
406.7401367847
 21
84.0151798561
  0
LINE
  5
2D8
100
AcDbEntity
  8
0
100
AcDbLine
 62
7
  6
CONTINUOUS
 10
407.2530499873
 20
79.2831798561
 11
407.2530499873
 21
84.0151798561
  0
LINE
  5
2D9
100
AcDbEntity
  8
0
100
AcDbLine
 62
7
  6
CONTINUOUS
 10
408.6697851624
 20
84.0151798561
 11
408.6697851624
 21
79.2831798561
  0
LINE
  5
2DA
100
AcDbEntity
  8
0
100
AcDbLine
 62
7
  6
CONTINUOUS
 10
408.8173424896
 20
79.2831798561
 11
408.8173424896
 21
84.0151798561
  0
LINE
  5
2DB
100
AcDbEntity
  8
0
100
AcDbLine
 62
7
  6
CONTINUOUS
 10
409.9173424896
 20
78.0151798561
 11
409.9173424896
 21
84.0151798561
  0
LINE
  5
2DC
100
AcDbEntity
  8
0
100
AcDbLine
 62
7
  6
CONTINUOUS
 10
410.1472341866
 20
78.0151798561
 11
410.1472341866
 21
84.0151798561
  0
LINE
  5
2DD
100
AcDbEntity
  8
0
100
AcDbLine
 62
7
  6
CONTINUOUS
 10
412.2174026922
 20
739.855180025
 11
412.2174026922
 21
733.0551798561
  0
LINE
  5
2DE
100
AcDbEntity
  8
0
100
AcDbLine
 62
7
  6
CONTINUOUS
 10
412.6677897204
 20
84.0151798561
 11
412.6677897204
 21
78.0151798561
  0
LINE
  5
2DF
100
AcDbEntity
  8
0
100
AcDbLine
 62
7
  6
CONTINUOUS
 10
440.2298341347
 20
662.5151798561
 11
440.2263610322
 21
663.5170886916
  0
LINE
  5
2E0
100
AcDbEntity
  8
0
100
AcDbLine
 62
7
  6
CONTINUOUS
 10
416.4200718556
 20
84.0151798561
 11
416.4200718556
 21
78.0151798561
  0
LINE
  5
2E1
100
AcDbEntity
  8
0
100
AcDbLine
 62
7
  6
CONTINUOUS
 10
417.1173424896
 20
69.2151798561
 11
417.1173424896
 21
78.0151798561
  0
LINE
  5
2E2
100
AcDbEntity
  8
0
100
AcDbLine
 62
7
  6
CONTINUOUS
 10
421.3074894803
 20
84.0151798561
 11
421.3074894803
 21
79.2831798561
  0
LINE
  5
2E3
100
AcDbEntity
  8
0
100
AcDbLine
 62
7
  6
CONTINUOUS
 10
421.7233727145
 20
78.0151798561
 11
421.7233727145
 21
79.2831798561
  0
LINE
  5
2E4
100
AcDbEntity
  8
0
100
AcDbLine
 62
7
  6
CONTINUOUS
 10
422.2174026922
 20
733.0551796872
 11
422.2174026922
 21
739.8551798561
  0
LINE
  5
2E5
100
AcDbEntity
  8
0
100
AcDbLine
 62
7
  6
CONTINUOUS
 10
422.6755700536
 20
79.2831798561
 11
422.6755700536
 21
84.0151798561
  0
LINE
  5
2E6
100
AcDbEntity
  8
0
100
AcDbLine
 62
7
  6
CONTINUOUS
 10
423.5056746248
 20
79.2831798561
 11
423.5056746248
 21
78.0151798561
  0
LINE
  5
2E7
100
AcDbEntity
  8
0
100
AcDbLine
 62
7
  6
CONTINUOUS
 10
424.0065505984
 20
84.0151798561
 11
424.0065505984
 21
79.2831798561
  0
LINE
  5
2E8
100
AcDbEntity
  8
0
100
AcDbLine
 62
7
  6
CONTINUOUS
 10
424.5673424896
 20
76.5151798561
 11
424.5673424896
 21
79.2831798561
  0
LINE
  5
2E9
100
AcDbEntity
  8
0
100
AcDbLine
 62
7
  6
CONTINUOUS
 10
426.3076103867
 20
84.0151798561
 11
426.3076103867
 21
79.2831798561
  0
LINE
  5
2EA
100
AcDbEntity
  8
0
100
AcDbLine
 62
7
  6
CONTINUOUS
 10
428.7174026922
 20
739.8552330198
 11
428.7174026922
 21
733.0551798561
  0
LINE
  5
2EB
100
AcDbEntity
  8
0
100
AcDbLine
 62
7
  6
CONTINUOUS
 10
429.7717120019
 20
79.2831798561
 11
429.7717120019
 21
84.0151798561
  0
LINE
  5
2EC
100
AcDbEntity
  8
0
100
AcDbLine
 62
7
  6
CONTINUOUS
 10
430.4799119576
 20
84.0151798561
 11
430.4799119576
 21
79.2831798561
  0
LINE
  5
2ED
100
AcDbEntity
  8
0
100
AcDbLine
 62
7
  6
CONTINUOUS
 10
435.0903653672
 20
79.2831798561
 11
435.0903653672
 21
84.0151798561
  0
LINE
  5
2EE
100
AcDbEntity
  8
0
100
AcDbLine
 62
7
  6
CONTINUOUS
 10
435.3363206306
 20
84.0151798561
 11
435.3363206306
 21
79.2831798561
  0
LINE
  5
2EF
100
AcDbEntity
  8
0
100
AcDbLine
 62
7
  6
CONTINUOUS
 10
438.7174026922
 20
733.0551796872
 11
438.7174026922
 21
739.8552270733
  0
LINE
  5
2F0
100
AcDbEntity
  8
0
100
AcDbLine
 62
7
  6
CONTINUOUS
 10
439.2755516427
 20
79.2831798561
 11
439.2755516427
 21
84.0151798561
  0
LINE
  5
2F1
100
AcDbEntity
  8
0
100
AcDbLine
 62
7
  6
CONTINUOUS
 10
464.3673424898
 20
558.2127380664
 11
386.3673424895
 21
558.2127380664
  0
LINE
  5
2F2
100
AcDbEntity
  8
0
100
AcDbLine
 62
7
  6
CONTINUOUS
 10
314.3673424898
 20
558.2127380664
 11
236.3673424895
 21
558.2127380664
  0
LINE
  5
2F3
100
AcDbEntity
  8
0
100
AcDbLine
 62
7
  6
CONTINUOUS
 10
236.3673424895
 20
566.8176216458
 11
314.3673424898
 21
566.8176216458
  0
LINE
  5
2F4
100
AcDbEntity
  8
0
100
AcDbLine
 62
7
  6
CONTINUOUS
 10
386.3673424895
 20
566.8176216458
 11
464.3673424898
 21
566.8176216458
  0
LINE
  5
2F5
100
AcDbEntity
  8
0
100
AcDbLine
 62
7
  6
CONTINUOUS
 10
443.0839610646
 20
79.2831798561
 11
443.0839610646
 21
84.0151798561
  0
LINE
  5
2F6
100
AcDbEntity
  8
0
100
AcDbLine
 62
7
  6
CONTINUOUS
 10
444.1689863459
 20
84.0151798561
 11
444.1689863459
 21
79.2831798561
  0
LINE
  5
2F7
100
AcDbEntity
  8
0
100
AcDbLine
 62
7
  6
CONTINUOUS
 10
445.2174026922
 20
739.8552139348
 11
445.2174026922
 21
733.0551798561
  0
LINE
  5
2F8
100
AcDbEntity
  8
0
100
AcDbLine
 62
7
  6
CONTINUOUS
 10
445.2174026922
 20
725.855180025
 11
445.2174026922
 21
719.0551798561
  0
LINE
  5
2F9
100
AcDbEntity
  8
0
100
AcDbLine
 62
7
  6
CONTINUOUS
 10
445.2174026922
 20
711.8551798561
 11
445.2174026922
 21
705.0551798561
  0
LINE
  5
2FA
100
AcDbEntity
  8
0
100
AcDbLine
 62
7
  6
CONTINUOUS
 10
445.2174026922
 20
697.855180025
 11
445.2174026922
 21
691.0551798561
  0
LINE
  5
2FB
100
AcDbEntity
  8
0
100
AcDbLine
 62
7
  6
CONTINUOUS
 10
445.2673424896
 20
76.5151798561
 11
445.2673424896
 21
79.2831798561
  0
LINE
  5
2FC
100
AcDbEntity
  8
0
100
AcDbLine
 62
7
  6
CONTINUOUS
 10
446.7401367847
 20
79.2831798561
 11
446.7401367847
 21
84.0151798561
  0
LINE
  5
2FD
100
AcDbEntity
  8
0
100
AcDbLine
 62
7
  6
CONTINUOUS
 10
447.2530499873
 20
79.2831798561
 11
447.2530499873
 21
84.0151798561
  0
LINE
  5
2FE
100
AcDbEntity
  8
0
100
AcDbLine
 62
7
  6
CONTINUOUS
 10
448.6697851624
 20
84.0151798561
 11
448.6697851624
 21
79.2831798561
  0
LINE
  5
2FF
100
AcDbEntity
  8
0
100
AcDbLine
 62
7
  6
CONTINUOUS
 10
448.8173424896
 20
79.2831798561
 11
448.8173424896
 21
84.0151798561
  0
LINE
  5
300
100
AcDbEntity
  8
0
100
AcDbLine
 62
7
  6
CONTINUOUS
 10
455.2174026922
 20
691.0551796872
 11
455.2174026922
 21
697.8551798561
  0
LINE
  5
301
100
AcDbEntity
  8
0
100
AcDbLine
 62
7
  6
CONTINUOUS
 10
455.2174026922
 20
705.0551796872
 11
455.2174026922
 21
711.8551798561
  0
LINE
  5
302
100
AcDbEntity
  8
0
100
AcDbLine
 62
7
  6
CONTINUOUS
 10
455.2174026922
 20
719.0551796872
 11
455.2174026922
 21
725.8551798561
  0
LINE
  5
303
100
AcDbEntity
  8
0
100
AcDbLine
 62
7
  6
CONTINUOUS
 10
455.2174026922
 20
733.0551796872
 11
455.2174026922
 21
739.8551798561
  0
LINE
  5
304
100
AcDbEntity
  8
0
100
AcDbLine
 62
7
  6
CONTINUOUS
 10
455.4174026922
 20
788.0051798561
 11
455.4174026922
 21
750.5051798561
  0
LINE
  5
305
100
AcDbEntity
  8
0
100
AcDbLine
 62
7
  6
CONTINUOUS
 10
457.7290103544
 20
78.0151798561
 11
457.7290103544
 21
84.0151798561
  0
LINE
  5
306
100
AcDbEntity
  8
0
100
AcDbLine
 62
7
  6
CONTINUOUS
 10
459.5113122647
 20
84.0151798561
 11
459.5113122647
 21
78.0151798561
  0
LINE
  5
307
100
AcDbEntity
  8
0
100
AcDbLine
 62
7
  6
CONTINUOUS
 10
461.3074894803
 20
84.0151798561
 11
461.3074894803
 21
79.2831798561
  0
LINE
  5
308
100
AcDbEntity
  8
0
100
AcDbLine
 62
7
  6
CONTINUOUS
 10
462.6755700536
 20
79.2831798561
 11
462.6755700536
 21
84.0151798561
  0
LINE
  5
309
100
AcDbEntity
  8
0
100
AcDbLine
 62
7
  6
CONTINUOUS
 10
464.0065505984
 20
84.0151798561
 11
464.0065505984
 21
79.2831798561
  0
LINE
  5
30A
100
AcDbEntity
  8
0
100
AcDbLine
 62
7
  6
CONTINUOUS
 10
464.1173424896
 20
69.2151798561
 11
464.1173424896
 21
78.0151798561
  0
LINE
  5
30B
100
AcDbEntity
  8
0
100
AcDbLine
 62
7
  6
CONTINUOUS
 10
464.5673424896
 20
76.5151798561
 11
464.5673424896
 21
79.2831798561
  0
LINE
  5
30C
100
AcDbEntity
  8
0
100
AcDbLine
 62
7
  6
CONTINUOUS
 10
465.4380386558
 20
686.5551798561
 11
465.4380386558
 21
798.9551798561
  0
LINE
  5
30D
100
AcDbEntity
  8
0
100
AcDbLine
 62
7
  6
CONTINUOUS
 10
466.3076103867
 20
84.0151798561
 11
466.3076103867
 21
79.2831798561
  0
LINE
  5
30E
100
AcDbEntity
  8
0
100
AcDbLine
 62
7
  6
CONTINUOUS
 10
469.7717120019
 20
79.2831798561
 11
469.7717120019
 21
84.0151798561
  0
LINE
  5
30F
100
AcDbEntity
  8
0
100
AcDbLine
 62
7
  6
CONTINUOUS
 10
470.4799119576
 20
84.0151798561
 11
470.4799119576
 21
79.2831798561
  0
LINE
  5
310
100
AcDbEntity
  8
0
100
AcDbLine
 62
7
  6
CONTINUOUS
 10
485.5777104728
 20
662.5151798561
 11
485.5738382226
 21
663.6322164153
  0
LINE
  5
311
100
AcDbEntity
  8
0
100
AcDbLine
 62
7
  6
CONTINUOUS
 10
475.0903653672
 20
79.2831798561
 11
475.0903653672
 21
84.0151798561
  0
LINE
  5
312
100
AcDbEntity
  8
0
100
AcDbLine
 62
7
  6
CONTINUOUS
 10
475.3363206306
 20
84.0151798561
 11
475.3363206306
 21
79.2831798561
  0
LINE
  5
313
100
AcDbEntity
  8
0
100
AcDbLine
 62
7
  6
CONTINUOUS
 10
477.1173424896
 20
845.5151798561
 11
477.1173424896
 21
830.5151798561
  0
LINE
  5
314
100
AcDbEntity
  8
0
100
AcDbLine
 62
7
  6
CONTINUOUS
 10
477.6173424896
 20
825.0151798561
 11
477.6173424896
 21
849.0151798561
  0
LINE
  5
315
100
AcDbEntity
  8
0
100
AcDbLine
 62
7
  6
CONTINUOUS
 10
479.1173424896
 20
891.5151798561
 11
479.1173424896
 21
825.0151798561
  0
LINE
  5
316
100
AcDbEntity
  8
0
100
AcDbLine
 62
7
  6
CONTINUOUS
 10
479.2755516427
 20
79.2831798561
 11
479.2755516427
 21
84.0151798561
  0
LINE
  5
317
100
AcDbEntity
  8
0
100
AcDbLine
 62
7
  6
CONTINUOUS
 10
480.4174026922
 20
676.9351798561
 11
480.4174026922
 21
808.8151798561
  0
LINE
  5
318
100
AcDbEntity
  8
0
100
AcDbLine
 62
7
  6
CONTINUOUS
 10
480.617342446
 20
662.5151798561
 11
480.617342446
 21
626.2026720338
  0
LINE
  5
319
100
AcDbEntity
  8
0
100
AcDbLine
 62
7
  6
CONTINUOUS
 10
483.0839610646
 20
79.2831798561
 11
483.0839610646
 21
84.0151798561
  0
LINE
  5
31A
100
AcDbEntity
  8
0
100
AcDbLine
 62
7
  6
CONTINUOUS
 10
484.1689863459
 20
84.0151798561
 11
484.1689863459
 21
79.2831798561
  0
LINE
  5
31B
100
AcDbEntity
  8
0
100
AcDbLine
 62
7
  6
CONTINUOUS
 10
485.2673424896
 20
76.5151798561
 11
485.2673424896
 21
79.2831798561
  0
LINE
  5
31C
100
AcDbEntity
  8
0
100
AcDbLine
 62
7
  6
CONTINUOUS
 10
486.1173424896
 20
840.0151798561
 11
486.1173424896
 21
833.9454654058
  0
LINE
  5
31D
100
AcDbEntity
  8
0
100
AcDbLine
 62
7
  6
CONTINUOUS
 10
486.7401367847
 20
79.2831798561
 11
486.7401367847
 21
84.0151798561
  0
LINE
  5
31E
100
AcDbEntity
  8
0
100
AcDbLine
 62
7
  6
CONTINUOUS
 10
487.2530499873
 20
79.2831798561
 11
487.2530499873
 21
84.0151798561
  0
LINE
  5
31F
100
AcDbEntity
  8
0
100
AcDbLine
 62
7
  6
CONTINUOUS
 10
488.6697851624
 20
84.0151798561
 11
488.6697851624
 21
79.2831798561
  0
LINE
  5
320
100
AcDbEntity
  8
0
100
AcDbLine
 62
7
  6
CONTINUOUS
 10
488.8173424896
 20
79.2831798561
 11
488.8173424896
 21
84.0151798561
  0
LINE
  5
321
100
AcDbEntity
  8
0
100
AcDbLine
 62
7
  6
CONTINUOUS
 10
490.4673424896
 20
663.6322164013
 11
490.4673424896
 21
662.5151798561
  0
LINE
  5
322
100
AcDbEntity
  8
0
100
AcDbLine
 62
7
  6
CONTINUOUS
 10
490.7673424896
 20
811.5151798561
 11
490.7673424896
 21
662.5151798561
  0
LINE
  5
323
100
AcDbEntity
  8
0
100
AcDbLine
 62
7
  6
CONTINUOUS
 10
491.117342446
 20
616.2151798561
 11
491.117342446
 21
491.5151798561
  0
LINE
  5
324
100
AcDbEntity
  8
0
100
AcDbLine
 62
7
  6
CONTINUOUS
 10
495.1173424896
 20
833.9454654058
 11
495.1173424896
 21
840.0151798561
  0
LINE
  5
325
100
AcDbEntity
  8
0
100
AcDbLine
 62
7
  6
CONTINUOUS
 10
497.3673424896
 20
269.5151798561
 11
497.3673424896
 21
270.5151798561
  0
LINE
  5
326
100
AcDbEntity
  8
0
100
AcDbLine
 62
7
  6
CONTINUOUS
 10
497.3673424896
 20
494.5151798561
 11
497.3673424896
 21
495.5151798561
  0
LINE
  5
327
100
AcDbEntity
  8
0
100
AcDbLine
 62
7
  6
CONTINUOUS
 10
497.3673424896
 20
799.5151798561
 11
497.3673424896
 21
800.5151798561
  0
LINE
  5
328
100
AcDbEntity
  8
0
100
AcDbLine
 62
7
  6
CONTINUOUS
 10
497.4673424896
 20
221.4751798561
 11
497.4673424896
 21
220.4751798561
  0
LINE
  5
329
100
AcDbEntity
  8
0
100
AcDbLine
 62
7
  6
CONTINUOUS
 10
497.4673424896
 20
94.9751798561
 11
497.4673424896
 21
93.9751798561
  0
LINE
  5
32A
100
AcDbEntity
  8
0
100
AcDbLine
 62
7
  6
CONTINUOUS
 10
499.1173424896
 20
803.7651798561
 11
499.1173424896
 21
800.5151798561
  0
LINE
  5
32B
100
AcDbEntity
  8
0
100
AcDbLine
 62
7
  6
CONTINUOUS
 10
499.1173424896
 20
799.5151798561
 11
499.1173424896
 21
796.2651798561
  0
LINE
  5
32C
100
AcDbEntity
  8
0
100
AcDbLine
 62
7
  6
CONTINUOUS
 10
499.1173424896
 20
498.7651798561
 11
499.1173424896
 21
495.5151798561
  0
LINE
  5
32D
100
AcDbEntity
  8
0
100
AcDbLine
 62
7
  6
CONTINUOUS
 10
499.1173424896
 20
494.5151798561
 11
499.1173424896
 21
491.2651798561
  0
LINE
  5
32E
100
AcDbEntity
  8
0
100
AcDbLine
 62
7
  6
CONTINUOUS
 10
499.1173424896
 20
273.7651798561
 11
499.1173424896
 21
270.5151798561
  0
LINE
  5
32F
100
AcDbEntity
  8
0
100
AcDbLine
 62
7
  6
CONTINUOUS
 10
499.1173424896
 20
269.5151798561
 11
499.1173424896
 21
266.2651798561
  0
LINE
  5
330
100
AcDbEntity
  8
0
100
AcDbLine
 62
7
  6
CONTINUOUS
 10
499.1173424896
 20
224.6751798561
 11
499.1173424896
 21
221.4751798561
  0
LINE
  5
331
100
AcDbEntity
  8
0
100
AcDbLine
 62
7
  6
CONTINUOUS
 10
499.1173424896
 20
220.4751798561
 11
499.1173424896
 21
217.2751798561
  0
LINE
  5
332
100
AcDbEntity
  8
0
100
AcDbLine
 62
7
  6
CONTINUOUS
 10
499.1173424896
 20
98.1751798561
 11
499.1173424896
 21
94.9751798561
  0
LINE
  5
333
100
AcDbEntity
  8
0
100
AcDbLine
 62
7
  6
CONTINUOUS
 10
499.1173424896
 20
93.9751798561
 11
499.1173424896
 21
90.7751798561
  0
LINE
  5
334
100
AcDbEntity
  8
0
100
AcDbLine
 62
7
  6
CONTINUOUS
 10
500.1173424896
 20
90.7751798561
 11
500.1173424896
 21
93.9751798561
  0
LINE
  5
335
100
AcDbEntity
  8
0
100
AcDbLine
 62
7
  6
CONTINUOUS
 10
500.1173424896
 20
94.9751798561
 11
500.1173424896
 21
98.1751798561
  0
LINE
  5
336
100
AcDbEntity
  8
0
100
AcDbLine
 62
7
  6
CONTINUOUS
 10
500.1173424896
 20
217.2751798561
 11
500.1173424896
 21
220.4751798561
  0
LINE
  5
337
100
AcDbEntity
  8
0
100
AcDbLine
 62
7
  6
CONTINUOUS
 10
500.1173424896
 20
221.4751798561
 11
500.1173424896
 21
224.6751798561
  0
LINE
  5
338
100
AcDbEntity
  8
0
100
AcDbLine
 62
7
  6
CONTINUOUS
 10
500.1173424896
 20
266.2651798561
 11
500.1173424896
 21
269.5151798561
  0
LINE
  5
339
100
AcDbEntity
  8
0
100
AcDbLine
 62
7
  6
CONTINUOUS
 10
500.1173424896
 20
270.5151798561
 11
500.1173424896
 21
273.7651798561
  0
LINE
  5
33A
100
AcDbEntity
  8
0
100
AcDbLine
 62
7
  6
CONTINUOUS
 10
500.1173424896
 20
491.2651798561
 11
500.1173424896
 21
494.5151798561
  0
LINE
  5
33B
100
AcDbEntity
  8
0
100
AcDbLine
 62
7
  6
CONTINUOUS
 10
500.1173424896
 20
495.5151798561
 11
500.1173424896
 21
498.7651798561
  0
LINE
  5
33C
100
AcDbEntity
  8
0
100
AcDbLine
 62
7
  6
CONTINUOUS
 10
500.1173424896
 20
796.2651798561
 11
500.1173424896
 21
799.5151798561
  0
LINE
  5
33D
100
AcDbEntity
  8
0
100
AcDbLine
 62
7
  6
CONTINUOUS
 10
500.1173424896
 20
800.5151798561
 11
500.1173424896
 21
803.7651798561
  0
LINE
  5
33E
100
AcDbEntity
  8
0
100
AcDbLine
 62
7
  6
CONTINUOUS
 10
469.1897678896
 20
619.2975798561
 11
452.085140266
 21
619.2382869112
  0
LINE
  5
33F
100
AcDbEntity
  8
0
100
AcDbLine
 62
7
  6
CONTINUOUS
 10
469.1897678887
 20
619.2975798561
 11
452.0850289334
 21
619.2975798561
  0
LINE
  5
340
100
AcDbEntity
  8
0
100
AcDbLine
 62
7
  6
CONTINUOUS
 10
501.7673424896
 20
93.9751798561
 11
501.7673424896
 21
94.9751798561
  0
LINE
  5
341
100
AcDbEntity
  8
0
100
AcDbLine
 62
7
  6
CONTINUOUS
 10
501.7673424896
 20
220.4751798561
 11
501.7673424896
 21
221.4751798561
  0
LINE
  5
342
100
AcDbEntity
  8
0
100
AcDbLine
 62
7
  6
CONTINUOUS
 10
501.8673424896
 20
800.5151798561
 11
501.8673424896
 21
799.5151798561
  0
LINE
  5
343
100
AcDbEntity
  8
0
100
AcDbLine
 62
7
  6
CONTINUOUS
 10
501.8673424896
 20
495.5151798561
 11
501.8673424896
 21
494.5151798561
  0
LINE
  5
344
100
AcDbEntity
  8
0
100
AcDbLine
 62
7
  6
CONTINUOUS
 10
501.8673424896
 20
270.5151798561
 11
501.8673424896
 21
269.5151798561
  0
LINE
  5
345
100
AcDbEntity
  8
0
100
AcDbLine
 62
7
  6
CONTINUOUS
 10
504.1173424896
 20
825.0151798561
 11
504.1173424896
 21
850.0151798561
  0
LINE
  5
346
100
AcDbEntity
  8
0
100
AcDbLine
 62
7
  6
CONTINUOUS
 10
505.6173424896
 20
850.0151798561
 11
505.6173424896
 21
825.0151798561
  0
LINE
  5
347
100
AcDbEntity
  8
0
100
AcDbLine
 62
7
  6
CONTINUOUS
 10
510.6173424896
 20
84.0151798561
 11
510.6173424896
 21
825.0151798561
  0
LINE
  5
348
100
AcDbEntity
  8
0
100
AcDbLine
 62
7
  6
CONTINUOUS
 10
314.3673424898
 20
654.2127380664
 11
236.3673424895
 21
654.2127380664
  0
LINE
  5
349
100
AcDbEntity
  8
0
100
AcDbLine
 62
7
  6
CONTINUOUS
 10
360.4673424896
 20
663.2406052043
 11
473.4380121896
 21
663.6322164013
  0
LINE
  5
34A
100
AcDbEntity
  8
0
100
AcDbLine
 62
7
  6
CONTINUOUS
 10
360.4673424896
 20
662.5151798561
 11
490.7673424896
 21
662.5151798561
  0
LINE
  5
34B
100
AcDbEntity
  8
0
100
AcDbLine
 62
7
  6
CONTINUOUS
 10
236.3673424895
 20
662.8176216458
 11
314.3673424898
 21
662.8176216458
  0
LINE
  5
34C
100
AcDbEntity
  8
0
100
AcDbLine
 62
7
  6
CONTINUOUS
 10
490.4673424896
 20
663.6322164013
 11
473.4380121896
 21
663.6322164013
  0
LINE
  5
34D
100
AcDbEntity
  8
0
100
AcDbLine
 62
7
  6
CONTINUOUS
 10
370.4874026922
 20
676.9351798561
 11
480.4174026922
 21
676.9351798561
  0
LINE
  5
34E
100
AcDbEntity
  8
0
100
AcDbLine
 62
7
  6
CONTINUOUS
 10
458.6674026922
 20
679.7845438925
 11
392.2674026922
 21
679.7845438925
  0
LINE
  5
34F
100
AcDbEntity
  8
0
100
AcDbLine
 62
7
  6
CONTINUOUS
 10
397.3174025233
 20
689.4551798561
 11
404.1174027644
 21
689.4551798561
  0
LINE
  5
350
100
AcDbEntity
  8
0
100
AcDbLine
 62
7
  6
CONTINUOUS
 10
446.8174025233
 20
689.4551798561
 11
453.6174027644
 21
689.4551798561
  0
LINE
  5
351
100
AcDbEntity
  8
0
100
AcDbLine
 62
7
  6
CONTINUOUS
 10
453.6174028612
 20
699.4551798561
 11
446.8174026922
 21
699.4551798561
  0
LINE
  5
352
100
AcDbEntity
  8
0
100
AcDbLine
 62
7
  6
CONTINUOUS
 10
404.1174028612
 20
699.4551798561
 11
397.3174026922
 21
699.4551798561
  0
LINE
  5
353
100
AcDbEntity
  8
0
100
AcDbLine
 62
7
  6
CONTINUOUS
 10
397.3174025233
 20
703.4551798561
 11
404.1174027644
 21
703.4551798561
  0
LINE
  5
354
100
AcDbEntity
  8
0
100
AcDbLine
 62
7
  6
CONTINUOUS
 10
446.8174025233
 20
703.4551798561
 11
453.6174027644
 21
703.4551798561
  0
LINE
  5
355
100
AcDbEntity
  8
0
100
AcDbLine
 62
7
  6
CONTINUOUS
 10
453.6174028612
 20
713.4551798561
 11
446.8174026922
 21
713.4551798561
  0
LINE
  5
356
100
AcDbEntity
  8
0
100
AcDbLine
 62
7
  6
CONTINUOUS
 10
404.1174028612
 20
713.4551798561
 11
397.3174026922
 21
713.4551798561
  0
LINE
  5
357
100
AcDbEntity
  8
0
100
AcDbLine
 62
7
  6
CONTINUOUS
 10
397.3174025233
 20
717.4551798561
 11
404.1174027644
 21
717.4551798561
  0
LINE
  5
358
100
AcDbEntity
  8
0
100
AcDbLine
 62
7
  6
CONTINUOUS
 10
446.8174025233
 20
717.4551798561
 11
453.6174027644
 21
717.4551798561
  0
LINE
  5
359
100
AcDbEntity
  8
0
100
AcDbLine
 62
7
  6
CONTINUOUS
 10
453.6174028612
 20
727.4551798561
 11
446.8174026922
 21
727.4551798561
  0
LINE
  5
35A
100
AcDbEntity
  8
0
100
AcDbLine
 62
7
  6
CONTINUOUS
 10
404.1174026925
 20
727.455179856
 11
397.317402692
 21
727.455179856
  0
LINE
  5
35B
100
AcDbEntity
  8
0
100
AcDbLine
 62
7
  6
CONTINUOUS
 10
397.3174025233
 20
731.4551798561
 11
404.1174027644
 21
731.4551798561
  0
LINE
  5
35C
100
AcDbEntity
  8
0
100
AcDbLine
 62
7
  6
CONTINUOUS
 10
413.8174025233
 20
731.4551798561
 11
420.6174027644
 21
731.4551798561
  0
LINE
  5
35D
100
AcDbEntity
  8
0
100
AcDbLine
 62
7
  6
CONTINUOUS
 10
430.3174025233
 20
731.4551798561
 11
437.1174027644
 21
731.4551798561
  0
LINE
  5
35E
100
AcDbEntity
  8
0
100
AcDbLine
 62
7
  6
CONTINUOUS
 10
446.8174025233
 20
731.4551798561
 11
453.6174027644
 21
731.4551798561
  0
LINE
  5
35F
100
AcDbEntity
  8
0
100
AcDbLine
 62
7
  6
CONTINUOUS
 10
381.8774026922
 20
739.4551798561
 11
370.4874026922
 21
739.4551798561
  0
LINE
  5
360
100
AcDbEntity
  8
0
100
AcDbLine
 62
7
  6
CONTINUOUS
 10
453.6174028612
 20
741.4551798561
 11
446.8173687865
 21
741.4551798561
  0
LINE
  5
361
100
AcDbEntity
  8
0
100
AcDbLine
 62
7
  6
CONTINUOUS
 10
437.117449908
 20
741.455179856
 11
430.3173496957
 21
741.455179856
  0
LINE
  5
362
100
AcDbEntity
  8
0
100
AcDbLine
 62
7
  6
CONTINUOUS
 10
420.6174028612
 20
741.4551798561
 11
413.8174026922
 21
741.4551798561
  0
LINE
  5
363
100
AcDbEntity
  8
0
100
AcDbLine
 62
7
  6
CONTINUOUS
 10
404.1174028612
 20
741.4551798561
 11
397.3174026922
 21
741.4551798561
  0
LINE
  5
364
100
AcDbEntity
  8
0
100
AcDbLine
 62
7
  6
CONTINUOUS
 10
397.1174026922
 20
748.9051798561
 11
453.8174026922
 21
748.9051798561
  0
LINE
  5
365
100
AcDbEntity
  8
0
100
AcDbLine
 62
7
  6
CONTINUOUS
 10
370.4874026922
 20
785.8051798561
 11
381.8774026922
 21
785.8051798561
  0
LINE
  5
366
100
AcDbEntity
  8
0
100
AcDbLine
 62
7
  6
CONTINUOUS
 10
453.8174026922
 20
789.6051798561
 11
397.1174026922
 21
789.6051798561
  0
LINE
  5
367
100
AcDbEntity
  8
0
100
AcDbLine
 62
7
  6
CONTINUOUS
 10
201.1173424896
 20
796.2651798561
 11
202.1173424896
 21
796.2651798561
  0
LINE
  5
368
100
AcDbEntity
  8
0
100
AcDbLine
 62
7
  6
CONTINUOUS
 10
499.1173424896
 20
796.2651798561
 11
500.1173424896
 21
796.2651798561
  0
LINE
  5
369
100
AcDbEntity
  8
0
100
AcDbLine
 62
7
  6
CONTINUOUS
 10
199.3673424896
 20
799.5151798561
 11
201.1173424896
 21
799.5151798561
  0
LINE
  5
36A
100
AcDbEntity
  8
0
100
AcDbLine
 62
7
  6
CONTINUOUS
 10
202.1173424896
 20
799.5151798561
 11
203.8673424896
 21
799.5151798561
  0
LINE
  5
36B
100
AcDbEntity
  8
0
100
AcDbLine
 62
7
  6
CONTINUOUS
 10
497.3673424896
 20
799.5151798561
 11
499.1173424896
 21
799.5151798561
  0
LINE
  5
36C
100
AcDbEntity
  8
0
100
AcDbLine
 62
7
  6
CONTINUOUS
 10
500.1173424896
 20
799.5151798561
 11
501.8673424896
 21
799.5151798561
  0
LINE
  5
36D
100
AcDbEntity
  8
0
100
AcDbLine
 62
7
  6
CONTINUOUS
 10
501.8673424896
 20
800.5151798561
 11
500.1173424896
 21
800.5151798561
  0
LINE
  5
36E
100
AcDbEntity
  8
0
100
AcDbLine
 62
7
  6
CONTINUOUS
 10
499.1173424896
 20
800.5151798561
 11
497.3673424896
 21
800.5151798561
  0
LINE
  5
36F
100
AcDbEntity
  8
0
100
AcDbLine
 62
7
  6
CONTINUOUS
 10
203.8673424896
 20
800.5151798561
 11
202.1173424896
 21
800.5151798561
  0
LINE
  5
370
100
AcDbEntity
  8
0
100
AcDbLine
 62
7
  6
CONTINUOUS
 10
201.1173424896
 20
800.5151798561
 11
199.3673424896
 21
800.5151798561
  0
LINE
  5
371
100
AcDbEntity
  8
0
100
AcDbLine
 62
7
  6
CONTINUOUS
 10
201.1173424896
 20
803.7651798561
 11
202.1173424896
 21
803.7651798561
  0
LINE
  5
372
100
AcDbEntity
  8
0
100
AcDbLine
 62
7
  6
CONTINUOUS
 10
499.1173424896
 20
803.7651798561
 11
500.1173424896
 21
803.7651798561
  0
LINE
  5
373
100
AcDbEntity
  8
0
100
AcDbLine
 62
7
  6
CONTINUOUS
 10
392.2674026922
 20
805.7258158197
 11
458.6674026922
 21
805.7258158197
  0
LINE
  5
374
100
AcDbEntity
  8
0
100
AcDbLine
 62
7
  6
CONTINUOUS
 10
480.4174026922
 20
808.8151798561
 11
370.4874026922
 21
808.8151798561
  0
LINE
  5
375
100
AcDbEntity
  8
0
100
AcDbLine
 62
7
  6
CONTINUOUS
 10
360.4673424896
 20
811.5151798561
 11
490.7673424896
 21
811.5151798561
  0
LINE
  5
376
100
AcDbEntity
  8
0
100
AcDbLine
 62
7
  6
CONTINUOUS
 10
510.6173424896
 20
825.0151798561
 11
190.6173424896
 21
825.0151798561
  0
LINE
  5
377
100
AcDbEntity
  8
0
100
AcDbLine
 62
7
  6
CONTINUOUS
 10
479.1173424896
 20
826.5151798561
 11
477.6173424896
 21
826.5151798561
  0
LINE
  5
378
100
AcDbEntity
  8
0
100
AcDbLine
 62
7
  6
CONTINUOUS
 10
223.6173424896
 20
826.5151798561
 11
222.1173424896
 21
826.5151798561
  0
LINE
  5
379
100
AcDbEntity
  8
0
100
AcDbLine
 62
7
  6
CONTINUOUS
 10
224.1173424896
 20
830.5151798561
 11
223.6173424896
 21
830.5151798561
  0
LINE
  5
37A
100
AcDbEntity
  8
0
100
AcDbLine
 62
7
  6
CONTINUOUS
 10
477.1173424896
 20
830.5151798561
 11
477.6173424896
 21
830.5151798561
  0
LINE
  5
37B
100
AcDbEntity
  8
0
100
AcDbLine
 62
7
  6
CONTINUOUS
 10
224.1173424896
 20
845.5151798561
 11
223.6173424896
 21
845.5151798561
  0
LINE
  5
37C
100
AcDbEntity
  8
0
100
AcDbLine
 62
7
  6
CONTINUOUS
 10
477.1173424896
 20
845.5151798561
 11
477.6173424896
 21
845.5151798561
  0
LINE
  5
37D
100
AcDbEntity
  8
0
100
AcDbLine
 62
7
  6
CONTINUOUS
 10
479.1173424896
 20
849.0151798561
 11
222.1173424896
 21
849.0151798561
  0
LINE
  5
37E
100
AcDbEntity
  8
0
100
AcDbLine
 62
7
  6
CONTINUOUS
 10
195.6173424896
 20
850.0151798561
 11
222.1173424896
 21
850.0151798561
  0
LINE
  5
37F
100
AcDbEntity
  8
0
100
AcDbLine
 62
7
  6
CONTINUOUS
 10
479.1173424896
 20
850.0151798561
 11
505.6173424896
 21
850.0151798561
  0
LINE
  5
380
100
AcDbEntity
  8
0
100
AcDbLine
 62
7
  6
CONTINUOUS
 10
479.1173424896
 20
891.5151798561
 11
222.1173424896
 21
891.5151798561
  0
CIRCLE
  5
381
100
AcDbEntity
  8
0
100
AcDbCircle
 62
7
  6
CONTINUOUS
 10
201.6173424896
 20
220.9751798561
 40
4.75
  0
CIRCLE
  5
382
100
AcDbEntity
  8
0
100
AcDbCircle
 62
7
  6
CONTINUOUS
 10
201.6173424896
 20
94.4751798561
 40
4.75
  0
CIRCLE
  5
383
100
AcDbEntity
  8
0
100
AcDbCircle
 62
7
  6
CONTINUOUS
 10
201.6173424896
 20
270.0151798561
 40
4.65
  0
ARC
  5
384
100
AcDbEntity
  8
0
100
AcDbCircle
 62
7
  6
CONTINUOUS
 10
236.3673424896
 20
274.5151798561
 40
4.3024417897
100
AcDbArc
 50
90.0000000003
 51
269.9999999997
  0
ARC
  5
385
100
AcDbEntity
  8
0
100
AcDbCircle
 62
7
  6
CONTINUOUS
 10
314.3673424896
 20
274.5151798561
 40
4.3024417897
100
AcDbArc
 50
270.0000000003
 51
89.9999999997
  0
ARC
  5
386
100
AcDbEntity
  8
0
100
AcDbCircle
 62
7
  6
CONTINUOUS
 10
236.3673424896
 20
466.5151798561
 40
4.3024417897
100
AcDbArc
 50
90.0000000019
 51
269.9999999981
  0
ARC
  5
387
100
AcDbEntity
  8
0
100
AcDbCircle
 62
7
  6
CONTINUOUS
 10
236.3673424896
 20
370.5151798561
 40
4.3024417897
100
AcDbArc
 50
90.0000000019
 51
269.9999999981
  0
ARC
  5
388
100
AcDbEntity
  8
0
100
AcDbCircle
 62
7
  6
CONTINUOUS
 10
201.6173424896
 20
94.4751798561
 40
2.2499628921
100
AcDbArc
 50
282.8311570014
 51
77.1686336255
  0
ARC
  5
389
100
AcDbEntity
  8
0
100
AcDbCircle
 62
7
  6
CONTINUOUS
 10
201.6173424897
 20
220.9751798561
 40
2.2499628921
100
AcDbArc
 50
282.8311570012
 51
77.1686336257
  0
ARC
  5
38A
100
AcDbEntity
  8
0
100
AcDbCircle
 62
7
  6
CONTINUOUS
 10
201.6173424897
 20
220.9751798561
 40
2.2498034408
100
AcDbArc
 50
102.8311489702
 51
257.1686362943
  0
ARC
  5
38B
100
AcDbEntity
  8
0
100
AcDbCircle
 62
7
  6
CONTINUOUS
 10
201.6173424896
 20
94.4751798561
 40
2.2498034408
100
AcDbArc
 50
102.8311489708
 51
257.1686362946
  0
ARC
  5
38C
100
AcDbEntity
  8
0
100
AcDbCircle
 62
7
  6
CONTINUOUS
 10
201.6173424896
 20
270.0151798561
 40
2.1500108232
100
AcDbArc
 50
103.4127964014
 51
166.5860178603
  0
ARC
  5
38D
100
AcDbEntity
  8
0
100
AcDbCircle
 62
7
  6
CONTINUOUS
 10
201.6173424896
 20
270.0151798561
 40
2.15
100
AcDbArc
 50
283.4127977167
 51
346.5860184968
  0
ARC
  5
38E
100
AcDbEntity
  8
0
100
AcDbCircle
 62
7
  6
CONTINUOUS
 10
201.6173424896
 20
270.0151798561
 40
2.149996626
100
AcDbArc
 50
193.4138552462
 51
256.5836659951
  0
ARC
  5
38F
100
AcDbEntity
  8
0
100
AcDbCircle
 62
7
  6
CONTINUOUS
 10
201.6173424896
 20
270.0151798561
 40
2.1499966204
100
AcDbArc
 50
13.4138552463
 51
76.5836659951
  0
ARC
  5
390
100
AcDbEntity
  8
0
100
AcDbCircle
 62
7
  6
CONTINUOUS
 10
210.6173424896
 20
825.0151798561
 40
10.0
100
AcDbArc
 50
0.0
 51
63.2563160496
  0
ARC
  5
391
100
AcDbEntity
  8
0
100
AcDbCircle
 62
7
  6
CONTINUOUS
 10
210.6173424896
 20
825.0151798561
 40
10.0
100
AcDbArc
 50
116.7436839504
 51
180.0
  0
CIRCLE
  5
392
100
AcDbEntity
  8
0
100
AcDbCircle
 62
7
  6
CONTINUOUS
 10
201.6173424896
 20
800.0151798561
 40
4.65
  0
CIRCLE
  5
393
100
AcDbEntity
  8
0
100
AcDbCircle
 62
7
  6
CONTINUOUS
 10
201.6173424896
 20
495.0151798561
 40
4.65
  0
ARC
  5
394
100
AcDbEntity
  8
0
100
AcDbCircle
 62
7
  6
CONTINUOUS
 10
210.6173424896
 20
840.0151798561
 40
4.5
100
AcDbArc
 50
0.0
 51
180.0
  0
ARC
  5
395
100
AcDbEntity
  8
0
100
AcDbCircle
 62
7
  6
CONTINUOUS
 10
236.3673424896
 20
658.5151798561
 40
4.3024417897
100
AcDbArc
 50
90.0000000019
 51
269.9999999981
  0
ARC
  5
396
100
AcDbEntity
  8
0
100
AcDbCircle
 62
7
  6
CONTINUOUS
 10
314.3673424896
 20
658.5151798561
 40
4.3024417897
100
AcDbArc
 50
270.0000000019
 51
89.9999999981
  0
ARC
  5
397
100
AcDbEntity
  8
0
100
AcDbCircle
 62
7
  6
CONTINUOUS
 10
236.3673424896
 20
562.5151798561
 40
4.3024417897
100
AcDbArc
 50
90.0000000019
 51
269.9999999981
  0
ARC
  5
398
100
AcDbEntity
  8
0
100
AcDbCircle
 62
7
  6
CONTINUOUS
 10
314.3673424896
 20
562.5151798561
 40
4.3024417897
100
AcDbArc
 50
270.0000000019
 51
89.9999999981
  0
ARC
  5
399
100
AcDbEntity
  8
0
100
AcDbCircle
 62
7
  6
CONTINUOUS
 10
201.6173424896
 20
495.0151798561
 40
2.1500108232
100
AcDbArc
 50
103.4127964014
 51
166.5860178602
  0
ARC
  5
39A
100
AcDbEntity
  8
0
100
AcDbCircle
 62
7
  6
CONTINUOUS
 10
201.6173424896
 20
800.0151798561
 40
2.1500083403
100
AcDbArc
 50
103.4127964014
 51
166.5860178602
  0
ARC
  5
39B
100
AcDbEntity
  8
0
100
AcDbCircle
 62
7
  6
CONTINUOUS
 10
201.6173424896
 20
495.0151798561
 40
2.15
100
AcDbArc
 50
283.4127977173
 51
346.5860184967
  0
ARC
  5
39C
100
AcDbEntity
  8
0
100
AcDbCircle
 62
7
  6
CONTINUOUS
 10
201.6173424896
 20
800.0151798561
 40
2.15
100
AcDbArc
 50
283.4127977172
 51
346.5860184967
  0
ARC
  5
39D
100
AcDbEntity
  8
0
100
AcDbCircle
 62
7
  6
CONTINUOUS
 10
201.6173424896
 20
495.0151798561
 40
2.149996626
100
AcDbArc
 50
193.4138552457
 51
256.5836659948
  0
ARC
  5
39E
100
AcDbEntity
  8
0
100
AcDbCircle
 62
7
  6
CONTINUOUS
 10
201.6173424896
 20
495.0151798561
 40
2.1499966204
100
AcDbArc
 50
13.4138552467
 51
76.5836659953
  0
ARC
  5
39F
100
AcDbEntity
  8
0
100
AcDbCircle
 62
7
  6
CONTINUOUS
 10
201.6173424896
 20
800.0151798561
 40
2.1499657781
100
AcDbArc
 50
13.4138552467
 51
76.5836659953
  0
ARC
  5
3A0
100
AcDbEntity
  8
0
100
AcDbCircle
 62
7
  6
CONTINUOUS
 10
201.6173424896
 20
800.0151798561
 40
2.149965318
100
AcDbArc
 50
193.4138552457
 51
256.5836659948
  0
CIRCLE
  5
3A1
100
AcDbEntity
  8
0
100
AcDbCircle
 62
7
  6
CONTINUOUS
 10
499.6173424897
 20
220.9751798561
 40
4.75
  0
CIRCLE
  5
3A2
100
AcDbEntity
  8
0
100
AcDbCircle
 62
7
  6
CONTINUOUS
 10
499.6173424897
 20
94.4751798561
 40
4.75
  0
CIRCLE
  5
3A3
100
AcDbEntity
  8
0
100
AcDbCircle
 62
7
  6
CONTINUOUS
 10
499.6173424896
 20
270.0151798561
 40
4.65
  0
ARC
  5
3A4
100
AcDbEntity
  8
0
100
AcDbCircle
 62
7
  6
CONTINUOUS
 10
386.3673424896
 20
274.5151798561
 40
4.3024417897
100
AcDbArc
 50
90.0000000003
 51
269.9999999997
  0
ARC
  5
3A5
100
AcDbEntity
  8
0
100
AcDbCircle
 62
7
  6
CONTINUOUS
 10
464.3673424896
 20
274.5151798561
 40
4.3024417897
100
AcDbArc
 50
270.0000000003
 51
89.9999999997
  0
ARC
  5
3A6
100
AcDbEntity
  8
0
100
AcDbCircle
 62
7
  6
CONTINUOUS
 10
464.8673424896
 20
466.5151798561
 40
4.3024417897
100
AcDbArc
 50
270.0000000019
 51
89.9999999981
  0
ARC
  5
3A7
100
AcDbEntity
  8
0
100
AcDbCircle
 62
7
  6
CONTINUOUS
 10
464.8673424896
 20
370.5151798561
 40
4.3024417897
100
AcDbArc
 50
270.0000000019
 51
89.9999999981
  0
ARC
  5
3A8
100
AcDbEntity
  8
0
100
AcDbCircle
 62
7
  6
CONTINUOUS
 10
499.6173424896
 20
94.4751798561
 40
2.2500035014
100
AcDbArc
 50
282.8311570012
 51
77.1686336248
  0
ARC
  5
3A9
100
AcDbEntity
  8
0
100
AcDbCircle
 62
7
  6
CONTINUOUS
 10
499.6173424897
 20
220.9751798561
 40
2.2500035014
100
AcDbArc
 50
282.831157001
 51
77.1686336251
  0
ARC
  5
3AA
100
AcDbEntity
  8
0
100
AcDbCircle
 62
7
  6
CONTINUOUS
 10
499.6173424897
 20
220.9751798561
 40
2.2498314972
100
AcDbArc
 50
102.83114897
 51
257.1686362931
  0
ARC
  5
3AB
100
AcDbEntity
  8
0
100
AcDbCircle
 62
7
  6
CONTINUOUS
 10
499.6173424896
 20
94.4751798561
 40
2.2498314972
100
AcDbArc
 50
102.8311489706
 51
257.1686362933
  0
ARC
  5
3AC
100
AcDbEntity
  8
0
100
AcDbCircle
 62
7
  6
CONTINUOUS
 10
499.6173424896
 20
270.0151798561
 40
2.1500108232
100
AcDbArc
 50
103.4127964015
 51
166.5860178606
  0
ARC
  5
3AD
100
AcDbEntity
  8
0
100
AcDbCircle
 62
7
  6
CONTINUOUS
 10
499.6173424896
 20
270.0151798561
 40
2.15
100
AcDbArc
 50
283.412797717
 51
346.5860184976
  0
ARC
  5
3AE
100
AcDbEntity
  8
0
100
AcDbCircle
 62
7
  6
CONTINUOUS
 10
499.6173424896
 20
270.0151798561
 40
2.149996626
100
AcDbArc
 50
193.4138552465
 51
256.5836659944
  0
ARC
  5
3AF
100
AcDbEntity
  8
0
100
AcDbCircle
 62
7
  6
CONTINUOUS
 10
499.6173424896
 20
270.0151798561
 40
2.1499966204
100
AcDbArc
 50
13.413855246
 51
76.5836659943
  0
ARC
  5
3B0
100
AcDbEntity
  8
0
100
AcDbCircle
 62
7
  6
CONTINUOUS
 10
370.117342446
 20
616.2151798561
 40
10.0
100
AcDbArc
 50
87.1340160174
 51
180.0
  0
ARC
  5
3B1
100
AcDbEntity
  8
0
100
AcDbCircle
 62
7
  6
CONTINUOUS
 10
370.117342446
 20
491.5151798561
 40
10.0
100
AcDbArc
 50
180.0
 51
270.0
  0
ARC
  5
3B2
100
AcDbEntity
  8
0
100
AcDbCircle
 62
7
  6
CONTINUOUS
 10
386.3673424896
 20
562.5151798561
 40
4.3024417897
100
AcDbArc
 50
90.0000000019
 51
269.9999999981
  0
ARC
  5
3B3
100
AcDbEntity
  8
0
100
AcDbCircle
 62
7
  6
CONTINUOUS
 10
425.617342446
 20
488.5151798561
 40
3.25
100
AcDbArc
 50
8.8498830984
 51
171.1501169016
  0
ARC
  5
3B4
100
AcDbEntity
  8
0
100
AcDbCircle
 62
7
  6
CONTINUOUS
 10
425.617342446
 20
488.5151798561
 40
3.25
100
AcDbArc
 50
188.8498830984
 51
351.1501169016
  0
ARC
  5
3B5
100
AcDbEntity
  8
0
100
AcDbCircle
 62
7
  6
CONTINUOUS
 10
392.2674026922
 20
686.5551798561
 40
6.7706359636
100
AcDbArc
 50
180.0000024135
 51
270.0
  0
ARC
  5
3B6
100
AcDbEntity
  8
0
100
AcDbCircle
 62
7
  6
CONTINUOUS
 10
397.3175944736
 20
697.8549312042
 40
1.600221941
100
AcDbArc
 50
90.0068665969
 51
179.9910908297
  0
ARC
  5
3B7
100
AcDbEntity
  8
0
100
AcDbCircle
 62
7
  6
CONTINUOUS
 10
397.3176513441
 20
691.0553716374
 40
1.6002219409
100
AcDbArc
 50
180.0068665941
 51
269.9910908295
  0
ARC
  5
3B8
100
AcDbEntity
  8
0
100
AcDbCircle
 62
7
  6
CONTINUOUS
 10
404.1172109109
 20
691.055428508
 40
1.600221941
100
AcDbArc
 50
270.0068691783
 51
359.9910908305
  0
ARC
  5
3B9
100
AcDbEntity
  8
0
100
AcDbCircle
 62
7
  6
CONTINUOUS
 10
404.1171540404
 20
697.8549880749
 40
1.6002219409
100
AcDbArc
 50
0.0068665934
 51
89.9910908302
  0
ARC
  5
3BA
100
AcDbEntity
  8
0
100
AcDbCircle
 62
7
  6
CONTINUOUS
 10
397.3175944736
 20
711.8549312042
 40
1.600221941
100
AcDbArc
 50
90.0068665973
 51
179.9910908293
  0
ARC
  5
3BB
100
AcDbEntity
  8
0
100
AcDbCircle
 62
7
  6
CONTINUOUS
 10
397.3176513441
 20
705.0553716374
 40
1.6002219409
100
AcDbArc
 50
180.0068665937
 51
269.99109083
  0
ARC
  5
3BC
100
AcDbEntity
  8
0
100
AcDbCircle
 62
7
  6
CONTINUOUS
 10
404.1172109109
 20
705.055428508
 40
1.600221941
100
AcDbArc
 50
270.006869179
 51
359.9910908298
  0
ARC
  5
3BD
100
AcDbEntity
  8
0
100
AcDbCircle
 62
7
  6
CONTINUOUS
 10
404.1171540404
 20
711.8549880749
 40
1.6002219409
100
AcDbArc
 50
0.0068665933
 51
89.9910908303
  0
ARC
  5
3BE
100
AcDbEntity
  8
0
100
AcDbCircle
 62
7
  6
CONTINUOUS
 10
397.3176513441
 20
719.0553716373
 40
1.6002219409
100
AcDbArc
 50
180.0068665922
 51
269.9910908314
  0
ARC
  5
3BF
100
AcDbEntity
  8
0
100
AcDbCircle
 62
7
  6
CONTINUOUS
 10
404.1172109109
 20
719.055428508
 40
1.600221941
100
AcDbArc
 50
270.0068691794
 51
359.9910908294
  0
ARC
  5
3C0
100
AcDbEntity
  8
0
100
AcDbCircle
 62
7
  6
CONTINUOUS
 10
404.1171540404
 20
725.8549880749
 40
1.6002219409
100
AcDbArc
 50
0.0068665931
 51
89.9910968699
  0
ARC
  5
3C1
100
AcDbEntity
  8
0
100
AcDbCircle
 62
7
  6
CONTINUOUS
 10
397.3175944736
 20
725.8549312042
 40
1.600221941
100
AcDbArc
 50
90.0068666063
 51
179.9910908297
  0
ARC
  5
3C2
100
AcDbEntity
  8
0
100
AcDbCircle
 62
7
  6
CONTINUOUS
 10
397.3175944638
 20
739.8549312142
 40
1.6002219288
100
AcDbArc
 50
90.0068662446
 51
179.9910911856
  0
ARC
  5
3C3
100
AcDbEntity
  8
0
100
AcDbCircle
 62
7
  6
CONTINUOUS
 10
397.3176513343
 20
733.0553716277
 40
1.6002219289
100
AcDbArc
 50
180.0068662475
 51
269.9910911817
  0
ARC
  5
3C4
100
AcDbEntity
  8
0
100
AcDbCircle
 62
7
  6
CONTINUOUS
 10
404.1172109207
 20
733.055428498
 40
1.6002219288
100
AcDbArc
 50
270.0068688258
 51
359.9910911864
  0
ARC
  5
3C5
100
AcDbEntity
  8
0
100
AcDbCircle
 62
7
  6
CONTINUOUS
 10
404.1171540502
 20
739.8549880845
 40
1.6002219289
100
AcDbArc
 50
0.0068662486
 51
89.9910911807
  0
ARC
  5
3C6
100
AcDbEntity
  8
0
100
AcDbCircle
 62
7
  6
CONTINUOUS
 10
392.2674026922
 20
798.9551798561
 40
6.7706359636
100
AcDbArc
 50
90.0
 51
180.0
  0
ARC
  5
3C7
100
AcDbEntity
  8
0
100
AcDbCircle
 62
7
  6
CONTINUOUS
 10
397.1174026922
 20
788.0051798561
 40
1.6
100
AcDbArc
 50
90.0
 51
180.0
  0
ARC
  5
3C8
100
AcDbEntity
  8
0
100
AcDbCircle
 62
7
  6
CONTINUOUS
 10
397.1174026922
 20
750.5051798561
 40
1.6
100
AcDbArc
 50
180.0
 51
270.0
  0
CIRCLE
  5
3C9
100
AcDbEntity
  8
0
100
AcDbCircle
 62
7
  6
CONTINUOUS
 10
425.4674026922
 20
708.4551798561
 40
14.6708203933
  0
CIRCLE
  5
3CA
100
AcDbEntity
  8
0
100
AcDbCircle
 62
7
  6
CONTINUOUS
 10
425.4674026922
 20
708.4551798561
 40
13.338864613
  0
CIRCLE
  5
3CB
100
AcDbEntity
  8
0
100
AcDbCircle
 62
7
  6
CONTINUOUS
 10
425.4674026922
 20
708.4551798561
 40
6.661135387
  0
CIRCLE
  5
3CC
100
AcDbEntity
  8
0
100
AcDbCircle
 62
7
  6
CONTINUOUS
 10
425.4674026922
 20
708.4551798561
 40
5.338864613
  0
ARC
  5
3CD
100
AcDbEntity
  8
0
100
AcDbCircle
 62
7
  6
CONTINUOUS
 10
430.317651344
 20
733.0553716373
 40
1.6002219409
100
AcDbArc
 50
180.0068665917
 51
269.9910908319
  0
ARC
  5
3CE
100
AcDbEntity
  8
0
100
AcDbCircle
 62
7
  6
CONTINUOUS
 10
413.8176513441
 20
733.0553716374
 40
1.6002219409
100
AcDbArc
 50
180.0068665933
 51
269.9910908303
  0
ARC
  5
3CF
100
AcDbEntity
  8
0
100
AcDbCircle
 62
7
  6
CONTINUOUS
 10
420.6172109109
 20
733.055428508
 40
1.600221941
100
AcDbArc
 50
270.0068691798
 51
359.991090829
  0
ARC
  5
3D0
100
AcDbEntity
  8
0
100
AcDbCircle
 62
7
  6
CONTINUOUS
 10
420.6171540404
 20
739.8549880749
 40
1.6002219409
100
AcDbArc
 50
0.0068665932
 51
89.9910908304
  0
ARC
  5
3D1
100
AcDbEntity
  8
0
100
AcDbCircle
 62
7
  6
CONTINUOUS
 10
413.8175944736
 20
739.8549312042
 40
1.600221941
100
AcDbArc
 50
90.0068665975
 51
179.991090829
  0
ARC
  5
3D2
100
AcDbEntity
  8
0
100
AcDbCircle
 62
7
  6
CONTINUOUS
 10
430.3173629196
 20
739.8552209434
 40
1.5999346276
100
AcDbArc
 50
90.0004735578
 51
179.9995675341
  0
ARC
  5
3D3
100
AcDbEntity
  8
0
100
AcDbCircle
 62
7
  6
CONTINUOUS
 10
481.117342446
 20
616.2151798561
 40
10.0
100
AcDbArc
 50
0.0
 51
92.8659839826
  0
ARC
  5
3D4
100
AcDbEntity
  8
0
100
AcDbCircle
 62
7
  6
CONTINUOUS
 10
481.117342446
 20
491.5151798561
 40
10.0
100
AcDbArc
 50
270.0
 51
360.0
  0
CIRCLE
  5
3D5
100
AcDbEntity
  8
0
100
AcDbCircle
 62
7
  6
CONTINUOUS
 10
499.6173424896
 20
495.0151798561
 40
4.65
  0
ARC
  5
3D6
100
AcDbEntity
  8
0
100
AcDbCircle
 62
7
  6
CONTINUOUS
 10
464.3673424896
 20
562.5151798561
 40
4.3024417897
100
AcDbArc
 50
270.0000000019
 51
89.9999999981
  0
ARC
  5
3D7
100
AcDbEntity
  8
0
100
AcDbCircle
 62
7
  6
CONTINUOUS
 10
499.6173424896
 20
495.0151798561
 40
2.1500108232
100
AcDbArc
 50
103.4127964015
 51
166.5860178605
  0
ARC
  5
3D8
100
AcDbEntity
  8
0
100
AcDbCircle
 62
7
  6
CONTINUOUS
 10
499.6173424896
 20
495.0151798561
 40
2.15
100
AcDbArc
 50
283.4127977175
 51
346.5860184975
  0
ARC
  5
3D9
100
AcDbEntity
  8
0
100
AcDbCircle
 62
7
  6
CONTINUOUS
 10
499.6173424896
 20
495.0151798561
 40
2.149996626
100
AcDbArc
 50
193.413855246
 51
256.5836659941
  0
ARC
  5
3DA
100
AcDbEntity
  8
0
100
AcDbCircle
 62
7
  6
CONTINUOUS
 10
499.6173424896
 20
495.0151798561
 40
2.1499966204
100
AcDbArc
 50
13.4138552464
 51
76.5836659945
  0
ARC
  5
3DB
100
AcDbEntity
  8
0
100
AcDbCircle
 62
7
  6
CONTINUOUS
 10
490.6173424896
 20
825.0151798561
 40
10.0
100
AcDbArc
 50
0.0
 51
63.2563160496
  0
ARC
  5
3DC
100
AcDbEntity
  8
0
100
AcDbCircle
 62
7
  6
CONTINUOUS
 10
490.6173424896
 20
825.0151798561
 40
10.0
100
AcDbArc
 50
116.7436839504
 51
180.0
  0
ARC
  5
3DD
100
AcDbEntity
  8
0
100
AcDbCircle
 62
7
  6
CONTINUOUS
 10
458.6674026922
 20
686.5551798561
 40
6.7706359636
100
AcDbArc
 50
270.0
 51
360.0
  0
ARC
  5
3DE
100
AcDbEntity
  8
0
100
AcDbCircle
 62
7
  6
CONTINUOUS
 10
458.6674026922
 20
798.9551798561
 40
6.7706359636
100
AcDbArc
 50
0.0
 51
90.0
  0
CIRCLE
  5
3DF
100
AcDbEntity
  8
0
100
AcDbCircle
 62
7
  6
CONTINUOUS
 10
499.6173424896
 20
800.0151798561
 40
4.65
  0
ARC
  5
3E0
100
AcDbEntity
  8
0
100
AcDbCircle
 62
7
  6
CONTINUOUS
 10
490.6173424896
 20
840.0151798561
 40
4.5
100
AcDbArc
 50
0.0
 51
180.0
  0
ARC
  5
3E1
100
AcDbEntity
  8
0
100
AcDbCircle
 62
7
  6
CONTINUOUS
 10
499.6173424896
 20
800.0151798561
 40
2.1500083403
100
AcDbArc
 50
103.4127964015
 51
166.5860178605
  0
ARC
  5
3E2
100
AcDbEntity
  8
0
100
AcDbCircle
 62
7
  6
CONTINUOUS
 10
499.6173424896
 20
800.0151798561
 40
2.15
100
AcDbArc
 50
283.4127977175
 51
346.5860184975
  0
ARC
  5
3E3
100
AcDbEntity
  8
0
100
AcDbCircle
 62
7
  6
CONTINUOUS
 10
499.6173424896
 20
800.0151798561
 40
2.1499657781
100
AcDbArc
 50
13.4138552464
 51
76.5836659945
  0
ARC
  5
3E4
100
AcDbEntity
  8
0
100
AcDbCircle
 62
7
  6
CONTINUOUS
 10
499.6173424896
 20
800.0151798561
 40
2.149965318
100
AcDbArc
 50
193.413855246
 51
256.5836659941
  0
ARC
  5
3E5
100
AcDbEntity
  8
0
100
AcDbCircle
 62
7
  6
CONTINUOUS
 10
437.1172109109
 20
733.055428508
 40
1.600221941
100
AcDbArc
 50
270.0068691791
 51
359.9910908296
  0
ARC
  5
3E6
100
AcDbEntity
  8
0
100
AcDbCircle
 62
7
  6
CONTINUOUS
 10
446.8175944736
 20
697.8549312042
 40
1.600221941
100
AcDbArc
 50
90.0068665968
 51
179.9910908298
  0
ARC
  5
3E7
100
AcDbEntity
  8
0
100
AcDbCircle
 62
7
  6
CONTINUOUS
 10
446.8176513441
 20
691.0553716374
 40
1.6002219409
100
AcDbArc
 50
180.0068665937
 51
269.9910908299
  0
ARC
  5
3E8
100
AcDbEntity
  8
0
100
AcDbCircle
 62
7
  6
CONTINUOUS
 10
453.617210911
 20
691.055428508
 40
1.6002219408
100
AcDbArc
 50
270.0068691762
 51
359.9910908312
  0
ARC
  5
3E9
100
AcDbEntity
  8
0
100
AcDbCircle
 62
7
  6
CONTINUOUS
 10
453.6171540404
 20
697.8549880749
 40
1.6002219409
100
AcDbArc
 50
0.0068665925
 51
89.9910908311
  0
ARC
  5
3EA
100
AcDbEntity
  8
0
100
AcDbCircle
 62
7
  6
CONTINUOUS
 10
446.8175944736
 20
711.8549312042
 40
1.600221941
100
AcDbArc
 50
90.0068665969
 51
179.9910968772
  0
ARC
  5
3EB
100
AcDbEntity
  8
0
100
AcDbCircle
 62
7
  6
CONTINUOUS
 10
446.8176513441
 20
705.0553716374
 40
1.6002219409
100
AcDbArc
 50
180.0068665925
 51
269.9910908311
  0
ARC
  5
3EC
100
AcDbEntity
  8
0
100
AcDbCircle
 62
7
  6
CONTINUOUS
 10
453.617210911
 20
705.0554285079
 40
1.6002219408
100
AcDbArc
 50
270.0068691742
 51
359.9910908331
  0
ARC
  5
3ED
100
AcDbEntity
  8
0
100
AcDbCircle
 62
7
  6
CONTINUOUS
 10
453.6171540404
 20
711.8549880749
 40
1.6002219409
100
AcDbArc
 50
0.0068665934
 51
89.9910908302
  0
ARC
  5
3EE
100
AcDbEntity
  8
0
100
AcDbCircle
 62
7
  6
CONTINUOUS
 10
446.8176513441
 20
719.0553716374
 40
1.6002219409
100
AcDbArc
 50
180.0068665937
 51
269.9910908299
  0
ARC
  5
3EF
100
AcDbEntity
  8
0
100
AcDbCircle
 62
7
  6
CONTINUOUS
 10
453.617210911
 20
719.0554285079
 40
1.6002219408
100
AcDbArc
 50
270.006869174
 51
359.9910908333
  0
ARC
  5
3F0
100
AcDbEntity
  8
0
100
AcDbCircle
 62
7
  6
CONTINUOUS
 10
453.6171540404
 20
725.8549880749
 40
1.6002219409
100
AcDbArc
 50
0.0068665932
 51
89.9910908304
  0
ARC
  5
3F1
100
AcDbEntity
  8
0
100
AcDbCircle
 62
7
  6
CONTINUOUS
 10
446.8175944736
 20
725.8549312042
 40
1.600221941
100
AcDbArc
 50
90.0068665969
 51
179.9910908297
  0
ARC
  5
3F2
100
AcDbEntity
  8
0
100
AcDbCircle
 62
7
  6
CONTINUOUS
 10
446.8176513441
 20
733.0553716374
 40
1.6002219409
100
AcDbArc
 50
180.0068665929
 51
269.9910908307
  0
ARC
  5
3F3
100
AcDbEntity
  8
0
100
AcDbCircle
 62
7
  6
CONTINUOUS
 10
453.617210911
 20
733.0554285079
 40
1.6002219408
100
AcDbArc
 50
270.0068691745
 51
359.9910908329
  0
ARC
  5
3F4
100
AcDbEntity
  8
0
100
AcDbCircle
 62
7
  6
CONTINUOUS
 10
453.6171540404
 20
739.8549880749
 40
1.6002219409
100
AcDbArc
 50
0.0068665932
 51
89.9910908304
  0
ARC
  5
3F5
100
AcDbEntity
  8
0
100
AcDbCircle
 62
7
  6
CONTINUOUS
 10
446.817456288
 20
739.8551262682
 40
1.6000584436
100
AcDbArc
 50
90.0031333118
 51
179.9968607751
  0
ARC
  5
3F6
100
AcDbEntity
  8
0
100
AcDbCircle
 62
7
  6
CONTINUOUS
 10
437.1173504831
 20
739.8551276469
 40
1.6000561655
100
AcDbArc
 50
0.0035603313
 51
89.9964397226
  0
ARC
  5
3F7
100
AcDbEntity
  8
0
100
AcDbCircle
 62
7
  6
CONTINUOUS
 10
453.8174026922
 20
788.0051798561
 40
1.6
100
AcDbArc
 50
0.0
 51
90.0
  0
ARC
  5
3F8
100
AcDbEntity
  8
0
100
AcDbCircle
 62
7
  6
CONTINUOUS
 10
453.8174026922
 20
750.5051798561
 40
1.6
100
AcDbArc
 50
270.0
 51
360.0
  0
ENDSEC
  0
SECTION
  2
OBJECTS
  0
DICTIONARY
  5
C
100
AcDbDictionary
280
0
281
1
  3
ACAD_GROUP
350
D
  3
ACAD_MLINESTYLE
350
17
  3
ACAD_LAYOUT
350
1A
  3
ACAD_PLOTSETTINGS
350
19
  3
ACAD_PLOTSTYLENAME
350
E
  0
DICTIONARY
  5
D
102
{ACAD_REACTORS
330
C
102
}
100
AcDbDictionary
280
0
281
1
  0
ACDBDICTIONARYWDFLT
  5
E
102
{ACAD_REACTORS
330
C
102
}
100
AcDbDictionary
281
1
  3
Normal
350
F
100
AcDbDictionaryWithDefault
340
F
  0
DICTIONARY
  5
17
102
{ACAD_REACTORS
330
C
102
}
100
AcDbDictionary
280
0
281
1
  3
Standard
350
18
  0
DICTIONARY
  5
19
102
{ACAD_REACTORS
330
C
102
}
100
AcDbDictionary
281
1
  0
DICTIONARY
  5
1A
102
{ACAD_REACTORS
330
C
102
}
100
AcDbDictionary
281
1
  3
Model
350
3F9
  3
Layout1
350
3FA
  0
ACDBPLACEHOLDER
  5
F
102
{ACAD_REACTORS
330
E
102
}
  0
MLINESTYLE
  5
18
102
{ACAD_REACTORS
330
17
102
}
100
AcDbMlineStyle
  2
STANDARD
 70
0
  3

 62
256
 51
90.0
 52
90.0
 71
2
 49
0.5
 62
256
  6
BYLAYER
 49
-0.5
 62
256
  6
BYLAYER
  0
LAYOUT
  5
3F9
102
{ACAD_REACTORS
330
1A
102
}
100
AcDbPlotSettings
  1

  2
none_device
  4

  6

 40
0.0
 41
0.0
 42
0.0
 43
0.0
 44
210.0
 45
297.0
 46
0.0
 47
0.0
 48
0.0
 49
0.0
140
0.0
141
0.0
142
1.0
143
1.0
 70
1024
 72
1
 73
0
 74
0
  7

 75
0
147
1.0
148
0.0
149
0.0
100
AcDbLayout
  1
Model
 70
0
 71
0
 10
0.0
 20
0.0
 11
210.0
 21
297.0
 12
0.0
 22
0.0
 32
0.0
 14
0.0
 24
0.0
 34
0.0
 15
0.0
 25
0.0
 35
0.0
146
0.0
 13
0.0
 23
0.0
 33
0.0
 16
1.0
 26
0.0
 36
0.0
 17
0.0
 27
1.0
 37
0.0
 76
0
330
210
345
0
346
0
  0
LAYOUT
  5
3FA
102
{ACAD_REACTORS
330
1A
102
}
100
AcDbPlotSettings
  1

  2
none_device
  4

  6

 40
0.0
 41
0.0
 42
0.0
 43
0.0
 44
210.0
 45
297.0
 46
0.0
 47
0.0
 48
0.0
 49
0.0
140
0.0
141
0.0
142
1.0
143
1.0
 70
0
 72
1
 73
0
 74
0
  7

 75
0
147
1.0
148
0.0
149
0.0
100
AcDbLayout
  1
Layout1
 70
0
 71
1
 10
0.0
 20
0.0
 11
210.0
 21
297.0
 12
0.0
 22
0.0
 32
0.0
 14
0.0
 24
0.0
 34
0.0
 15
0.0
 25
0.0
 35
0.0
146
0.0
 13
0.0
 23
0.0
 33
0.0
 16
1.0
 26
0.0
 36
0.0
 17
0.0
 27
1.0
 37
0.0
 76
0
330
211
345
0
346
0
  0
ENDSEC
  0
EOF
