  0
SECTION
  2
HEADER
  9
$ACADVER
  1
AC1009
  9
$DWGCODEPAGE
  3
ansi_1250
  9
$INSBASE
 10
0.0
 20
0.0
 30
0.0
  9
$EXTMIN
 10
-1.208661
 20
0.0
 30
0.0
  9
$EXTMAX
 10
1.208661
 20
4.393299
 30
0.0
  9
$LIMMIN
 10
0.0
 20
0.0
  9
$LIMMAX
 10
0.0
 20
0.0
  9
$ORTHOMODE
 70
     0
  9
$REGENMODE
 70
     1
  9
$FILLMODE
 70
     1
  9
$QTEXTMODE
 70
     0
  9
$MIRRTEXT
 70
     1
  9
$DRAGMODE
 70
     2
  9
$LTSCALE
 40
1.0
  9
$OSMODE
 70
     0
  9
$ATTMODE
 70
     1
  9
$TEXTSIZE
 40
0.2
  9
$TRACEWID
 40
0.05
  9
$TEXTSTYLE
  7
STANDARD
  9
$CLAYER
  8
0
  9
$CELTYPE
  6
CONTINUOUS
  9
$CECOLOR
 62
   256
  9
$DIMSCALE
 40
1.0
  9
$DIMASZ
 40
0.18
  9
$DIMEXO
 40
0.0625
  9
$DIMDLI
 40
0.38
  9
$DIMRND
 40
0.0
  9
$DIMDLE
 40
0.0
  9
$DIMEXE
 40
0.18
  9
$DIMTP
 40
0.0
  9
$DIMTM
 40
0.0
  9
$DIMTXT
 40
0.18
  9
$DIMCEN
 40
0.09
  9
$DIMTSZ
 40
0.0
  9
$DIMTOL
 70
     0
  9
$DIMLIM
 70
     0
  9
$DIMTIH
 70
     1
  9
$DIMTOH
 70
     1
  9
$DIMSE1
 70
     0
  9
$DIMSE2
 70
     0
  9
$DIMTAD
 70
     0
  9
$DIMZIN
 70
     0
  9
$DIMBLK
  1

  9
$DIMASO
 70
     1
  9
$DIMSHO
 70
     1
  9
$DIMPOST
  1

  9
$DIMAPOST
  1

  9
$DIMALT
 70
     0
  9
$DIMALTD
 70
     2
  9
$DIMALTF
 40
25.4
  9
$DIMLFAC
 40
1.0
  9
$DIMTOFL
 70
     0
  9
$DIMTVP
 40
0.0
  9
$DIMTIX
 70
     0
  9
$DIMSOXD
 70
     0
  9
$DIMSAH
 70
     0
  9
$DIMBLK1
  1

  9
$DIMBLK2
  1

  9
$DIMSTYLE
  2
STANDARD
  9
$DIMCLRD
 70
     0
  9
$DIMCLRE
 70
     0
  9
$DIMCLRT
 70
     0
  9
$DIMTFAC
 40
1.0
  9
$DIMGAP
 40
0.09
  9
$LUNITS
 70
     2
  9
$LUPREC
 70
     4
  9
$AXISMODE
 70
     0
  9
$AXISUNIT
 10
0.0
 20
0.0
  9
$SKETCHINC
 40
0.1
  9
$FILLETRAD
 40
0.0
  9
$AUNITS
 70
     0
  9
$AUPREC
 70
     0
  9
$MENU
  1
acad
  9
$ELEVATION
 40
0.0
  9
$PELEVATION
 40
0.0
  9
$THICKNESS
 40
0.0
  9
$LIMCHECK
 70
     0
  9
$BLIPMODE
 70
     1
  9
$CHAMFERA
 40
0.0
  9
$CHAMFERB
 40
0.0
  9
$SKPOLY
 70
     0
  9
$TDCREATE
 40
0.000000000
  9
$TDUPDATE
 40
0.000000000
  9
$TDINDWG
 40
0.0000000000
  9
$TDUSRTIMER
 40
0.0000000000
  9
$USRTIMER
 70
     1
  9
$ANGBASE
 50
0.0
  9
$ANGDIR
 70
     0
  9
$PDMODE
 70
     0
  9
$PDSIZE
 40
0.0
  9
$PLINEWID
 40
0.0
  9
$COORDS
 70
     0
  9
$SPLFRAME
 70
     0
  9
$SPLINETYPE
 70
     6
  9
$SPLINESEGS
 70
     8
  9
$ATTDIA
 70
     0
  9
$ATTREQ
 70
     1
  9
$HANDLING
 70
     1
  9
$HANDSEED
  5
1B9
  9
$SURFTAB1
 70
     6
  9
$SURFTAB2
 70
     6
  9
$SURFTYPE
 70
     6
  9
$SURFU
 70
     6
  9
$SURFV
 70
     6
  9
$UCSNAME
  2

  9
$UCSORG
 10
0.0
 20
0.0
 30
0.0
  9
$UCSXDIR
 10
1.0
 20
0.0
 30
0.0
  9
$UCSYDIR
 10
0.0
 20
1.0
 30
0.0
  9
$PUCSNAME
  2

  9
$PUCSORG
 10
0.0
 20
0.0
 30
0.0
  9
$PUCSXDIR
 10
1.0
 20
0.0
 30
0.0
  9
$PUCSYDIR
 10
0.0
 20
1.0
 30
0.0
  9
$USERI1
 70
     0
  9
$USERI2
 70
     0
  9
$USERI3
 70
     0
  9
$USERI4
 70
     0
  9
$USERI5
 70
     0
  9
$USERR1
 40
0.0
  9
$USERR2
 40
0.0
  9
$USERR3
 40
0.0
  9
$USERR4
 40
0.0
  9
$USERR5
 40
0.0
  9
$WORLDVIEW
 70
     1
  9
$SHADEDGE
 70
     3
  9
$SHADEDIF
 70
    70
  9
$TILEMODE
 70
     1
  9
$MAXACTVP
 70
    16
  9
$PINSBASE
 10
0.0
 20
0.0
 30
0.0
  9
$PLIMCHECK
 70
     0
  9
$PEXTMIN
 10
1.000000E+20
 20
1.000000E+20
 30
1.000000E+20
  9
$PEXTMAX
 10
-1.000000E+20
 20
-1.000000E+20
 30
-1.000000E+20
  9
$PLIMMIN
 10
0.0
 20
0.0
  9
$PLIMMAX
 10
12.0
 20
9.0
  9
$UNITMODE
 70
     0
  9
$VISRETAIN
 70
     0
  9
$PLINEGEN
 70
     1
  9
$PSLTSCALE
 70
     0
  9
$TREEDEPTH
 70
  3020
  0
ENDSEC
  0
SECTION
  2
TABLES
  0
TABLE
  2
VPORT
 70
     1
  0
VPORT
  2
*ACTIVE
 70
     0
 10
0.0
 20
0.0
 11
1.0
 21
1.0
 12
6.591288
 22
4.579184
 13
0.0
 23
0.0
 14
1.0
 24
1.0
 15
0.0
 25
0.0
 16
0.0
 26
0.0
 36
1.0
 17
0.0
 27
0.0
 37
0.0
 40
9.158369
 41
0.688564
 42
50.0
 43
0.0
 44
0.0
 50
0.0
 51
0.0
 71
     0
 72
   100
 73
     1
 74
     1
 75
     0
 76
     0
 77
     0
 78
     0
  0
ENDTAB
  0
TABLE
  2
LTYPE
 70
     5
  0
LTYPE
  2
CONTINUOUS
 70
    64
  3
Solid line
 72
    65
 73
     0
 40
0.0
  0
LTYPE
  2
CENTER
 70
    64
  3
Center ____ _ ____ _ ____ _ ____ _ ____ _ ____
 72
    65
 73
     4
 40
50.8
 49
31.75
 49
-6.35
 49
6.35
 49
-6.35
  0
LTYPE
  2
HIDDEN
 70
    64
  3
Hidden __ __ __ __ __ __ __ __ __ __ __ __ __ __
 72
    65
 73
     2
 40
9.525
 49
6.35
 49
-3.175
  0
LTYPE
  2
CENTER2
 70
    64
  3
Center (.5x) ___ _ ___ _ ___ _ ___ _ ___ _ ___
 72
    65
 73
     4
 40
28.575
 49
19.05
 49
-3.175
 49
3.175
 49
-3.175
  0
LTYPE
  2
HIDDEN2
 70
    64
  3
Hidden (.5x) _ _ _ _ _ _ _ _ _ _ _ _ _ _ _ _ _
 72
    65
 73
     2
 40
4.7625
 49
3.175
 49
-1.5875
  0
ENDTAB
  0
TABLE
  2
LAYER
 70
     1
  0
LAYER
  2
0
 70
     0
 62
     7
  6
CONTINUOUS
  0
ENDTAB
  0
TABLE
  2
STYLE
 70
     1
  0
STYLE
  2
STANDARD
 70
     0
 40
0.0
 41
1.0
 50
0.0
 71
     0
 42
0.0
  3
txt
  4

  0
ENDTAB
  0
TABLE
  2
VIEW
 70
     0
  0
ENDTAB
  0
TABLE
  2
UCS
 70
     0
  0
ENDTAB
  0
TABLE
  2
APPID
 70
     1
  0
APPID
  2
ACAD
 70
     0
  0
ENDTAB
  0
TABLE
  2
DIMSTYLE
 70
     1
  0
DIMSTYLE
  2
STANDARD
 70
     0
  3

  4

  5

  6

  7

 40
1.0
 41
0.18
 42
0.0625
 43
0.38
 44
0.18
 45
0.0
 46
0.0
 47
0.0
 48
0.0
 71
     0
 72
     0
 73
     1
 74
     1
 75
     0
 76
     0
 77
     0
 78
     0
140
0.18
141
0.09
142
0.0
143
25.4
144
1.0
145
0.0
146
1.0
147
0.09
170
     0
171
     2
172
     0
173
     0
174
     0
175
     0
176
     0
177
     0
178
     0
  0
ENDTAB
  0
ENDSEC
  0
SECTION
  2
BLOCKS
  0
ENDSEC
  0
SECTION
  2
ENTITIES
  0
LINE
  8
0
  6
CONTINUOUS
 62
     7
  5
FD
 10
0.451969
 20
3.661409
 30
0.0
 11
-0.451969
 21
3.661409
 31
0.0
  0
LINE
  8
0
  6
CONTINUOUS
 62
     7
  5
FE
 10
0.590551
 20
3.799992
 30
0.0
 11
0.590407
 21
3.793678
 31
0.0
  0
LINE
  8
0
  6
CONTINUOUS
 62
     7
  5
FF
 10
0.590407
 20
3.793678
 30
0.0
 11
0.589969
 21
3.787306
 31
0.0
  0
LINE
  8
0
  6
CONTINUOUS
 62
     7
  5
100
 10
0.589969
 20
3.787306
 30
0.0
 11
0.58923
 21
3.780905
 31
0.0
  0
LINE
  8
0
  6
CONTINUOUS
 62
     7
  5
101
 10
0.58923
 20
3.780905
 30
0.0
 11
0.588187
 21
3.774503
 31
0.0
  0
LINE
  8
0
  6
CONTINUOUS
 62
     7
  5
102
 10
0.588187
 20
3.774503
 30
0.0
 11
0.586839
 21
3.768129
 31
0.0
  0
LINE
  8
0
  6
CONTINUOUS
 62
     7
  5
103
 10
0.586839
 20
3.768129
 30
0.0
 11
0.585188
 21
3.761812
 31
0.0
  0
LINE
  8
0
  6
CONTINUOUS
 62
     7
  5
104
 10
0.585188
 20
3.761812
 30
0.0
 11
0.583242
 21
3.755579
 31
0.0
  0
LINE
  8
0
  6
CONTINUOUS
 62
     7
  5
105
 10
0.583242
 20
3.755579
 30
0.0
 11
0.581007
 21
3.749453
 31
0.0
  0
LINE
  8
0
  6
CONTINUOUS
 62
     7
  5
106
 10
0.581007
 20
3.749453
 30
0.0
 11
0.578495
 21
3.743457
 31
0.0
  0
LINE
  8
0
  6
CONTINUOUS
 62
     7
  5
107
 10
0.578495
 20
3.743457
 30
0.0
 11
0.575716
 21
3.737609
 31
0.0
  0
LINE
  8
0
  6
CONTINUOUS
 62
     7
  5
108
 10
0.575716
 20
3.737609
 30
0.0
 11
0.572686
 21
3.731931
 31
0.0
  0
LINE
  8
0
  6
CONTINUOUS
 62
     7
  5
109
 10
0.572686
 20
3.731931
 30
0.0
 11
0.569422
 21
3.726441
 31
0.0
  0
LINE
  8
0
  6
CONTINUOUS
 62
     7
  5
10A
 10
0.569422
 20
3.726441
 30
0.0
 11
0.565944
 21
3.721158
 31
0.0
  0
LINE
  8
0
  6
CONTINUOUS
 62
     7
  5
10B
 10
0.565944
 20
3.721158
 30
0.0
 11
0.562274
 21
3.7161
 31
0.0
  0
LINE
  8
0
  6
CONTINUOUS
 62
     7
  5
10C
 10
0.562274
 20
3.7161
 30
0.0
 11
0.558437
 21
3.711281
 31
0.0
  0
LINE
  8
0
  6
CONTINUOUS
 62
     7
  5
10D
 10
0.558437
 20
3.711281
 30
0.0
 11
0.554459
 21
3.706714
 31
0.0
  0
LINE
  8
0
  6
CONTINUOUS
 62
     7
  5
10E
 10
0.554459
 20
3.706714
 30
0.0
 11
0.55036
 21
3.7024
 31
0.0
  0
LINE
  8
0
  6
CONTINUOUS
 62
     7
  5
10F
 10
0.55036
 20
3.7024
 30
0.0
 11
0.546064
 21
3.698252
 31
0.0
  0
LINE
  8
0
  6
CONTINUOUS
 62
     7
  5
110
 10
0.546064
 20
3.698252
 30
0.0
 11
0.541555
 21
3.694259
 31
0.0
  0
LINE
  8
0
  6
CONTINUOUS
 62
     7
  5
111
 10
0.541555
 20
3.694259
 30
0.0
 11
0.536842
 21
3.69044
 31
0.0
  0
LINE
  8
0
  6
CONTINUOUS
 62
     7
  5
112
 10
0.536842
 20
3.69044
 30
0.0
 11
0.531938
 21
3.686811
 31
0.0
  0
LINE
  8
0
  6
CONTINUOUS
 62
     7
  5
113
 10
0.531938
 20
3.686811
 30
0.0
 11
0.526856
 21
3.683386
 31
0.0
  0
LINE
  8
0
  6
CONTINUOUS
 62
     7
  5
114
 10
0.526856
 20
3.683386
 30
0.0
 11
0.521612
 21
3.68018
 31
0.0
  0
LINE
  8
0
  6
CONTINUOUS
 62
     7
  5
115
 10
0.521612
 20
3.68018
 30
0.0
 11
0.516219
 21
3.677204
 31
0.0
  0
LINE
  8
0
  6
CONTINUOUS
 62
     7
  5
116
 10
0.516219
 20
3.677204
 30
0.0
 11
0.510695
 21
3.674468
 31
0.0
  0
LINE
  8
0
  6
CONTINUOUS
 62
     7
  5
117
 10
0.510695
 20
3.674468
 30
0.0
 11
0.505054
 21
3.67198
 31
0.0
  0
LINE
  8
0
  6
CONTINUOUS
 62
     7
  5
118
 10
0.505054
 20
3.67198
 30
0.0
 11
0.499312
 21
3.669747
 31
0.0
  0
LINE
  8
0
  6
CONTINUOUS
 62
     7
  5
119
 10
0.499312
 20
3.669747
 30
0.0
 11
0.493486
 21
3.667775
 31
0.0
  0
LINE
  8
0
  6
CONTINUOUS
 62
     7
  5
11A
 10
0.493486
 20
3.667775
 30
0.0
 11
0.487594
 21
3.666067
 31
0.0
  0
LINE
  8
0
  6
CONTINUOUS
 62
     7
  5
11B
 10
0.487594
 20
3.666067
 30
0.0
 11
0.481654
 21
3.664626
 31
0.0
  0
LINE
  8
0
  6
CONTINUOUS
 62
     7
  5
11C
 10
0.481654
 20
3.664626
 30
0.0
 11
0.475688
 21
3.663454
 31
0.0
  0
LINE
  8
0
  6
CONTINUOUS
 62
     7
  5
11D
 10
0.475688
 20
3.663454
 30
0.0
 11
0.469715
 21
3.66255
 31
0.0
  0
LINE
  8
0
  6
CONTINUOUS
 62
     7
  5
11E
 10
0.469715
 20
3.66255
 30
0.0
 11
0.463757
 21
3.661912
 31
0.0
  0
LINE
  8
0
  6
CONTINUOUS
 62
     7
  5
11F
 10
0.463757
 20
3.661912
 30
0.0
 11
0.457834
 21
3.661534
 31
0.0
  0
LINE
  8
0
  6
CONTINUOUS
 62
     7
  5
120
 10
0.457834
 20
3.661534
 30
0.0
 11
0.451969
 21
3.661409
 31
0.0
  0
LINE
  8
0
  6
CONTINUOUS
 62
     7
  5
121
 10
0.590551
 20
3.937
 30
0.0
 11
0.590551
 21
3.799992
 31
0.0
  0
LINE
  8
0
  6
CONTINUOUS
 62
     7
  5
122
 10
-0.590551
 20
3.937
 30
0.0
 11
0.590551
 21
3.937
 31
0.0
  0
LINE
  8
0
  6
CONTINUOUS
 62
     7
  5
123
 10
-0.590551
 20
3.799992
 30
0.0
 11
-0.590551
 21
3.937
 31
0.0
  0
LINE
  8
0
  6
CONTINUOUS
 62
     7
  5
124
 10
-0.451969
 20
3.661409
 30
0.0
 11
-0.457834
 21
3.661534
 31
0.0
  0
LINE
  8
0
  6
CONTINUOUS
 62
     7
  5
125
 10
-0.457834
 20
3.661534
 30
0.0
 11
-0.463757
 21
3.661912
 31
0.0
  0
LINE
  8
0
  6
CONTINUOUS
 62
     7
  5
126
 10
-0.463757
 20
3.661912
 30
0.0
 11
-0.469715
 21
3.66255
 31
0.0
  0
LINE
  8
0
  6
CONTINUOUS
 62
     7
  5
127
 10
-0.469715
 20
3.66255
 30
0.0
 11
-0.475688
 21
3.663454
 31
0.0
  0
LINE
  8
0
  6
CONTINUOUS
 62
     7
  5
128
 10
-0.475688
 20
3.663454
 30
0.0
 11
-0.481654
 21
3.664626
 31
0.0
  0
LINE
  8
0
  6
CONTINUOUS
 62
     7
  5
129
 10
-0.481654
 20
3.664626
 30
0.0
 11
-0.487594
 21
3.666067
 31
0.0
  0
LINE
  8
0
  6
CONTINUOUS
 62
     7
  5
12A
 10
-0.487594
 20
3.666067
 30
0.0
 11
-0.493486
 21
3.667775
 31
0.0
  0
LINE
  8
0
  6
CONTINUOUS
 62
     7
  5
12B
 10
-0.493486
 20
3.667775
 30
0.0
 11
-0.499312
 21
3.669747
 31
0.0
  0
LINE
  8
0
  6
CONTINUOUS
 62
     7
  5
12C
 10
-0.499312
 20
3.669747
 30
0.0
 11
-0.505054
 21
3.67198
 31
0.0
  0
LINE
  8
0
  6
CONTINUOUS
 62
     7
  5
12D
 10
-0.505054
 20
3.67198
 30
0.0
 11
-0.510695
 21
3.674468
 31
0.0
  0
LINE
  8
0
  6
CONTINUOUS
 62
     7
  5
12E
 10
-0.510695
 20
3.674468
 30
0.0
 11
-0.516219
 21
3.677204
 31
0.0
  0
LINE
  8
0
  6
CONTINUOUS
 62
     7
  5
12F
 10
-0.516219
 20
3.677204
 30
0.0
 11
-0.521612
 21
3.68018
 31
0.0
  0
LINE
  8
0
  6
CONTINUOUS
 62
     7
  5
130
 10
-0.521612
 20
3.68018
 30
0.0
 11
-0.526856
 21
3.683386
 31
0.0
  0
LINE
  8
0
  6
CONTINUOUS
 62
     7
  5
131
 10
-0.526856
 20
3.683386
 30
0.0
 11
-0.531938
 21
3.686811
 31
0.0
  0
LINE
  8
0
  6
CONTINUOUS
 62
     7
  5
132
 10
-0.531938
 20
3.686811
 30
0.0
 11
-0.536842
 21
3.69044
 31
0.0
  0
LINE
  8
0
  6
CONTINUOUS
 62
     7
  5
133
 10
-0.536842
 20
3.69044
 30
0.0
 11
-0.541555
 21
3.694259
 31
0.0
  0
LINE
  8
0
  6
CONTINUOUS
 62
     7
  5
134
 10
-0.541555
 20
3.694259
 30
0.0
 11
-0.546064
 21
3.698252
 31
0.0
  0
LINE
  8
0
  6
CONTINUOUS
 62
     7
  5
135
 10
-0.546064
 20
3.698252
 30
0.0
 11
-0.55036
 21
3.7024
 31
0.0
  0
LINE
  8
0
  6
CONTINUOUS
 62
     7
  5
136
 10
-0.55036
 20
3.7024
 30
0.0
 11
-0.554459
 21
3.706714
 31
0.0
  0
LINE
  8
0
  6
CONTINUOUS
 62
     7
  5
137
 10
-0.554459
 20
3.706714
 30
0.0
 11
-0.558437
 21
3.711281
 31
0.0
  0
LINE
  8
0
  6
CONTINUOUS
 62
     7
  5
138
 10
-0.558437
 20
3.711281
 30
0.0
 11
-0.562274
 21
3.7161
 31
0.0
  0
LINE
  8
0
  6
CONTINUOUS
 62
     7
  5
139
 10
-0.562274
 20
3.7161
 30
0.0
 11
-0.565944
 21
3.721158
 31
0.0
  0
LINE
  8
0
  6
CONTINUOUS
 62
     7
  5
13A
 10
-0.565944
 20
3.721158
 30
0.0
 11
-0.569422
 21
3.726441
 31
0.0
  0
LINE
  8
0
  6
CONTINUOUS
 62
     7
  5
13B
 10
-0.569422
 20
3.726441
 30
0.0
 11
-0.572686
 21
3.731931
 31
0.0
  0
LINE
  8
0
  6
CONTINUOUS
 62
     7
  5
13C
 10
-0.572686
 20
3.731931
 30
0.0
 11
-0.575716
 21
3.737609
 31
0.0
  0
LINE
  8
0
  6
CONTINUOUS
 62
     7
  5
13D
 10
-0.575716
 20
3.737609
 30
0.0
 11
-0.578495
 21
3.743457
 31
0.0
  0
LINE
  8
0
  6
CONTINUOUS
 62
     7
  5
13E
 10
-0.578495
 20
3.743457
 30
0.0
 11
-0.581007
 21
3.749453
 31
0.0
  0
LINE
  8
0
  6
CONTINUOUS
 62
     7
  5
13F
 10
-0.581007
 20
3.749453
 30
0.0
 11
-0.583242
 21
3.755579
 31
0.0
  0
LINE
  8
0
  6
CONTINUOUS
 62
     7
  5
140
 10
-0.583242
 20
3.755579
 30
0.0
 11
-0.585188
 21
3.761812
 31
0.0
  0
LINE
  8
0
  6
CONTINUOUS
 62
     7
  5
141
 10
-0.585188
 20
3.761812
 30
0.0
 11
-0.586839
 21
3.768129
 31
0.0
  0
LINE
  8
0
  6
CONTINUOUS
 62
     7
  5
142
 10
-0.586839
 20
3.768129
 30
0.0
 11
-0.588187
 21
3.774503
 31
0.0
  0
LINE
  8
0
  6
CONTINUOUS
 62
     7
  5
143
 10
-0.588187
 20
3.774503
 30
0.0
 11
-0.58923
 21
3.780905
 31
0.0
  0
LINE
  8
0
  6
CONTINUOUS
 62
     7
  5
144
 10
-0.58923
 20
3.780905
 30
0.0
 11
-0.589969
 21
3.787306
 31
0.0
  0
LINE
  8
0
  6
CONTINUOUS
 62
     7
  5
145
 10
-0.589969
 20
3.787306
 30
0.0
 11
-0.590407
 21
3.793678
 31
0.0
  0
LINE
  8
0
  6
CONTINUOUS
 62
     7
  5
146
 10
-0.590407
 20
3.793678
 30
0.0
 11
-0.590551
 21
3.799992
 31
0.0
  0
LINE
  8
0
  6
CONTINUOUS
 62
     7
  5
147
 10
-1.181102
 20
3.937
 30
0.0
 11
-0.590551
 21
3.937
 31
0.0
  0
LINE
  8
0
  6
CONTINUOUS
 62
     7
  5
148
 10
0.590551
 20
3.937
 30
0.0
 11
1.181102
 21
3.937
 31
0.0
  0
LINE
  8
0
  6
CONTINUOUS
 62
     7
  5
149
 10
-1.181102
 20
3.661409
 30
0.0
 11
-0.451969
 21
3.661409
 31
0.0
  0
LINE
  8
0
  6
CONTINUOUS
 62
     7
  5
14A
 10
0.451969
 20
3.661409
 30
0.0
 11
1.181102
 21
3.661409
 31
0.0
  0
LINE
  8
0
  6
CONTINUOUS
 62
     7
  5
14B
 10
1.059362
 20
4.393299
 30
0.0
 11
-1.059362
 21
4.393299
 31
0.0
  0
LINE
  8
0
  6
CONTINUOUS
 62
     7
  5
14C
 10
1.105413
 20
4.291331
 30
0.0
 11
1.113969
 21
4.291331
 31
0.0
  0
LINE
  8
0
  6
CONTINUOUS
 62
     7
  5
14D
 10
1.105413
 20
4.17322
 30
0.0
 11
1.105413
 21
4.291331
 31
0.0
  0
LINE
  8
0
  6
CONTINUOUS
 62
     7
  5
14E
 10
1.113969
 20
4.17322
 30
0.0
 11
1.105413
 21
4.17322
 31
0.0
  0
LINE
  8
0
  6
CONTINUOUS
 62
     7
  5
14F
 10
-0.433372
 20
4.291331
 30
0.0
 11
-0.433372
 21
4.17322
 31
0.0
  0
LINE
  8
0
  6
CONTINUOUS
 62
     7
  5
150
 10
-0.672041
 20
4.291331
 30
0.0
 11
-0.433372
 21
4.291331
 31
0.0
  0
LINE
  8
0
  6
CONTINUOUS
 62
     7
  5
151
 10
-0.672041
 20
4.17322
 30
0.0
 11
-0.672041
 21
4.291331
 31
0.0
  0
LINE
  8
0
  6
CONTINUOUS
 62
     7
  5
152
 10
-0.433372
 20
4.17322
 30
0.0
 11
-0.672041
 21
4.17322
 31
0.0
  0
LINE
  8
0
  6
CONTINUOUS
 62
     7
  5
153
 10
-0.422365
 20
4.17322
 30
0.0
 11
-0.433372
 21
4.17322
 31
0.0
  0
LINE
  8
0
  6
CONTINUOUS
 62
     7
  5
154
 10
-0.422365
 20
4.291331
 30
0.0
 11
-0.422365
 21
4.17322
 31
0.0
  0
LINE
  8
0
  6
CONTINUOUS
 62
     7
  5
155
 10
-0.422365
 20
4.291331
 30
0.0
 11
-0.433372
 21
4.291331
 31
0.0
  0
LINE
  8
0
  6
CONTINUOUS
 62
     7
  5
156
 10
1.083398
 20
4.17322
 30
0.0
 11
1.105413
 21
4.17322
 31
0.0
  0
LINE
  8
0
  6
CONTINUOUS
 62
     7
  5
157
 10
1.083398
 20
4.291331
 30
0.0
 11
1.105413
 21
4.291331
 31
0.0
  0
LINE
  8
0
  6
CONTINUOUS
 62
     7
  5
158
 10
1.083398
 20
4.17322
 30
0.0
 11
1.083398
 21
4.291331
 31
0.0
  0
LINE
  8
0
  6
CONTINUOUS
 62
     7
  5
159
 10
-0.672041
 20
4.291331
 30
0.0
 11
-1.092126
 21
4.291331
 31
0.0
  0
LINE
  8
0
  6
CONTINUOUS
 62
     7
  5
15A
 10
1.083398
 20
4.291331
 30
0.0
 11
-0.422365
 21
4.291331
 31
0.0
  0
LINE
  8
0
  6
CONTINUOUS
 62
     7
  5
15B
 10
-0.590551
 20
0.0
 30
0.0
 11
-0.590551
 21
0.207874
 31
0.0
  0
LINE
  8
0
  6
CONTINUOUS
 62
     7
  5
15C
 10
0.590551
 20
0.0
 30
0.0
 11
-0.590551
 21
0.0
 31
0.0
  0
LINE
  8
0
  6
CONTINUOUS
 62
     7
  5
15D
 10
0.590551
 20
0.207874
 30
0.0
 11
0.590551
 21
0.0
 31
0.0
  0
LINE
  8
0
  6
CONTINUOUS
 62
     7
  5
15E
 10
0.451969
 20
0.346457
 30
0.0
 11
0.457834
 21
0.346332
 31
0.0
  0
LINE
  8
0
  6
CONTINUOUS
 62
     7
  5
15F
 10
0.457834
 20
0.346332
 30
0.0
 11
0.463757
 21
0.345954
 31
0.0
  0
LINE
  8
0
  6
CONTINUOUS
 62
     7
  5
160
 10
0.463757
 20
0.345954
 30
0.0
 11
0.469715
 21
0.345316
 31
0.0
  0
LINE
  8
0
  6
CONTINUOUS
 62
     7
  5
161
 10
0.469715
 20
0.345316
 30
0.0
 11
0.475688
 21
0.344412
 31
0.0
  0
LINE
  8
0
  6
CONTINUOUS
 62
     7
  5
162
 10
0.475688
 20
0.344412
 30
0.0
 11
0.481654
 21
0.34324
 31
0.0
  0
LINE
  8
0
  6
CONTINUOUS
 62
     7
  5
163
 10
0.481654
 20
0.34324
 30
0.0
 11
0.487594
 21
0.341799
 31
0.0
  0
LINE
  8
0
  6
CONTINUOUS
 62
     7
  5
164
 10
0.487594
 20
0.341799
 30
0.0
 11
0.493486
 21
0.340091
 31
0.0
  0
LINE
  8
0
  6
CONTINUOUS
 62
     7
  5
165
 10
0.493486
 20
0.340091
 30
0.0
 11
0.499312
 21
0.338119
 31
0.0
  0
LINE
  8
0
  6
CONTINUOUS
 62
     7
  5
166
 10
0.499312
 20
0.338119
 30
0.0
 11
0.505054
 21
0.335886
 31
0.0
  0
LINE
  8
0
  6
CONTINUOUS
 62
     7
  5
167
 10
0.505054
 20
0.335886
 30
0.0
 11
0.510695
 21
0.333398
 31
0.0
  0
LINE
  8
0
  6
CONTINUOUS
 62
     7
  5
168
 10
0.510695
 20
0.333398
 30
0.0
 11
0.516219
 21
0.330662
 31
0.0
  0
LINE
  8
0
  6
CONTINUOUS
 62
     7
  5
169
 10
0.516219
 20
0.330662
 30
0.0
 11
0.521612
 21
0.327686
 31
0.0
  0
LINE
  8
0
  6
CONTINUOUS
 62
     7
  5
16A
 10
0.521612
 20
0.327686
 30
0.0
 11
0.526856
 21
0.32448
 31
0.0
  0
LINE
  8
0
  6
CONTINUOUS
 62
     7
  5
16B
 10
0.526856
 20
0.32448
 30
0.0
 11
0.531938
 21
0.321056
 31
0.0
  0
LINE
  8
0
  6
CONTINUOUS
 62
     7
  5
16C
 10
0.531938
 20
0.321056
 30
0.0
 11
0.536842
 21
0.317426
 31
0.0
  0
LINE
  8
0
  6
CONTINUOUS
 62
     7
  5
16D
 10
0.536842
 20
0.317426
 30
0.0
 11
0.541555
 21
0.313607
 31
0.0
  0
LINE
  8
0
  6
CONTINUOUS
 62
     7
  5
16E
 10
0.541555
 20
0.313607
 30
0.0
 11
0.546064
 21
0.309615
 31
0.0
  0
LINE
  8
0
  6
CONTINUOUS
 62
     7
  5
16F
 10
0.546064
 20
0.309615
 30
0.0
 11
0.55036
 21
0.305466
 31
0.0
  0
LINE
  8
0
  6
CONTINUOUS
 62
     7
  5
170
 10
0.55036
 20
0.305466
 30
0.0
 11
0.554459
 21
0.301152
 31
0.0
  0
LINE
  8
0
  6
CONTINUOUS
 62
     7
  5
171
 10
0.554459
 20
0.301152
 30
0.0
 11
0.558437
 21
0.296585
 31
0.0
  0
LINE
  8
0
  6
CONTINUOUS
 62
     7
  5
172
 10
0.558437
 20
0.296585
 30
0.0
 11
0.562274
 21
0.291766
 31
0.0
  0
LINE
  8
0
  6
CONTINUOUS
 62
     7
  5
173
 10
0.562274
 20
0.291766
 30
0.0
 11
0.565944
 21
0.286708
 31
0.0
  0
LINE
  8
0
  6
CONTINUOUS
 62
     7
  5
174
 10
0.565944
 20
0.286708
 30
0.0
 11
0.569422
 21
0.281425
 31
0.0
  0
LINE
  8
0
  6
CONTINUOUS
 62
     7
  5
175
 10
0.569422
 20
0.281425
 30
0.0
 11
0.572686
 21
0.275935
 31
0.0
  0
LINE
  8
0
  6
CONTINUOUS
 62
     7
  5
176
 10
0.572686
 20
0.275935
 30
0.0
 11
0.575716
 21
0.270257
 31
0.0
  0
LINE
  8
0
  6
CONTINUOUS
 62
     7
  5
177
 10
0.575716
 20
0.270257
 30
0.0
 11
0.578495
 21
0.264409
 31
0.0
  0
LINE
  8
0
  6
CONTINUOUS
 62
     7
  5
178
 10
0.578495
 20
0.264409
 30
0.0
 11
0.581007
 21
0.258413
 31
0.0
  0
LINE
  8
0
  6
CONTINUOUS
 62
     7
  5
179
 10
0.581007
 20
0.258413
 30
0.0
 11
0.583242
 21
0.252287
 31
0.0
  0
LINE
  8
0
  6
CONTINUOUS
 62
     7
  5
17A
 10
0.583242
 20
0.252287
 30
0.0
 11
0.585188
 21
0.246054
 31
0.0
  0
LINE
  8
0
  6
CONTINUOUS
 62
     7
  5
17B
 10
0.585188
 20
0.246054
 30
0.0
 11
0.586839
 21
0.239737
 31
0.0
  0
LINE
  8
0
  6
CONTINUOUS
 62
     7
  5
17C
 10
0.586839
 20
0.239737
 30
0.0
 11
0.588187
 21
0.233363
 31
0.0
  0
LINE
  8
0
  6
CONTINUOUS
 62
     7
  5
17D
 10
0.588187
 20
0.233363
 30
0.0
 11
0.58923
 21
0.226961
 31
0.0
  0
LINE
  8
0
  6
CONTINUOUS
 62
     7
  5
17E
 10
0.58923
 20
0.226961
 30
0.0
 11
0.589969
 21
0.22056
 31
0.0
  0
LINE
  8
0
  6
CONTINUOUS
 62
     7
  5
17F
 10
0.589969
 20
0.22056
 30
0.0
 11
0.590407
 21
0.214188
 31
0.0
  0
LINE
  8
0
  6
CONTINUOUS
 62
     7
  5
180
 10
0.590407
 20
0.214188
 30
0.0
 11
0.590551
 21
0.207874
 31
0.0
  0
LINE
  8
0
  6
CONTINUOUS
 62
     7
  5
181
 10
-0.451969
 20
0.346457
 30
0.0
 11
0.451969
 21
0.346457
 31
0.0
  0
LINE
  8
0
  6
CONTINUOUS
 62
     7
  5
182
 10
-0.590551
 20
0.207874
 30
0.0
 11
-0.590407
 21
0.214188
 31
0.0
  0
LINE
  8
0
  6
CONTINUOUS
 62
     7
  5
183
 10
-0.590407
 20
0.214188
 30
0.0
 11
-0.589969
 21
0.22056
 31
0.0
  0
LINE
  8
0
  6
CONTINUOUS
 62
     7
  5
184
 10
-0.589969
 20
0.22056
 30
0.0
 11
-0.58923
 21
0.226961
 31
0.0
  0
LINE
  8
0
  6
CONTINUOUS
 62
     7
  5
185
 10
-0.58923
 20
0.226961
 30
0.0
 11
-0.588187
 21
0.233363
 31
0.0
  0
LINE
  8
0
  6
CONTINUOUS
 62
     7
  5
186
 10
-0.588187
 20
0.233363
 30
0.0
 11
-0.586839
 21
0.239737
 31
0.0
  0
LINE
  8
0
  6
CONTINUOUS
 62
     7
  5
187
 10
-0.586839
 20
0.239737
 30
0.0
 11
-0.585188
 21
0.246054
 31
0.0
  0
LINE
  8
0
  6
CONTINUOUS
 62
     7
  5
188
 10
-0.585188
 20
0.246054
 30
0.0
 11
-0.583242
 21
0.252287
 31
0.0
  0
LINE
  8
0
  6
CONTINUOUS
 62
     7
  5
189
 10
-0.583242
 20
0.252287
 30
0.0
 11
-0.581007
 21
0.258413
 31
0.0
  0
LINE
  8
0
  6
CONTINUOUS
 62
     7
  5
18A
 10
-0.581007
 20
0.258413
 30
0.0
 11
-0.578495
 21
0.264409
 31
0.0
  0
LINE
  8
0
  6
CONTINUOUS
 62
     7
  5
18B
 10
-0.578495
 20
0.264409
 30
0.0
 11
-0.575716
 21
0.270257
 31
0.0
  0
LINE
  8
0
  6
CONTINUOUS
 62
     7
  5
18C
 10
-0.575716
 20
0.270257
 30
0.0
 11
-0.572686
 21
0.275935
 31
0.0
  0
LINE
  8
0
  6
CONTINUOUS
 62
     7
  5
18D
 10
-0.572686
 20
0.275935
 30
0.0
 11
-0.569422
 21
0.281425
 31
0.0
  0
LINE
  8
0
  6
CONTINUOUS
 62
     7
  5
18E
 10
-0.569422
 20
0.281425
 30
0.0
 11
-0.565944
 21
0.286708
 31
0.0
  0
LINE
  8
0
  6
CONTINUOUS
 62
     7
  5
18F
 10
-0.565944
 20
0.286708
 30
0.0
 11
-0.562274
 21
0.291766
 31
0.0
  0
LINE
  8
0
  6
CONTINUOUS
 62
     7
  5
190
 10
-0.562274
 20
0.291766
 30
0.0
 11
-0.558437
 21
0.296585
 31
0.0
  0
LINE
  8
0
  6
CONTINUOUS
 62
     7
  5
191
 10
-0.558437
 20
0.296585
 30
0.0
 11
-0.554459
 21
0.301152
 31
0.0
  0
LINE
  8
0
  6
CONTINUOUS
 62
     7
  5
192
 10
-0.554459
 20
0.301152
 30
0.0
 11
-0.55036
 21
0.305466
 31
0.0
  0
LINE
  8
0
  6
CONTINUOUS
 62
     7
  5
193
 10
-0.55036
 20
0.305466
 30
0.0
 11
-0.546064
 21
0.309615
 31
0.0
  0
LINE
  8
0
  6
CONTINUOUS
 62
     7
  5
194
 10
-0.546064
 20
0.309615
 30
0.0
 11
-0.541555
 21
0.313607
 31
0.0
  0
LINE
  8
0
  6
CONTINUOUS
 62
     7
  5
195
 10
-0.541555
 20
0.313607
 30
0.0
 11
-0.536842
 21
0.317426
 31
0.0
  0
LINE
  8
0
  6
CONTINUOUS
 62
     7
  5
196
 10
-0.536842
 20
0.317426
 30
0.0
 11
-0.531938
 21
0.321056
 31
0.0
  0
LINE
  8
0
  6
CONTINUOUS
 62
     7
  5
197
 10
-0.531938
 20
0.321056
 30
0.0
 11
-0.526856
 21
0.32448
 31
0.0
  0
LINE
  8
0
  6
CONTINUOUS
 62
     7
  5
198
 10
-0.526856
 20
0.32448
 30
0.0
 11
-0.521612
 21
0.327686
 31
0.0
  0
LINE
  8
0
  6
CONTINUOUS
 62
     7
  5
199
 10
-0.521612
 20
0.327686
 30
0.0
 11
-0.516219
 21
0.330662
 31
0.0
  0
LINE
  8
0
  6
CONTINUOUS
 62
     7
  5
19A
 10
-0.516219
 20
0.330662
 30
0.0
 11
-0.510695
 21
0.333398
 31
0.0
  0
LINE
  8
0
  6
CONTINUOUS
 62
     7
  5
19B
 10
-0.510695
 20
0.333398
 30
0.0
 11
-0.505054
 21
0.335886
 31
0.0
  0
LINE
  8
0
  6
CONTINUOUS
 62
     7
  5
19C
 10
-0.505054
 20
0.335886
 30
0.0
 11
-0.499312
 21
0.338119
 31
0.0
  0
LINE
  8
0
  6
CONTINUOUS
 62
     7
  5
19D
 10
-0.499312
 20
0.338119
 30
0.0
 11
-0.493486
 21
0.340091
 31
0.0
  0
LINE
  8
0
  6
CONTINUOUS
 62
     7
  5
19E
 10
-0.493486
 20
0.340091
 30
0.0
 11
-0.487594
 21
0.341799
 31
0.0
  0
LINE
  8
0
  6
CONTINUOUS
 62
     7
  5
19F
 10
-0.487594
 20
0.341799
 30
0.0
 11
-0.481654
 21
0.34324
 31
0.0
  0
LINE
  8
0
  6
CONTINUOUS
 62
     7
  5
1A0
 10
-0.481654
 20
0.34324
 30
0.0
 11
-0.475688
 21
0.344412
 31
0.0
  0
LINE
  8
0
  6
CONTINUOUS
 62
     7
  5
1A1
 10
-0.475688
 20
0.344412
 30
0.0
 11
-0.469715
 21
0.345316
 31
0.0
  0
LINE
  8
0
  6
CONTINUOUS
 62
     7
  5
1A2
 10
-0.469715
 20
0.345316
 30
0.0
 11
-0.463757
 21
0.345954
 31
0.0
  0
LINE
  8
0
  6
CONTINUOUS
 62
     7
  5
1A3
 10
-0.463757
 20
0.345954
 30
0.0
 11
-0.457834
 21
0.346332
 31
0.0
  0
LINE
  8
0
  6
CONTINUOUS
 62
     7
  5
1A4
 10
-0.457834
 20
0.346332
 30
0.0
 11
-0.451969
 21
0.346457
 31
0.0
  0
LINE
  8
0
  6
CONTINUOUS
 62
     7
  5
1A5
 10
1.208661
 20
0.0
 30
0.0
 11
0.590551
 21
0.0
 31
0.0
  0
LINE
  8
0
  6
CONTINUOUS
 62
     7
  5
1A6
 10
-0.590551
 20
0.0
 30
0.0
 11
-1.208661
 21
0.0
 31
0.0
  0
LINE
  8
0
  6
CONTINUOUS
 62
     7
  5
1A7
 10
1.208661
 20
1.437008
 30
0.0
 11
-1.208661
 21
1.437008
 31
0.0
  0
LINE
  8
0
  6
CONTINUOUS
 62
     7
  5
1A8
 10
-1.149606
 20
1.496063
 30
0.0
 11
1.149606
 21
1.496063
 31
0.0
  0
LINE
  8
0
  6
CONTINUOUS
 62
     7
  5
1A9
 10
1.059362
 20
4.291331
 30
0.0
 11
1.059362
 21
4.393299
 31
0.0
  0
LINE
  8
0
  6
CONTINUOUS
 62
     7
  5
1AA
 10
-1.059362
 20
4.393299
 30
0.0
 11
-1.059362
 21
4.291331
 31
0.0
  0
LINE
  8
0
  6
CONTINUOUS
 62
     7
  5
1AB
 10
1.113969
 20
4.17322
 30
0.0
 11
1.113969
 21
4.291331
 31
0.0
  0
LINE
  8
0
  6
CONTINUOUS
 62
     7
  5
1AC
 10
1.092126
 20
3.937
 30
0.0
 11
1.092126
 21
4.17322
 31
0.0
  0
LINE
  8
0
  6
CONTINUOUS
 62
     7
  5
1AD
 10
-1.092126
 20
4.291331
 30
0.0
 11
-1.092126
 21
3.937
 31
0.0
  0
LINE
  8
0
  6
CONTINUOUS
 62
     7
  5
1AE
 10
-1.181102
 20
3.937
 30
0.0
 11
-1.181102
 21
3.661409
 31
0.0
  0
LINE
  8
0
  6
CONTINUOUS
 62
     7
  5
1AF
 10
1.181102
 20
3.661409
 30
0.0
 11
1.181102
 21
3.937
 31
0.0
  0
LINE
  8
0
  6
CONTINUOUS
 62
     7
  5
1B0
 10
1.208661
 20
1.437008
 30
0.0
 11
1.149606
 21
1.496063
 31
0.0
  0
LINE
  8
0
  6
CONTINUOUS
 62
     7
  5
1B1
 10
-1.149606
 20
1.496063
 30
0.0
 11
-1.208661
 21
1.437008
 31
0.0
  0
LINE
  8
0
  6
CONTINUOUS
 62
     7
  5
1B2
 10
1.208661
 20
0.0
 30
0.0
 11
1.208661
 21
1.437008
 31
0.0
  0
LINE
  8
0
  6
CONTINUOUS
 62
     7
  5
1B3
 10
-1.208661
 20
1.437008
 30
0.0
 11
-1.208661
 21
0.0
 31
0.0
  0
LINE
  8
0
  6
CONTINUOUS
 62
     7
  5
1B4
 10
1.149606
 20
1.496063
 30
0.0
 11
1.149606
 21
3.661409
 31
0.0
  0
LINE
  8
0
  6
CONTINUOUS
 62
     7
  5
1B5
 10
-1.149606
 20
3.661409
 30
0.0
 11
-1.149606
 21
1.496063
 31
0.0
  0
LINE
  8
0
  6
CONTINUOUS
 62
     3
  5
1B6
 10
0.0
 20
0.0
 30
0.0
 11
0.0
 21
4.393299
 31
0.0
  0
ENDSEC
  0
EOF
