999
DXF file: C:\Users\sesa63760\Dev\_Creo\CAD\MCADID0005881_3D-CAD\mcadid0005881_3d-simplified_6.dxf
999
Pro/ENGINEER 2019471 by Parametric Technology Corporation
  0
SECTION
  2
HEADER
  9
$ACADVER
  1
AC1024
  9
$DWGCODEPAGE
  3
ANSI_1252
  9
$EXTMAX
 10
50.5625179586
 20
71.5098468271
 30
0.0
  9
$EXTMIN
 10
0.0
 20
0.0
 30
0.0
  9
$LIMMIN
 10
0.0
 20
0.0
  9
$LIMMAX
 10
50.5625179586
 20
71.5098468271
  9
$VIEWCTR
 10
25.2812589793
 20
35.7549234136
  9
$VIEWSIZE
 40
71.5098468271
  9
$CLAYER
  8
0
  9
$LTSCALE
 40
4.661382608
  9
$CELTYPE
  6
BYLAYER
  9
$DIMSCALE
 40
1.0
  9
$DIMASZ
 40
0.6019347376
  9
$DIMEXO
 40
1.0
  9
$DIMDLI
 40
3.2205916201
  9
$DIMEXE
 40
1.0
  9
$DIMCEN
 40
0.7627716995
  9
$DIMLFAC
 40
1.0
  9
$DIMBLK
  1
_FILLED
  9
$DIMALT
 70
0
  9
$DIMALTF
 40
0.0393700787
  9
$DIMTXT
 40
0.8427086326
  9
$DIMTOL
 70
1
  9
$DIMLIM
 70
0
  9
$DIMTFAC
 40
1.0
  9
$DIMTP
 40
0.01
  9
$DIMTM
 40
0.01
  9
$DIMGAP
 40
0.625
  9
$DIMDSEP
 70
46
  9
$AUNITS
 70
0
  9
$PDMODE
 70
3
  9
$PDSIZE
 40
0.3125
  9
$HANDSEED
  5
2A1
  9
$TILEMODE
 70
1
  9
$MEASUREMENT
 70
1
  9
$INSUNITS
 70
4
  0
ENDSEC
  0
SECTION
  2
CLASSES
  0
CLASS
  1
ACDBDICTIONARYWDFLT
  2
AcDbDictionaryWithDefault
  3
AutoCAD 2000
 90
0
 91
1
280
0
281
0
  0
CLASS
  1
ACDBPLACEHOLDER
  2
AcDbPlaceHolder
  3
AutoCAD 2000
 90
0
 91
1
280
0
281
0
  0
CLASS
  1
LAYOUT
  2
AcDbLayout
  3
AutoCAD 2000
 90
0
 91
0
280
0
281
0
  0
ENDSEC
  0
SECTION
  2
TABLES
  0
TABLE
  2
VPORT
  5
8
100
AcDbSymbolTable
 70
2
  0
VPORT
  5
1F4
100
AcDbSymbolTableRecord
100
AcDbViewportTableRecord
  2
*ACTIVE
 70
0
 10
0.0
 20
0.0
 11
1.0
 21
1.0
 12
25.2812589793
 22
35.7549234136
 13
0.0
 23
0.0
 14
1.0
 24
1.0
 15
0.0
 25
0.0
 16
0.0
 26
0.0
 36
1.0
 17
0.0
 27
0.0
 37
0.0
 40
71.5098468271
 41
0.7070707071
 42
50.0
 43
0.0
 44
0.0
 50
0.0
 51
0.0
 71
0
 72
100
 73
1
 74
1
 75
0
 76
0
 77
0
 78
0
  0
ENDTAB
  0
TABLE
  2
LTYPE
  5
5
100
AcDbSymbolTable
 70
6
  0
LTYPE
  5
14
100
AcDbSymbolTableRecord
100
AcDbLinetypeTableRecord
  2
BYBLOCK
 70
0
  3

 72
65
 73
0
 40
0.0
  0
LTYPE
  5
15
100
AcDbSymbolTableRecord
100
AcDbLinetypeTableRecord
  2
BYLAYER
 70
0
  3

 72
65
 73
0
 40
0.0
  0
LTYPE
  5
16
100
AcDbSymbolTableRecord
100
AcDbLinetypeTableRecord
  2
CONTINUOUS
 70
64
  3
Solid line
 72
65
 73
0
 40
0.0
  0
LTYPE
  5
1F5
100
AcDbSymbolTableRecord
100
AcDbLinetypeTableRecord
  2
CENTER
 70
64
  3
____ _ ____ _ ____ _ ____ _ ____ _ ____ _ ____
 72
65
 73
4
 40
0.6
 49
0.375
 74
0
 49
-0.075
 74
0
 49
0.075
 74
0
 49
-0.075
 74
0
  0
LTYPE
  5
1F6
100
AcDbSymbolTableRecord
100
AcDbLinetypeTableRecord
  2
HIDDEN
 70
64
  3
- - - - - - - - - - - - - - - - - - - -
 72
65
 73
2
 40
0.2
 49
0.1
 74
0
 49
-0.1
 74
0
  0
LTYPE
  5
1F7
100
AcDbSymbolTableRecord
100
AcDbLinetypeTableRecord
  2
PHANTOM
 70
64
  3
_____ _ _ _____ _ _ _____ _ _ _____
 72
65
 73
6
 40
0.8
 49
0.45
 74
0
 49
-0.05
 74
0
 49
0.1
 74
0
 49
-0.05
 74
0
 49
0.1
 74
0
 49
-0.05
 74
0
  0
LTYPE
  5
1F8
100
AcDbSymbolTableRecord
100
AcDbLinetypeTableRecord
  2
DOT
 70
64
  3
. . . . . . . . . . . . . . . . . . . .
 72
65
 73
2
 40
0.2
 49
0.1
 74
0
 49
-0.1
 74
0
  0
LTYPE
  5
1F9
100
AcDbSymbolTableRecord
100
AcDbLinetypeTableRecord
  2
DASHED
 70
64
  3
- - - - - - - - - - - - - - - - - - - -
 72
65
 73
2
 40
0.2
 49
0.1
 74
0
 49
-0.1
 74
0
  0
ENDTAB
  0
TABLE
  2
LAYER
  5
2
100
AcDbSymbolTable
 70
36
  0
LAYER
  5
10
100
AcDbSymbolTableRecord
100
AcDbLayerTableRecord
  2
0
 70
0
 62
7
  6
CONTINUOUS
370
-3
390
F
  0
LAYER
  5
1FA
100
AcDbSymbolTableRecord
100
AcDbLayerTableRecord
  2
DEFAULT_1
 70
0
 62
7
  6
CENTER
370
-3
390
F
  0
LAYER
  5
1FB
100
AcDbSymbolTableRecord
100
AcDbLayerTableRecord
  2
DEFAULT_2
 70
0
 62
7
  6
HIDDEN
370
-3
390
F
  0
LAYER
  5
1FC
100
AcDbSymbolTableRecord
100
AcDbLayerTableRecord
  2
DEFAULT_3
 70
0
 62
7
  6
PHANTOM
370
-3
390
F
  0
LAYER
  5
1FD
100
AcDbSymbolTableRecord
100
AcDbLayerTableRecord
  2
00_COMPONENTS
 70
0
 62
7
  6
CONTINUOUS
370
-3
390
F
  0
LAYER
  5
1FE
100
AcDbSymbolTableRecord
100
AcDbLayerTableRecord
  2
01_1_DEFAULT_DATUMS
 70
0
 62
7
  6
CONTINUOUS
370
-3
390
F
  0
LAYER
  5
1FF
100
AcDbSymbolTableRecord
100
AcDbLayerTableRecord
  2
01_PLANES
 70
0
 62
7
  6
CONTINUOUS
370
-3
390
F
  0
LAYER
  5
200
100
AcDbSymbolTableRecord
100
AcDbLayerTableRecord
  2
02_COORD_SYS
 70
0
 62
7
  6
CONTINUOUS
370
-3
390
F
  0
LAYER
  5
201
100
AcDbSymbolTableRecord
100
AcDbLayerTableRecord
  2
03_AXES
 70
0
 62
7
  6
CONTINUOUS
370
-3
390
F
  0
LAYER
  5
202
100
AcDbSymbolTableRecord
100
AcDbLayerTableRecord
  2
04_POINTS
 70
0
 62
7
  6
CONTINUOUS
370
-3
390
F
  0
LAYER
  5
203
100
AcDbSymbolTableRecord
100
AcDbLayerTableRecord
  2
05_CURVES
 70
0
 62
7
  6
CONTINUOUS
370
-3
390
F
  0
LAYER
  5
204
100
AcDbSymbolTableRecord
100
AcDbLayerTableRecord
  2
06_SURFS
 70
0
 62
7
  6
CONTINUOUS
370
-3
390
F
  0
LAYER
  5
205
100
AcDbSymbolTableRecord
100
AcDbLayerTableRecord
  2
07_COSMETICS
 70
0
 62
7
  6
CONTINUOUS
370
-3
390
F
  0
LAYER
  5
206
100
AcDbSymbolTableRecord
100
AcDbLayerTableRecord
  2
10_NOTES
 70
0
 62
7
  6
CONTINUOUS
370
-3
390
F
  0
LAYER
  5
207
100
AcDbSymbolTableRecord
100
AcDbLayerTableRecord
  2
11_NOTES_PUB
 70
0
 62
7
  6
CONTINUOUS
370
-3
390
F
  0
LAYER
  5
208
100
AcDbSymbolTableRecord
100
AcDbLayerTableRecord
  2
13_REF_GTOL
 70
0
 62
7
  6
CONTINUOUS
370
-3
390
F
  0
LAYER
  5
209
100
AcDbSymbolTableRecord
100
AcDbLayerTableRecord
  2
16_MISC
 70
0
 62
7
  6
CONTINUOUS
370
-3
390
F
  0
LAYER
  5
20A
100
AcDbSymbolTableRecord
100
AcDbLayerTableRecord
  2
17_NO_PRINT
 70
0
 62
7
  6
CONTINUOUS
370
-3
390
F
  0
LAYER
  5
20B
100
AcDbSymbolTableRecord
100
AcDbLayerTableRecord
  2
18_DATUM_CAMS_JOINTS
 70
0
 62
7
  6
CONTINUOUS
370
-3
390
F
  0
LAYER
  5
20C
100
AcDbSymbolTableRecord
100
AcDbLayerTableRecord
  2
19_DATUM_FUNCTIONAL
 70
0
 62
7
  6
CONTINUOUS
370
-3
390
F
  0
LAYER
  5
20D
100
AcDbSymbolTableRecord
100
AcDbLayerTableRecord
  2
20_DATUM_KINEMATIC_SCHEME
 70
0
 62
7
  6
CONTINUOUS
370
-3
390
F
  0
LAYER
  5
20E
100
AcDbSymbolTableRecord
100
AcDbLayerTableRecord
  2
SHELL1
 70
0
 62
7
  6
CONTINUOUS
370
-3
390
F
  0
ENDTAB
  0
TABLE
  2
STYLE
  5
3
100
AcDbSymbolTable
 70
1
  0
STYLE
  5
11
100
AcDbSymbolTableRecord
100
AcDbTextStyleTableRecord
  2
STANDARD
 70
0
 40
0.0
 41
1.0
 50
0.0
 71
0
 42
0.2
  3
ARIAL.TTF
  4

  0
STYLE
  5
20F
100
AcDbSymbolTableRecord
100
AcDbTextStyleTableRecord
  2
TEXTSTYLE_1
 70
0
 40
0.0
 41
0.8
 50
0.0
 71
0
 42
0.2
  3
gdt
  4

  0
ENDTAB
  0
TABLE
  2
VIEW
  5
6
100
AcDbSymbolTable
 70
0
  0
ENDTAB
  0
TABLE
  2
UCS
  5
7
100
AcDbSymbolTable
 70
0
  0
ENDTAB
  0
TABLE
  2
APPID
  5
9
100
AcDbSymbolTable
 70
1
  0
APPID
  5
210
100
AcDbSymbolTableRecord
100
AcDbRegAppTableRecord
  2
ACAD
 70
0
  0
ENDTAB
  0
TABLE
  2
BLOCK_RECORD
  5
1
100
AcDbSymbolTable
 70
0
  0
BLOCK_RECORD
  5
211
100
AcDbSymbolTableRecord
100
AcDbBlockTableRecord
  2
*Model_Space
  0
BLOCK_RECORD
  5
212
100
AcDbSymbolTableRecord
100
AcDbBlockTableRecord
  2
*Paper_Space
  0
BLOCK_RECORD
  5
213
100
AcDbSymbolTableRecord
100
AcDbBlockTableRecord
  2
_FILLED
  0
ENDTAB
  0
TABLE
  2
DIMSTYLE
  5
A
100
AcDbSymbolTable
 70
1
100
AcDbDimStyleTable
 71
0
  0
DIMSTYLE
105
214
100
AcDbSymbolTableRecord
100
AcDbDimStyleTableRecord
  2
STANDARD
 70
0
  3

  4

 40
1.0
 41
0.6019347376
 42
1.0
 43
0.38
 44
1.0
 45
0.0
 46
0.0
 47
0.01
 48
0.01
140
0.8427086326
141
0.09
142
0.0
143
25.4
144
1.0
145
0.0
146
1.0
147
0.625
 71
1
 72
0
 73
0
 74
0
 75
0
 76
0
 77
1
 78
8
 79
2
170
0
171
1
172
0
173
0
174
0
175
0
176
0
177
0
178
0
270
2
179
2
271
2
272
2
273
2
274
2
275
0
280
0
281
0
282
0
283
1
284
8
285
0
286
0
287
3
288
0
340
11
278
46
341
213
342
213
343
213
344
213
  0
ENDTAB
  0
ENDSEC
  0
SECTION
  2
BLOCKS
  0
BLOCK
  5
20
100
AcDbEntity
  8
0
100
AcDbBlockBegin
  2
*Model_Space
 70
0
 10
0.0
 20
0.0
 30
0.0
  3
*Model_Space
  1

  0
ENDBLK
  5
21
100
AcDbEntity
  8
0
100
AcDbBlockEnd
  0
BLOCK
  5
1C
100
AcDbEntity
  8
0
100
AcDbBlockBegin
  2
*Paper_Space
 70
0
 10
0.0
 20
0.0
 30
0.0
  3
*Paper_Space
  1

  0
ENDBLK
  5
1D
100
AcDbEntity
  8
0
100
AcDbBlockEnd
  0
BLOCK
  5
215
100
AcDbEntity
  8
0
100
AcDbBlockBegin
  2
_FILLED
 70
64
 10
0.0
 20
0.0
  3
_FILLED
  1

  0
SOLID
  5
216
100
AcDbEntity
  8
0
  6
BYBLOCK
 62
0
100
AcDbTrace
 10
0.0
 20
0.0
 11
-1.0
 21
0.25
 12
-1.0
 22
-0.25
 13
-1.0
 23
-0.25
  0
ENDBLK
  5
217
100
AcDbEntity
  8
0
  6
BYBLOCK
 62
0
100
AcDbBlockEnd
  0
ENDSEC
  0
SECTION
  2
ENTITIES
  0
LINE
  5
218
100
AcDbEntity
  8
0
100
AcDbLine
 62
7
  6
BYLAYER
 10
25.6994718414
 20
6.7795541998
 11
25.7188957408
 21
6.7796350332
  0
LINE
  5
219
100
AcDbEntity
  8
0
100
AcDbLine
 62
7
  6
BYLAYER
 10
25.7342709626
 20
6.7795640174
 11
25.7648419382
 21
6.7795367037
  0
LINE
  5
21A
100
AcDbEntity
  8
0
100
AcDbLine
 62
7
  6
BYLAYER
 10
25.7188957408
 20
6.7796350332
 11
25.7342709626
 21
6.7795640174
  0
LINE
  5
21B
100
AcDbEntity
  8
0
100
AcDbLine
 62
7
  6
BYLAYER
 10
25.7188957408
 20
6.8215981346
 11
25.7764989461
 21
6.8180288827
  0
LINE
  5
21C
100
AcDbEntity
  8
0
100
AcDbLine
 62
7
  6
BYLAYER
 10
25.7188957408
 20
6.8723981346
 11
25.7796346309
 21
6.8686345569
  0
LINE
  5
21D
100
AcDbEntity
  8
0
100
AcDbLine
 62
7
  6
BYLAYER
 10
25.7246201006
 20
6.8719496318
 11
25.7796216165
 21
6.8677961668
  0
LINE
  5
21E
100
AcDbEntity
  8
0
100
AcDbLine
 62
7
  6
BYLAYER
 10
25.7188957408
 20
6.8215981346
 11
25.7764864314
 21
6.8172258393
  0
LINE
  5
21F
100
AcDbEntity
  8
0
100
AcDbLine
 62
7
  6
BYLAYER
 10
25.7188957408
 20
6.8723981346
 11
25.7246201006
 21
6.8719496318
  0
LINE
  5
220
100
AcDbEntity
  8
0
100
AcDbLine
 62
7
  6
BYLAYER
 10
38.1648957408
 20
8.3897590202
 11
27.5613061252
 21
8.3897590202
  0
LINE
  5
221
100
AcDbEntity
  8
0
100
AcDbLine
 62
7
  6
BYLAYER
 10
22.6789879574
 20
8.3897590202
 11
13.2728957408
 21
8.3897590202
  0
LINE
  5
222
100
AcDbEntity
  8
0
100
AcDbLine
 62
7
  6
BYLAYER
 10
13.2728957408
 20
8.8088590202
 11
22.6789879574
 21
8.8088590202
  0
LINE
  5
223
100
AcDbEntity
  8
0
100
AcDbLine
 62
7
  6
BYLAYER
 10
29.7064283128
 20
8.8088590202
 11
38.1648957408
 21
8.8088590202
  0
LINE
  5
224
100
AcDbEntity
  8
0
100
AcDbLine
 62
7
  6
BYLAYER
 10
10.2248957408
 20
9.268673993
 11
21.9345207452
 21
9.268673993
  0
LINE
  5
225
100
AcDbEntity
  8
0
100
AcDbLine
 62
7
  6
BYLAYER
 10
28.0125086683
 20
9.268673993
 11
41.2128957408
 21
9.268673993
  0
LINE
  5
226
100
AcDbEntity
  8
0
100
AcDbLine
 62
7
  6
BYLAYER
 10
43.4663957408
 20
10.0553101235
 11
7.9713957408
 21
10.0553101235
  0
LINE
  5
227
100
AcDbEntity
  8
0
100
AcDbLine
 62
7
  6
BYLAYER
 10
7.9713957408
 20
14.5603101235
 11
43.4663957408
 21
14.5603101235
  0
LINE
  5
228
100
AcDbEntity
  8
0
100
AcDbLine
 62
7
  6
BYLAYER
 10
10.7188957408
 20
28.3303101235
 11
10.7188957408
 21
14.5603101235
  0
LINE
  5
229
100
AcDbEntity
  8
0
100
AcDbLine
 62
7
  6
BYLAYER
 10
11.4688957408
 20
45.8303101235
 11
11.4688957408
 21
40.5803101235
  0
LINE
  5
22A
100
AcDbEntity
  8
0
100
AcDbLine
 62
7
  6
BYLAYER
 10
12.2188957408
 20
46.4603101235
 11
12.2188957408
 21
45.8303101235
  0
LINE
  5
22B
100
AcDbEntity
  8
0
100
AcDbLine
 62
7
  6
BYLAYER
 10
12.3188957408
 20
40.5803101235
 11
12.3188957408
 21
28.3303101235
  0
LINE
  5
22C
100
AcDbEntity
  8
0
100
AcDbLine
 62
7
  6
BYLAYER
 10
13.2728957408
 20
8.3897590202
 11
13.2728957408
 21
8.8088590202
  0
LINE
  5
22D
100
AcDbEntity
  8
0
100
AcDbLine
 62
7
  6
BYLAYER
 10
14.7188957408
 20
46.9103101235
 11
14.7188957408
 21
46.4603101235
  0
LINE
  5
22E
100
AcDbEntity
  8
0
100
AcDbLine
 62
7
  6
BYLAYER
 10
15.2188957408
 20
59.3303101235
 11
15.2188957408
 21
46.9103101235
  0
LINE
  5
22F
100
AcDbEntity
  8
0
100
AcDbLine
 62
7
  6
BYLAYER
 10
16.0668957408
 20
7.7926226829
 11
16.0668957408
 21
7.7115005716
  0
LINE
  5
230
100
AcDbEntity
  8
0
100
AcDbLine
 62
7
  6
BYLAYER
 10
16.2188957408
 20
64.7303101235
 11
16.2188957408
 21
59.3303101235
  0
LINE
  5
231
100
AcDbEntity
  8
0
100
AcDbLine
 62
7
  6
BYLAYER
 10
16.6686463817
 20
46.9103101235
 11
16.6686463817
 21
46.4603101235
  0
LINE
  5
232
100
AcDbEntity
  8
0
100
AcDbLine
 62
7
  6
BYLAYER
 10
16.6847896902
 20
59.3303101235
 11
16.6847896902
 21
53.1203101235
  0
LINE
  5
233
100
AcDbEntity
  8
0
100
AcDbLine
 62
7
  6
BYLAYER
 10
16.9654890298
 20
7.5447670057
 11
16.9654890298
 21
7.5749872901
  0
LINE
  5
234
100
AcDbEntity
  8
0
100
AcDbLine
 62
7
  6
BYLAYER
 10
17.0692120399
 20
53.1203101235
 11
17.0692120399
 21
59.3303101235
  0
LINE
  5
235
100
AcDbEntity
  8
0
100
AcDbLine
 62
7
  6
BYLAYER
 10
18.8484474736
 20
64.7303101235
 11
18.8484474736
 21
62.8303101235
  0
LINE
  5
236
100
AcDbEntity
  8
0
100
AcDbLine
 62
7
  6
BYLAYER
 10
18.9253673405
 20
59.3303101235
 11
18.9253673405
 21
53.1203101235
  0
LINE
  5
237
100
AcDbEntity
  8
0
100
AcDbLine
 62
7
  6
BYLAYER
 10
10.7188957408
 20
28.3303101235
 11
40.7188957408
 21
28.3303101235
  0
LINE
  5
238
100
AcDbEntity
  8
0
100
AcDbLine
 62
7
  6
BYLAYER
 10
19.1722653289
 20
46.4603101235
 11
19.1722653289
 21
46.9103101235
  0
LINE
  5
239
100
AcDbEntity
  8
0
100
AcDbLine
 62
7
  6
BYLAYER
 10
20.2601435961
 20
53.1203101235
 11
20.2601435961
 21
59.3303101235
  0
LINE
  5
23A
100
AcDbEntity
  8
0
100
AcDbLine
 62
7
  6
BYLAYER
 10
20.4938957408
 20
64.7303101235
 11
20.4938957408
 21
62.8303101235
  0
LINE
  5
23B
100
AcDbEntity
  8
0
100
AcDbLine
 62
7
  6
BYLAYER
 10
20.5931632721
 20
7.0705126053
 11
20.5931632721
 21
7.040596106
  0
LINE
  5
23C
100
AcDbEntity
  8
0
100
AcDbLine
 62
7
  6
BYLAYER
 10
20.9688957408
 20
64.7303101235
 11
20.9688957408
 21
62.8303101235
  0
LINE
  5
23D
100
AcDbEntity
  8
0
100
AcDbLine
 62
7
  6
BYLAYER
 10
21.4917565611
 20
6.9569306449
 11
21.4917565611
 21
7.0375973221
  0
LINE
  5
23E
100
AcDbEntity
  8
0
100
AcDbLine
 62
7
  6
BYLAYER
 10
22.4508871296
 20
6.8854767551
 11
22.4508871296
 21
7.1329078341
  0
LINE
  5
23F
100
AcDbEntity
  8
0
100
AcDbLine
 62
7
  6
BYLAYER
 10
22.5438957408
 20
61.5553101235
 11
22.5438957408
 21
64.7303101235
  0
LINE
  5
240
100
AcDbEntity
  8
0
100
AcDbLine
 62
7
  6
BYLAYER
 10
22.6789879574
 20
8.3897590202
 11
22.6789879574
 21
8.8088590202
  0
LINE
  5
241
100
AcDbEntity
  8
0
100
AcDbLine
 62
7
  6
BYLAYER
 10
23.3494804186
 20
6.8351861813
 11
23.3494804186
 21
7.0824202486
  0
LINE
  5
242
100
AcDbEntity
  8
0
100
AcDbLine
 62
7
  6
BYLAYER
 10
25.7188957408
 20
6.8215981346
 11
25.7188957408
 21
6.8723981346
  0
LINE
  5
243
100
AcDbEntity
  8
0
100
AcDbLine
 62
7
  6
BYLAYER
 10
28.0883110629
 20
6.8375231865
 11
28.0883110629
 21
7.0824202486
  0
LINE
  5
244
100
AcDbEntity
  8
0
100
AcDbLine
 62
7
  6
BYLAYER
 10
28.8938957408
 20
64.7303101235
 11
28.8938957408
 21
61.5553101235
  0
LINE
  5
245
100
AcDbEntity
  8
0
100
AcDbLine
 62
7
  6
BYLAYER
 10
28.986904352
 20
6.8854767551
 11
28.986904352
 21
7.1329078341
  0
LINE
  5
246
100
AcDbEntity
  8
0
100
AcDbLine
 62
7
  6
BYLAYER
 10
29.7064283128
 20
9.2223599052
 11
29.7064283128
 21
8.8032599052
  0
LINE
  5
247
100
AcDbEntity
  8
0
100
AcDbLine
 62
7
  6
BYLAYER
 10
29.9460349205
 20
7.0821856209
 11
29.9460349205
 21
7.2046423241
  0
LINE
  5
248
100
AcDbEntity
  8
0
100
AcDbLine
 62
7
  6
BYLAYER
 10
39.9688957408
 20
40.5803101235
 11
11.4688957408
 21
40.5803101235
  0
LINE
  5
249
100
AcDbEntity
  8
0
100
AcDbLine
 62
7
  6
BYLAYER
 10
31.1776478855
 20
59.3303101235
 11
31.1776478855
 21
53.1203101235
  0
LINE
  5
24A
100
AcDbEntity
  8
0
100
AcDbLine
 62
7
  6
BYLAYER
 10
31.3281917657
 20
7.0943559351
 11
31.3281917657
 21
7.1451559351
  0
LINE
  5
24B
100
AcDbEntity
  8
0
100
AcDbLine
 62
7
  6
BYLAYER
 10
32.2655261526
 20
46.9103101235
 11
32.2655261526
 21
46.4603101235
  0
LINE
  5
24C
100
AcDbEntity
  8
0
100
AcDbLine
 62
7
  6
BYLAYER
 10
32.512424141
 20
53.1203101235
 11
32.512424141
 21
59.3303101235
  0
LINE
  5
24D
100
AcDbEntity
  8
0
100
AcDbLine
 62
7
  6
BYLAYER
 10
34.3685794416
 20
59.3303101235
 11
34.3685794416
 21
53.1203101235
  0
LINE
  5
24E
100
AcDbEntity
  8
0
100
AcDbLine
 62
7
  6
BYLAYER
 10
34.4723024517
 20
7.6715078123
 11
34.4723024517
 21
7.546798709
  0
LINE
  5
24F
100
AcDbEntity
  8
0
100
AcDbLine
 62
7
  6
BYLAYER
 10
34.7530017913
 20
59.3303101235
 11
34.7530017913
 21
53.1203101235
  0
LINE
  5
250
100
AcDbEntity
  8
0
100
AcDbLine
 62
7
  6
BYLAYER
 10
34.7691450999
 20
46.9103101235
 11
34.7691450999
 21
46.4603101235
  0
LINE
  5
251
100
AcDbEntity
  8
0
100
AcDbLine
 62
7
  6
BYLAYER
 10
35.2188957408
 20
59.3303101235
 11
35.2188957408
 21
64.7303101235
  0
LINE
  5
252
100
AcDbEntity
  8
0
100
AcDbLine
 62
7
  6
BYLAYER
 10
35.3708957408
 20
7.9114251866
 11
35.3708957408
 21
7.9622251866
  0
LINE
  5
253
100
AcDbEntity
  8
0
100
AcDbLine
 62
7
  6
BYLAYER
 10
35.3708957408
 20
7.7115005716
 11
35.3708957408
 21
7.9040918642
  0
LINE
  5
254
100
AcDbEntity
  8
0
100
AcDbLine
 62
7
  6
BYLAYER
 10
36.2188957408
 20
46.9103101235
 11
36.2188957408
 21
59.3303101235
  0
LINE
  5
255
100
AcDbEntity
  8
0
100
AcDbLine
 62
7
  6
BYLAYER
 10
36.7188957408
 20
46.4603101235
 11
36.7188957408
 21
46.9103101235
  0
LINE
  5
256
100
AcDbEntity
  8
0
100
AcDbLine
 62
7
  6
BYLAYER
 10
11.4688957408
 20
45.8303101235
 11
39.9688957408
 21
45.8303101235
  0
LINE
  5
257
100
AcDbEntity
  8
0
100
AcDbLine
 62
7
  6
BYLAYER
 10
12.2188957408
 20
46.4603101235
 11
39.2188957408
 21
46.4603101235
  0
LINE
  5
258
100
AcDbEntity
  8
0
100
AcDbLine
 62
7
  6
BYLAYER
 10
14.7188957408
 20
46.9103101235
 11
36.7188957408
 21
46.9103101235
  0
LINE
  5
259
100
AcDbEntity
  8
0
100
AcDbLine
 62
7
  6
BYLAYER
 10
38.1648957408
 20
8.3897590202
 11
38.1648957408
 21
8.8088590202
  0
LINE
  5
25A
100
AcDbEntity
  8
0
100
AcDbLine
 62
7
  6
BYLAYER
 10
39.1188957408
 20
28.3303101235
 11
39.1188957408
 21
40.5803101235
  0
LINE
  5
25B
100
AcDbEntity
  8
0
100
AcDbLine
 62
7
  6
BYLAYER
 10
39.2188957408
 20
45.8303101235
 11
39.2188957408
 21
46.4603101235
  0
LINE
  5
25C
100
AcDbEntity
  8
0
100
AcDbLine
 62
7
  6
BYLAYER
 10
39.9688957408
 20
40.5803101235
 11
39.9688957408
 21
45.8303101235
  0
LINE
  5
25D
100
AcDbEntity
  8
0
100
AcDbLine
 62
7
  6
BYLAYER
 10
40.7188957408
 20
14.5603101235
 11
40.7188957408
 21
28.3303101235
  0
LINE
  5
25E
100
AcDbEntity
  8
0
100
AcDbLine
 62
7
  6
BYLAYER
 10
34.7530036208
 20
53.1203101235
 11
31.1776478855
 21
53.1203101235
  0
LINE
  5
25F
100
AcDbEntity
  8
0
100
AcDbLine
 62
7
  6
BYLAYER
 10
20.2601435961
 20
53.1203101235
 11
16.6847878607
 21
53.1203101235
  0
LINE
  5
260
100
AcDbEntity
  8
0
100
AcDbLine
 62
7
  6
BYLAYER
 10
15.2188957408
 20
59.3303101235
 11
36.2188957408
 21
59.3303101235
  0
LINE
  5
261
100
AcDbEntity
  8
0
100
AcDbLine
 62
7
  6
BYLAYER
 10
22.5438957408
 20
61.5553101235
 11
28.8938957408
 21
61.5553101235
  0
LINE
  5
262
100
AcDbEntity
  8
0
100
AcDbLine
 62
7
  6
BYLAYER
 10
20.9688957408
 20
62.8303101235
 11
18.8484474736
 21
62.8303101235
  0
LINE
  5
263
100
AcDbEntity
  8
0
100
AcDbLine
 62
7
  6
BYLAYER
 10
16.2188957408
 20
64.7303101235
 11
35.2188957408
 21
64.7303101235
  0
ARC
  5
264
100
AcDbEntity
  8
0
100
AcDbCircle
 62
7
  6
BYLAYER
 10
17.6599306697
 20
25.8708242695
 40
18.1873191622
100
AcDbArc
 50
286.0195096419
 51
290.210104294
  0
ARC
  5
265
100
AcDbEntity
  8
0
100
AcDbCircle
 62
7
  6
BYLAYER
 10
17.7174337423
 20
26.0970556044
 40
17.9860713153
100
AcDbArc
 50
286.0129946353
 51
287.7150632209
  0
ARC
  5
266
100
AcDbEntity
  8
0
100
AcDbCircle
 62
7
  6
BYLAYER
 10
25.6767417374
 20
19.0876529927
 40
12.3081197813
100
AcDbArc
 50
269.9245298938
 51
270.1058114312
  0
ARC
  5
267
100
AcDbEntity
  8
0
100
AcDbCircle
 62
7
  6
BYLAYER
 10
24.8775276619
 20
17.5809491222
 40
10.7925118578
100
AcDbArc
 50
262.7558178089
 51
268.7799980622
  0
ARC
  5
268
100
AcDbEntity
  8
0
100
AcDbCircle
 62
7
  6
BYLAYER
 10
24.8750399827
 20
17.5504074914
 40
10.7619441903
100
AcDbArc
 50
270.0033899162
 51
274.4972408871
  0
ARC
  5
269
100
AcDbEntity
  8
0
100
AcDbCircle
 62
7
  6
BYLAYER
 10
24.875516296
 20
17.5890862079
 40
10.7498228892
100
AcDbArc
 50
270.0008550228
 51
274.4997757804
  0
ARC
  5
26A
100
AcDbEntity
  8
0
100
AcDbCircle
 62
7
  6
BYLAYER
 10
7.9713957408
 20
12.3078101235
 40
2.2525
100
AcDbArc
 50
90.0
 51
270.0
  0
ARC
  5
26B
100
AcDbEntity
  8
0
100
AcDbCircle
 62
7
  6
BYLAYER
 10
25.71887284
 20
9.4565873808
 40
0.713230561
100
AcDbArc
 50
270.0018396826
 51
271.1592692935
  0
ARC
  5
26C
100
AcDbEntity
  8
0
100
AcDbCircle
 62
7
  6
BYLAYER
 10
25.7188729041
 20
8.1525714656
 40
0.7115726719
100
AcDbArc
 50
88.83684744
 51
89.9981611919
  0
ARC
  5
26D
100
AcDbEntity
  8
0
100
AcDbCircle
 62
7
  6
BYLAYER
 10
21.0893082214
 20
47.7354847114
 40
39.874464097
100
AcDbArc
 50
279.3409640004
 51
282.4804354461
  0
ARC
  5
26E
100
AcDbEntity
  8
0
100
AcDbCircle
 62
7
  6
BYLAYER
 10
34.8662733706
 20
30.8983150238
 40
22.6895452073
100
AcDbArc
 50
252.4182007822
 51
256.8553241724
  0
ARC
  5
26F
100
AcDbEntity
  8
0
100
AcDbCircle
 62
7
  6
BYLAYER
 10
34.7677177004
 20
30.9280144185
 40
22.2879359321
100
AcDbArc
 50
256.3784611041
 51
256.8743976664
  0
ARC
  5
270
100
AcDbEntity
  8
0
100
AcDbCircle
 62
7
  6
BYLAYER
 10
26.5601527005
 20
17.5834592185
 40
10.7950237511
100
AcDbArc
 50
271.2203079237
 51
277.3903983413
  0
ARC
  5
271
100
AcDbEntity
  8
0
100
AcDbCircle
 62
7
  6
BYLAYER
 10
26.562302829
 20
17.5914201035
 40
10.7521486325
100
AcDbArc
 50
265.8255758795
 51
271.2137146005
  0
ARC
  5
272
100
AcDbEntity
  8
0
100
AcDbCircle
 62
7
  6
BYLAYER
 10
26.562305065
 20
17.5405493504
 40
10.752077848
100
AcDbArc
 50
265.808784977
 51
271.2137106741
  0
ARC
  5
273
100
AcDbEntity
  8
0
100
AcDbCircle
 62
7
  6
BYLAYER
 10
43.4663957408
 20
12.3078101235
 40
2.2525
100
AcDbArc
 50
270.0
 51
90.0
  0
ARC
  5
274
100
AcDbEntity
  8
0
100
AcDbCircle
 62
7
  6
BYLAYER
 10
25.7189183638
 20
9.456738096
 40
0.7133812761
100
AcDbArc
 50
268.8422363078
 51
269.9981830135
  0
ARC
  5
275
100
AcDbEntity
  8
0
100
AcDbCircle
 62
7
  6
BYLAYER
 10
25.7189188566
 20
8.1527221925
 40
0.711421945
100
AcDbArc
 50
90.0018616751
 51
91.1646414852
  0
ARC
  5
276
100
AcDbEntity
  8
0
100
AcDbCircle
 62
7
  6
BYLAYER
 10
25.7188957408
 20
57.6950506273
 40
50.4456405039
100
AcDbArc
 50
253.7438873068
 51
255.7164363596
  0
ARC
  5
277
100
AcDbEntity
  8
0
100
AcDbCircle
 62
7
  6
BYLAYER
 10
25.7188957408
 20
57.2759506273
 40
50.4456405039
100
AcDbArc
 50
260.1674480249
 51
264.030806165
  0
ARC
  5
278
100
AcDbEntity
  8
0
100
AcDbCircle
 62
7
  6
BYLAYER
 10
25.7188957408
 20
57.2251506273
 40
50.4456405039
100
AcDbArc
 50
258.9693157126
 51
260.0073659408
  0
ARC
  5
279
100
AcDbEntity
  8
0
100
AcDbCircle
 62
7
  6
BYLAYER
 10
25.7188957408
 20
57.2251506273
 40
50.4456405039
100
AcDbArc
 50
264.1681670332
 51
265.1932104922
  0
ARC
  5
27A
100
AcDbEntity
  8
0
100
AcDbCircle
 62
7
  6
BYLAYER
 10
25.7188957408
 20
57.2759506273
 40
50.4456405039
100
AcDbArc
 50
271.2167026254
 51
272.6921546252
  0
ARC
  5
27B
100
AcDbEntity
  8
0
100
AcDbCircle
 62
7
  6
BYLAYER
 10
25.7188957408
 20
57.2759506273
 40
50.4456405039
100
AcDbArc
 50
267.3078453748
 51
268.7832973746
  0
ARC
  5
27C
100
AcDbEntity
  8
0
100
AcDbCircle
 62
7
  6
BYLAYER
 10
25.7188957408
 20
57.2759506273
 40
50.4456405039
100
AcDbArc
 50
249.4016711859
 51
252.1128917928
  0
ARC
  5
27D
100
AcDbEntity
  8
0
100
AcDbCircle
 62
7
  6
BYLAYER
 10
25.7188957408
 20
57.2759506273
 40
50.4456405039
100
AcDbArc
 50
255.7164363596
 51
258.9693157126
  0
ARC
  5
27E
100
AcDbEntity
  8
0
100
AcDbCircle
 62
7
  6
BYLAYER
 10
25.7188957408
 20
57.2251506273
 40
50.4456405039
100
AcDbArc
 50
266.2856191836
 51
267.3078453748
  0
ARC
  5
27F
100
AcDbEntity
  8
0
100
AcDbCircle
 62
7
  6
BYLAYER
 10
25.7188957408
 20
57.2759506273
 40
50.4456405039
100
AcDbArc
 50
265.1932104922
 51
266.2856191836
  0
ARC
  5
280
100
AcDbEntity
  8
0
100
AcDbCircle
 62
7
  6
BYLAYER
 10
25.7188957408
 20
57.2251506273
 40
50.4456405039
100
AcDbArc
 50
269.0411628458
 51
269.9337080065
  0
ARC
  5
281
100
AcDbEntity
  8
0
100
AcDbCircle
 62
7
  6
BYLAYER
 10
25.7188957408
 20
57.2759506273
 40
50.4456405039
100
AcDbArc
 50
281.0306842874
 51
284.2835636404
  0
ARC
  5
282
100
AcDbEntity
  8
0
100
AcDbCircle
 62
7
  6
BYLAYER
 10
25.7188957408
 20
57.2759506273
 40
50.4456405039
100
AcDbArc
 50
287.8871082072
 51
290.5983288141
  0
ARC
  5
283
100
AcDbEntity
  8
0
100
AcDbCircle
 62
7
  6
BYLAYER
 10
25.7188957408
 20
57.2251506273
 40
50.4456405039
100
AcDbArc
 50
270.0662919935
 51
271.2167026254
  0
ARC
  5
284
100
AcDbEntity
  8
0
100
AcDbCircle
 62
7
  6
BYLAYER
 10
25.7188957408
 20
57.2251506273
 40
50.4456405039
100
AcDbArc
 50
272.6921546252
 51
273.7143808164
  0
ARC
  5
285
100
AcDbEntity
  8
0
100
AcDbCircle
 62
7
  6
BYLAYER
 10
25.7188957408
 20
57.6950506273
 40
50.4456405039
100
AcDbArc
 50
284.2835636404
 51
286.2561126932
  0
ARC
  5
286
100
AcDbEntity
  8
0
100
AcDbCircle
 62
7
  6
BYLAYER
 10
25.7188957408
 20
57.2759506273
 40
50.4436396226
100
AcDbArc
 50
273.7263944618
 51
279.9930344923
  0
ARC
  5
287
100
AcDbEntity
  8
0
100
AcDbCircle
 62
7
  6
BYLAYER
 10
25.7188957408
 20
57.2251506273
 40
50.4436396226
100
AcDbArc
 50
276.3844529777
 51
281.0306842874
  0
ARC
  5
288
100
AcDbEntity
  8
0
100
AcDbCircle
 62
7
  6
BYLAYER
 10
25.7188957408
 20
57.2251506273
 40
50.3208271523
100
AcDbArc
 50
274.8187401917
 51
280.0176746637
  0
ARC
  5
289
100
AcDbEntity
  8
0
100
AcDbCircle
 62
7
  6
BYLAYER
 10
25.7188957408
 20
57.2251506273
 40
50.2494240847
100
AcDbArc
 50
272.7026748715
 51
273.7289053857
  0
ARC
  5
28A
100
AcDbEntity
  8
0
100
AcDbCircle
 62
7
  6
BYLAYER
 10
25.7188957408
 20
57.2251506273
 40
50.2494240847
100
AcDbArc
 50
266.2710946143
 51
267.2973251285
  0
ARC
  5
28B
100
AcDbEntity
  8
0
100
AcDbCircle
 62
7
  6
BYLAYER
 10
25.7188957408
 20
57.2759506273
 40
50.2494240847
100
AcDbArc
 50
272.7026748715
 51
273.7289053857
  0
ARC
  5
28C
100
AcDbEntity
  8
0
100
AcDbCircle
 62
7
  6
BYLAYER
 10
25.7188957408
 20
57.2759506273
 40
50.2494240847
100
AcDbArc
 50
274.8256037155
 51
281.0743008592
  0
ARC
  5
28D
100
AcDbEntity
  8
0
100
AcDbCircle
 62
7
  6
BYLAYER
 10
25.7188957408
 20
57.2759506273
 40
50.2494240847
100
AcDbArc
 50
266.2710946143
 51
267.2973251285
  0
ARC
  5
28E
100
AcDbEntity
  8
0
100
AcDbCircle
 62
7
  6
BYLAYER
 10
25.7188957408
 20
57.2251506273
 40
50.2494240847
100
AcDbArc
 50
274.8256037155
 51
281.0743008592
  0
ARC
  5
28F
100
AcDbEntity
  8
0
100
AcDbCircle
 62
7
  6
BYLAYER
 10
31.3941086959
 20
45.5245734554
 40
37.469641712
100
AcDbArc
 50
255.3768663222
 51
258.5298430205
  0
SPLINE
  5
290
100
AcDbEntity
  8
0
100
AcDbSpline
 62
7
  6
BYLAYER
 70
0
 71
3
 72
14
 73
10
 74
0
 42
0.0000001
 43
0.0000001
 44
0.0000000001
 40
0.0
 40
0.0
 40
0.0
 40
0.0
 40
0.0542662472
 40
0.1247002178
 40
0.2183611748
 40
0.3364446904
 40
0.4776002316
 40
0.6385778099
 40
1.0
 40
1.0
 40
1.0
 40
1.0
 10
25.9284457408
 20
8.8037128552
 30
0.0
 10
25.9284457408
 20
8.8075793347
 30
0.0
 10
25.9250827886
 20
8.8164269064
 30
0.0
 10
25.9133665547
 20
8.8270524149
 30
0.0
 10
25.895665037
 20
8.836784685
 30
0.0
 10
25.8719957499
 20
8.8454683516
 30
0.0
 10
25.8429398949
 20
8.8528459889
 30
0.0
 10
25.7963098248
 20
8.8608482549
 30
0.0
 10
25.7590635405
 20
8.8634755882
 30
0.0
 10
25.7333174362
 20
8.8639975144
 30
0.0
  0
SPLINE
  5
291
100
AcDbEntity
  8
0
100
AcDbSpline
 62
7
  6
BYLAYER
 70
0
 71
3
 72
14
 73
10
 74
0
 42
0.0000001
 43
0.0000001
 44
0.0000000001
 40
0.0
 40
0.0
 40
0.0
 40
0.0
 40
0.3614479317
 40
0.5224176434
 40
0.6635604777
 40
0.7816367035
 40
0.8752941716
 40
0.9457307917
 40
1.0
 40
1.0
 40
1.0
 40
1.0
 10
25.7044589005
 20
8.8639971699
 30
0.0
 10
25.6787128065
 20
8.8634745849
 30
0.0
 10
25.6414679083
 20
8.8608471309
 30
0.0
 10
25.5948409957
 20
8.8528439676
 30
0.0
 10
25.5657894736
 20
8.8454660889
 30
0.0
 10
25.5421234923
 20
8.8367835712
 30
0.0
 10
25.5244239539
 20
8.8270516923
 30
0.0
 10
25.5127089888
 20
8.8164264609
 30
0.0
 10
25.5093457408
 20
8.8075792708
 30
0.0
 10
25.5093457408
 20
8.8037128552
 30
0.0
  0
SPLINE
  5
292
100
AcDbEntity
  8
0
100
AcDbSpline
 62
7
  6
BYLAYER
 70
0
 71
3
 72
39
 73
35
 74
0
 42
0.0000001
 43
0.0000001
 44
0.0000000001
 40
0.0
 40
0.0
 40
0.0
 40
0.0
 40
0.0009728269
 40
0.0017899023
 40
0.0028774387
 40
0.0059058065
 40
0.0100986429
 40
0.0219990446
 40
0.0385252571
 40
0.0595030671
 40
0.0847388463
 40
0.1139846676
 40
0.1469335547
 40
0.183270534
 40
0.2226313134
 40
0.3088341281
 40
0.4021979282
 40
0.4991545463
 40
0.5960581235
 40
0.6892928382
 40
0.7753585764
 40
0.8146768253
 40
0.8510093896
 40
0.8840166755
 40
0.913372135
 40
0.9387975067
 40
0.9600329449
 40
0.9768726249
 40
0.9835937904
 40
0.9891581036
 40
0.9935575
 40
0.9967958178
 40
0.9988980968
 40
1.0
 40
1.0
 40
1.0
 40
1.0
 10
16.9654890298
 20
7.5749872901
 30
0.0
 10
16.9654890298
 20
7.5761777895
 30
0.0
 10
16.9675467406
 20
7.5779461556
 30
0.0
 10
16.970733613
 20
7.5790981984
 30
0.0
 10
16.9766546529
 20
7.5806123126
 30
0.0
 10
16.986739025
 20
7.5817790597
 30
0.0
 10
17.0101315938
 20
7.5830405715
 30
0.0
 10
17.0500640022
 20
7.5824890177
 30
0.0
 10
17.110461538
 20
7.5796965457
 30
0.0
 10
17.1870648185
 20
7.5744403275
 30
0.0
 10
17.2790958122
 20
7.566829879
 30
0.0
 10
17.3856280873
 20
7.5568896221
 30
0.0
 10
17.5055903504
 20
7.5447054566
 30
0.0
 10
17.6377718789
 20
7.5303616187
 30
0.0
 10
17.8346174245
 20
7.5078635514
 30
0.0
 10
18.1005719343
 20
7.4754986178
 30
0.0
 10
18.436180604
 20
7.4321356063
 30
0.0
 10
18.7844688771
 20
7.3847747023
 30
0.0
 10
19.1322879509
 20
7.3351899427
 30
0.0
 10
19.4665855383
 20
7.2852451984
 30
0.0
 10
19.730887389
 20
7.2437545494
 30
0.0
 10
19.9261721539
 20
7.2116765976
 30
0.0
 10
20.057266422
 20
7.1894129685
 30
0.0
 10
20.1762097226
 20
7.1684307608
 30
0.0
 10
20.2818559362
 20
7.1489249693
 30
0.0
 10
20.3731627618
 20
7.1311091776
 30
0.0
 10
20.4492186585
 20
7.1151705499
 30
0.0
 10
20.5026508005
 20
7.1028465905
 30
0.0
 10
20.5371346117
 20
7.0938666555
 30
0.0
 10
20.5567728386
 20
7.0881799354
 30
0.0
 10
20.5720701447
 20
7.0831673216
 30
0.0
 10
20.5832550051
 20
7.0785757343
 30
0.0
 10
20.5899833068
 20
7.0750860267
 30
0.0
 10
20.5931632721
 20
7.0718610621
 30
0.0
 10
20.5931632721
 20
7.0705126053
 30
0.0
  0
LINE
  5
293
100
AcDbEntity
  8
0
100
AcDbLine
 62
7
  6
BYLAYER
 10
25.7648419382
 20
6.7795367037
 11
25.7772620175
 21
6.7795438888
  0
SPLINE
  5
294
100
AcDbEntity
  8
0
100
AcDbSpline
 62
7
  6
BYLAYER
 70
0
 71
3
 72
14
 73
10
 74
0
 42
0.0000001
 43
0.0000001
 44
0.0000000001
 40
0.0
 40
0.0
 40
0.0
 40
0.0
 40
0.0542575379
 40
0.1246749577
 40
0.2183244286
 40
0.336405748
 40
0.4775677637
 40
0.63855699
 40
1.0
 40
1.0
 40
1.0
 40
1.0
 10
25.5093457408
 20
8.8037128552
 30
0.0
 10
25.5093457408
 20
8.7998468988
 30
0.0
 10
25.5127086789
 20
8.7910005814
 30
0.0
 10
25.5244283044
 20
8.7803812678
 30
0.0
 10
25.5421337119
 20
8.7706596785
 30
0.0
 10
25.5658079092
 20
8.7619890473
 30
0.0
 10
25.5948691726
 20
8.7546253973
 30
0.0
 10
25.6415063104
 20
8.7466413725
 30
0.0
 10
25.6787559158
 20
8.7440220141
 30
0.0
 10
25.7045042003
 20
8.7435024568
 30
0.0
  0
SPLINE
  5
295
100
AcDbEntity
  8
0
100
AcDbSpline
 62
7
  6
BYLAYER
 70
0
 71
3
 72
14
 73
10
 74
0
 42
0.0000001
 43
0.0000001
 44
0.0000000001
 40
0.0
 40
0.0
 40
0.0
 40
0.0
 40
0.3614688467
 40
0.5224502564
 40
0.6635995881
 40
0.7816735719
 40
0.8753195044
 40
0.9457395149
 40
1.0
 40
1.0
 40
1.0
 40
1.0
 10
25.7333026965
 20
8.743502805
 30
0.0
 10
25.7590509449
 20
8.7440230283
 30
0.0
 10
25.7962991269
 20
8.7466425179
 30
0.0
 10
25.8429330575
 20
8.7546274499
 30
0.0
 10
25.8719899516
 20
8.7619913421
 30
0.0
 10
25.895660802
 20
8.770660831
 30
0.0
 10
25.9133641922
 20
8.7803820215
 30
0.0
 10
25.9250825242
 20
8.791001046
 30
0.0
 10
25.9284457408
 20
8.7998469685
 30
0.0
 10
25.9284457408
 20
8.8037128552
 30
0.0
  0
SPLINE
  5
296
100
AcDbEntity
  8
0
100
AcDbSpline
 62
7
  6
BYLAYER
 70
0
 71
3
 72
9
 73
5
 74
0
 42
0.0000001
 43
0.0000001
 44
0.0000000001
 40
0.0
 40
0.0
 40
0.0
 40
0.0
 40
0.5000520758
 40
1.0
 40
1.0
 40
1.0
 40
1.0
 10
24.6477395248
 20
6.841683802
 30
0.0
 10
24.6730660585
 20
6.8411459004
 30
0.0
 10
24.7237035835
 20
6.839281411
 30
0.0
 10
24.7743702825
 20
6.840034296
 30
0.0
 10
24.7996970595
 20
6.8399356794
 30
0.0
  0
LINE
  5
297
100
AcDbEntity
  8
0
100
AcDbLine
 62
7
  6
BYLAYER
 10
24.7996970595
 20
6.8399356794
 11
24.8756767152
 21
6.8392633199
  0
SPLINE
  5
298
100
AcDbEntity
  8
0
100
AcDbSpline
 62
7
  6
BYLAYER
 70
0
 71
3
 72
31
 73
27
 74
0
 42
0.0000001
 43
0.0000001
 44
0.0000000001
 40
0.0
 40
0.0
 40
0.0
 40
0.0
 40
0.0007985719
 40
0.0013790847
 40
0.0021235464
 40
0.0041504904
 40
0.0069290195
 40
0.0104735186
 40
0.014789049
 40
0.0198765528
 40
0.0257309024
 40
0.0397046481
 40
0.0566357673
 40
0.0764437032
 40
0.0990181607
 40
0.1242255691
 40
0.1519309328
 40
0.2142101984
 40
0.2844735268
 40
0.3611859982
 40
0.4426896932
 40
0.5272418038
 40
0.6130647578
 40
0.6983770264
 40
0.8604471379
 40
1.0
 40
1.0
 40
1.0
 40
1.0
 10
16.0668957408
 20
7.7926226829
 30
0.0
 10
16.0668957408
 20
7.793859015
 30
0.0
 10
16.0683782626
 20
7.795856858
 30
0.0
 10
16.0712204954
 20
7.7974225786
 30
0.0
 10
16.0760914059
 20
7.79931423
 30
0.0
 10
16.0845293216
 20
7.8010584364
 30
0.0
 10
16.0973687264
 20
7.8026098085
 30
0.0
 10
16.1138139068
 20
7.8036442453
 30
0.0
 10
16.1338536659
 20
7.8041895047
 30
0.0
 10
16.157477024
 20
7.8042200383
 30
0.0
 10
16.1960462704
 20
7.8035309777
 30
0.0
 10
16.2529152742
 20
7.8012104336
 30
0.0
 10
16.3312918426
 20
7.7965518811
 30
0.0
 10
16.4228769469
 20
7.7898451792
 30
0.0
 10
16.5271550582
 20
7.7811205928
 30
0.0
 10
16.6435328999
 20
7.7704188855
 30
0.0
 10
16.8210065579
 20
7.7528718562
 30
0.0
 10
17.0676762126
 20
7.7262985033
 30
0.0
 10
17.3894992846
 20
7.6890943937
 30
0.0
 10
17.7406199914
 20
7.6462126131
 30
0.0
 10
18.1134156599
 20
7.5983883652
 30
0.0
 10
18.4999369435
 20
7.546753848
 30
0.0
 10
18.8920526518
 20
7.4925003061
 30
0.0
 10
19.4027050586
 20
7.4193625022
 30
0.0
 10
19.9950771254
 20
7.3301417086
 30
0.0
 10
20.4560370433
 20
7.2553584504
 30
0.0
 10
20.6689552458
 20
7.2186889863
 30
0.0
  0
SPLINE
  5
299
100
AcDbEntity
  8
0
100
AcDbSpline
 62
7
  6
BYLAYER
 70
0
 71
3
 72
18
 73
14
 74
0
 42
0.0000001
 43
0.0000001
 44
0.0000000001
 40
0.0
 40
0.0
 40
0.0
 40
0.0
 40
0.221249642
 40
0.4182028146
 40
0.5889232378
 40
0.7315784442
 40
0.8447484264
 40
0.8899231335
 40
0.9273171222
 40
0.9568691548
 40
0.9786030951
 40
0.9926818935
 40
1.0
 40
1.0
 40
1.0
 40
1.0
 10
20.6689552458
 20
7.2186889863
 30
0.0
 10
20.730419421
 20
7.2081034265
 30
0.0
 10
20.8465392357
 20
7.187748236
 30
0.0
 10
21.0098321646
 20
7.1578059947
 30
0.0
 10
21.1510725708
 20
7.1304542373
 30
0.0
 10
21.2687941752
 20
7.1059777352
 30
0.0
 10
21.3515323688
 20
7.0870562644
 30
0.0
 10
21.4049491826
 20
7.0732828671
 30
0.0
 10
21.4353756882
 20
7.0645693365
 30
0.0
 10
21.4590683565
 20
7.0569018289
 30
0.0
 10
21.4764037559
 20
7.0498834692
 30
0.0
 10
21.4867913368
 20
7.0445772275
 30
0.0
 10
21.4917565611
 20
7.039660256
 30
0.0
 10
21.4917565611
 20
7.0375973221
 30
0.0
  0
SPLINE
  5
29A
100
AcDbEntity
  8
0
100
AcDbSpline
 62
7
  6
BYLAYER
 70
0
 71
3
 72
18
 73
14
 74
0
 42
0.0000001
 43
0.0000001
 44
0.0000000001
 40
0.0
 40
0.0
 40
0.0
 40
0.0
 40
0.0072429896
 40
0.0213026591
 40
0.0430579
 40
0.0726691382
 40
0.1101305942
 40
0.1553602316
 40
0.2686975995
 40
0.4115141642
 40
0.5822664786
 40
0.7791188752
 40
1.0
 40
1.0
 40
1.0
 40
1.0
 10
21.4917565611
 20
6.9867973221
 30
0.0
 10
21.4917565611
 20
6.988926692
 30
0.0
 10
21.4865226645
 20
6.9939838805
 30
0.0
 10
21.4757001936
 20
6.9994346079
 30
0.0
 10
21.4575547555
 20
7.0066740237
 30
0.0
 10
21.4327746319
 20
7.0145718921
 30
0.0
 10
21.4009549606
 20
7.0235539896
 30
0.0
 10
21.3451221788
 20
7.0377727458
 30
0.0
 10
21.2586838418
 20
7.0573548952
 30
0.0
 10
21.1357733596
 20
7.0827389773
 30
0.0
 10
20.9884053043
 20
7.1110611845
 30
0.0
 10
20.818187003
 20
7.142017959
 30
0.0
 10
20.6971947064
 20
7.1630750824
 30
0.0
 10
20.6331871777
 20
7.1740223655
 30
0.0
  0
LINE
  5
29B
100
AcDbEntity
  8
0
100
AcDbLine
 62
7
  6
BYLAYER
 10
20.6331871777
 20
7.1740223655
 11
20.6260914433
 21
7.1752351584
  0
SPLINE
  5
29C
100
AcDbEntity
  8
0
100
AcDbSpline
 62
7
  6
BYLAYER
 70
0
 71
3
 72
12
 73
8
 74
0
 42
0.0000001
 43
0.0000001
 44
0.0000000001
 40
0.0
 40
0.0
 40
0.0
 40
0.0
 40
0.2319610821
 40
0.5004401788
 40
0.7688122431
 40
0.891276075
 40
1.0
 40
1.0
 40
1.0
 40
1.0
 10
20.6260914433
 20
7.1752351584
 30
0.0
 10
20.3412312572
 20
7.2238910964
 30
0.0
 10
19.7254310216
 20
7.3216170048
 30
0.0
 10
18.7775571081
 20
7.4593438134
 30
0.0
 10
17.9633746295
 20
7.5682046554
 30
0.0
 10
17.3455952551
 20
7.6436954496
 30
0.0
 10
17.059418889
 20
7.6763027567
 30
0.0
 10
16.9247440411
 20
7.6907943412
 30
0.0
  0
SPLINE
  5
29D
100
AcDbEntity
  8
0
100
AcDbSpline
 62
7
  6
BYLAYER
 70
0
 71
3
 72
19
 73
15
 74
0
 42
0.0000001
 43
0.0000001
 44
0.0000000001
 40
0.0
 40
0.0
 40
0.0
 40
0.0
 40
0.2235865037
 40
0.4223448896
 40
0.5942068714
 40
0.7372281372
 40
0.8499595362
 40
0.9312625575
 40
0.9598969772
 40
0.9712179151
 40
0.9805608374
 40
0.9879622095
 40
0.9935033114
 40
1.0
 40
1.0
 40
1.0
 40
1.0
 10
16.9247440411
 20
7.6907943412
 30
0.0
 10
16.86076758
 20
7.6976784796
 30
0.0
 10
16.739878161
 20
7.7103088359
 30
0.0
 10
16.5696510858
 20
7.7266471391
 30
0.0
 10
16.4223640873
 20
7.7392149608
 30
0.0
 10
16.2996013078
 20
7.7479546013
 30
0.0
 10
16.2027220365
 20
7.7527783272
 30
0.0
 10
16.1386068468
 20
7.7538806846
 30
0.0
 10
16.103733864
 20
7.7523604562
 30
0.0
 10
16.0896029098
 20
7.7509107978
 30
0.0
 10
16.0816411172
 20
7.7497072358
 30
0.0
 10
16.0753195328
 20
7.7481647781
 30
0.0
 10
16.0702456912
 20
7.746426981
 30
0.0
 10
16.0668957408
 20
7.7436923595
 30
0.0
 10
16.0668957408
 20
7.7418226829
 30
0.0
  0
SPLINE
  5
29E
100
AcDbEntity
  8
0
100
AcDbSpline
 62
7
  6
BYLAYER
 70
0
 71
3
 72
11
 73
7
 74
0
 42
0.0000001
 43
0.0000001
 44
0.0000000001
 40
0.0
 40
0.0
 40
0.0
 40
0.0
 40
0.2499893632
 40
0.4374765042
 40
0.6249627633
 40
1.0
 40
1.0
 40
1.0
 40
1.0
 10
24.8756767152
 20
6.7884633199
 30
0.0
 10
24.8566809137
 20
6.7884633199
 30
0.0
 10
24.8234415776
 20
6.7890715001
 30
0.0
 10
24.7759529921
 20
6.7892016743
 30
0.0
 10
24.7189591606
 20
6.7887324809
 30
0.0
 10
24.6762308438
 20
6.7902786846
 30
0.0
 10
24.6477395248
 20
6.790883802
 30
0.0
  0
ENDSEC
  0
SECTION
  2
OBJECTS
  0
DICTIONARY
  5
C
100
AcDbDictionary
280
0
281
1
  3
ACAD_GROUP
350
D
  3
ACAD_MLINESTYLE
350
17
  3
ACAD_LAYOUT
350
1A
  3
ACAD_PLOTSETTINGS
350
19
  3
ACAD_PLOTSTYLENAME
350
E
  0
DICTIONARY
  5
D
102
{ACAD_REACTORS
330
C
102
}
100
AcDbDictionary
280
0
281
1
  0
ACDBDICTIONARYWDFLT
  5
E
102
{ACAD_REACTORS
330
C
102
}
100
AcDbDictionary
281
1
  3
Normal
350
F
100
AcDbDictionaryWithDefault
340
F
  0
DICTIONARY
  5
17
102
{ACAD_REACTORS
330
C
102
}
100
AcDbDictionary
280
0
281
1
  3
Standard
350
18
  0
DICTIONARY
  5
19
102
{ACAD_REACTORS
330
C
102
}
100
AcDbDictionary
281
1
  0
DICTIONARY
  5
1A
102
{ACAD_REACTORS
330
C
102
}
100
AcDbDictionary
281
1
  3
Model
350
29F
  3
Layout1
350
2A0
  0
ACDBPLACEHOLDER
  5
F
102
{ACAD_REACTORS
330
E
102
}
  0
MLINESTYLE
  5
18
102
{ACAD_REACTORS
330
17
102
}
100
AcDbMlineStyle
  2
STANDARD
 70
0
  3

 62
256
 51
90.0
 52
90.0
 71
2
 49
0.5
 62
256
  6
BYLAYER
 49
-0.5
 62
256
  6
BYLAYER
  0
LAYOUT
  5
29F
102
{ACAD_REACTORS
330
1A
102
}
100
AcDbPlotSettings
  1

  2
none_device
  4

  6

 40
0.0
 41
0.0
 42
0.0
 43
0.0
 44
210.0
 45
297.0
 46
0.0
 47
0.0
 48
0.0
 49
0.0
140
0.0
141
0.0
142
1.0
143
1.0
 70
1024
 72
1
 73
0
 74
0
  7

 75
0
147
1.0
148
0.0
149
0.0
100
AcDbLayout
  1
Model
 70
0
 71
0
 10
0.0
 20
0.0
 11
210.0
 21
297.0
 12
0.0
 22
0.0
 32
0.0
 14
0.0
 24
0.0
 34
0.0
 15
0.0
 25
0.0
 35
0.0
146
0.0
 13
0.0
 23
0.0
 33
0.0
 16
1.0
 26
0.0
 36
0.0
 17
0.0
 27
1.0
 37
0.0
 76
0
330
211
345
0
346
0
  0
LAYOUT
  5
2A0
102
{ACAD_REACTORS
330
1A
102
}
100
AcDbPlotSettings
  1

  2
none_device
  4

  6

 40
0.0
 41
0.0
 42
0.0
 43
0.0
 44
210.0
 45
297.0
 46
0.0
 47
0.0
 48
0.0
 49
0.0
140
0.0
141
0.0
142
1.0
143
1.0
 70
0
 72
1
 73
0
 74
0
  7

 75
0
147
1.0
148
0.0
149
0.0
100
AcDbLayout
  1
Layout1
 70
0
 71
1
 10
0.0
 20
0.0
 11
210.0
 21
297.0
 12
0.0
 22
0.0
 32
0.0
 14
0.0
 24
0.0
 34
0.0
 15
0.0
 25
0.0
 35
0.0
146
0.0
 13
0.0
 23
0.0
 33
0.0
 16
1.0
 26
0.0
 36
0.0
 17
0.0
 27
1.0
 37
0.0
 76
0
330
212
345
0
346
0
  0
ENDSEC
  0
EOF
