999
DXF file: C:\Users\sesa63760\Dev\_Creo\CAD\MCADID0005218_3D-CAD\drw0001_5.dxf
999
Pro/ENGINEER 2019471 by Parametric Technology Corporation
  0
SECTION
  2
HEADER
  9
$ACADVER
  1
AC1024
  9
$DWGCODEPAGE
  3
ANSI_1252
  9
$EXTMAX
 10
23.9099813903
 20
33.8155451092
 30
0.0
  9
$EXTMIN
 10
0.0
 20
0.0
 30
0.0
  9
$LIMMIN
 10
0.0
 20
0.0
  9
$LIMMAX
 10
23.9099813903
 20
33.8155451092
  9
$VIEWCTR
 10
11.9549906952
 20
16.9077725546
  9
$VIEWSIZE
 40
33.8155451092
  9
$CLAYER
  8
0
  9
$LTSCALE
 40
2.2042725701
  9
$CELTYPE
  6
BYLAYER
  9
$DIMSCALE
 40
1.0
  9
$DIMASZ
 40
0.2846426356
  9
$DIMEXO
 40
1.0
  9
$DIMDLI
 40
1.5229519575
  9
$DIMEXE
 40
1.0
  9
$DIMCEN
 40
0.3606991478
  9
$DIMLFAC
 40
1.0
  9
$DIMBLK
  1
_FILLED
  9
$DIMALT
 70
0
  9
$DIMALTF
 40
0.0393700787
  9
$DIMTXT
 40
0.3984996898
  9
$DIMTOL
 70
1
  9
$DIMLIM
 70
0
  9
$DIMTFAC
 40
1.0
  9
$DIMTP
 40
0.01
  9
$DIMTM
 40
0.01
  9
$DIMGAP
 40
0.625
  9
$DIMDSEP
 70
46
  9
$AUNITS
 70
0
  9
$PDMODE
 70
3
  9
$PDSIZE
 40
0.3125
  9
$HANDSEED
  5
2CD
  9
$TILEMODE
 70
1
  9
$MEASUREMENT
 70
1
  9
$INSUNITS
 70
4
  0
ENDSEC
  0
SECTION
  2
CLASSES
  0
CLASS
  1
ACDBDICTIONARYWDFLT
  2
AcDbDictionaryWithDefault
  3
AutoCAD 2000
 90
0
 91
1
280
0
281
0
  0
CLASS
  1
ACDBPLACEHOLDER
  2
AcDbPlaceHolder
  3
AutoCAD 2000
 90
0
 91
1
280
0
281
0
  0
CLASS
  1
LAYOUT
  2
AcDbLayout
  3
AutoCAD 2000
 90
0
 91
0
280
0
281
0
  0
ENDSEC
  0
SECTION
  2
TABLES
  0
TABLE
  2
VPORT
  5
8
100
AcDbSymbolTable
 70
2
  0
VPORT
  5
1F4
100
AcDbSymbolTableRecord
100
AcDbViewportTableRecord
  2
*ACTIVE
 70
0
 10
0.0
 20
0.0
 11
1.0
 21
1.0
 12
11.9549906952
 22
16.9077725546
 13
0.0
 23
0.0
 14
1.0
 24
1.0
 15
0.0
 25
0.0
 16
0.0
 26
0.0
 36
1.0
 17
0.0
 27
0.0
 37
0.0
 40
33.8155451092
 41
0.7070707071
 42
50.0
 43
0.0
 44
0.0
 50
0.0
 51
0.0
 71
0
 72
100
 73
1
 74
1
 75
0
 76
0
 77
0
 78
0
  0
ENDTAB
  0
TABLE
  2
LTYPE
  5
5
100
AcDbSymbolTable
 70
6
  0
LTYPE
  5
14
100
AcDbSymbolTableRecord
100
AcDbLinetypeTableRecord
  2
BYBLOCK
 70
0
  3

 72
65
 73
0
 40
0.0
  0
LTYPE
  5
15
100
AcDbSymbolTableRecord
100
AcDbLinetypeTableRecord
  2
BYLAYER
 70
0
  3

 72
65
 73
0
 40
0.0
  0
LTYPE
  5
16
100
AcDbSymbolTableRecord
100
AcDbLinetypeTableRecord
  2
CONTINUOUS
 70
64
  3
Solid line
 72
65
 73
0
 40
0.0
  0
LTYPE
  5
1F5
100
AcDbSymbolTableRecord
100
AcDbLinetypeTableRecord
  2
CENTER
 70
64
  3
____ _ ____ _ ____ _ ____ _ ____ _ ____ _ ____
 72
65
 73
4
 40
0.6
 49
0.375
 74
0
 49
-0.075
 74
0
 49
0.075
 74
0
 49
-0.075
 74
0
  0
LTYPE
  5
1F6
100
AcDbSymbolTableRecord
100
AcDbLinetypeTableRecord
  2
HIDDEN
 70
64
  3
- - - - - - - - - - - - - - - - - - - -
 72
65
 73
2
 40
0.2
 49
0.1
 74
0
 49
-0.1
 74
0
  0
LTYPE
  5
1F7
100
AcDbSymbolTableRecord
100
AcDbLinetypeTableRecord
  2
PHANTOM
 70
64
  3
_____ _ _ _____ _ _ _____ _ _ _____
 72
65
 73
6
 40
0.8
 49
0.45
 74
0
 49
-0.05
 74
0
 49
0.1
 74
0
 49
-0.05
 74
0
 49
0.1
 74
0
 49
-0.05
 74
0
  0
LTYPE
  5
1F8
100
AcDbSymbolTableRecord
100
AcDbLinetypeTableRecord
  2
DOT
 70
64
  3
. . . . . . . . . . . . . . . . . . . .
 72
65
 73
2
 40
0.2
 49
0.1
 74
0
 49
-0.1
 74
0
  0
LTYPE
  5
1F9
100
AcDbSymbolTableRecord
100
AcDbLinetypeTableRecord
  2
DASHED
 70
64
  3
- - - - - - - - - - - - - - - - - - - -
 72
65
 73
2
 40
0.2
 49
0.1
 74
0
 49
-0.1
 74
0
  0
ENDTAB
  0
TABLE
  2
LAYER
  5
2
100
AcDbSymbolTable
 70
36
  0
LAYER
  5
10
100
AcDbSymbolTableRecord
100
AcDbLayerTableRecord
  2
0
 70
0
 62
7
  6
CONTINUOUS
370
-3
390
F
  0
LAYER
  5
1FA
100
AcDbSymbolTableRecord
100
AcDbLayerTableRecord
  2
DEFAULT_1
 70
0
 62
7
  6
CENTER
370
-3
390
F
  0
LAYER
  5
1FB
100
AcDbSymbolTableRecord
100
AcDbLayerTableRecord
  2
DEFAULT_2
 70
0
 62
7
  6
HIDDEN
370
-3
390
F
  0
LAYER
  5
1FC
100
AcDbSymbolTableRecord
100
AcDbLayerTableRecord
  2
DEFAULT_3
 70
0
 62
7
  6
PHANTOM
370
-3
390
F
  0
LAYER
  5
1FD
100
AcDbSymbolTableRecord
100
AcDbLayerTableRecord
  2
00_COMPONENTS
 70
0
 62
7
  6
CONTINUOUS
370
-3
390
F
  0
LAYER
  5
1FE
100
AcDbSymbolTableRecord
100
AcDbLayerTableRecord
  2
00_COMPONENTS_1
 70
0
 62
7
  6
CONTINUOUS
370
-3
390
F
  0
LAYER
  5
1FF
100
AcDbSymbolTableRecord
100
AcDbLayerTableRecord
  2
00_COMPONENTS_2
 70
0
 62
7
  6
CONTINUOUS
370
-3
390
F
  0
LAYER
  5
200
100
AcDbSymbolTableRecord
100
AcDbLayerTableRecord
  2
00_COMPONENTS_5
 70
0
 62
7
  6
CONTINUOUS
370
-3
390
F
  0
LAYER
  5
201
100
AcDbSymbolTableRecord
100
AcDbLayerTableRecord
  2
00_COMPONENTS_6
 70
0
 62
7
  6
CONTINUOUS
370
-3
390
F
  0
LAYER
  5
202
100
AcDbSymbolTableRecord
100
AcDbLayerTableRecord
  2
01_1_DEFAULT_DATUMS
 70
0
 62
7
  6
CONTINUOUS
370
-3
390
F
  0
LAYER
  5
203
100
AcDbSymbolTableRecord
100
AcDbLayerTableRecord
  2
01_PLANES
 70
0
 62
7
  6
CONTINUOUS
370
-3
390
F
  0
LAYER
  5
204
100
AcDbSymbolTableRecord
100
AcDbLayerTableRecord
  2
02_COORD_SYS
 70
0
 62
7
  6
CONTINUOUS
370
-3
390
F
  0
LAYER
  5
205
100
AcDbSymbolTableRecord
100
AcDbLayerTableRecord
  2
03_AXES
 70
0
 62
7
  6
CONTINUOUS
370
-3
390
F
  0
LAYER
  5
206
100
AcDbSymbolTableRecord
100
AcDbLayerTableRecord
  2
04_POINTS
 70
0
 62
7
  6
CONTINUOUS
370
-3
390
F
  0
LAYER
  5
207
100
AcDbSymbolTableRecord
100
AcDbLayerTableRecord
  2
05_CURVES
 70
0
 62
7
  6
CONTINUOUS
370
-3
390
F
  0
LAYER
  5
208
100
AcDbSymbolTableRecord
100
AcDbLayerTableRecord
  2
06_SURFS
 70
0
 62
7
  6
CONTINUOUS
370
-3
390
F
  0
LAYER
  5
209
100
AcDbSymbolTableRecord
100
AcDbLayerTableRecord
  2
07_COSMETICS
 70
0
 62
7
  6
CONTINUOUS
370
-3
390
F
  0
LAYER
  5
20A
100
AcDbSymbolTableRecord
100
AcDbLayerTableRecord
  2
10_NOTES
 70
0
 62
7
  6
CONTINUOUS
370
-3
390
F
  0
LAYER
  5
20B
100
AcDbSymbolTableRecord
100
AcDbLayerTableRecord
  2
11_NOTES_PUB
 70
0
 62
7
  6
CONTINUOUS
370
-3
390
F
  0
LAYER
  5
20C
100
AcDbSymbolTableRecord
100
AcDbLayerTableRecord
  2
13_REF_GTOL
 70
0
 62
7
  6
CONTINUOUS
370
-3
390
F
  0
LAYER
  5
20D
100
AcDbSymbolTableRecord
100
AcDbLayerTableRecord
  2
16_MISC
 70
0
 62
7
  6
CONTINUOUS
370
-3
390
F
  0
LAYER
  5
20E
100
AcDbSymbolTableRecord
100
AcDbLayerTableRecord
  2
17_NO_PRINT
 70
0
 62
7
  6
CONTINUOUS
370
-3
390
F
  0
LAYER
  5
20F
100
AcDbSymbolTableRecord
100
AcDbLayerTableRecord
  2
18_DATUM_CAMS_JOINTS
 70
0
 62
7
  6
CONTINUOUS
370
-3
390
F
  0
LAYER
  5
210
100
AcDbSymbolTableRecord
100
AcDbLayerTableRecord
  2
19_DATUM_FUNCTIONAL
 70
0
 62
7
  6
CONTINUOUS
370
-3
390
F
  0
LAYER
  5
211
100
AcDbSymbolTableRecord
100
AcDbLayerTableRecord
  2
20_DATUM_KINEMATIC_SCHEME
 70
0
 62
7
  6
CONTINUOUS
370
-3
390
F
  0
ENDTAB
  0
TABLE
  2
STYLE
  5
3
100
AcDbSymbolTable
 70
1
  0
STYLE
  5
11
100
AcDbSymbolTableRecord
100
AcDbTextStyleTableRecord
  2
STANDARD
 70
0
 40
0.0
 41
1.0
 50
0.0
 71
0
 42
0.2
  3
ARIAL.TTF
  4

  0
STYLE
  5
212
100
AcDbSymbolTableRecord
100
AcDbTextStyleTableRecord
  2
TEXTSTYLE_1
 70
0
 40
0.0
 41
0.8
 50
0.0
 71
0
 42
0.2
  3
gdt
  4

  0
ENDTAB
  0
TABLE
  2
VIEW
  5
6
100
AcDbSymbolTable
 70
0
  0
ENDTAB
  0
TABLE
  2
UCS
  5
7
100
AcDbSymbolTable
 70
0
  0
ENDTAB
  0
TABLE
  2
APPID
  5
9
100
AcDbSymbolTable
 70
1
  0
APPID
  5
213
100
AcDbSymbolTableRecord
100
AcDbRegAppTableRecord
  2
ACAD
 70
0
  0
ENDTAB
  0
TABLE
  2
BLOCK_RECORD
  5
1
100
AcDbSymbolTable
 70
0
  0
BLOCK_RECORD
  5
214
100
AcDbSymbolTableRecord
100
AcDbBlockTableRecord
  2
*Model_Space
  0
BLOCK_RECORD
  5
215
100
AcDbSymbolTableRecord
100
AcDbBlockTableRecord
  2
*Paper_Space
  0
BLOCK_RECORD
  5
216
100
AcDbSymbolTableRecord
100
AcDbBlockTableRecord
  2
_FILLED
  0
ENDTAB
  0
TABLE
  2
DIMSTYLE
  5
A
100
AcDbSymbolTable
 70
1
100
AcDbDimStyleTable
 71
0
  0
DIMSTYLE
105
217
100
AcDbSymbolTableRecord
100
AcDbDimStyleTableRecord
  2
STANDARD
 70
0
  3

  4

 40
1.0
 41
0.2846426356
 42
1.0
 43
0.38
 44
1.0
 45
0.0
 46
0.0
 47
0.01
 48
0.01
140
0.3984996898
141
0.09
142
0.0
143
25.4
144
1.0
145
0.0
146
1.0
147
0.625
 71
1
 72
0
 73
0
 74
0
 75
0
 76
0
 77
1
 78
8
 79
2
170
0
171
1
172
0
173
0
174
0
175
0
176
0
177
0
178
0
270
2
179
2
271
2
272
2
273
2
274
2
275
0
280
0
281
0
282
0
283
1
284
8
285
0
286
0
287
3
288
0
340
11
278
46
341
216
342
216
343
216
344
216
  0
ENDTAB
  0
ENDSEC
  0
SECTION
  2
BLOCKS
  0
BLOCK
  5
20
100
AcDbEntity
  8
0
100
AcDbBlockBegin
  2
*Model_Space
 70
0
 10
0.0
 20
0.0
 30
0.0
  3
*Model_Space
  1

  0
ENDBLK
  5
21
100
AcDbEntity
  8
0
100
AcDbBlockEnd
  0
BLOCK
  5
1C
100
AcDbEntity
  8
0
100
AcDbBlockBegin
  2
*Paper_Space
 70
0
 10
0.0
 20
0.0
 30
0.0
  3
*Paper_Space
  1

  0
ENDBLK
  5
1D
100
AcDbEntity
  8
0
100
AcDbBlockEnd
  0
BLOCK
  5
218
100
AcDbEntity
  8
0
100
AcDbBlockBegin
  2
_FILLED
 70
64
 10
0.0
 20
0.0
  3
_FILLED
  1

  0
SOLID
  5
219
100
AcDbEntity
  8
0
  6
BYBLOCK
 62
0
100
AcDbTrace
 10
0.0
 20
0.0
 11
-1.0
 21
0.25
 12
-1.0
 22
-0.25
 13
-1.0
 23
-0.25
  0
ENDBLK
  5
21A
100
AcDbEntity
  8
0
  6
BYBLOCK
 62
0
100
AcDbBlockEnd
  0
ENDSEC
  0
SECTION
  2
ENTITIES
  0
LINE
  5
21B
100
AcDbEntity
  8
00_COMPONENTS_5
100
AcDbLine
 62
7
  6
BYLAYER
 10
9.6961932344
 20
2.7558965712
 11
9.6994012519
 21
2.7559157435
  0
LINE
  5
21C
100
AcDbEntity
  8
00_COMPONENTS_5
100
AcDbLine
 62
7
  6
BYLAYER
 10
7.3711098639
 20
2.7558965712
 11
17.2511098639
 21
2.7558965712
  0
LINE
  5
21D
100
AcDbEntity
  8
00_COMPONENTS_5
100
AcDbLine
 62
7
  6
BYLAYER
 10
10.7711098639
 20
2.993410443
 11
13.7710923322
 21
2.993410443
  0
LINE
  5
21E
100
AcDbEntity
  8
00_COMPONENTS_5
100
AcDbLine
 62
7
  6
BYLAYER
 10
14.8431109863
 20
2.75591246
 11
14.8460257395
 21
2.7558965712
  0
LWPOLYLINE
  5
21F
100
AcDbEntity
  8
00_COMPONENTS_5
100
AcDbPolyline
 62
7
  6
BYLAYER
 90
4
 70
0
 10
9.6994361343
 20
2.7559153686
 10
10.0372999799
 20
2.8182530335
 10
10.4310862773
 20
2.9415739781
 10
10.7711098639
 20
2.9934112681
  0
LINE
  5
220
100
AcDbEntity
  8
00_COMPONENTS_5
100
AcDbLine
 62
7
  6
BYLAYER
 10
10.7711098639
 20
3.0824781449
 11
13.7710923322
 21
3.0824781449
  0
LINE
  5
221
100
AcDbEntity
  8
00_COMPONENTS_5
100
AcDbLine
 62
7
  6
BYLAYER
 10
7.3711098639
 20
3.4779568868
 11
17.2511098639
 21
3.4779568868
  0
LINE
  5
222
100
AcDbEntity
  8
00_COMPONENTS_5
100
AcDbLine
 62
7
  6
BYLAYER
 10
17.1690411461
 20
3.9485874405
 11
15.2511098639
 21
3.9485874405
  0
LINE
  5
223
100
AcDbEntity
  8
00_COMPONENTS_5
100
AcDbLine
 62
7
  6
BYLAYER
 10
9.3711098639
 20
3.9485874405
 11
7.4531785818
 21
3.9485874405
  0
LWPOLYLINE
  5
224
100
AcDbEntity
  8
00_COMPONENTS_5
100
AcDbPolyline
 62
7
  6
BYLAYER
 90
4
 70
0
 10
13.7710916416
 20
2.9934112695
 10
14.1058075779
 20
2.9430166543
 10
14.4994587285
 20
2.8199100008
 10
14.8430926376
 20
2.7559123819
  0
LINE
  5
225
100
AcDbEntity
  8
00_COMPONENTS_5
100
AcDbLine
 62
7
  6
BYLAYER
 10
16.8975179054
 20
4.0829455936
 11
15.2511098639
 21
4.0829455936
  0
LINE
  5
226
100
AcDbEntity
  8
00_COMPONENTS_5
100
AcDbLine
 62
7
  6
BYLAYER
 10
9.3711098639
 20
4.0829455936
 11
7.7247018224
 21
4.0829455936
  0
LINE
  5
227
100
AcDbEntity
  8
00_COMPONENTS_5
100
AcDbLine
 62
7
  6
BYLAYER
 10
10.1711098639
 20
28.6612613555
 11
9.8711098639
 21
28.4954941334
  0
LINE
  5
228
100
AcDbEntity
  8
00_COMPONENTS_5
100
AcDbLine
 62
7
  6
BYLAYER
 10
7.3711098639
 20
5.3558965712
 11
7.3211098639
 21
5.3558965712
  0
LINE
  5
229
100
AcDbEntity
  8
00_COMPONENTS_5
100
AcDbLine
 62
7
  6
BYLAYER
 10
7.5911514324
 20
5.6190748728
 11
9.3711098639
 21
5.6190748728
  0
LINE
  5
22A
100
AcDbEntity
  8
00_COMPONENTS_5
100
AcDbLine
 62
7
  6
BYLAYER
 10
15.2511098639
 20
5.6190748728
 11
17.0310682955
 21
5.6190748728
  0
LINE
  5
22B
100
AcDbEntity
  8
00_COMPONENTS_5
100
AcDbLine
 62
7
  6
BYLAYER
 10
7.4531785818
 20
5.6847167197
 11
9.3711098639
 21
5.6847167197
  0
LINE
  5
22C
100
AcDbEntity
  8
00_COMPONENTS_5
100
AcDbLine
 62
7
  6
BYLAYER
 10
15.2511098639
 20
5.6847167197
 11
17.1690411461
 21
5.6847167197
  0
LINE
  5
22D
100
AcDbEntity
  8
00_COMPONENTS_5
100
AcDbLine
 62
7
  6
BYLAYER
 10
7.3711098639
 20
6.6058965712
 11
17.2511098639
 21
6.6058965712
  0
LINE
  5
22E
100
AcDbEntity
  8
00_COMPONENTS_5
100
AcDbLine
 62
7
  6
BYLAYER
 10
10.1711098639
 20
29.158874265
 11
9.8711098639
 21
28.758874265
  0
LINE
  5
22F
100
AcDbEntity
  8
00_COMPONENTS_1
100
AcDbLine
 62
7
  6
BYLAYER
 10
17.1211098639
 20
7.1529188774
 11
17.1711098639
 21
7.1529188774
  0
LINE
  5
230
100
AcDbEntity
  8
00_COMPONENTS_5
100
AcDbLine
 62
7
  6
BYLAYER
 10
7.3211098639
 20
7.1558965712
 11
7.3711098639
 21
7.1558965712
  0
LINE
  5
231
100
AcDbEntity
  8
00_COMPONENTS_5
100
AcDbLine
 62
7
  6
BYLAYER
 10
7.3711098639
 20
7.9058965712
 11
15.1711098639
 21
7.9058965712
  0
LINE
  5
232
100
AcDbEntity
  8
00_COMPONENTS_5
100
AcDbLine
 62
7
  6
BYLAYER
 10
8.5011098639
 20
27.5725632378
 11
8.3711098639
 21
27.3558965712
  0
LINE
  5
233
100
AcDbEntity
  8
00_COMPONENTS_5
100
AcDbLine
 62
7
  6
BYLAYER
 10
7.3711098639
 20
10.8058965712
 11
15.1711098639
 21
10.8058965712
  0
LINE
  5
234
100
AcDbEntity
  8
00_COMPONENTS_5
100
AcDbLine
 62
7
  6
BYLAYER
 10
7.3211098639
 20
21.3558965712
 11
7.3211098639
 21
5.3558965712
  0
LINE
  5
235
100
AcDbEntity
  8
00_COMPONENTS_1
100
AcDbLine
 62
7
  6
BYLAYER
 10
7.3461098639
 20
25.1558965712
 11
7.3461098639
 21
29.9558965712
  0
LINE
  5
236
100
AcDbEntity
  8
00_COMPONENTS_5
100
AcDbLine
 62
7
  6
BYLAYER
 10
7.3711098639
 20
2.7558965712
 11
7.3711098639
 21
26.358874265
  0
LINE
  5
237
100
AcDbEntity
  8
00_COMPONENTS_5
100
AcDbLine
 62
7
  6
BYLAYER
 10
7.7711098639
 20
5.6190748728
 11
7.7711098639
 21
4.0829455936
  0
LINE
  5
238
100
AcDbEntity
  8
00_COMPONENTS_1
100
AcDbLine
 62
7
  6
BYLAYER
 10
8.1461098639
 20
26.358874265
 11
8.1461098639
 21
29.9558965712
  0
LINE
  5
239
100
AcDbEntity
  8
00_COMPONENTS_5
100
AcDbLine
 62
7
  6
BYLAYER
 10
8.3711098639
 20
27.3558965712
 11
8.3711098639
 21
22.558874265
  0
LINE
  5
23A
100
AcDbEntity
  8
00_COMPONENTS_1
100
AcDbLine
 62
7
  6
BYLAYER
 10
15.1711098639
 20
12.2529188774
 11
17.1211098639
 21
12.2529188774
  0
LINE
  5
23B
100
AcDbEntity
  8
00_COMPONENTS_1
100
AcDbLine
 62
7
  6
BYLAYER
 10
17.1211098639
 20
12.3541582591
 11
15.1711098639
 21
12.3541582591
  0
LINE
  5
23C
100
AcDbEntity
  8
00_COMPONENTS_5
100
AcDbLine
 62
7
  6
BYLAYER
 10
15.1711098639
 20
12.3571359529
 11
7.3711098639
 21
12.3571359529
  0
LINE
  5
23D
100
AcDbEntity
  8
00_COMPONENTS_1
100
AcDbLine
 62
7
  6
BYLAYER
 10
8.5011098639
 20
31.1458965712
 11
8.5011098639
 21
26.358874265
  0
LINE
  5
23E
100
AcDbEntity
  8
00_COMPONENTS_1
100
AcDbLine
 62
7
  6
BYLAYER
 10
9.2711098639
 20
26.358874265
 11
9.2711098639
 21
31.1458965712
  0
LINE
  5
23F
100
AcDbEntity
  8
00_COMPONENTS_5
100
AcDbLine
 62
7
  6
BYLAYER
 10
9.3711098639
 20
5.6847167197
 11
9.3711098639
 21
3.9485874405
  0
LINE
  5
240
100
AcDbEntity
  8
00_COMPONENTS_1
100
AcDbLine
 62
7
  6
BYLAYER
 10
15.1711098639
 20
13.1033714459
 11
17.1211098639
 21
13.1033714459
  0
LINE
  5
241
100
AcDbEntity
  8
00_COMPONENTS_5
100
AcDbLine
 62
7
  6
BYLAYER
 10
7.3711098639
 20
13.1063491397
 11
15.1711098639
 21
13.1063491397
  0
LINE
  5
242
100
AcDbEntity
  8
00_COMPONENTS_5
100
AcDbLine
 62
7
  6
BYLAYER
 10
15.1711098639
 20
13.3558965712
 11
11.2711098639
 21
13.3558965712
  0
LINE
  5
243
100
AcDbEntity
  8
00_COMPONENTS_1
100
AcDbLine
 62
7
  6
BYLAYER
 10
11.6711098639
 20
13.6980542147
 11
15.1711098639
 21
13.698054474
  0
LINE
  5
244
100
AcDbEntity
  8
00_COMPONENTS_1
100
AcDbLine
 62
7
  6
BYLAYER
 10
9.4711098639
 20
31.1458965712
 11
9.4711098639
 21
26.358874265
  0
LINE
  5
245
100
AcDbEntity
  8
00_COMPONENTS_1
100
AcDbLine
 62
7
  6
BYLAYER
 10
9.6988043609
 20
28.2458965712
 11
9.6988043609
 21
30.9458965712
  0
LINE
  5
246
100
AcDbEntity
  8
00_COMPONENTS_1
100
AcDbLine
 62
7
  6
BYLAYER
 10
9.7311098639
 20
28.2458965712
 11
9.7311098639
 21
31.1458965712
  0
LINE
  5
247
100
AcDbEntity
  8
00_COMPONENTS_5
100
AcDbLine
 62
7
  6
BYLAYER
 10
9.8711098639
 20
23.1412613555
 11
9.8711098639
 21
28.758874265
  0
LINE
  5
248
100
AcDbEntity
  8
00_COMPONENTS_5
100
AcDbLine
 62
7
  6
BYLAYER
 10
10.1711098639
 20
27.4612613555
 11
10.1711098639
 21
29.158874265
  0
LINE
  5
249
100
AcDbEntity
  8
00_COMPONENTS_1
100
AcDbLine
 62
7
  6
BYLAYER
 10
11.6711098639
 20
15.0358965712
 11
17.1211098639
 21
15.0358965712
  0
LINE
  5
24A
100
AcDbEntity
  8
00_COMPONENTS_5
100
AcDbLine
 62
7
  6
BYLAYER
 10
11.2711098639
 20
15.0653490228
 11
16.8711098639
 21
15.0653490228
  0
LINE
  5
24B
100
AcDbEntity
  8
00_COMPONENTS_5
100
AcDbLine
 62
7
  6
BYLAYER
 10
10.7711098639
 20
3.0824781449
 11
10.7711098639
 21
2.7558965712
  0
LINE
  5
24C
100
AcDbEntity
  8
00_COMPONENTS_5
100
AcDbLine
 62
7
  6
BYLAYER
 10
11.2711098639
 20
13.3558965712
 11
11.2711098639
 21
15.3650342975
  0
LINE
  5
24D
100
AcDbEntity
  8
00_COMPONENTS_5
100
AcDbLine
 62
7
  6
BYLAYER
 10
11.2711098639
 20
16.6916538198
 11
11.2711098639
 21
18.5422884774
  0
LINE
  5
24E
100
AcDbEntity
  8
00_COMPONENTS_5
100
AcDbLine
 62
7
  6
BYLAYER
 10
11.2711098639
 20
20.1685932745
 11
11.2711098639
 21
21.1558965712
  0
LINE
  5
24F
100
AcDbEntity
  8
00_COMPONENTS_5
100
AcDbLine
 62
7
  6
BYLAYER
 10
7.3711098639
 20
15.3650342975
 11
11.2711098639
 21
15.3650342975
  0
LINE
  5
250
100
AcDbEntity
  8
00_COMPONENTS_5
100
AcDbLine
 62
7
  6
BYLAYER
 10
7.3711098639
 20
15.4399556162
 11
14.9911098639
 21
15.4399556162
  0
LINE
  5
251
100
AcDbEntity
  8
00_COMPONENTS_5
100
AcDbLine
 62
7
  6
BYLAYER
 10
14.9911098639
 20
15.6272589129
 11
17.1711098639
 21
15.6272589129
  0
LINE
  5
252
100
AcDbEntity
  8
00_COMPONENTS_1
100
AcDbLine
 62
7
  6
BYLAYER
 10
11.6711098639
 20
20.8258965712
 11
11.6711098639
 21
20.1685932745
  0
LINE
  5
253
100
AcDbEntity
  8
00_COMPONENTS_1
100
AcDbLine
 62
7
  6
BYLAYER
 10
11.6711098639
 20
18.5422884774
 11
11.6711098639
 21
16.6916538198
  0
LINE
  5
254
100
AcDbEntity
  8
00_COMPONENTS_1
100
AcDbLine
 62
7
  6
BYLAYER
 10
11.6711098639
 20
15.0653490228
 11
11.6711098639
 21
13.6980542147
  0
LINE
  5
255
100
AcDbEntity
  8
00_COMPONENTS_1
100
AcDbLine
 62
7
  6
BYLAYER
 10
13.4882824897
 20
16.6916538198
 11
14.8611098639
 21
16.9487889128
  0
LINE
  5
256
100
AcDbEntity
  8
00_COMPONENTS_5
100
AcDbLine
 62
7
  6
BYLAYER
 10
14.9911098639
 20
16.6916538198
 11
7.3711098639
 21
16.6916538198
  0
LINE
  5
257
100
AcDbEntity
  8
00_COMPONENTS_1
100
AcDbLine
 62
7
  6
BYLAYER
 10
12.4611098639
 20
16.6916538198
 11
12.4611098639
 21
18.1681919389
  0
LINE
  5
258
100
AcDbEntity
  8
00_COMPONENTS_5
100
AcDbLine
 62
7
  6
BYLAYER
 10
11.6711098639
 20
17.2558965712
 11
11.2711098639
 21
17.2558965712
  0
LINE
  5
259
100
AcDbEntity
  8
00_COMPONENTS_5
100
AcDbLine
 62
7
  6
BYLAYER
 10
13.7711098639
 20
2.7558965712
 11
13.7710923322
 21
3.0824781449
  0
LINE
  5
25A
100
AcDbEntity
  8
00_COMPONENTS_5
100
AcDbLine
 62
7
  6
BYLAYER
 10
14.3711098639
 20
29.158874265
 11
14.3711098639
 21
27.4612613555
  0
LINE
  5
25B
100
AcDbEntity
  8
00_COMPONENTS_5
100
AcDbLine
 62
7
  6
BYLAYER
 10
14.3711098639
 20
20.8258965712
 11
14.3711098639
 21
20.9640167557
  0
LINE
  5
25C
100
AcDbEntity
  8
00_COMPONENTS_1
100
AcDbLine
 62
7
  6
BYLAYER
 10
14.8611098639
 20
18.6177198511
 11
12.4611098639
 21
18.168191939
  0
LINE
  5
25D
100
AcDbEntity
  8
00_COMPONENTS_5
100
AcDbLine
 62
7
  6
BYLAYER
 10
7.3711098639
 20
18.5422884774
 11
14.4583867138
 21
18.5422884774
  0
LINE
  5
25E
100
AcDbEntity
  8
00_COMPONENTS_5
100
AcDbLine
 62
7
  6
BYLAYER
 10
14.8611098639
 20
18.5422884774
 11
14.9911098639
 21
18.5422884774
  0
LINE
  5
25F
100
AcDbEntity
  8
00_COMPONENTS_5
100
AcDbLine
 62
7
  6
BYLAYER
 10
14.9911098639
 20
18.9168950708
 11
7.3711098639
 21
18.9168950708
  0
LINE
  5
260
100
AcDbEntity
  8
00_COMPONENTS_1
100
AcDbLine
 62
7
  6
BYLAYER
 10
14.6711098639
 20
21.1558965712
 11
14.6711098639
 21
20.8258965712
  0
LINE
  5
261
100
AcDbEntity
  8
00_COMPONENTS_5
100
AcDbLine
 62
7
  6
BYLAYER
 10
14.6711098639
 20
23.1412613555
 11
14.6711098639
 21
28.758874265
  0
LINE
  5
262
100
AcDbEntity
  8
00_COMPONENTS_1
100
AcDbLine
 62
7
  6
BYLAYER
 10
14.8111098639
 20
31.1458965712
 11
14.8111098639
 21
28.2458965712
  0
LINE
  5
263
100
AcDbEntity
  8
00_COMPONENTS_1
100
AcDbLine
 62
7
  6
BYLAYER
 10
14.8434153669
 20
30.9458965712
 11
14.8434153669
 21
28.2458965712
  0
LINE
  5
264
100
AcDbEntity
  8
00_COMPONENTS_1
100
AcDbLine
 62
7
  6
BYLAYER
 10
14.8611098639
 20
16.6916538198
 11
14.8611098639
 21
18.617719851
  0
LINE
  5
265
100
AcDbEntity
  8
00_COMPONENTS_5
100
AcDbLine
 62
7
  6
BYLAYER
 10
14.9911098639
 20
20.3558965712
 11
14.9911098639
 21
15.4399556162
  0
LINE
  5
266
100
AcDbEntity
  8
00_COMPONENTS_1
100
AcDbLine
 62
7
  6
BYLAYER
 10
15.0711098639
 20
26.358874265
 11
15.0711098639
 21
31.1458965712
  0
LINE
  5
267
100
AcDbEntity
  8
00_COMPONENTS_1
100
AcDbLine
 62
7
  6
BYLAYER
 10
15.1711098639
 20
26.3558965712
 11
15.1711098639
 21
20.8258965712
  0
LINE
  5
268
100
AcDbEntity
  8
00_COMPONENTS_1
100
AcDbLine
 62
7
  6
BYLAYER
 10
15.1711098639
 20
13.6976831946
 11
15.1711098639
 21
12.2529188774
  0
LINE
  5
269
100
AcDbEntity
  8
00_COMPONENTS_5
100
AcDbLine
 62
7
  6
BYLAYER
 10
15.1711098639
 20
6.6058965712
 11
15.1711098639
 21
13.3558965712
  0
LINE
  5
26A
100
AcDbEntity
  8
00_COMPONENTS_5
100
AcDbLine
 62
7
  6
BYLAYER
 10
15.1711098639
 20
21.1558965712
 11
15.1711098639
 21
26.358874265
  0
LINE
  5
26B
100
AcDbEntity
  8
00_COMPONENTS_5
100
AcDbLine
 62
7
  6
BYLAYER
 10
15.2511098639
 20
3.9485874405
 11
15.2511098639
 21
5.6847167197
  0
LINE
  5
26C
100
AcDbEntity
  8
00_COMPONENTS_1
100
AcDbLine
 62
7
  6
BYLAYER
 10
15.2711098639
 20
31.1458965712
 11
15.2711098639
 21
26.3558965712
  0
LINE
  5
26D
100
AcDbEntity
  8
00_COMPONENTS_5
100
AcDbLine
 62
7
  6
BYLAYER
 10
7.3711098639
 20
19.5558965712
 11
7.3211098639
 21
19.5558965712
  0
LINE
  5
26E
100
AcDbEntity
  8
00_COMPONENTS_1
100
AcDbLine
 62
7
  6
BYLAYER
 10
16.0411098639
 20
26.3558965712
 11
16.0411098639
 21
31.1458965712
  0
LINE
  5
26F
100
AcDbEntity
  8
00_COMPONENTS_1
100
AcDbLine
 62
7
  6
BYLAYER
 10
16.1711098639
 20
22.4858803505
 11
16.1711098639
 21
27.3558965712
  0
LINE
  5
270
100
AcDbEntity
  8
00_COMPONENTS_1
100
AcDbLine
 62
7
  6
BYLAYER
 10
16.3461098639
 20
26.3558965712
 11
16.3461098639
 21
29.9558965712
  0
LINE
  5
271
100
AcDbEntity
  8
00_COMPONENTS_5
100
AcDbLine
 62
7
  6
BYLAYER
 10
17.1711098639
 20
15.1777310008
 11
16.8711098639
 21
15.0653490228
  0
LINE
  5
272
100
AcDbEntity
  8
00_COMPONENTS_5
100
AcDbLine
 62
7
  6
BYLAYER
 10
7.3711098639
 20
20.1685932745
 11
14.9911098639
 21
20.1685932745
  0
LINE
  5
273
100
AcDbEntity
  8
00_COMPONENTS_5
100
AcDbLine
 62
7
  6
BYLAYER
 10
14.9911098639
 20
20.3558965712
 11
17.1711098639
 21
20.3558965712
  0
LINE
  5
274
100
AcDbEntity
  8
00_COMPONENTS_1
100
AcDbLine
 62
7
  6
BYLAYER
 10
11.6711098639
 20
20.4158965712
 11
17.1211098639
 21
20.4158965712
  0
LINE
  5
275
100
AcDbEntity
  8
00_COMPONENTS_5
100
AcDbLine
 62
7
  6
BYLAYER
 10
11.2711098639
 20
20.6969972491
 11
11.6711098639
 21
20.6969972491
  0
LINE
  5
276
100
AcDbEntity
  8
00_COMPONENTS_1
100
AcDbLine
 62
7
  6
BYLAYER
 10
11.6711098639
 20
20.8258965712
 11
15.1711098639
 21
20.8258965712
  0
LINE
  5
277
100
AcDbEntity
  8
00_COMPONENTS_5
100
AcDbLine
 62
7
  6
BYLAYER
 10
14.3711098639
 20
20.9640167557
 11
11.2711098639
 21
20.9640167557
  0
LINE
  5
278
100
AcDbEntity
  8
00_COMPONENTS_1
100
AcDbLine
 62
7
  6
BYLAYER
 10
11.2711098639
 20
21.0614294706
 11
14.6711098639
 21
21.0614294706
  0
LINE
  5
279
100
AcDbEntity
  8
00_COMPONENTS_5
100
AcDbLine
 62
7
  6
BYLAYER
 10
16.8511098639
 20
4.0829455936
 11
16.8511098639
 21
5.6190748728
  0
LINE
  5
27A
100
AcDbEntity
  8
00_COMPONENTS_1
100
AcDbLine
 62
7
  6
BYLAYER
 10
17.1211098639
 20
6.6058965712
 11
17.1211098639
 21
15.1590006711
  0
LINE
  5
27B
100
AcDbEntity
  8
00_COMPONENTS_1
100
AcDbLine
 62
7
  6
BYLAYER
 10
17.1211098639
 20
20.3558965712
 11
17.1211098639
 21
26.3558965712
  0
LINE
  5
27C
100
AcDbEntity
  8
00_COMPONENTS_1
100
AcDbLine
 62
7
  6
BYLAYER
 10
17.1461098639
 20
25.858874265
 11
17.1461098639
 21
29.9558965712
  0
LINE
  5
27D
100
AcDbEntity
  8
00_COMPONENTS_5
100
AcDbLine
 62
7
  6
BYLAYER
 10
17.1711098639
 20
25.858874265
 11
17.1711098639
 21
21.3529188774
  0
LINE
  5
27E
100
AcDbEntity
  8
00_COMPONENTS_1
100
AcDbLine
 62
7
  6
BYLAYER
 10
17.1711098639
 20
6.6058965712
 11
17.1711098639
 21
15.1777310008
  0
LINE
  5
27F
100
AcDbEntity
  8
00_COMPONENTS_5
100
AcDbLine
 62
7
  6
BYLAYER
 10
17.1711098639
 20
15.1777310008
 11
17.1711098639
 21
20.3558965712
  0
LINE
  5
280
100
AcDbEntity
  8
00_COMPONENTS_1
100
AcDbLine
 62
7
  6
BYLAYER
 10
17.1711098639
 20
20.3558965712
 11
17.1711098639
 21
21.3529188774
  0
LINE
  5
281
100
AcDbEntity
  8
00_COMPONENTS_5
100
AcDbLine
 62
7
  6
BYLAYER
 10
17.2511098639
 20
2.7558965712
 11
17.2511098639
 21
3.6760406279
  0
LINE
  5
282
100
AcDbEntity
  8
00_COMPONENTS_5
100
AcDbLine
 62
7
  6
BYLAYER
 10
17.2511098639
 20
3.6793328677
 11
17.2511098639
 21
6.6058965712
  0
LINE
  5
283
100
AcDbEntity
  8
00_COMPONENTS_5
100
AcDbLine
 62
7
  6
BYLAYER
 10
15.1711098639
 20
21.1558965712
 11
11.2711098639
 21
21.1558965712
  0
LINE
  5
284
100
AcDbEntity
  8
00_COMPONENTS_1
100
AcDbLine
 62
7
  6
BYLAYER
 10
17.1211098639
 20
21.3529188774
 11
17.1711098639
 21
21.3529188774
  0
LINE
  5
285
100
AcDbEntity
  8
00_COMPONENTS_5
100
AcDbLine
 62
7
  6
BYLAYER
 10
7.3211098639
 20
21.3558965712
 11
7.3711098639
 21
21.3558965712
  0
LINE
  5
286
100
AcDbEntity
  8
00_COMPONENTS_1
100
AcDbLine
 62
7
  6
BYLAYER
 10
16.1711098639
 20
22.4858803505
 11
17.1211098639
 21
22.4858803505
  0
LINE
  5
287
100
AcDbEntity
  8
00_COMPONENTS_5
100
AcDbLine
 62
7
  6
BYLAYER
 10
7.3711098639
 20
22.558874265
 11
8.3711098639
 21
22.558874265
  0
LINE
  5
288
100
AcDbEntity
  8
00_COMPONENTS_5
100
AcDbLine
 62
7
  6
BYLAYER
 10
7.3711098639
 20
22.6741758224
 11
8.3711098639
 21
22.6741758224
  0
LINE
  5
289
100
AcDbEntity
  8
00_COMPONENTS_1
100
AcDbLine
 62
7
  6
BYLAYER
 10
16.1711098639
 20
22.6780496128
 11
17.1211098639
 21
22.6780496128
  0
LINE
  5
28A
100
AcDbEntity
  8
00_COMPONENTS_5
100
AcDbLine
 62
7
  6
BYLAYER
 10
14.6711098639
 20
23.1412613555
 11
9.8711098639
 21
23.1412613555
  0
LINE
  5
28B
100
AcDbEntity
  8
00_COMPONENTS_1
100
AcDbLine
 62
7
  6
BYLAYER
 10
7.3711098639
 20
25.1558965712
 11
7.3461098639
 21
25.1558965712
  0
LINE
  5
28C
100
AcDbEntity
  8
00_COMPONENTS_1
100
AcDbLine
 62
7
  6
BYLAYER
 10
16.1711098639
 20
25.7305031646
 11
15.1711098639
 21
25.7305031646
  0
LINE
  5
28D
100
AcDbEntity
  8
00_COMPONENTS_5
100
AcDbLine
 62
7
  6
BYLAYER
 10
15.1711098639
 20
25.7334808584
 11
14.6711098639
 21
25.7334808584
  0
LINE
  5
28E
100
AcDbEntity
  8
00_COMPONENTS_5
100
AcDbLine
 62
7
  6
BYLAYER
 10
9.8711098639
 20
25.7334808584
 11
8.3711098639
 21
25.7334808584
  0
LINE
  5
28F
100
AcDbEntity
  8
00_COMPONENTS_5
100
AcDbLine
 62
7
  6
BYLAYER
 10
17.1711098639
 20
25.858874265
 11
17.1211098639
 21
25.858874265
  0
LINE
  5
290
100
AcDbEntity
  8
00_COMPONENTS_5
100
AcDbLine
 62
7
  6
BYLAYER
 10
14.3711098639
 20
29.158874265
 11
14.6711098639
 21
28.758874265
  0
LINE
  5
291
100
AcDbEntity
  8
00_COMPONENTS_1
100
AcDbLine
 62
7
  6
BYLAYER
 10
16.0411098639
 20
27.5725632378
 11
16.1711098639
 21
27.3558965712
  0
LINE
  5
292
100
AcDbEntity
  8
00_COMPONENTS_1
100
AcDbLine
 62
7
  6
BYLAYER
 10
15.1711098639
 20
26.3558965712
 11
17.1211098639
 21
26.3558965712
  0
LINE
  5
293
100
AcDbEntity
  8
00_COMPONENTS_5
100
AcDbLine
 62
7
  6
BYLAYER
 10
7.3711098639
 20
26.358874265
 11
9.8711098639
 21
26.358874265
  0
LINE
  5
294
100
AcDbEntity
  8
00_COMPONENTS_5
100
AcDbLine
 62
7
  6
BYLAYER
 10
14.6711098639
 20
26.358874265
 11
15.1711098639
 21
26.358874265
  0
LINE
  5
295
100
AcDbEntity
  8
00_COMPONENTS_1
100
AcDbLine
 62
7
  6
BYLAYER
 10
17.1461098639
 20
26.4332771703
 11
16.3461098639
 21
26.4332771703
  0
LINE
  5
296
100
AcDbEntity
  8
00_COMPONENTS_1
100
AcDbLine
 62
7
  6
BYLAYER
 10
8.1461098639
 20
26.4332771703
 11
7.3461098639
 21
26.4332771703
  0
LINE
  5
297
100
AcDbEntity
  8
00_COMPONENTS_1
100
AcDbLine
 62
7
  6
BYLAYER
 10
7.3461098639
 20
26.6332771703
 11
8.1461098639
 21
26.6332771703
  0
LINE
  5
298
100
AcDbEntity
  8
00_COMPONENTS_1
100
AcDbLine
 62
7
  6
BYLAYER
 10
16.3461098639
 20
26.6332771703
 11
17.1461098639
 21
26.6332771703
  0
LINE
  5
299
100
AcDbEntity
  8
00_COMPONENTS_1
100
AcDbLine
 62
7
  6
BYLAYER
 10
7.3461098639
 20
26.8332771703
 11
8.1461098639
 21
26.8332771703
  0
LINE
  5
29A
100
AcDbEntity
  8
00_COMPONENTS_1
100
AcDbLine
 62
7
  6
BYLAYER
 10
16.3461098639
 20
26.8332771703
 11
17.1461098639
 21
26.8332771703
  0
LINE
  5
29B
100
AcDbEntity
  8
00_COMPONENTS_1
100
AcDbLine
 62
7
  6
BYLAYER
 10
17.1461098639
 20
26.9832771703
 11
16.3461098639
 21
26.9832771703
  0
LINE
  5
29C
100
AcDbEntity
  8
00_COMPONENTS_1
100
AcDbLine
 62
7
  6
BYLAYER
 10
8.1461098639
 20
26.9832771703
 11
7.3461098639
 21
26.9832771703
  0
LINE
  5
29D
100
AcDbEntity
  8
00_COMPONENTS_1
100
AcDbLine
 62
7
  6
BYLAYER
 10
7.3461098639
 20
27.179602607
 11
8.1461098639
 21
27.179602607
  0
LINE
  5
29E
100
AcDbEntity
  8
00_COMPONENTS_1
100
AcDbLine
 62
7
  6
BYLAYER
 10
16.3461098639
 20
27.179602607
 11
17.1461098639
 21
27.179602607
  0
LINE
  5
29F
100
AcDbEntity
  8
00_COMPONENTS_5
100
AcDbLine
 62
7
  6
BYLAYER
 10
14.6711098639
 20
27.2612613555
 11
9.8711098639
 21
27.2612613555
  0
LINE
  5
2A0
100
AcDbEntity
  8
00_COMPONENTS_5
100
AcDbLine
 62
7
  6
BYLAYER
 10
9.8711098639
 20
27.4612613555
 11
14.6711098639
 21
27.4612613555
  0
LINE
  5
2A1
100
AcDbEntity
  8
00_COMPONENTS_1
100
AcDbLine
 62
7
  6
BYLAYER
 10
17.1461098639
 20
27.478590973
 11
16.3461098639
 21
27.478590973
  0
LINE
  5
2A2
100
AcDbEntity
  8
00_COMPONENTS_1
100
AcDbLine
 62
7
  6
BYLAYER
 10
8.1461098639
 20
27.478590973
 11
7.3461098639
 21
27.478590973
  0
LINE
  5
2A3
100
AcDbEntity
  8
00_COMPONENTS_1
100
AcDbLine
 62
7
  6
BYLAYER
 10
7.3461098639
 20
27.5320947112
 11
8.1461098639
 21
27.5320947112
  0
LINE
  5
2A4
100
AcDbEntity
  8
00_COMPONENTS_1
100
AcDbLine
 62
7
  6
BYLAYER
 10
16.3461098639
 20
27.5320947112
 11
17.1461098639
 21
27.5320947112
  0
LINE
  5
2A5
100
AcDbEntity
  8
00_COMPONENTS_1
100
AcDbLine
 62
7
  6
BYLAYER
 10
17.1461098639
 20
27.6263059709
 11
16.3461098639
 21
27.6263059709
  0
LINE
  5
2A6
100
AcDbEntity
  8
00_COMPONENTS_1
100
AcDbLine
 62
7
  6
BYLAYER
 10
8.1461098639
 20
27.6263059709
 11
7.3461098639
 21
27.6263059709
  0
LINE
  5
2A7
100
AcDbEntity
  8
00_COMPONENTS_1
100
AcDbLine
 62
7
  6
BYLAYER
 10
16.0411098639
 20
27.6758965712
 11
15.2711098639
 21
27.6758965712
  0
LINE
  5
2A8
100
AcDbEntity
  8
00_COMPONENTS_1
100
AcDbLine
 62
7
  6
BYLAYER
 10
9.2711098639
 20
27.6758965712
 11
8.5011098639
 21
27.6758965712
  0
LINE
  5
2A9
100
AcDbEntity
  8
00_COMPONENTS_1
100
AcDbLine
 62
7
  6
BYLAYER
 10
7.3461098639
 20
27.947584557
 11
8.1461098639
 21
27.947584557
  0
LINE
  5
2AA
100
AcDbEntity
  8
00_COMPONENTS_1
100
AcDbLine
 62
7
  6
BYLAYER
 10
16.3461098639
 20
27.947584557
 11
17.1461098639
 21
27.947584557
  0
LINE
  5
2AB
100
AcDbEntity
  8
00_COMPONENTS_1
100
AcDbLine
 62
7
  6
BYLAYER
 10
9.6988043609
 20
28.2458965712
 11
9.7311098639
 21
28.2458965712
  0
LINE
  5
2AC
100
AcDbEntity
  8
00_COMPONENTS_1
100
AcDbLine
 62
7
  6
BYLAYER
 10
14.8111098639
 20
28.2458965712
 11
14.8434153669
 21
28.2458965712
  0
LINE
  5
2AD
100
AcDbEntity
  8
00_COMPONENTS_5
100
AcDbLine
 62
7
  6
BYLAYER
 10
10.1711098639
 20
28.6612613555
 11
14.3711098639
 21
28.6612613555
  0
LINE
  5
2AE
100
AcDbEntity
  8
00_COMPONENTS_5
100
AcDbLine
 62
7
  6
BYLAYER
 10
14.3711098639
 20
28.6612613555
 11
14.6711098639
 21
28.4954941334
  0
LINE
  5
2AF
100
AcDbEntity
  8
00_COMPONENTS_5
100
AcDbLine
 62
7
  6
BYLAYER
 10
10.1711098639
 20
29.158874265
 11
14.3711098639
 21
29.158874265
  0
LINE
  5
2B0
100
AcDbEntity
  8
00_COMPONENTS_1
100
AcDbLine
 62
7
  6
BYLAYER
 10
17.1461098639
 20
29.9022512158
 11
16.3461098639
 21
29.9022512158
  0
LINE
  5
2B1
100
AcDbEntity
  8
00_COMPONENTS_1
100
AcDbLine
 62
7
  6
BYLAYER
 10
8.1461098639
 20
29.9022512158
 11
7.3461098639
 21
29.9022512158
  0
LINE
  5
2B2
100
AcDbEntity
  8
00_COMPONENTS_1
100
AcDbLine
 62
7
  6
BYLAYER
 10
7.3461098639
 20
29.9558965712
 11
8.1461098639
 21
29.9558965712
  0
LINE
  5
2B3
100
AcDbEntity
  8
00_COMPONENTS_1
100
AcDbLine
 62
7
  6
BYLAYER
 10
16.3461098639
 20
29.9558965712
 11
17.1461098639
 21
29.9558965712
  0
LINE
  5
2B4
100
AcDbEntity
  8
00_COMPONENTS_1
100
AcDbLine
 62
7
  6
BYLAYER
 10
15.2711098639
 20
30.9458965712
 11
14.8434153669
 21
30.9458965712
  0
LINE
  5
2B5
100
AcDbEntity
  8
00_COMPONENTS_1
100
AcDbLine
 62
7
  6
BYLAYER
 10
9.6988043609
 20
30.9458965712
 11
9.2711098639
 21
30.9458965712
  0
LINE
  5
2B6
100
AcDbEntity
  8
00_COMPONENTS_1
100
AcDbLine
 62
7
  6
BYLAYER
 10
16.0411098639
 20
30.9805240963
 11
15.2711098639
 21
30.9805240963
  0
LINE
  5
2B7
100
AcDbEntity
  8
00_COMPONENTS_1
100
AcDbLine
 62
7
  6
BYLAYER
 10
9.2711098639
 20
30.9805240963
 11
8.5011098639
 21
30.9805240963
  0
LINE
  5
2B8
100
AcDbEntity
  8
00_COMPONENTS_1
100
AcDbLine
 62
7
  6
BYLAYER
 10
8.5011098639
 20
31.1458965712
 11
9.7311098639
 21
31.1458965712
  0
LINE
  5
2B9
100
AcDbEntity
  8
00_COMPONENTS_1
100
AcDbLine
 62
7
  6
BYLAYER
 10
14.8111098639
 20
31.1458965712
 11
16.0411098639
 21
31.1458965712
  0
ARC
  5
2BA
100
AcDbEntity
  8
00_COMPONENTS_1
100
AcDbCircle
 62
7
  6
BYLAYER
 10
8.4461098639
 20
25.1558965712
 40
1.1
100
AcDbArc
 50
180.0
 51
186.7966343147
  0
ARC
  5
2BB
100
AcDbEntity
  8
00_COMPONENTS_1
100
AcDbCircle
 62
7
  6
BYLAYER
 10
14.4111098639
 20
28.2458965712
 40
0.4
100
AcDbArc
 50
309.0136320689
 51
360.0
  0
ARC
  5
2BC
100
AcDbEntity
  8
00_COMPONENTS_1
100
AcDbCircle
 62
7
  6
BYLAYER
 10
10.1311098639
 20
28.2458965712
 40
0.4
100
AcDbArc
 50
180.0
 51
230.986367931
  0
ARC
  5
2BD
100
AcDbEntity
  8
00_COMPONENTS_1
100
AcDbCircle
 62
7
  6
BYLAYER
 10
14.4438452826
 20
28.2462025732
 40
0.3995808968
100
AcDbArc
 50
305.1022975626
 51
359.9561212873
  0
SPLINE
  5
2BE
100
AcDbEntity
  8
00_COMPONENTS_1
100
AcDbSpline
 62
7
  6
BYLAYER
 70
0
 71
3
 72
22
 73
18
 74
0
 42
0.0000001
 43
0.0000001
 44
0.0000000001
 40
0.0
 40
0.0
 40
0.0
 40
0.0
 40
0.0080821151
 40
0.0149028544
 40
0.0238639914
 40
0.0350334964
 40
0.0484364722
 40
0.064062937
 40
0.0818817498
 40
0.123945433
 40
0.1743001128
 40
0.232496575
 40
0.2980059415
 40
0.4485368553
 40
0.6201228682
 40
0.8064053702
 40
1.0
 40
1.0
 40
1.0
 40
1.0
 10
14.8275750681
 20
31.1458965712
 30
0.0
 10
14.8281186584
 20
31.1458965712
 30
0.0
 10
14.8289297385
 20
31.144995037
 30
0.0
 10
14.8296414648
 20
31.1436279159
 30
0.0
 10
14.8303225063
 20
31.1419205081
 30
0.0
 10
14.8309922133
 20
31.1397743187
 30
0.0
 10
14.831675532
 20
31.1371545884
 30
0.0
 10
14.8323594726
 20
31.1340792421
 30
0.0
 10
14.8333275933
 20
31.1290928737
 30
0.0
 10
14.8344983185
 20
31.1217699113
 30
0.0
 10
14.8358145298
 20
31.1117247727
 30
0.0
 10
14.8370855494
 20
31.1000861848
 30
0.0
 10
14.8387705608
 20
31.0817178696
 30
0.0
 10
14.8405686009
 20
31.0557055624
 30
0.0
 10
14.8421734059
 20
31.0215469117
 30
0.0
 10
14.8431854101
 20
30.9844679823
 30
0.0
 10
14.8434153669
 20
30.9589174412
 30
0.0
 10
14.8434153669
 20
30.9458965712
 30
0.0
  0
SPLINE
  5
2BF
100
AcDbEntity
  8
00_COMPONENTS_1
100
AcDbSpline
 62
7
  6
BYLAYER
 70
0
 71
3
 72
22
 73
18
 74
0
 42
0.0000001
 43
0.0000001
 44
0.0000000001
 40
0.0
 40
0.0
 40
0.0
 40
0.0
 40
0.1935971485
 40
0.3798855545
 40
0.5514724797
 40
0.702000527
 40
0.7675081017
 40
0.8257025165
 40
0.8760567173
 40
0.9181207247
 40
0.9359397071
 40
0.9515662677
 40
0.9649691817
 40
0.9761381966
 40
0.9850985614
 40
0.9919185095
 40
1.0
 40
1.0
 40
1.0
 40
1.0
 10
9.6988043609
 20
30.9458965712
 30
0.0
 10
9.6988043609
 20
30.9589176166
 30
0.0
 10
9.6990344414
 20
30.9844687349
 30
0.0
 10
9.7000463806
 20
31.0215483096
 30
0.0
 10
9.7016511248
 20
31.0557072467
 30
0.0
 10
9.7034492854
 20
31.0817193052
 30
0.0
 10
9.7051342992
 20
31.1000871758
 30
0.0
 10
9.7064053502
 20
31.1117254736
 30
0.0
 10
9.707721556
 20
31.1217704676
 30
0.0
 10
9.708892246
 20
31.1290934397
 30
0.0
 10
9.7098603369
 20
31.1340798565
 30
0.0
 10
9.7105442567
 20
31.1371552233
 30
0.0
 10
9.7112275468
 20
31.1397749295
 30
0.0
 10
9.7118972375
 20
31.1419210368
 30
0.0
 10
9.712578271
 20
31.1436282882
 30
0.0
 10
9.7132900045
 20
31.144995282
 30
0.0
 10
9.7141011112
 20
31.1458965712
 30
0.0
 10
9.7146446598
 20
31.1458965712
 30
0.0
  0
SPLINE
  5
2C0
100
AcDbEntity
  8
00_COMPONENTS_1
100
AcDbSpline
 62
7
  6
BYLAYER
 70
0
 71
3
 72
13
 73
9
 74
0
 42
0.0000001
 43
0.0000001
 44
0.0000000001
 40
0.0
 40
0.0
 40
0.0
 40
0.0
 40
0.2497830971
 40
0.4995607243
 40
0.6246759776
 40
0.7497863341
 40
0.8748900091
 40
1.0
 40
1.0
 40
1.0
 40
1.0
 10
9.6988043609
 20
28.2458965712
 30
0.0
 10
9.6988043609
 20
28.2141398927
 30
0.0
 10
9.7064616959
 20
28.1503788261
 30
0.0
 10
9.7347255122
 20
28.0753113058
 30
0.0
 10
9.7674120396
 20
28.0206413409
 30
0.0
 10
9.796662355
 20
27.9827885576
 30
0.0
 10
9.8302051115
 20
27.9486995328
 30
0.0
 10
9.8551265105
 20
27.928785017
 30
0.0
 10
9.8681219626
 20
27.9196131795
 30
0.0
  0
SPLINE
  5
2C1
100
AcDbEntity
  8
00_COMPONENTS_5
100
AcDbSpline
 62
7
  6
BYLAYER
 70
0
 71
3
 72
12
 73
8
 74
0
 42
0.0000001
 43
0.0000001
 44
0.0000000001
 40
0.0
 40
0.0
 40
0.0
 40
0.0
 40
0.2455472317
 40
0.4870875788
 40
0.6091769134
 40
0.7346830494
 40
1.0
 40
1.0
 40
1.0
 40
1.0
 10
17.0310541158
 20
5.6190751375
 30
0.0
 10
17.0441158909
 20
5.6190772181
 30
0.0
 10
17.0700846393
 20
5.6208835475
 30
0.0
 10
17.1016679171
 20
5.6294345068
 30
0.0
 10
17.1250070122
 20
5.6411437663
 30
0.0
 10
17.1473440072
 20
5.6569490595
 30
0.0
 10
17.1613550059
 20
5.6728798377
 30
0.0
 10
17.1690411461
 20
5.6847167197
 30
0.0
  0
SPLINE
  5
2C2
100
AcDbEntity
  8
00_COMPONENTS_5
100
AcDbSpline
 62
7
  6
BYLAYER
 70
0
 71
3
 72
14
 73
10
 74
0
 42
0.0000001
 43
0.0000001
 44
0.0000000001
 40
0.0
 40
0.0
 40
0.0
 40
0.0
 40
0.2392025756
 40
0.4813731783
 40
0.6063617265
 40
0.7353026487
 40
0.8013417489
 40
0.868315726
 40
1.0
 40
1.0
 40
1.0
 40
1.0
 10
7.7246962101
 20
4.0829608138
 30
0.0
 10
7.6995087623
 20
4.0829665811
 30
0.0
 10
7.6486815661
 20
4.0785043343
 30
0.0
 10
7.5870283797
 20
4.0597133303
 30
0.0
 10
7.5406504654
 20
4.0353764806
 30
0.0
 10
7.5131810264
 20
4.0156442614
 30
0.0
 10
7.492675116
 20
3.9971585205
 30
0.0
 10
7.4734872346
 20
3.9769173167
 30
0.0
 10
7.4607299975
 20
3.9602168428
 30
0.0
 10
7.4531785818
 20
3.9485874405
 30
0.0
  0
SPLINE
  5
2C3
100
AcDbEntity
  8
00_COMPONENTS_5
100
AcDbSpline
 62
7
  6
BYLAYER
 70
0
 71
3
 72
9
 73
5
 74
0
 42
0.0000001
 43
0.0000001
 44
0.0000000001
 40
0.0
 40
0.0
 40
0.0
 40
0.0
 40
0.5023597188
 40
1.0
 40
1.0
 40
1.0
 40
1.0
 10
17.1690411461
 20
5.6847167197
 30
0.0
 10
17.1952663023
 20
5.7251042318
 30
0.0
 10
17.236356834
 20
5.8132676098
 30
0.0
 10
17.2511098639
 20
5.9095608652
 30
0.0
 10
17.2511098639
 20
5.9572635322
 30
0.0
  0
SPLINE
  5
2C4
100
AcDbEntity
  8
00_COMPONENTS_5
100
AcDbSpline
 62
7
  6
BYLAYER
 70
0
 71
3
 72
14
 73
10
 74
0
 42
0.0000001
 43
0.0000001
 44
0.0000000001
 40
0.0
 40
0.0
 40
0.0
 40
0.0
 40
0.1316819572
 40
0.1986451759
 40
0.2646802095
 40
0.3936281767
 40
0.518621138
 40
0.7607943754
 40
1.0
 40
1.0
 40
1.0
 40
1.0
 10
17.1690411461
 20
3.9485874405
 30
0.0
 10
17.1614898598
 20
3.9602166435
 30
0.0
 10
17.1487354774
 20
3.9769175628
 30
0.0
 10
17.129548344
 20
3.9971571129
 30
0.0
 10
17.1090428817
 20
4.0156420323
 30
0.0
 10
17.0815739806
 20
4.0353765796
 30
0.0
 10
17.0351924808
 20
4.0597100224
 30
0.0
 10
16.9735396814
 20
4.0785039336
 30
0.0
 10
16.9227116109
 20
4.0829673535
 30
0.0
 10
16.8975238307
 20
4.0829612671
 30
0.0
  0
SPLINE
  5
2C5
100
AcDbEntity
  8
00_COMPONENTS_5
100
AcDbSpline
 62
7
  6
BYLAYER
 70
0
 71
3
 72
9
 73
5
 74
0
 42
0.0000001
 43
0.0000001
 44
0.0000000001
 40
0.0
 40
0.0
 40
0.0
 40
0.0
 40
0.4976402742
 40
1.0
 40
1.0
 40
1.0
 40
1.0
 10
17.2511098639
 20
3.6760406279
 30
0.0
 10
17.2511098639
 20
3.7237432943
 30
0.0
 10
17.2363568336
 20
3.8200365495
 30
0.0
 10
17.1952663027
 20
3.9081999278
 30
0.0
 10
17.1690411461
 20
3.9485874405
 30
0.0
  0
SPLINE
  5
2C6
100
AcDbEntity
  8
00_COMPONENTS_5
100
AcDbSpline
 62
7
  6
BYLAYER
 70
0
 71
3
 72
9
 73
5
 74
0
 42
0.0000001
 43
0.0000001
 44
0.0000000001
 40
0.0
 40
0.0
 40
0.0
 40
0.0
 40
0.5023597188
 40
1.0
 40
1.0
 40
1.0
 40
1.0
 10
7.4531785818
 20
3.9485874405
 30
0.0
 10
7.4269534255
 20
3.9081999284
 30
0.0
 10
7.3858628938
 20
3.8200365504
 30
0.0
 10
7.3711098639
 20
3.723743295
 30
0.0
 10
7.3711098639
 20
3.6760406279
 30
0.0
  0
SPLINE
  5
2C7
100
AcDbEntity
  8
00_COMPONENTS_5
100
AcDbSpline
 62
7
  6
BYLAYER
 70
0
 71
3
 72
9
 73
5
 74
0
 42
0.0000001
 43
0.0000001
 44
0.0000000001
 40
0.0
 40
0.0
 40
0.0
 40
0.0
 40
0.4976402742
 40
1.0
 40
1.0
 40
1.0
 40
1.0
 10
7.3711098639
 20
5.9572635322
 30
0.0
 10
7.3711098639
 20
5.9095608659
 30
0.0
 10
7.3858628943
 20
5.8132676107
 30
0.0
 10
7.4269534252
 20
5.7251042324
 30
0.0
 10
7.4531785818
 20
5.6847167197
 30
0.0
  0
SPLINE
  5
2C8
100
AcDbEntity
  8
00_COMPONENTS_5
100
AcDbSpline
 62
7
  6
BYLAYER
 70
0
 71
3
 72
12
 73
8
 74
0
 42
0.0000001
 43
0.0000001
 44
0.0000000001
 40
0.0
 40
0.0
 40
0.0
 40
0.0
 40
0.2653107701
 40
0.390797186
 40
0.5128829466
 40
0.7544377556
 40
1.0
 40
1.0
 40
1.0
 40
1.0
 10
7.4531785818
 20
5.6847167197
 30
0.0
 10
7.4608646451
 20
5.672879956
 30
0.0
 10
7.474872571
 20
5.6569478716
 30
0.0
 10
7.4972094925
 20
5.6411442298
 30
0.0
 10
7.5205488539
 20
5.6294360886
 30
0.0
 10
7.5521332205
 20
5.6208822592
 30
0.0
 10
7.5781041254
 20
5.6190769615
 30
0.0
 10
7.5911668727
 20
5.619075039
 30
0.0
  0
SPLINE
  5
2C9
100
AcDbEntity
  8
00_COMPONENTS_5
100
AcDbSpline
 62
7
  6
BYLAYER
 70
0
 71
3
 72
19
 73
15
 74
0
 42
0.0000001
 43
0.0000001
 44
0.0000000001
 40
0.0
 40
0.0
 40
0.0
 40
0.0
 40
0.0795823623
 40
0.1584838414
 40
0.3119799649
 40
0.457569015
 40
0.5932088217
 40
0.7169978427
 40
0.7738316129
 40
0.826973999
 40
0.8762224765
 40
0.9214467837
 40
0.962647962
 40
1.0
 40
1.0
 40
1.0
 40
1.0
 10
13.7710951645
 20
3.0824782241
 30
0.0
 10
13.8010416555
 20
3.082469352
 30
0.0
 10
13.8607150697
 20
3.0795590737
 30
0.0
 10
13.9770901666
 20
3.0630933313
 30
0.0
 10
14.1149410062
 20
3.0260828299
 30
0.0
 10
14.2677910528
 20
2.9674657787
 30
0.0
 10
14.4071207538
 20
2.9056558989
 30
0.0
 10
14.5154270462
 20
2.8563283139
 30
0.0
 10
14.5963374281
 20
2.8217944763
 30
0.0
 10
14.6520858636
 20
2.7998092332
 30
0.0
 10
14.704578005
 20
2.7815773033
 30
0.0
 10
14.7537440127
 20
2.767668033
 30
0.0
 10
14.7994931567
 20
2.7586214906
 30
0.0
 10
14.8290385726
 20
2.7560639243
 30
0.0
 10
14.8430931635
 20
2.7559124317
 30
0.0
  0
SPLINE
  5
2CA
100
AcDbEntity
  8
00_COMPONENTS_5
100
AcDbSpline
 62
7
  6
BYLAYER
 70
0
 71
3
 72
19
 73
15
 74
0
 42
0.0000001
 43
0.0000001
 44
0.0000000001
 40
0.0
 40
0.0
 40
0.0
 40
0.0
 40
0.0373910767
 40
0.0786184883
 40
0.1238409754
 40
0.1730880665
 40
0.2262365372
 40
0.2830810365
 40
0.406876247
 40
0.5425050842
 40
0.6880755161
 40
0.8415473311
 40
0.9204336408
 40
1.0
 40
1.0
 40
1.0
 40
1.0
 10
9.699416946
 20
2.7559155735
 30
0.0
 10
9.7134822781
 20
2.7560813734
 30
0.0
 10
9.7430417209
 20
2.7586631605
 30
0.0
 10
9.788797419
 20
2.7677349273
 30
0.0
 10
9.8379503875
 20
2.7816716468
 30
0.0
 10
9.8904209471
 20
2.7999227636
 30
0.0
 10
9.9461545046
 20
2.8219171228
 30
0.0
 10
10.0270510944
 20
2.8564447916
 30
0.0
 10
10.1353309114
 20
2.9057587364
 30
0.0
 10
10.2746169044
 20
2.9675439532
 30
0.0
 10
10.427410381
 20
3.0261304712
 30
0.0
 10
10.5652099912
 20
3.0630990307
 30
0.0
 10
10.6815332651
 20
3.0795508929
 30
0.0
 10
10.7411784108
 20
3.082467467
 30
0.0
 10
10.7711108183
 20
3.0824782241
 30
0.0
  0
ENDSEC
  0
SECTION
  2
OBJECTS
  0
DICTIONARY
  5
C
100
AcDbDictionary
280
0
281
1
  3
ACAD_GROUP
350
D
  3
ACAD_MLINESTYLE
350
17
  3
ACAD_LAYOUT
350
1A
  3
ACAD_PLOTSETTINGS
350
19
  3
ACAD_PLOTSTYLENAME
350
E
  0
DICTIONARY
  5
D
102
{ACAD_REACTORS
330
C
102
}
100
AcDbDictionary
280
0
281
1
  0
ACDBDICTIONARYWDFLT
  5
E
102
{ACAD_REACTORS
330
C
102
}
100
AcDbDictionary
281
1
  3
Normal
350
F
100
AcDbDictionaryWithDefault
340
F
  0
DICTIONARY
  5
17
102
{ACAD_REACTORS
330
C
102
}
100
AcDbDictionary
280
0
281
1
  3
Standard
350
18
  0
DICTIONARY
  5
19
102
{ACAD_REACTORS
330
C
102
}
100
AcDbDictionary
281
1
  0
DICTIONARY
  5
1A
102
{ACAD_REACTORS
330
C
102
}
100
AcDbDictionary
281
1
  3
Model
350
2CB
  3
Layout1
350
2CC
  0
ACDBPLACEHOLDER
  5
F
102
{ACAD_REACTORS
330
E
102
}
  0
MLINESTYLE
  5
18
102
{ACAD_REACTORS
330
17
102
}
100
AcDbMlineStyle
  2
STANDARD
 70
0
  3

 62
256
 51
90.0
 52
90.0
 71
2
 49
0.5
 62
256
  6
BYLAYER
 49
-0.5
 62
256
  6
BYLAYER
  0
LAYOUT
  5
2CB
102
{ACAD_REACTORS
330
1A
102
}
100
AcDbPlotSettings
  1

  2
none_device
  4

  6

 40
0.0
 41
0.0
 42
0.0
 43
0.0
 44
210.0
 45
297.0
 46
0.0
 47
0.0
 48
0.0
 49
0.0
140
0.0
141
0.0
142
1.0
143
1.0
 70
1024
 72
1
 73
0
 74
0
  7

 75
0
147
1.0
148
0.0
149
0.0
100
AcDbLayout
  1
Model
 70
0
 71
0
 10
0.0
 20
0.0
 11
210.0
 21
297.0
 12
0.0
 22
0.0
 32
0.0
 14
0.0
 24
0.0
 34
0.0
 15
0.0
 25
0.0
 35
0.0
146
0.0
 13
0.0
 23
0.0
 33
0.0
 16
1.0
 26
0.0
 36
0.0
 17
0.0
 27
1.0
 37
0.0
 76
0
330
214
345
0
346
0
  0
LAYOUT
  5
2CC
102
{ACAD_REACTORS
330
1A
102
}
100
AcDbPlotSettings
  1

  2
none_device
  4

  6

 40
0.0
 41
0.0
 42
0.0
 43
0.0
 44
210.0
 45
297.0
 46
0.0
 47
0.0
 48
0.0
 49
0.0
140
0.0
141
0.0
142
1.0
143
1.0
 70
0
 72
1
 73
0
 74
0
  7

 75
0
147
1.0
148
0.0
149
0.0
100
AcDbLayout
  1
Layout1
 70
0
 71
1
 10
0.0
 20
0.0
 11
210.0
 21
297.0
 12
0.0
 22
0.0
 32
0.0
 14
0.0
 24
0.0
 34
0.0
 15
0.0
 25
0.0
 35
0.0
146
0.0
 13
0.0
 23
0.0
 33
0.0
 16
1.0
 26
0.0
 36
0.0
 17
0.0
 27
1.0
 37
0.0
 76
0
330
215
345
0
346
0
  0
ENDSEC
  0
EOF
