999
DXF file: C:\Gen2D\CAD\LC2D12P7_3D-CAD\drw0001_2.dxf
999
Pro/ENGINEER 2019471 by Parametric Technology Corporation
  0
SECTION
  2
HEADER
  9
$ACADVER
  1
AC1024
  9
$DWGCODEPAGE
  3
ANSI_1252
  9
$EXTMAX
 10
113.3328821989
 20
160.2850762527
 30
0.0
  9
$EXTMIN
 10
0.0
 20
0.0
 30
0.0
  9
$LIMMIN
 10
0.0
 20
0.0
  9
$LIMMAX
 10
113.3328821989
 20
160.2850762527
  9
$VIEWCTR
 10
56.6664410994
 20
80.1425381264
  9
$VIEWSIZE
 40
160.2850762527
  9
$CLAYER
  8
0
  9
$LTSCALE
 40
10.448212378
  9
$CELTYPE
  6
BYLAYER
  9
$DIMSCALE
 40
1.0
  9
$DIMASZ
 40
1.3492009786
  9
$DIMEXO
 40
1.0
  9
$DIMDLI
 40
7.2187649157
  9
$DIMEXE
 40
1.0
  9
$DIMCEN
 40
1.70970748
  9
$DIMLFAC
 40
1.0
  9
$DIMBLK
  1
_FILLED
  9
$DIMALT
 70
0
  9
$DIMALTF
 40
0.0393700787
  9
$DIMTXT
 40
1.88888137
  9
$DIMTOL
 70
1
  9
$DIMLIM
 70
0
  9
$DIMTFAC
 40
1.0
  9
$DIMTP
 40
0.01
  9
$DIMTM
 40
0.01
  9
$DIMGAP
 40
0.625
  9
$DIMDSEP
 70
46
  9
$AUNITS
 70
0
  9
$PDMODE
 70
3
  9
$PDSIZE
 40
0.3125
  9
$HANDSEED
  5
3EB
  9
$TILEMODE
 70
1
  9
$MEASUREMENT
 70
1
  9
$INSUNITS
 70
4
  0
ENDSEC
  0
SECTION
  2
CLASSES
  0
CLASS
  1
ACDBDICTIONARYWDFLT
  2
AcDbDictionaryWithDefault
  3
AutoCAD 2000
 90
0
 91
1
280
0
281
0
  0
CLASS
  1
ACDBPLACEHOLDER
  2
AcDbPlaceHolder
  3
AutoCAD 2000
 90
0
 91
1
280
0
281
0
  0
CLASS
  1
LAYOUT
  2
AcDbLayout
  3
AutoCAD 2000
 90
0
 91
0
280
0
281
0
  0
ENDSEC
  0
SECTION
  2
TABLES
  0
TABLE
  2
VPORT
  5
8
100
AcDbSymbolTable
 70
2
  0
VPORT
  5
1F4
100
AcDbSymbolTableRecord
100
AcDbViewportTableRecord
  2
*ACTIVE
 70
0
 10
0.0
 20
0.0
 11
1.0
 21
1.0
 12
56.6664410994
 22
80.1425381264
 13
0.0
 23
0.0
 14
1.0
 24
1.0
 15
0.0
 25
0.0
 16
0.0
 26
0.0
 36
1.0
 17
0.0
 27
0.0
 37
0.0
 40
160.2850762527
 41
0.7070707071
 42
50.0
 43
0.0
 44
0.0
 50
0.0
 51
0.0
 71
0
 72
100
 73
1
 74
1
 75
0
 76
0
 77
0
 78
0
  0
ENDTAB
  0
TABLE
  2
LTYPE
  5
5
100
AcDbSymbolTable
 70
6
  0
LTYPE
  5
14
100
AcDbSymbolTableRecord
100
AcDbLinetypeTableRecord
  2
BYBLOCK
 70
0
  3

 72
65
 73
0
 40
0.0
  0
LTYPE
  5
15
100
AcDbSymbolTableRecord
100
AcDbLinetypeTableRecord
  2
BYLAYER
 70
0
  3

 72
65
 73
0
 40
0.0
  0
LTYPE
  5
16
100
AcDbSymbolTableRecord
100
AcDbLinetypeTableRecord
  2
CONTINUOUS
 70
64
  3
Solid line
 72
65
 73
0
 40
0.0
  0
LTYPE
  5
1F5
100
AcDbSymbolTableRecord
100
AcDbLinetypeTableRecord
  2
CENTER
 70
64
  3
____ _ ____ _ ____ _ ____ _ ____ _ ____ _ ____
 72
65
 73
4
 40
0.6
 49
0.375
 74
0
 49
-0.075
 74
0
 49
0.075
 74
0
 49
-0.075
 74
0
  0
LTYPE
  5
1F6
100
AcDbSymbolTableRecord
100
AcDbLinetypeTableRecord
  2
HIDDEN
 70
64
  3
- - - - - - - - - - - - - - - - - - - -
 72
65
 73
2
 40
0.2
 49
0.1
 74
0
 49
-0.1
 74
0
  0
LTYPE
  5
1F7
100
AcDbSymbolTableRecord
100
AcDbLinetypeTableRecord
  2
PHANTOM
 70
64
  3
_____ _ _ _____ _ _ _____ _ _ _____
 72
65
 73
6
 40
0.8
 49
0.45
 74
0
 49
-0.05
 74
0
 49
0.1
 74
0
 49
-0.05
 74
0
 49
0.1
 74
0
 49
-0.05
 74
0
  0
LTYPE
  5
1F8
100
AcDbSymbolTableRecord
100
AcDbLinetypeTableRecord
  2
DOT
 70
64
  3
. . . . . . . . . . . . . . . . . . . .
 72
65
 73
2
 40
0.2
 49
0.1
 74
0
 49
-0.1
 74
0
  0
LTYPE
  5
1F9
100
AcDbSymbolTableRecord
100
AcDbLinetypeTableRecord
  2
DASHED
 70
64
  3
- - - - - - - - - - - - - - - - - - - -
 72
65
 73
2
 40
0.2
 49
0.1
 74
0
 49
-0.1
 74
0
  0
ENDTAB
  0
TABLE
  2
LAYER
  5
2
100
AcDbSymbolTable
 70
36
  0
LAYER
  5
10
100
AcDbSymbolTableRecord
100
AcDbLayerTableRecord
  2
0
 70
0
 62
7
  6
CONTINUOUS
370
-3
390
F
  0
LAYER
  5
1FA
100
AcDbSymbolTableRecord
100
AcDbLayerTableRecord
  2
DEFAULT_1
 70
0
 62
7
  6
CENTER
370
-3
390
F
  0
LAYER
  5
1FB
100
AcDbSymbolTableRecord
100
AcDbLayerTableRecord
  2
DEFAULT_2
 70
0
 62
8
  6
HIDDEN
370
-3
390
F
  0
LAYER
  5
1FC
100
AcDbSymbolTableRecord
100
AcDbLayerTableRecord
  2
DEFAULT_3
 70
0
 62
7
  6
PHANTOM
370
-3
390
F
  0
LAYER
  5
1FD
100
AcDbSymbolTableRecord
100
AcDbLayerTableRecord
  2
00_COMPONENTS
 70
0
 62
7
  6
CONTINUOUS
370
-3
390
F
  0
LAYER
  5
1FE
100
AcDbSymbolTableRecord
100
AcDbLayerTableRecord
  2
01_1_DEFAULT_DATUMS
 70
0
 62
7
  6
CONTINUOUS
370
-3
390
F
  0
LAYER
  5
1FF
100
AcDbSymbolTableRecord
100
AcDbLayerTableRecord
  2
01_PLANES
 70
0
 62
7
  6
CONTINUOUS
370
-3
390
F
  0
LAYER
  5
200
100
AcDbSymbolTableRecord
100
AcDbLayerTableRecord
  2
02_COORD_SYS
 70
0
 62
7
  6
CONTINUOUS
370
-3
390
F
  0
LAYER
  5
201
100
AcDbSymbolTableRecord
100
AcDbLayerTableRecord
  2
03_AXES
 70
0
 62
7
  6
CONTINUOUS
370
-3
390
F
  0
LAYER
  5
202
100
AcDbSymbolTableRecord
100
AcDbLayerTableRecord
  2
04_POINTS
 70
0
 62
7
  6
CONTINUOUS
370
-3
390
F
  0
LAYER
  5
203
100
AcDbSymbolTableRecord
100
AcDbLayerTableRecord
  2
05_CURVES
 70
0
 62
7
  6
CONTINUOUS
370
-3
390
F
  0
LAYER
  5
204
100
AcDbSymbolTableRecord
100
AcDbLayerTableRecord
  2
06_SURFS
 70
0
 62
7
  6
CONTINUOUS
370
-3
390
F
  0
LAYER
  5
205
100
AcDbSymbolTableRecord
100
AcDbLayerTableRecord
  2
07_COSMETICS
 70
0
 62
7
  6
CONTINUOUS
370
-3
390
F
  0
LAYER
  5
206
100
AcDbSymbolTableRecord
100
AcDbLayerTableRecord
  2
10_NOTES
 70
0
 62
7
  6
CONTINUOUS
370
-3
390
F
  0
LAYER
  5
207
100
AcDbSymbolTableRecord
100
AcDbLayerTableRecord
  2
11_NOTES_PUB
 70
0
 62
7
  6
CONTINUOUS
370
-3
390
F
  0
LAYER
  5
208
100
AcDbSymbolTableRecord
100
AcDbLayerTableRecord
  2
13_REF_GTOL
 70
0
 62
7
  6
CONTINUOUS
370
-3
390
F
  0
LAYER
  5
209
100
AcDbSymbolTableRecord
100
AcDbLayerTableRecord
  2
16_MISC
 70
0
 62
7
  6
CONTINUOUS
370
-3
390
F
  0
LAYER
  5
20A
100
AcDbSymbolTableRecord
100
AcDbLayerTableRecord
  2
17_NO_PRINT
 70
0
 62
7
  6
CONTINUOUS
370
-3
390
F
  0
LAYER
  5
20B
100
AcDbSymbolTableRecord
100
AcDbLayerTableRecord
  2
18_DATUM_CAMS_JOINTS
 70
0
 62
7
  6
CONTINUOUS
370
-3
390
F
  0
LAYER
  5
20C
100
AcDbSymbolTableRecord
100
AcDbLayerTableRecord
  2
19_DATUM_FUNCTIONAL
 70
0
 62
7
  6
CONTINUOUS
370
-3
390
F
  0
LAYER
  5
20D
100
AcDbSymbolTableRecord
100
AcDbLayerTableRecord
  2
20_DATUM_KINEMATIC_SCHEME
 70
0
 62
7
  6
CONTINUOUS
370
-3
390
F
  0
LAYER
  5
20E
100
AcDbSymbolTableRecord
100
AcDbLayerTableRecord
  2
INTFCLR_74
 70
0
 62
7
  6
CONTINUOUS
370
-3
390
F
  0
LAYER
  5
20F
100
AcDbSymbolTableRecord
100
AcDbLayerTableRecord
  2
INTFCLR_76
 70
0
 62
7
  6
CONTINUOUS
370
-3
390
F
  0
ENDTAB
  0
TABLE
  2
STYLE
  5
3
100
AcDbSymbolTable
 70
1
  0
STYLE
  5
11
100
AcDbSymbolTableRecord
100
AcDbTextStyleTableRecord
  2
STANDARD
 70
0
 40
0.0
 41
0.8
 50
0.0
 71
0
 42
0.2
  3
txt
  4

  0
STYLE
  5
210
100
AcDbSymbolTableRecord
100
AcDbTextStyleTableRecord
  2
TEXTSTYLE_1
 70
0
 40
0.0
 41
0.8
 50
0.0
 71
0
 42
0.2
  3
gdt
  4

  0
ENDTAB
  0
TABLE
  2
VIEW
  5
6
100
AcDbSymbolTable
 70
0
  0
ENDTAB
  0
TABLE
  2
UCS
  5
7
100
AcDbSymbolTable
 70
0
  0
ENDTAB
  0
TABLE
  2
APPID
  5
9
100
AcDbSymbolTable
 70
1
  0
APPID
  5
211
100
AcDbSymbolTableRecord
100
AcDbRegAppTableRecord
  2
ACAD
 70
0
  0
ENDTAB
  0
TABLE
  2
BLOCK_RECORD
  5
1
100
AcDbSymbolTable
 70
0
  0
BLOCK_RECORD
  5
212
100
AcDbSymbolTableRecord
100
AcDbBlockTableRecord
  2
*Model_Space
  0
BLOCK_RECORD
  5
213
100
AcDbSymbolTableRecord
100
AcDbBlockTableRecord
  2
*Paper_Space
  0
BLOCK_RECORD
  5
214
100
AcDbSymbolTableRecord
100
AcDbBlockTableRecord
  2
_FILLED
  0
ENDTAB
  0
TABLE
  2
DIMSTYLE
  5
A
100
AcDbSymbolTable
 70
1
100
AcDbDimStyleTable
 71
0
  0
DIMSTYLE
105
215
100
AcDbSymbolTableRecord
100
AcDbDimStyleTableRecord
  2
STANDARD
 70
0
  3

  4

 40
1.0
 41
1.3492009786
 42
1.0
 43
0.38
 44
1.0
 45
0.0
 46
0.0
 47
0.01
 48
0.01
140
1.88888137
141
0.09
142
0.0
143
25.4
144
1.0
145
0.0
146
1.0
147
0.625
 71
1
 72
0
 73
0
 74
0
 75
0
 76
0
 77
1
 78
8
 79
2
170
0
171
1
172
0
173
0
174
0
175
0
176
0
177
0
178
0
270
2
179
2
271
2
272
2
273
2
274
2
275
0
280
0
281
0
282
0
283
1
284
8
285
0
286
0
287
3
288
0
340
11
278
46
341
214
342
214
343
214
344
214
  0
ENDTAB
  0
ENDSEC
  0
SECTION
  2
BLOCKS
  0
BLOCK
  5
20
100
AcDbEntity
  8
0
100
AcDbBlockBegin
  2
*Model_Space
 70
0
 10
0.0
 20
0.0
 30
0.0
  3
*Model_Space
  1

  0
ENDBLK
  5
21
100
AcDbEntity
  8
0
100
AcDbBlockEnd
  0
BLOCK
  5
1C
100
AcDbEntity
  8
0
100
AcDbBlockBegin
  2
*Paper_Space
 70
0
 10
0.0
 20
0.0
 30
0.0
  3
*Paper_Space
  1

  0
ENDBLK
  5
1D
100
AcDbEntity
  8
0
100
AcDbBlockEnd
  0
BLOCK
  5
216
100
AcDbEntity
  8
0
100
AcDbBlockBegin
  2
_FILLED
 70
64
 10
0.0
 20
0.0
  3
_FILLED
  1

  0
SOLID
  5
217
100
AcDbEntity
  8
0
  6
BYBLOCK
 62
0
100
AcDbTrace
 10
0.0
 20
0.0
 11
-1.0
 21
0.25
 12
-1.0
 22
-0.25
 13
-1.0
 23
-0.25
  0
ENDBLK
  5
218
100
AcDbEntity
  8
0
  6
BYBLOCK
 62
0
100
AcDbBlockEnd
  0
ENDSEC
  0
SECTION
  2
ENTITIES
  0
LINE
  5
219
100
AcDbEntity
  8
0
100
AcDbLine
 62
7
  6
CONTINUOUS
 10
12.4261905548
 20
116.6971184958
 11
12.4261905548
 21
120.5471184958
  0
LINE
  5
21A
100
AcDbEntity
  8
0
100
AcDbLine
 62
7
  6
CONTINUOUS
 10
12.5261905548
 20
44.6971184958
 11
12.5261905548
 21
116.6686858062
  0
LINE
  5
21B
100
AcDbEntity
  8
0
100
AcDbLine
 62
7
  6
CONTINUOUS
 10
12.6761905548
 20
37.847243625
 11
12.6761905548
 21
44.6971184958
  0
LINE
  5
21C
100
AcDbEntity
  8
0
100
AcDbLine
 62
7
  6
CONTINUOUS
 10
13.6261905548
 20
120.5471184958
 11
13.6261905548
 21
118.4002746061
  0
LINE
  5
21D
100
AcDbEntity
  8
0
100
AcDbLine
 62
7
  6
CONTINUOUS
 10
14.2761905548
 20
37.8472426833
 11
14.2761905548
 21
40.9471184958
  0
LINE
  5
21E
100
AcDbEntity
  8
0
100
AcDbLine
 62
7
  6
CONTINUOUS
 10
14.5261907767
 20
51.397118543
 11
14.5261907767
 21
48.611241619
  0
LINE
  5
21F
100
AcDbEntity
  8
0
100
AcDbLine
 62
7
  6
CONTINUOUS
 10
14.5261907767
 20
54.3971184958
 11
14.5261907767
 21
55.8971184958
  0
LINE
  5
220
100
AcDbEntity
  8
0
100
AcDbLine
 62
7
  6
CONTINUOUS
 10
14.5261907767
 20
57.0971184958
 11
14.5261907767
 21
61.5471184958
  0
LINE
  5
221
100
AcDbEntity
  8
0
100
AcDbLine
 62
7
  6
CONTINUOUS
 10
14.5261907767
 20
103.4471184185
 11
14.5261907767
 21
105.4971185573
  0
LINE
  5
222
100
AcDbEntity
  8
0
100
AcDbLine
 62
7
  6
CONTINUOUS
 10
14.5261907767
 20
108.4971185573
 11
14.5261907767
 21
115.7471185573
  0
LINE
  5
223
100
AcDbEntity
  8
0
100
AcDbLine
 62
7
  6
CONTINUOUS
 10
15.1770424219
 20
110.7447157936
 11
15.1770424219
 21
115.7477754663
  0
LINE
  5
224
100
AcDbEntity
  8
0
100
AcDbLine
 62
7
  6
CONTINUOUS
 10
15.6261905548
 20
70.9471184958
 11
15.6261905548
 21
73.9471184958
  0
LINE
  5
225
100
AcDbEntity
  8
0
100
AcDbLine
 62
7
  6
CONTINUOUS
 10
15.6261905548
 20
77.5471184958
 11
15.6261905548
 21
84.5471184958
  0
LINE
  5
226
100
AcDbEntity
  8
0
100
AcDbLine
 62
7
  6
CONTINUOUS
 10
15.6261905548
 20
88.2471184958
 11
15.6261905548
 21
91.2471184958
  0
LINE
  5
227
100
AcDbEntity
  8
0
100
AcDbLine
 62
7
  6
CONTINUOUS
 10
16.0761910087
 20
100.4471184729
 11
16.0761910087
 21
96.5471184958
  0
LINE
  5
228
100
AcDbEntity
  8
0
100
AcDbLine
 62
7
  6
CONTINUOUS
 10
59.2761905548
 20
37.8471184958
 11
57.6761905548
 21
37.8471184958
  0
LINE
  5
229
100
AcDbEntity
  8
0
100
AcDbLine
 62
7
  6
CONTINUOUS
 10
14.2761905548
 20
37.8471184958
 11
12.6761905548
 21
37.8471184958
  0
LINE
  5
22A
100
AcDbEntity
  8
0
100
AcDbLine
 62
7
  6
CONTINUOUS
 10
12.6761905548
 20
37.9016371737
 11
14.2761905548
 21
37.9016371737
  0
LINE
  5
22B
100
AcDbEntity
  8
0
100
AcDbLine
 62
7
  6
CONTINUOUS
 10
57.6761905548
 20
37.9016371737
 11
59.2761905548
 21
37.9016371737
  0
LINE
  5
22C
100
AcDbEntity
  8
0
100
AcDbLine
 62
7
  6
CONTINUOUS
 10
17.3261909554
 20
61.5471184958
 11
17.3261909554
 21
57.0971184958
  0
LINE
  5
22D
100
AcDbEntity
  8
0
100
AcDbLine
 62
7
  6
CONTINUOUS
 10
18.0761910087
 20
98.5471184529
 11
18.0761910087
 21
102.4471184185
  0
LINE
  5
22E
100
AcDbEntity
  8
0
100
AcDbLine
 62
7
  6
CONTINUOUS
 10
18.5261907767
 20
56.8971184958
 11
18.5261907767
 21
64.2471184958
  0
LINE
  5
22F
100
AcDbEntity
  8
0
100
AcDbLine
 62
7
  6
CONTINUOUS
 10
18.9261905548
 20
84.5471184958
 11
18.9261905548
 21
77.5471184958
  0
LINE
  5
230
100
AcDbEntity
  8
0
100
AcDbLine
 62
7
  6
CONTINUOUS
 10
19.4261910087
 20
105.4971185573
 11
19.4261910087
 21
98.5471184529
  0
LINE
  5
231
100
AcDbEntity
  8
0
100
AcDbLine
 62
7
  6
CONTINUOUS
 10
19.6753386876
 20
115.7506220724
 11
19.6753386876
 21
110.7447157936
  0
LINE
  5
232
100
AcDbEntity
  8
0
100
AcDbLine
 62
7
  6
CONTINUOUS
 10
20.2261905548
 20
54.3971184958
 11
20.2261905548
 21
63.2471184958
  0
LINE
  5
233
100
AcDbEntity
  8
0
100
AcDbLine
 62
7
  6
CONTINUOUS
 10
12.6761905548
 20
40.9471184958
 11
102.4761905548
 21
40.9471184958
  0
LINE
  5
234
100
AcDbEntity
  8
0
100
AcDbLine
 62
7
  6
CONTINUOUS
 10
52.0579688665
 20
42.2471184958
 11
52.597372737
 21
42.2471184958
  0
LINE
  5
235
100
AcDbEntity
  8
0
100
AcDbLine
 62
7
  6
CONTINUOUS
 10
96.8579688665
 20
42.2471184958
 11
97.397372737
 21
42.2471184958
  0
LINE
  5
236
100
AcDbEntity
  8
0
100
AcDbLine
 62
7
  6
CONTINUOUS
 10
21.4261905548
 20
62.0471184958
 11
21.4261905548
 21
54.3971184958
  0
LINE
  5
237
100
AcDbEntity
  8
0
100
AcDbLine
 62
7
  6
CONTINUOUS
 10
21.4261906761
 20
104.9471184786
 11
21.4261906761
 21
113.7971184786
  0
LINE
  5
238
100
AcDbEntity
  8
0
100
AcDbLine
 62
7
  6
CONTINUOUS
 10
21.7261905548
 20
91.2471184958
 11
21.7261905548
 21
89.0471184958
  0
LINE
  5
239
100
AcDbEntity
  8
0
100
AcDbLine
 62
7
  6
CONTINUOUS
 10
21.7261905548
 20
72.4471184958
 11
21.7261905548
 21
70.9471184958
  0
LINE
  5
23A
100
AcDbEntity
  8
0
100
AcDbLine
 62
7
  6
CONTINUOUS
 10
21.9261905548
 20
121.8471184958
 11
21.9261905548
 21
116.8016602801
  0
LINE
  5
23B
100
AcDbEntity
  8
0
100
AcDbLine
 62
7
  6
CONTINUOUS
 10
22.6912553975
 20
104.9471184786
 11
22.6912553975
 21
114.0073454715
  0
LINE
  5
23C
100
AcDbEntity
  8
0
100
AcDbLine
 62
7
  6
CONTINUOUS
 10
22.7261906761
 20
113.7971184786
 11
22.7261906761
 21
107.4471184786
  0
LINE
  5
23D
100
AcDbEntity
  8
0
100
AcDbLine
 62
7
  6
CONTINUOUS
 10
22.9261905548
 20
121.8471184958
 11
22.9261905548
 21
116.8398845748
  0
LINE
  5
23E
100
AcDbEntity
  8
0
100
AcDbLine
 62
7
  6
CONTINUOUS
 10
23.1261909122
 20
52.397118543
 11
23.1261909122
 21
46.0379170137
  0
LINE
  5
23F
100
AcDbEntity
  8
0
100
AcDbLine
 62
7
  6
CONTINUOUS
 10
23.4261906761
 20
97.4471184786
 11
23.4261906761
 21
104.9471184786
  0
LINE
  5
240
100
AcDbEntity
  8
0
100
AcDbLine
 62
7
  6
CONTINUOUS
 10
23.9261905548
 20
89.0471184958
 11
23.9261905548
 21
88.2471184958
  0
LINE
  5
241
100
AcDbEntity
  8
0
100
AcDbLine
 62
7
  6
CONTINUOUS
 10
23.9261905548
 20
73.9471184958
 11
23.9261905548
 21
72.4471184958
  0
LINE
  5
242
100
AcDbEntity
  8
0
100
AcDbLine
 62
7
  6
CONTINUOUS
 10
24.9261905548
 20
121.8471184958
 11
24.9261905548
 21
117.1188995471
  0
LINE
  5
243
100
AcDbEntity
  8
0
100
AcDbLine
 62
7
  6
CONTINUOUS
 10
25.1261909122
 20
45.760453008
 11
25.1261909122
 21
52.397118543
  0
LINE
  5
244
100
AcDbEntity
  8
0
100
AcDbLine
 62
7
  6
CONTINUOUS
 10
12.5261905548
 20
44.6971184958
 11
25.4331636691
 21
44.6971184958
  0
LINE
  5
245
100
AcDbEntity
  8
0
100
AcDbLine
 62
7
  6
CONTINUOUS
 10
47.4484816577
 20
44.6971184958
 11
47.6987381069
 21
44.6971184958
  0
LINE
  5
246
100
AcDbEntity
  8
0
100
AcDbLine
 62
7
  6
CONTINUOUS
 10
50.5377134444
 20
44.6971184958
 11
54.3147027395
 21
44.6971184958
  0
LINE
  5
247
100
AcDbEntity
  8
0
100
AcDbLine
 62
7
  6
CONTINUOUS
 10
57.3261905548
 20
44.6971184958
 11
70.2331636691
 21
44.6971184958
  0
LINE
  5
248
100
AcDbEntity
  8
0
100
AcDbLine
 62
7
  6
CONTINUOUS
 10
92.2484816577
 20
44.6971184958
 11
92.4987381069
 21
44.6971184958
  0
LINE
  5
249
100
AcDbEntity
  8
0
100
AcDbLine
 62
7
  6
CONTINUOUS
 10
95.3377134444
 20
44.6971184958
 11
99.1147027395
 21
44.6971184958
  0
LINE
  5
24A
100
AcDbEntity
  8
0
100
AcDbLine
 62
7
  6
CONTINUOUS
 10
102.1261905548
 20
44.6971184958
 11
102.4761905548
 21
44.6971184958
  0
LINE
  5
24B
100
AcDbEntity
  8
0
100
AcDbLine
 62
7
  6
CONTINUOUS
 10
100.1261907767
 20
45.7471184958
 11
99.4752223765
 21
45.7471184958
  0
LINE
  5
24C
100
AcDbEntity
  8
0
100
AcDbLine
 62
7
  6
CONTINUOUS
 10
55.3261907767
 20
45.7471184958
 11
54.6752223765
 21
45.7471184958
  0
LINE
  5
24D
100
AcDbEntity
  8
0
100
AcDbLine
 62
7
  6
CONTINUOUS
 10
25.4261906761
 20
104.9471184786
 11
25.4261906761
 21
97.4471184786
  0
LINE
  5
24E
100
AcDbEntity
  8
0
100
AcDbLine
 62
7
  6
CONTINUOUS
 10
25.9261905548
 20
121.8471184958
 11
25.9261905548
 21
117.2379455072
  0
LINE
  5
24F
100
AcDbEntity
  8
0
100
AcDbLine
 62
7
  6
CONTINUOUS
 10
26.1261906761
 20
107.4471184786
 11
26.1261906761
 21
113.7971184786
  0
LINE
  5
250
100
AcDbEntity
  8
0
100
AcDbLine
 62
7
  6
CONTINUOUS
 10
26.1611257121
 20
114.0073447614
 11
26.1611257121
 21
104.9471184786
  0
LINE
  5
251
100
AcDbEntity
  8
0
100
AcDbLine
 62
7
  6
CONTINUOUS
 10
27.4261906761
 20
113.7971184786
 11
27.4261906761
 21
104.9471184786
  0
LINE
  5
252
100
AcDbEntity
  8
0
100
AcDbLine
 62
7
  6
CONTINUOUS
 10
28.4261906761
 20
96.5471184958
 11
28.4261906761
 21
100.4471184729
  0
LINE
  5
253
100
AcDbEntity
  8
0
100
AcDbLine
 62
7
  6
CONTINUOUS
 10
30.9261905548
 20
49.9471184958
 11
38.9261905548
 21
49.9471184958
  0
LINE
  5
254
100
AcDbEntity
  8
0
100
AcDbLine
 62
7
  6
CONTINUOUS
 10
75.7261905548
 20
49.9471184958
 11
83.7261905548
 21
49.9471184958
  0
LINE
  5
255
100
AcDbEntity
  8
INTFCLR_74
100
AcDbLine
 62
7
420
48875
  6
CONTINUOUS
 10
102.3261905548
 20
50.2471184958
 11
102.1264085877
 21
50.2471184958
  0
LINE
  5
256
100
AcDbEntity
  8
0
100
AcDbLine
 62
7
  6
CONTINUOUS
 10
102.1261905548
 20
50.2471184958
 11
102.3261905548
 21
50.2471184958
  0
LINE
  5
257
100
AcDbEntity
  8
0
100
AcDbLine
 62
7
  6
CONTINUOUS
 10
29.4261906761
 20
103.4471184185
 11
29.4261906761
 21
115.0471185573
  0
LINE
  5
258
100
AcDbEntity
  8
0
100
AcDbLine
 62
7
  6
CONTINUOUS
 10
30.9261905548
 20
48.923041116
 11
30.9261905548
 21
49.9471184958
  0
LINE
  5
259
100
AcDbEntity
  8
0
100
AcDbLine
 62
7
  6
CONTINUOUS
 10
15.5261907767
 20
52.397118543
 11
23.1261909122
 21
52.397118543
  0
LINE
  5
25A
100
AcDbEntity
  8
0
100
AcDbLine
 62
7
  6
CONTINUOUS
 10
25.1261909122
 20
52.397118543
 11
40.1261909122
 21
52.397118543
  0
LINE
  5
25B
100
AcDbEntity
  8
0
100
AcDbLine
 62
7
  6
CONTINUOUS
 10
42.1261909108
 20
52.397118543
 11
47.176190966
 21
52.397118543
  0
LINE
  5
25C
100
AcDbEntity
  8
0
100
AcDbLine
 62
7
  6
CONTINUOUS
 10
60.3261907767
 20
52.397118543
 11
67.9261909122
 21
52.397118543
  0
LINE
  5
25D
100
AcDbEntity
  8
0
100
AcDbLine
 62
7
  6
CONTINUOUS
 10
69.9261909122
 20
52.397118543
 11
84.9261909122
 21
52.397118543
  0
LINE
  5
25E
100
AcDbEntity
  8
0
100
AcDbLine
 62
7
  6
CONTINUOUS
 10
86.9261909108
 20
52.397118543
 11
91.976190966
 21
52.397118543
  0
LINE
  5
25F
100
AcDbEntity
  8
0
100
AcDbLine
 62
7
  6
CONTINUOUS
 10
52.4261148659
 20
52.9971184958
 11
55.3261907767
 21
52.9971184958
  0
LINE
  5
260
100
AcDbEntity
  8
0
100
AcDbLine
 62
7
  6
CONTINUOUS
 10
97.2261148659
 20
52.9971184958
 11
100.1261907767
 21
52.9971184958
  0
LINE
  5
261
100
AcDbEntity
  8
0
100
AcDbLine
 62
7
  6
CONTINUOUS
 10
102.3261905548
 20
53.8471184958
 11
102.1261905548
 21
53.8471184958
  0
LINE
  5
262
100
AcDbEntity
  8
0
100
AcDbLine
 62
7
  6
CONTINUOUS
 10
12.5261905548
 20
54.3971184958
 11
102.1261905548
 21
54.3971184958
  0
LINE
  5
263
100
AcDbEntity
  8
0
100
AcDbLine
 62
7
  6
CONTINUOUS
 10
59.3261907767
 20
54.7971184958
 11
55.3261907767
 21
54.7971184958
  0
LINE
  5
264
100
AcDbEntity
  8
0
100
AcDbLine
 62
7
  6
CONTINUOUS
 10
12.5261905548
 20
54.7971184958
 11
14.5261907767
 21
54.7971184958
  0
LINE
  5
265
100
AcDbEntity
  8
0
100
AcDbLine
 62
7
  6
CONTINUOUS
 10
100.1261907767
 20
54.7971184958
 11
102.1261905548
 21
54.7971184958
  0
LINE
  5
266
100
AcDbEntity
  8
0
100
AcDbLine
 62
7
  6
CONTINUOUS
 10
12.5261905548
 20
55.2971184958
 11
14.5261907767
 21
55.2971184958
  0
LINE
  5
267
100
AcDbEntity
  8
0
100
AcDbLine
 62
7
  6
CONTINUOUS
 10
55.3261907767
 20
55.2971184958
 11
59.3261907767
 21
55.2971184958
  0
LINE
  5
268
100
AcDbEntity
  8
0
100
AcDbLine
 62
7
  6
CONTINUOUS
 10
100.1261907767
 20
55.2971184958
 11
102.1261905548
 21
55.2971184958
  0
LINE
  5
269
100
AcDbEntity
  8
0
100
AcDbLine
 62
7
  6
CONTINUOUS
 10
102.1261905548
 20
55.3971184958
 11
100.1261907767
 21
55.3971184958
  0
LINE
  5
26A
100
AcDbEntity
  8
0
100
AcDbLine
 62
7
  6
CONTINUOUS
 10
59.3261907767
 20
55.3971184958
 11
55.3261907767
 21
55.3971184958
  0
LINE
  5
26B
100
AcDbEntity
  8
0
100
AcDbLine
 62
7
  6
CONTINUOUS
 10
14.5261907767
 20
55.3971184958
 11
12.5261905548
 21
55.3971184958
  0
LINE
  5
26C
100
AcDbEntity
  8
0
100
AcDbLine
 62
7
  6
CONTINUOUS
 10
48.9513576704
 20
43.4134480799
 11
48.4708610823
 21
44.2457728935
  0
LINE
  5
26D
100
AcDbEntity
  8
0
100
AcDbLine
 62
7
  6
CONTINUOUS
 10
35.9261905548
 20
120.5471184958
 11
35.9261905548
 21
121.8471184958
  0
LINE
  5
26E
100
AcDbEntity
  8
0
100
AcDbLine
 62
7
  6
CONTINUOUS
 10
36.4261905548
 20
121.8471184958
 11
36.4261905548
 21
120.5471184958
  0
LINE
  5
26F
100
AcDbEntity
  8
0
100
AcDbLine
 62
7
  6
CONTINUOUS
 10
62.3261907767
 20
55.8971184958
 11
52.3261907767
 21
55.8971184958
  0
LINE
  5
270
100
AcDbEntity
  8
0
100
AcDbLine
 62
7
  6
CONTINUOUS
 10
12.5261905548
 20
55.8971184958
 11
17.5261907767
 21
55.8971184958
  0
LINE
  5
271
100
AcDbEntity
  8
0
100
AcDbLine
 62
7
  6
CONTINUOUS
 10
97.1261907767
 20
55.8971184958
 11
102.1261905548
 21
55.8971184958
  0
LINE
  5
272
100
AcDbEntity
  8
0
100
AcDbLine
 62
7
  6
CONTINUOUS
 10
100.1261907767
 20
57.0971184958
 11
97.326190598
 21
57.0971184958
  0
LINE
  5
273
100
AcDbEntity
  8
0
100
AcDbLine
 62
7
  6
CONTINUOUS
 10
62.1261909554
 20
57.0971184958
 11
59.3261907767
 21
57.0971184958
  0
LINE
  5
274
100
AcDbEntity
  8
0
100
AcDbLine
 62
7
  6
CONTINUOUS
 10
55.3261907767
 20
57.0971184958
 11
52.526190598
 21
57.0971184958
  0
LINE
  5
275
100
AcDbEntity
  8
0
100
AcDbLine
 62
7
  6
CONTINUOUS
 10
17.3261909554
 20
57.0971184958
 11
14.5261907767
 21
57.0971184958
  0
LINE
  5
276
100
AcDbEntity
  8
0
100
AcDbLine
 62
7
  6
CONTINUOUS
 10
38.5761905548
 20
121.8471184958
 11
38.5761905548
 21
117.5779860557
  0
LINE
  5
277
100
AcDbEntity
  8
0
100
AcDbLine
 62
7
  6
CONTINUOUS
 10
38.9261905548
 20
49.9471184958
 11
38.9261905548
 21
48.923041116
  0
LINE
  5
278
100
AcDbEntity
  8
0
100
AcDbLine
 62
7
  6
CONTINUOUS
 10
39.5761905548
 20
121.8471184958
 11
39.5761905548
 21
117.5650842169
  0
LINE
  5
279
100
AcDbEntity
  8
0
100
AcDbLine
 62
7
  6
CONTINUOUS
 10
40.1261909122
 20
52.397118543
 11
40.1261909122
 21
45.3193173914
  0
LINE
  5
27A
100
AcDbEntity
  8
0
100
AcDbLine
 62
7
  6
CONTINUOUS
 10
40.4261908335
 20
115.0471185573
 11
40.4261908335
 21
103.4471184185
  0
LINE
  5
27B
100
AcDbEntity
  8
0
100
AcDbLine
 62
7
  6
CONTINUOUS
 10
41.4261906761
 20
100.4471184729
 11
41.4261906761
 21
96.5471184958
  0
LINE
  5
27C
100
AcDbEntity
  8
0
100
AcDbLine
 62
7
  6
CONTINUOUS
 10
41.5761905548
 20
121.8471184958
 11
41.5761905548
 21
117.41545654
  0
LINE
  5
27D
100
AcDbEntity
  8
0
100
AcDbLine
 62
7
  6
CONTINUOUS
 10
14.5261907767
 20
61.5471184958
 11
17.3261909554
 21
61.5471184958
  0
LINE
  5
27E
100
AcDbEntity
  8
0
100
AcDbLine
 62
7
  6
CONTINUOUS
 10
52.526190598
 20
61.5471184958
 11
55.3261907767
 21
61.5471184958
  0
LINE
  5
27F
100
AcDbEntity
  8
0
100
AcDbLine
 62
7
  6
CONTINUOUS
 10
59.3261907767
 20
61.5471184958
 11
62.1261909554
 21
61.5471184958
  0
LINE
  5
280
100
AcDbEntity
  8
0
100
AcDbLine
 62
7
  6
CONTINUOUS
 10
97.326190598
 20
61.5471184958
 11
100.1261907767
 21
61.5471184958
  0
LINE
  5
281
100
AcDbEntity
  8
0
100
AcDbLine
 62
7
  6
CONTINUOUS
 10
63.3261907767
 20
61.796392112
 11
51.3261907767
 21
61.796392112
  0
LINE
  5
282
100
AcDbEntity
  8
0
100
AcDbLine
 62
7
  6
CONTINUOUS
 10
12.5261905548
 20
61.796392112
 11
18.5261907767
 21
61.796392112
  0
LINE
  5
283
100
AcDbEntity
  8
0
100
AcDbLine
 62
7
  6
CONTINUOUS
 10
96.1261907767
 20
61.796392112
 11
102.1261905548
 21
61.796392112
  0
LINE
  5
284
100
AcDbEntity
  8
0
100
AcDbLine
 62
7
  6
CONTINUOUS
 10
93.2261905548
 20
62.0471184958
 11
66.2261905548
 21
62.0471184958
  0
LINE
  5
285
100
AcDbEntity
  8
0
100
AcDbLine
 62
7
  6
CONTINUOUS
 10
48.4261905548
 20
62.0471184958
 11
21.4261905548
 21
62.0471184958
  0
LINE
  5
286
100
AcDbEntity
  8
0
100
AcDbLine
 62
7
  6
CONTINUOUS
 10
20.2261905548
 20
63.2471184958
 11
49.6261905548
 21
63.2471184958
  0
LINE
  5
287
100
AcDbEntity
  8
0
100
AcDbLine
 62
7
  6
CONTINUOUS
 10
65.0261905548
 20
63.2471184958
 11
94.4261905548
 21
63.2471184958
  0
LINE
  5
288
100
AcDbEntity
  8
0
100
AcDbLine
 62
7
  6
CONTINUOUS
 10
42.1261909108
 20
45.4775842882
 11
42.1261909108
 21
52.397118543
  0
LINE
  5
289
100
AcDbEntity
  8
0
100
AcDbLine
 62
7
  6
CONTINUOUS
 10
42.4261905448
 20
104.9471184786
 11
42.4261905448
 21
113.7971184786
  0
LINE
  5
28A
100
AcDbEntity
  8
0
100
AcDbLine
 62
7
  6
CONTINUOUS
 10
42.5761905548
 20
121.8471184958
 11
42.5761905548
 21
117.288483844
  0
LINE
  5
28B
100
AcDbEntity
  8
0
100
AcDbLine
 62
7
  6
CONTINUOUS
 10
43.6912553975
 20
104.9471184786
 11
43.6912553975
 21
114.0073450871
  0
LINE
  5
28C
100
AcDbEntity
  8
0
100
AcDbLine
 62
7
  6
CONTINUOUS
 10
43.7261905448
 20
113.7971184786
 11
43.7261905448
 21
107.4471184786
  0
LINE
  5
28D
100
AcDbEntity
  8
0
100
AcDbLine
 62
7
  6
CONTINUOUS
 10
44.4261905448
 20
97.4471184786
 11
44.4261905448
 21
104.9471184786
  0
LINE
  5
28E
100
AcDbEntity
  8
0
100
AcDbLine
 62
7
  6
CONTINUOUS
 10
63.3261907767
 20
64.2471184958
 11
51.3261907767
 21
64.2471184958
  0
LINE
  5
28F
100
AcDbEntity
  8
0
100
AcDbLine
 62
7
  6
CONTINUOUS
 10
12.5261905548
 20
64.2471184958
 11
18.5261907767
 21
64.2471184958
  0
LINE
  5
290
100
AcDbEntity
  8
0
100
AcDbLine
 62
7
  6
CONTINUOUS
 10
96.1261907767
 20
64.2471184958
 11
102.1261905548
 21
64.2471184958
  0
LINE
  5
291
100
AcDbEntity
  8
0
100
AcDbLine
 62
7
  6
CONTINUOUS
 10
21.3819178217
 20
117.2484643109
 11
20.9014212336
 21
118.0807891245
  0
LINE
  5
292
100
AcDbEntity
  8
0
100
AcDbLine
 62
7
  6
CONTINUOUS
 10
45.9261905548
 20
72.4471184958
 11
45.9261905548
 21
74.0471184958
  0
LINE
  5
293
100
AcDbEntity
  8
0
100
AcDbLine
 62
7
  6
CONTINUOUS
 10
45.9261905548
 20
88.2471184958
 11
45.9261905548
 21
89.0471184958
  0
LINE
  5
294
100
AcDbEntity
  8
0
100
AcDbLine
 62
7
  6
CONTINUOUS
 10
46.4261905448
 20
104.9471184786
 11
46.4261905448
 21
97.4471184786
  0
LINE
  5
295
100
AcDbEntity
  8
0
100
AcDbLine
 62
7
  6
CONTINUOUS
 10
47.1261905448
 20
107.4471184786
 11
47.1261905448
 21
113.7971184786
  0
LINE
  5
296
100
AcDbEntity
  8
0
100
AcDbLine
 62
7
  6
CONTINUOUS
 10
47.1611257121
 20
114.0073451458
 11
47.1611257121
 21
104.9471184786
  0
LINE
  5
297
100
AcDbEntity
  8
0
100
AcDbLine
 62
7
  6
CONTINUOUS
 10
48.1261905548
 20
70.9471184958
 11
48.1261905548
 21
72.4471184958
  0
LINE
  5
298
100
AcDbEntity
  8
0
100
AcDbLine
 62
7
  6
CONTINUOUS
 10
48.1261905548
 20
89.0471184958
 11
48.1261905548
 21
91.2471184958
  0
LINE
  5
299
100
AcDbEntity
  8
0
100
AcDbLine
 62
7
  6
CONTINUOUS
 10
48.176190966
 20
47.1201161966
 11
48.176190966
 21
51.397118543
  0
LINE
  5
29A
100
AcDbEntity
  8
0
100
AcDbLine
 62
7
  6
CONTINUOUS
 10
48.4261905448
 20
113.7971184786
 11
48.4261905448
 21
104.9471184786
  0
LINE
  5
29B
100
AcDbEntity
  8
0
100
AcDbLine
 62
7
  6
CONTINUOUS
 10
48.4261905548
 20
54.3971184958
 11
48.4261905548
 21
62.0471184958
  0
LINE
  5
29C
100
AcDbEntity
  8
0
100
AcDbLine
 62
7
  6
CONTINUOUS
 10
49.6261905548
 20
63.2471184958
 11
49.6261905548
 21
54.3971184958
  0
LINE
  5
29D
100
AcDbEntity
  8
0
100
AcDbLine
 62
7
  6
CONTINUOUS
 10
100.6261905548
 20
70.9471184958
 11
92.9261905548
 21
70.9471184958
  0
LINE
  5
29E
100
AcDbEntity
  8
0
100
AcDbLine
 62
7
  6
CONTINUOUS
 10
66.5261905548
 20
70.9471184958
 11
60.4261905548
 21
70.9471184958
  0
LINE
  5
29F
100
AcDbEntity
  8
0
100
AcDbLine
 62
7
  6
CONTINUOUS
 10
55.8261905548
 20
70.9471184958
 11
48.1261905548
 21
70.9471184958
  0
LINE
  5
2A0
100
AcDbEntity
  8
0
100
AcDbLine
 62
7
  6
CONTINUOUS
 10
21.7261905548
 20
70.9471184958
 11
15.6261905548
 21
70.9471184958
  0
LINE
  5
2A1
100
AcDbEntity
  8
0
100
AcDbLine
 62
7
  6
CONTINUOUS
 10
50.1769288396
 20
50.7565283513
 11
50.1769288396
 21
45.7506220724
  0
LINE
  5
2A2
100
AcDbEntity
  8
0
100
AcDbLine
 62
7
  6
CONTINUOUS
 10
50.4261905448
 20
98.5471184529
 11
50.4261905448
 21
113.5726393731
  0
LINE
  5
2A3
100
AcDbEntity
  8
0
100
AcDbLine
 62
7
  6
CONTINUOUS
 10
50.9261905548
 20
77.5471184958
 11
50.9261905548
 21
84.5471184958
  0
LINE
  5
2A4
100
AcDbEntity
  8
0
100
AcDbLine
 62
7
  6
CONTINUOUS
 10
51.3261907767
 20
56.8971184958
 11
51.3261907767
 21
64.2471184958
  0
LINE
  5
2A5
100
AcDbEntity
  8
0
100
AcDbLine
 62
7
  6
CONTINUOUS
 10
51.7761905448
 20
102.4471184185
 11
51.7761905448
 21
98.5471184529
  0
LINE
  5
2A6
100
AcDbEntity
  8
0
100
AcDbLine
 62
7
  6
CONTINUOUS
 10
52.3261905548
 20
115.8251432782
 11
52.3261905548
 21
116.6971184958
  0
LINE
  5
2A7
100
AcDbEntity
  8
0
100
AcDbLine
 62
7
  6
CONTINUOUS
 10
52.526190598
 20
57.0971184958
 11
52.526190598
 21
61.5471184958
  0
LINE
  5
2A8
100
AcDbEntity
  8
0
100
AcDbLine
 62
7
  6
CONTINUOUS
 10
53.1761905548
 20
75.3471184958
 11
53.1761905548
 21
77.5471184958
  0
LINE
  5
2A9
100
AcDbEntity
  8
0
100
AcDbLine
 62
7
  6
CONTINUOUS
 10
53.1761905548
 20
84.5471184958
 11
53.1761905548
 21
86.7471184958
  0
LINE
  5
2AA
100
AcDbEntity
  8
0
100
AcDbLine
 62
7
  6
CONTINUOUS
 10
53.7761905548
 20
96.5471184958
 11
53.7761905548
 21
100.4471184729
  0
LINE
  5
2AB
100
AcDbEntity
  8
0
100
AcDbLine
 62
7
  6
CONTINUOUS
 10
92.9261905548
 20
72.4471184958
 11
90.7261905548
 21
72.4471184958
  0
LINE
  5
2AC
100
AcDbEntity
  8
0
100
AcDbLine
 62
7
  6
CONTINUOUS
 10
68.7261905548
 20
72.4471184958
 11
66.5261905548
 21
72.4471184958
  0
LINE
  5
2AD
100
AcDbEntity
  8
0
100
AcDbLine
 62
7
  6
CONTINUOUS
 10
48.1261905548
 20
72.4471184958
 11
45.9261905548
 21
72.4471184958
  0
LINE
  5
2AE
100
AcDbEntity
  8
0
100
AcDbLine
 62
7
  6
CONTINUOUS
 10
23.9261905548
 20
72.4471184958
 11
21.7261905548
 21
72.4471184958
  0
LINE
  5
2AF
100
AcDbEntity
  8
0
100
AcDbLine
 62
7
  6
CONTINUOUS
 10
15.6261905548
 20
73.9471184958
 11
23.9261905548
 21
73.9471184958
  0
LINE
  5
2B0
100
AcDbEntity
  8
0
100
AcDbLine
 62
7
  6
CONTINUOUS
 10
60.4261905548
 20
73.9471184958
 11
68.7261905548
 21
73.9471184958
  0
LINE
  5
2B1
100
AcDbEntity
  8
0
100
AcDbLine
 62
7
  6
CONTINUOUS
 10
45.9261905548
 20
74.0471184958
 11
55.8261905548
 21
74.0471184958
  0
LINE
  5
2B2
100
AcDbEntity
  8
0
100
AcDbLine
 62
7
  6
CONTINUOUS
 10
90.7261905548
 20
74.0471184958
 11
100.6261905548
 21
74.0471184958
  0
LINE
  5
2B3
100
AcDbEntity
  8
0
100
AcDbLine
 62
7
  6
CONTINUOUS
 10
100.6261905548
 20
75.3471184958
 11
97.9761905548
 21
75.3471184958
  0
LINE
  5
2B4
100
AcDbEntity
  8
0
100
AcDbLine
 62
7
  6
CONTINUOUS
 10
55.8261905548
 20
75.3471184958
 11
53.1761905548
 21
75.3471184958
  0
LINE
  5
2B5
100
AcDbEntity
  8
0
100
AcDbLine
 62
7
  6
CONTINUOUS
 10
54.6752251054
 20
50.7565283512
 11
54.6752251054
 21
45.7477754171
  0
LINE
  5
2B6
100
AcDbEntity
  8
0
100
AcDbLine
 62
7
  6
CONTINUOUS
 10
55.3261907767
 20
112.8830027374
 11
55.3261907767
 21
103.4471184185
  0
LINE
  5
2B7
100
AcDbEntity
  8
0
100
AcDbLine
 62
7
  6
CONTINUOUS
 10
55.3261907767
 20
61.5471184958
 11
55.3261907767
 21
57.0971184958
  0
LINE
  5
2B8
100
AcDbEntity
  8
0
100
AcDbLine
 62
7
  6
CONTINUOUS
 10
55.3261907767
 20
52.9971184958
 11
55.3261907767
 21
45.7471184958
  0
LINE
  5
2B9
100
AcDbEntity
  8
0
100
AcDbLine
 62
7
  6
CONTINUOUS
 10
55.3261907767
 20
54.3971184958
 11
55.3261907767
 21
55.8971184958
  0
LINE
  5
2BA
100
AcDbEntity
  8
0
100
AcDbLine
 62
7
  6
CONTINUOUS
 10
55.8261905548
 20
91.2471184958
 11
55.8261905548
 21
88.2471184958
  0
LINE
  5
2BB
100
AcDbEntity
  8
0
100
AcDbLine
 62
7
  6
CONTINUOUS
 10
55.8261905548
 20
86.7471184958
 11
55.8261905548
 21
75.3471184958
  0
LINE
  5
2BC
100
AcDbEntity
  8
0
100
AcDbLine
 62
7
  6
CONTINUOUS
 10
55.8261905548
 20
74.0471184958
 11
55.8261905548
 21
70.9471184958
  0
LINE
  5
2BD
100
AcDbEntity
  8
0
100
AcDbLine
 62
7
  6
CONTINUOUS
 10
56.1261905548
 20
115.4471184958
 11
56.1261905548
 21
114.802337765
  0
LINE
  5
2BE
100
AcDbEntity
  8
0
100
AcDbLine
 62
7
  6
CONTINUOUS
 10
57.3261905548
 20
44.8248541646
 11
57.3261905548
 21
48.4614561986
  0
LINE
  5
2BF
100
AcDbEntity
  8
0
100
AcDbLine
 62
7
  6
CONTINUOUS
 10
57.3261905548
 20
113.034079322
 11
57.3261905548
 21
116.6686858062
  0
LINE
  5
2C0
100
AcDbEntity
  8
0
100
AcDbLine
 62
7
  6
CONTINUOUS
 10
57.6761905548
 20
40.9471184958
 11
57.6761905548
 21
37.847243625
  0
LINE
  5
2C1
100
AcDbEntity
  8
0
100
AcDbLine
 62
7
  6
CONTINUOUS
 10
97.9761905548
 20
77.5471184958
 11
95.7261905548
 21
77.5471184958
  0
LINE
  5
2C2
100
AcDbEntity
  8
0
100
AcDbLine
 62
7
  6
CONTINUOUS
 10
63.7261905548
 20
77.5471184958
 11
60.4261905548
 21
77.5471184958
  0
LINE
  5
2C3
100
AcDbEntity
  8
0
100
AcDbLine
 62
7
  6
CONTINUOUS
 10
53.1761905548
 20
77.5471184958
 11
50.9261905548
 21
77.5471184958
  0
LINE
  5
2C4
100
AcDbEntity
  8
0
100
AcDbLine
 62
7
  6
CONTINUOUS
 10
18.9261905548
 20
77.5471184958
 11
15.6261905548
 21
77.5471184958
  0
LINE
  5
2C5
100
AcDbEntity
  8
0
100
AcDbLine
 62
7
  6
CONTINUOUS
 10
59.2761905548
 20
37.8472426833
 11
59.2761905548
 21
40.9471184958
  0
LINE
  5
2C6
100
AcDbEntity
  8
0
100
AcDbLine
 62
7
  6
CONTINUOUS
 10
59.3261907767
 20
51.397118543
 11
59.3261907767
 21
48.611241619
  0
LINE
  5
2C7
100
AcDbEntity
  8
0
100
AcDbLine
 62
7
  6
CONTINUOUS
 10
59.3261907767
 20
54.3971184958
 11
59.3261907767
 21
55.8971184958
  0
LINE
  5
2C8
100
AcDbEntity
  8
0
100
AcDbLine
 62
7
  6
CONTINUOUS
 10
59.3261907767
 20
57.0971184958
 11
59.3261907767
 21
61.5471184958
  0
LINE
  5
2C9
100
AcDbEntity
  8
0
100
AcDbLine
 62
7
  6
CONTINUOUS
 10
59.3261907767
 20
103.4471184185
 11
59.3261907767
 21
105.4971185573
  0
LINE
  5
2CA
100
AcDbEntity
  8
0
100
AcDbLine
 62
7
  6
CONTINUOUS
 10
59.3261907767
 20
108.4971185573
 11
59.3261907767
 21
115.7471185573
  0
LINE
  5
2CB
100
AcDbEntity
  8
0
100
AcDbLine
 62
7
  6
CONTINUOUS
 10
59.9770424219
 20
110.7447157936
 11
59.9770424219
 21
115.7477754663
  0
LINE
  5
2CC
100
AcDbEntity
  8
0
100
AcDbLine
 62
7
  6
CONTINUOUS
 10
60.4261905548
 20
70.9471184958
 11
60.4261905548
 21
73.9471184958
  0
LINE
  5
2CD
100
AcDbEntity
  8
0
100
AcDbLine
 62
7
  6
CONTINUOUS
 10
60.4261905548
 20
77.5471184958
 11
60.4261905548
 21
84.5471184958
  0
LINE
  5
2CE
100
AcDbEntity
  8
0
100
AcDbLine
 62
7
  6
CONTINUOUS
 10
60.4261905548
 20
88.2471184958
 11
60.4261905548
 21
91.2471184958
  0
LINE
  5
2CF
100
AcDbEntity
  8
0
100
AcDbLine
 62
7
  6
CONTINUOUS
 10
60.8761910087
 20
100.4471184729
 11
60.8761910087
 21
96.5471184958
  0
LINE
  5
2D0
100
AcDbEntity
  8
0
100
AcDbLine
 62
7
  6
CONTINUOUS
 10
62.1261909554
 20
61.5471184958
 11
62.1261909554
 21
57.0971184958
  0
LINE
  5
2D1
100
AcDbEntity
  8
0
100
AcDbLine
 62
7
  6
CONTINUOUS
 10
62.8761910087
 20
98.5471184529
 11
62.8761910087
 21
102.4471184185
  0
LINE
  5
2D2
100
AcDbEntity
  8
0
100
AcDbLine
 62
7
  6
CONTINUOUS
 10
63.3261907767
 20
56.8971184958
 11
63.3261907767
 21
64.2471184958
  0
LINE
  5
2D3
100
AcDbEntity
  8
0
100
AcDbLine
 62
7
  6
CONTINUOUS
 10
63.7261905548
 20
84.5471184958
 11
63.7261905548
 21
77.5471184958
  0
LINE
  5
2D4
100
AcDbEntity
  8
0
100
AcDbLine
 62
7
  6
CONTINUOUS
 10
64.2261910087
 20
105.4971185573
 11
64.2261910087
 21
98.5471184529
  0
LINE
  5
2D5
100
AcDbEntity
  8
0
100
AcDbLine
 62
7
  6
CONTINUOUS
 10
64.4753386876
 20
115.7506220724
 11
64.4753386876
 21
110.7447157936
  0
LINE
  5
2D6
100
AcDbEntity
  8
0
100
AcDbLine
 62
7
  6
CONTINUOUS
 10
65.0261905548
 20
54.3971184958
 11
65.0261905548
 21
63.2471184958
  0
LINE
  5
2D7
100
AcDbEntity
  8
0
100
AcDbLine
 62
7
  6
CONTINUOUS
 10
15.6261905548
 20
84.5471184958
 11
18.9261905548
 21
84.5471184958
  0
LINE
  5
2D8
100
AcDbEntity
  8
0
100
AcDbLine
 62
7
  6
CONTINUOUS
 10
50.9261905548
 20
84.5471184958
 11
53.1761905548
 21
84.5471184958
  0
LINE
  5
2D9
100
AcDbEntity
  8
0
100
AcDbLine
 62
7
  6
CONTINUOUS
 10
60.4261905548
 20
84.5471184958
 11
63.7261905548
 21
84.5471184958
  0
LINE
  5
2DA
100
AcDbEntity
  8
0
100
AcDbLine
 62
7
  6
CONTINUOUS
 10
95.7261905548
 20
84.5471184958
 11
97.9761905548
 21
84.5471184958
  0
LINE
  5
2DB
100
AcDbEntity
  8
0
100
AcDbLine
 62
7
  6
CONTINUOUS
 10
53.1761905548
 20
86.7471184958
 11
55.8261905548
 21
86.7471184958
  0
LINE
  5
2DC
100
AcDbEntity
  8
0
100
AcDbLine
 62
7
  6
CONTINUOUS
 10
97.9761905548
 20
86.7471184958
 11
100.6261905548
 21
86.7471184958
  0
LINE
  5
2DD
100
AcDbEntity
  8
0
100
AcDbLine
 62
7
  6
CONTINUOUS
 10
100.6261905548
 20
88.2471184958
 11
90.7261905548
 21
88.2471184958
  0
LINE
  5
2DE
100
AcDbEntity
  8
0
100
AcDbLine
 62
7
  6
CONTINUOUS
 10
68.7261905548
 20
88.2471184958
 11
60.4261905548
 21
88.2471184958
  0
LINE
  5
2DF
100
AcDbEntity
  8
0
100
AcDbLine
 62
7
  6
CONTINUOUS
 10
55.8261905548
 20
88.2471184958
 11
45.9261905548
 21
88.2471184958
  0
LINE
  5
2E0
100
AcDbEntity
  8
0
100
AcDbLine
 62
7
  6
CONTINUOUS
 10
23.9261905548
 20
88.2471184958
 11
15.6261905548
 21
88.2471184958
  0
LINE
  5
2E1
100
AcDbEntity
  8
0
100
AcDbLine
 62
7
  6
CONTINUOUS
 10
66.2261905548
 20
62.0471184958
 11
66.2261905548
 21
54.3971184958
  0
LINE
  5
2E2
100
AcDbEntity
  8
0
100
AcDbLine
 62
7
  6
CONTINUOUS
 10
66.2261906761
 20
104.9471184786
 11
66.2261906761
 21
113.7971184786
  0
LINE
  5
2E3
100
AcDbEntity
  8
0
100
AcDbLine
 62
7
  6
CONTINUOUS
 10
66.5261905548
 20
91.2471184958
 11
66.5261905548
 21
89.0471184958
  0
LINE
  5
2E4
100
AcDbEntity
  8
0
100
AcDbLine
 62
7
  6
CONTINUOUS
 10
66.5261905548
 20
72.4471184958
 11
66.5261905548
 21
70.9471184958
  0
LINE
  5
2E5
100
AcDbEntity
  8
0
100
AcDbLine
 62
7
  6
CONTINUOUS
 10
67.0261905548
 20
121.8471184958
 11
67.0261905548
 21
116.7546051076
  0
LINE
  5
2E6
100
AcDbEntity
  8
0
100
AcDbLine
 62
7
  6
CONTINUOUS
 10
67.4912553975
 20
104.9471184786
 11
67.4912553975
 21
114.0073454715
  0
LINE
  5
2E7
100
AcDbEntity
  8
0
100
AcDbLine
 62
7
  6
CONTINUOUS
 10
67.5261906761
 20
113.7971184786
 11
67.5261906761
 21
107.4471184786
  0
LINE
  5
2E8
100
AcDbEntity
  8
0
100
AcDbLine
 62
7
  6
CONTINUOUS
 10
67.9261909122
 20
52.397118543
 11
67.9261909122
 21
46.0379170137
  0
LINE
  5
2E9
100
AcDbEntity
  8
0
100
AcDbLine
 62
7
  6
CONTINUOUS
 10
68.0261905548
 20
121.8471184958
 11
68.0261905548
 21
116.885320218
  0
LINE
  5
2EA
100
AcDbEntity
  8
0
100
AcDbLine
 62
7
  6
CONTINUOUS
 10
68.2261906761
 20
97.4471184786
 11
68.2261906761
 21
104.9471184786
  0
LINE
  5
2EB
100
AcDbEntity
  8
0
100
AcDbLine
 62
7
  6
CONTINUOUS
 10
68.7261905548
 20
89.0471184958
 11
68.7261905548
 21
88.2471184958
  0
LINE
  5
2EC
100
AcDbEntity
  8
0
100
AcDbLine
 62
7
  6
CONTINUOUS
 10
68.7261905548
 20
73.9471184958
 11
68.7261905548
 21
72.4471184958
  0
LINE
  5
2ED
100
AcDbEntity
  8
0
100
AcDbLine
 62
7
  6
CONTINUOUS
 10
69.9261909122
 20
45.760453008
 11
69.9261909122
 21
52.397118543
  0
LINE
  5
2EE
100
AcDbEntity
  8
0
100
AcDbLine
 62
7
  6
CONTINUOUS
 10
70.0261905548
 20
121.8471184958
 11
70.0261905548
 21
117.1546133351
  0
LINE
  5
2EF
100
AcDbEntity
  8
0
100
AcDbLine
 62
7
  6
CONTINUOUS
 10
70.2261906761
 20
104.9471184786
 11
70.2261906761
 21
97.4471184786
  0
LINE
  5
2F0
100
AcDbEntity
  8
0
100
AcDbLine
 62
7
  6
CONTINUOUS
 10
21.7261905548
 20
89.0471184958
 11
23.9261905548
 21
89.0471184958
  0
LINE
  5
2F1
100
AcDbEntity
  8
0
100
AcDbLine
 62
7
  6
CONTINUOUS
 10
45.9261905548
 20
89.0471184958
 11
48.1261905548
 21
89.0471184958
  0
LINE
  5
2F2
100
AcDbEntity
  8
0
100
AcDbLine
 62
7
  6
CONTINUOUS
 10
66.5261905548
 20
89.0471184958
 11
68.7261905548
 21
89.0471184958
  0
LINE
  5
2F3
100
AcDbEntity
  8
0
100
AcDbLine
 62
7
  6
CONTINUOUS
 10
90.7261905548
 20
89.0471184958
 11
92.9261905548
 21
89.0471184958
  0
LINE
  5
2F4
100
AcDbEntity
  8
0
100
AcDbLine
 62
7
  6
CONTINUOUS
 10
15.6261905548
 20
91.2471184958
 11
21.7261905548
 21
91.2471184958
  0
LINE
  5
2F5
100
AcDbEntity
  8
0
100
AcDbLine
 62
7
  6
CONTINUOUS
 10
48.1261905548
 20
91.2471184958
 11
55.8261905548
 21
91.2471184958
  0
LINE
  5
2F6
100
AcDbEntity
  8
0
100
AcDbLine
 62
7
  6
CONTINUOUS
 10
60.4261905548
 20
91.2471184958
 11
66.5261905548
 21
91.2471184958
  0
LINE
  5
2F7
100
AcDbEntity
  8
0
100
AcDbLine
 62
7
  6
CONTINUOUS
 10
92.9261905548
 20
91.2471184958
 11
100.6261905548
 21
91.2471184958
  0
LINE
  5
2F8
100
AcDbEntity
  8
0
100
AcDbLine
 62
7
  6
CONTINUOUS
 10
70.9261906761
 20
107.4471184786
 11
70.9261906761
 21
113.7971184786
  0
LINE
  5
2F9
100
AcDbEntity
  8
0
100
AcDbLine
 62
7
  6
CONTINUOUS
 10
70.9611257121
 20
114.0073447614
 11
70.9611257121
 21
104.9471184786
  0
LINE
  5
2FA
100
AcDbEntity
  8
0
100
AcDbLine
 62
7
  6
CONTINUOUS
 10
71.0261905548
 20
121.8471184958
 11
71.0261905548
 21
117.271940779
  0
LINE
  5
2FB
100
AcDbEntity
  8
0
100
AcDbLine
 62
7
  6
CONTINUOUS
 10
72.2261906761
 20
113.7971184786
 11
72.2261906761
 21
104.9471184786
  0
LINE
  5
2FC
100
AcDbEntity
  8
0
100
AcDbLine
 62
7
  6
CONTINUOUS
 10
73.2261906761
 20
96.5471184958
 11
73.2261906761
 21
100.4471184729
  0
LINE
  5
2FD
100
AcDbEntity
  8
0
100
AcDbLine
 62
7
  6
CONTINUOUS
 10
74.2261906761
 20
103.4471184185
 11
74.2261906761
 21
115.0471185573
  0
LINE
  5
2FE
100
AcDbEntity
  8
0
100
AcDbLine
 62
7
  6
CONTINUOUS
 10
12.5261905548
 20
96.5471184958
 11
102.1261905548
 21
96.5471184958
  0
LINE
  5
2FF
100
AcDbEntity
  8
0
100
AcDbLine
 62
7
  6
CONTINUOUS
 10
93.7513576704
 20
43.41344808
 11
93.2708610823
 21
44.2457728935
  0
LINE
  5
300
100
AcDbEntity
  8
0
100
AcDbLine
 62
7
  6
CONTINUOUS
 10
75.7261905548
 20
48.923041116
 11
75.7261905548
 21
49.9471184958
  0
LINE
  5
301
100
AcDbEntity
  8
0
100
AcDbLine
 62
7
  6
CONTINUOUS
 10
102.1261905548
 20
97.4471184958
 11
98.5761905548
 21
97.4471184958
  0
LINE
  5
302
100
AcDbEntity
  8
0
100
AcDbLine
 62
7
  6
CONTINUOUS
 10
91.2261905448
 20
97.4471184786
 11
89.2261905448
 21
97.4471184786
  0
LINE
  5
303
100
AcDbEntity
  8
0
100
AcDbLine
 62
7
  6
CONTINUOUS
 10
86.2261906761
 20
97.4471184958
 11
73.2261906761
 21
97.4471184958
  0
LINE
  5
304
100
AcDbEntity
  8
0
100
AcDbLine
 62
7
  6
CONTINUOUS
 10
70.2261906761
 20
97.4471184786
 11
68.2261906761
 21
97.4471184786
  0
LINE
  5
305
100
AcDbEntity
  8
0
100
AcDbLine
 62
7
  6
CONTINUOUS
 10
60.8761910087
 20
97.4471184958
 11
53.7761905548
 21
97.4471184958
  0
LINE
  5
306
100
AcDbEntity
  8
0
100
AcDbLine
 62
7
  6
CONTINUOUS
 10
46.4261905448
 20
97.4471184786
 11
44.4261905448
 21
97.4471184786
  0
LINE
  5
307
100
AcDbEntity
  8
0
100
AcDbLine
 62
7
  6
CONTINUOUS
 10
41.4261906761
 20
97.4471184958
 11
28.4261906761
 21
97.4471184958
  0
LINE
  5
308
100
AcDbEntity
  8
0
100
AcDbLine
 62
7
  6
CONTINUOUS
 10
25.4261906761
 20
97.4471184786
 11
23.4261906761
 21
97.4471184786
  0
LINE
  5
309
100
AcDbEntity
  8
0
100
AcDbLine
 62
7
  6
CONTINUOUS
 10
16.0761910087
 20
97.4471184958
 11
12.5261905548
 21
97.4471184958
  0
LINE
  5
30A
100
AcDbEntity
  8
0
100
AcDbLine
 62
7
  6
CONTINUOUS
 10
16.0761910087
 20
97.7471184958
 11
23.4261906761
 21
97.7471184958
  0
LINE
  5
30B
100
AcDbEntity
  8
0
100
AcDbLine
 62
7
  6
CONTINUOUS
 10
25.4261906761
 20
97.7471184958
 11
28.4261906761
 21
97.7471184958
  0
LINE
  5
30C
100
AcDbEntity
  8
0
100
AcDbLine
 62
7
  6
CONTINUOUS
 10
41.4261906761
 20
97.7471184958
 11
44.4261905448
 21
97.7471184958
  0
LINE
  5
30D
100
AcDbEntity
  8
0
100
AcDbLine
 62
7
  6
CONTINUOUS
 10
46.4261905448
 20
97.7471184958
 11
53.7761905548
 21
97.7471184958
  0
LINE
  5
30E
100
AcDbEntity
  8
0
100
AcDbLine
 62
7
  6
CONTINUOUS
 10
60.8761910087
 20
97.7471184958
 11
68.2261906761
 21
97.7471184958
  0
LINE
  5
30F
100
AcDbEntity
  8
0
100
AcDbLine
 62
7
  6
CONTINUOUS
 10
70.2261906761
 20
97.7471184958
 11
73.2261906761
 21
97.7471184958
  0
LINE
  5
310
100
AcDbEntity
  8
0
100
AcDbLine
 62
7
  6
CONTINUOUS
 10
86.2261906761
 20
97.7471184958
 11
89.2261905448
 21
97.7471184958
  0
LINE
  5
311
100
AcDbEntity
  8
0
100
AcDbLine
 62
7
  6
CONTINUOUS
 10
91.2261905448
 20
97.7471184958
 11
98.5761905548
 21
97.7471184958
  0
LINE
  5
312
100
AcDbEntity
  8
0
100
AcDbLine
 62
7
  6
CONTINUOUS
 10
96.5761905448
 20
98.5471184529
 11
95.2261905448
 21
98.5471184529
  0
LINE
  5
313
100
AcDbEntity
  8
0
100
AcDbLine
 62
7
  6
CONTINUOUS
 10
64.2261910087
 20
98.5471184529
 11
62.8761910087
 21
98.5471184529
  0
LINE
  5
314
100
AcDbEntity
  8
0
100
AcDbLine
 62
7
  6
CONTINUOUS
 10
51.7761905448
 20
98.5471184529
 11
50.4261905448
 21
98.5471184529
  0
LINE
  5
315
100
AcDbEntity
  8
0
100
AcDbLine
 62
7
  6
CONTINUOUS
 10
19.4261910087
 20
98.5471184529
 11
18.0761910087
 21
98.5471184529
  0
LINE
  5
316
100
AcDbEntity
  8
0
100
AcDbLine
 62
7
  6
CONTINUOUS
 10
96.5761905448
 20
100.4471184958
 11
95.2261905448
 21
100.4471184958
  0
LINE
  5
317
100
AcDbEntity
  8
0
100
AcDbLine
 62
7
  6
CONTINUOUS
 10
64.2261910087
 20
100.4471184958
 11
62.8761910087
 21
100.4471184958
  0
LINE
  5
318
100
AcDbEntity
  8
0
100
AcDbLine
 62
7
  6
CONTINUOUS
 10
60.8761910087
 20
100.4471184729
 11
53.7761905548
 21
100.4471184729
  0
LINE
  5
319
100
AcDbEntity
  8
0
100
AcDbLine
 62
7
  6
CONTINUOUS
 10
51.7761905448
 20
100.4471184958
 11
50.4261905448
 21
100.4471184958
  0
LINE
  5
31A
100
AcDbEntity
  8
0
100
AcDbLine
 62
7
  6
CONTINUOUS
 10
19.4261910087
 20
100.4471184958
 11
18.0761910087
 21
100.4471184958
  0
LINE
  5
31B
100
AcDbEntity
  8
0
100
AcDbLine
 62
7
  6
CONTINUOUS
 10
16.0761910087
 20
100.4471184729
 11
12.5261905548
 21
100.4471184729
  0
LINE
  5
31C
100
AcDbEntity
  8
0
100
AcDbLine
 62
7
  6
CONTINUOUS
 10
23.4261906761
 20
100.4471184958
 11
25.4261906761
 21
100.4471184958
  0
LINE
  5
31D
100
AcDbEntity
  8
0
100
AcDbLine
 62
7
  6
CONTINUOUS
 10
28.4261906761
 20
100.4471184958
 11
41.4261906761
 21
100.4471184958
  0
LINE
  5
31E
100
AcDbEntity
  8
0
100
AcDbLine
 62
7
  6
CONTINUOUS
 10
44.4261905448
 20
100.4471184958
 11
46.4261905448
 21
100.4471184958
  0
LINE
  5
31F
100
AcDbEntity
  8
0
100
AcDbLine
 62
7
  6
CONTINUOUS
 10
68.2261906761
 20
100.4471184958
 11
70.2261906761
 21
100.4471184958
  0
LINE
  5
320
100
AcDbEntity
  8
0
100
AcDbLine
 62
7
  6
CONTINUOUS
 10
73.2261906761
 20
100.4471184958
 11
86.2261906761
 21
100.4471184958
  0
LINE
  5
321
100
AcDbEntity
  8
0
100
AcDbLine
 62
7
  6
CONTINUOUS
 10
89.2261905448
 20
100.4471184958
 11
91.2261905448
 21
100.4471184958
  0
LINE
  5
322
100
AcDbEntity
  8
0
100
AcDbLine
 62
7
  6
CONTINUOUS
 10
98.5761905548
 20
100.4471184958
 11
102.1261905548
 21
100.4471184958
  0
LINE
  5
323
100
AcDbEntity
  8
0
100
AcDbLine
 62
7
  6
CONTINUOUS
 10
80.9261905548
 20
120.5471184958
 11
80.9261905548
 21
121.8471184958
  0
LINE
  5
324
100
AcDbEntity
  8
0
100
AcDbLine
 62
7
  6
CONTINUOUS
 10
81.4261905548
 20
121.8471184958
 11
81.4261905548
 21
120.5471184958
  0
LINE
  5
325
100
AcDbEntity
  8
0
100
AcDbLine
 62
7
  6
CONTINUOUS
 10
99.1261907767
 20
102.4471184185
 11
96.5761905448
 21
102.4471184185
  0
LINE
  5
326
100
AcDbEntity
  8
0
100
AcDbLine
 62
7
  6
CONTINUOUS
 10
84.2261908335
 20
102.4471184185
 11
75.2261906761
 21
102.4471184185
  0
LINE
  5
327
100
AcDbEntity
  8
0
100
AcDbLine
 62
7
  6
CONTINUOUS
 10
62.8761910087
 20
102.4471184185
 11
60.3261907767
 21
102.4471184185
  0
LINE
  5
328
100
AcDbEntity
  8
0
100
AcDbLine
 62
7
  6
CONTINUOUS
 10
54.3261907767
 20
102.4471184185
 11
51.7761905448
 21
102.4471184185
  0
LINE
  5
329
100
AcDbEntity
  8
0
100
AcDbLine
 62
7
  6
CONTINUOUS
 10
39.4261908335
 20
102.4471184185
 11
30.4261906761
 21
102.4471184185
  0
LINE
  5
32A
100
AcDbEntity
  8
0
100
AcDbLine
 62
7
  6
CONTINUOUS
 10
18.0761910087
 20
102.4471184185
 11
15.5261907767
 21
102.4471184185
  0
LINE
  5
32B
100
AcDbEntity
  8
0
100
AcDbLine
 62
7
  6
CONTINUOUS
 10
93.2261905448
 20
104.9471184786
 11
91.2261905448
 21
104.9471184786
  0
LINE
  5
32C
100
AcDbEntity
  8
0
100
AcDbLine
 62
7
  6
CONTINUOUS
 10
89.2261905448
 20
104.9471184786
 11
87.2261905448
 21
104.9471184786
  0
LINE
  5
32D
100
AcDbEntity
  8
0
100
AcDbLine
 62
7
  6
CONTINUOUS
 10
72.2261906761
 20
104.9471184786
 11
70.2261906761
 21
104.9471184786
  0
LINE
  5
32E
100
AcDbEntity
  8
0
100
AcDbLine
 62
7
  6
CONTINUOUS
 10
68.2261906761
 20
104.9471184786
 11
66.2261906761
 21
104.9471184786
  0
LINE
  5
32F
100
AcDbEntity
  8
0
100
AcDbLine
 62
7
  6
CONTINUOUS
 10
48.4261905448
 20
104.9471184786
 11
46.4261905448
 21
104.9471184786
  0
LINE
  5
330
100
AcDbEntity
  8
0
100
AcDbLine
 62
7
  6
CONTINUOUS
 10
44.4261905448
 20
104.9471184786
 11
42.4261905448
 21
104.9471184786
  0
LINE
  5
331
100
AcDbEntity
  8
0
100
AcDbLine
 62
7
  6
CONTINUOUS
 10
27.4261906761
 20
104.9471184786
 11
25.4261906761
 21
104.9471184786
  0
LINE
  5
332
100
AcDbEntity
  8
0
100
AcDbLine
 62
7
  6
CONTINUOUS
 10
23.4261906761
 20
104.9471184786
 11
21.4261906761
 21
104.9471184786
  0
LINE
  5
333
100
AcDbEntity
  8
0
100
AcDbLine
 62
7
  6
CONTINUOUS
 10
83.5761905548
 20
121.8471184958
 11
83.5761905548
 21
117.5754056879
  0
LINE
  5
334
100
AcDbEntity
  8
0
100
AcDbLine
 62
7
  6
CONTINUOUS
 10
83.7261905548
 20
49.9471184958
 11
83.7261905548
 21
48.923041116
  0
LINE
  5
335
100
AcDbEntity
  8
0
100
AcDbLine
 62
7
  6
CONTINUOUS
 10
84.5761905548
 20
121.8471184958
 11
84.5761905548
 21
117.5625038492
  0
LINE
  5
336
100
AcDbEntity
  8
0
100
AcDbLine
 62
7
  6
CONTINUOUS
 10
84.9261909122
 20
52.397118543
 11
84.9261909122
 21
45.3193173914
  0
LINE
  5
337
100
AcDbEntity
  8
0
100
AcDbLine
 62
7
  6
CONTINUOUS
 10
85.2261908335
 20
115.0471185573
 11
85.2261908335
 21
103.4471184185
  0
LINE
  5
338
100
AcDbEntity
  8
0
100
AcDbLine
 62
7
  6
CONTINUOUS
 10
86.2261906761
 20
100.4471184729
 11
86.2261906761
 21
96.5471184958
  0
LINE
  5
339
100
AcDbEntity
  8
0
100
AcDbLine
 62
7
  6
CONTINUOUS
 10
86.5761905548
 20
121.8471184958
 11
86.5761905548
 21
117.3900620008
  0
LINE
  5
33A
100
AcDbEntity
  8
0
100
AcDbLine
 62
7
  6
CONTINUOUS
 10
15.5261907767
 20
106.4971185573
 11
18.4261910087
 21
106.4971185573
  0
LINE
  5
33B
100
AcDbEntity
  8
0
100
AcDbLine
 62
7
  6
CONTINUOUS
 10
60.3261907767
 20
106.4971185573
 11
63.2261910087
 21
106.4971185573
  0
LINE
  5
33C
100
AcDbEntity
  8
0
100
AcDbLine
 62
7
  6
CONTINUOUS
 10
22.7261906761
 20
107.4471184786
 11
26.1261906761
 21
107.4471184786
  0
LINE
  5
33D
100
AcDbEntity
  8
0
100
AcDbLine
 62
7
  6
CONTINUOUS
 10
43.7261905448
 20
107.4471184786
 11
47.1261905448
 21
107.4471184786
  0
LINE
  5
33E
100
AcDbEntity
  8
0
100
AcDbLine
 62
7
  6
CONTINUOUS
 10
67.5261906761
 20
107.4471184786
 11
70.9261906761
 21
107.4471184786
  0
LINE
  5
33F
100
AcDbEntity
  8
0
100
AcDbLine
 62
7
  6
CONTINUOUS
 10
88.5261905448
 20
107.4471184786
 11
91.9261905448
 21
107.4471184786
  0
LINE
  5
340
100
AcDbEntity
  8
0
100
AcDbLine
 62
7
  6
CONTINUOUS
 10
102.1261905548
 20
107.5471184958
 11
102.3261905548
 21
107.5471184958
  0
LINE
  5
341
100
AcDbEntity
  8
0
100
AcDbLine
 62
7
  6
CONTINUOUS
 10
62.2301174448
 20
108.4971185573
 11
59.3261907767
 21
108.4971185573
  0
LINE
  5
342
100
AcDbEntity
  8
0
100
AcDbLine
 62
7
  6
CONTINUOUS
 10
17.4301174448
 20
108.4971185573
 11
14.5261907767
 21
108.4971185573
  0
LINE
  5
343
100
AcDbEntity
  8
0
100
AcDbLine
 62
7
  6
CONTINUOUS
 10
66.1819178217
 20
117.2484643109
 11
65.7014212336
 21
118.0807891245
  0
LINE
  5
344
100
AcDbEntity
  8
0
100
AcDbLine
 62
7
  6
CONTINUOUS
 10
86.9261909108
 20
45.4775842882
 11
86.9261909108
 21
52.397118543
  0
LINE
  5
345
100
AcDbEntity
  8
0
100
AcDbLine
 62
7
  6
CONTINUOUS
 10
87.2261905448
 20
104.9471184786
 11
87.2261905448
 21
113.7971184786
  0
LINE
  5
346
100
AcDbEntity
  8
0
100
AcDbLine
 62
7
  6
CONTINUOUS
 10
87.5761905548
 20
121.8471184958
 11
87.5761905548
 21
117.2630893048
  0
LINE
  5
347
100
AcDbEntity
  8
0
100
AcDbLine
 62
7
  6
CONTINUOUS
 10
88.4912553975
 20
104.9471184786
 11
88.4912553975
 21
114.0073450871
  0
LINE
  5
348
100
AcDbEntity
  8
0
100
AcDbLine
 62
7
  6
CONTINUOUS
 10
88.5261905448
 20
113.7971184786
 11
88.5261905448
 21
107.4471184786
  0
LINE
  5
349
100
AcDbEntity
  8
0
100
AcDbLine
 62
7
  6
CONTINUOUS
 10
89.2261905448
 20
97.4471184786
 11
89.2261905448
 21
104.9471184786
  0
LINE
  5
34A
100
AcDbEntity
  8
0
100
AcDbLine
 62
7
  6
CONTINUOUS
 10
90.7261905548
 20
72.4471184958
 11
90.7261905548
 21
74.0471184958
  0
LINE
  5
34B
100
AcDbEntity
  8
0
100
AcDbLine
 62
7
  6
CONTINUOUS
 10
90.7261905548
 20
88.2471184958
 11
90.7261905548
 21
89.0471184958
  0
LINE
  5
34C
100
AcDbEntity
  8
INTFCLR_74
100
AcDbLine
 62
7
420
48875
  6
CONTINUOUS
 10
102.3261905548
 20
111.1471184958
 11
102.1264085877
 21
111.1471184958
  0
LINE
  5
34D
100
AcDbEntity
  8
0
100
AcDbLine
 62
7
  6
CONTINUOUS
 10
102.3261905548
 20
111.1471184958
 11
102.1261905548
 21
111.1471184958
  0
LINE
  5
34E
100
AcDbEntity
  8
0
100
AcDbLine
 62
7
  6
CONTINUOUS
 10
91.2261905448
 20
104.9471184786
 11
91.2261905448
 21
97.4471184786
  0
LINE
  5
34F
100
AcDbEntity
  8
0
100
AcDbLine
 62
7
  6
CONTINUOUS
 10
91.9261905448
 20
107.4471184786
 11
91.9261905448
 21
113.7971184786
  0
LINE
  5
350
100
AcDbEntity
  8
0
100
AcDbLine
 62
7
  6
CONTINUOUS
 10
91.9611257121
 20
114.0073451458
 11
91.9611257121
 21
104.9471184786
  0
LINE
  5
351
100
AcDbEntity
  8
0
100
AcDbLine
 62
7
  6
CONTINUOUS
 10
92.9261905548
 20
70.9471184958
 11
92.9261905548
 21
72.4471184958
  0
LINE
  5
352
100
AcDbEntity
  8
0
100
AcDbLine
 62
7
  6
CONTINUOUS
 10
92.9261905548
 20
89.0471184958
 11
92.9261905548
 21
91.2471184958
  0
LINE
  5
353
100
AcDbEntity
  8
0
100
AcDbLine
 62
7
  6
CONTINUOUS
 10
92.976190966
 20
47.1201161966
 11
92.976190966
 21
51.397118543
  0
LINE
  5
354
100
AcDbEntity
  8
0
100
AcDbLine
 62
7
  6
CONTINUOUS
 10
93.2261905448
 20
113.7971184786
 11
93.2261905448
 21
104.9471184786
  0
LINE
  5
355
100
AcDbEntity
  8
0
100
AcDbLine
 62
7
  6
CONTINUOUS
 10
93.2261905548
 20
54.3971184958
 11
93.2261905548
 21
62.0471184958
  0
LINE
  5
356
100
AcDbEntity
  8
0
100
AcDbLine
 62
7
  6
CONTINUOUS
 10
94.4261905548
 20
63.2471184958
 11
94.4261905548
 21
54.3971184958
  0
LINE
  5
357
100
AcDbEntity
  8
0
100
AcDbLine
 62
7
  6
CONTINUOUS
 10
53.9594319356
 20
115.4471184958
 11
56.1261905548
 21
115.4471184958
  0
LINE
  5
358
100
AcDbEntity
  8
0
100
AcDbLine
 62
7
  6
CONTINUOUS
 10
98.7594319356
 20
115.4471184958
 11
100.9261905548
 21
115.4471184958
  0
LINE
  5
359
100
AcDbEntity
  8
0
100
AcDbLine
 62
7
  6
CONTINUOUS
 10
14.5261907767
 20
115.7471185573
 11
15.1770451507
 21
115.7471185573
  0
LINE
  5
35A
100
AcDbEntity
  8
0
100
AcDbLine
 62
7
  6
CONTINUOUS
 10
59.3261907767
 20
115.7471185573
 11
59.9770451507
 21
115.7471185573
  0
LINE
  5
35B
100
AcDbEntity
  8
0
100
AcDbLine
 62
7
  6
CONTINUOUS
 10
30.4261906761
 20
116.0471185573
 11
39.4261908335
 21
116.0471185573
  0
LINE
  5
35C
100
AcDbEntity
  8
0
100
AcDbLine
 62
7
  6
CONTINUOUS
 10
75.2261906761
 20
116.0471185573
 11
84.2261908335
 21
116.0471185573
  0
LINE
  5
35D
100
AcDbEntity
  8
0
100
AcDbLine
 62
7
  6
CONTINUOUS
 10
12.5261905548
 20
116.411477586
 11
15.276321416
 21
116.411477586
  0
LINE
  5
35E
100
AcDbEntity
  8
0
100
AcDbLine
 62
7
  6
CONTINUOUS
 10
19.5759481717
 20
116.411477586
 11
49.4832366035
 21
116.411477586
  0
LINE
  5
35F
100
AcDbEntity
  8
0
100
AcDbLine
 62
7
  6
CONTINUOUS
 10
57.3261905548
 20
116.411477586
 11
60.076321416
 21
116.411477586
  0
LINE
  5
360
100
AcDbEntity
  8
0
100
AcDbLine
 62
7
  6
CONTINUOUS
 10
64.3759481717
 20
116.411477586
 11
94.2832366035
 21
116.411477586
  0
LINE
  5
361
100
AcDbEntity
  8
0
100
AcDbLine
 62
7
  6
CONTINUOUS
 10
64.2384259158
 20
116.6971184958
 11
60.2139605526
 21
116.6971184958
  0
LINE
  5
362
100
AcDbEntity
  8
0
100
AcDbLine
 62
7
  6
CONTINUOUS
 10
57.3261905548
 20
116.6971184958
 11
47.9261905548
 21
116.6971184958
  0
LINE
  5
363
100
AcDbEntity
  8
0
100
AcDbLine
 62
7
  6
CONTINUOUS
 10
19.4384259158
 20
116.6971184958
 11
15.4139605526
 21
116.6971184958
  0
LINE
  5
364
100
AcDbEntity
  8
0
100
AcDbLine
 62
7
  6
CONTINUOUS
 10
12.4261905548
 20
116.6971184958
 11
12.6557517191
 21
116.6971184958
  0
LINE
  5
365
100
AcDbEntity
  8
0
100
AcDbLine
 62
7
  6
CONTINUOUS
 10
92.7261905548
 20
116.6971184958
 11
102.2261905548
 21
116.6971184958
  0
LINE
  5
366
100
AcDbEntity
  8
0
100
AcDbLine
 62
7
  6
CONTINUOUS
 10
94.9769288396
 20
50.7565283512
 11
94.9769288396
 21
45.7506220724
  0
LINE
  5
367
100
AcDbEntity
  8
0
100
AcDbLine
 62
7
  6
CONTINUOUS
 10
95.2261905448
 20
98.5471184529
 11
95.2261905448
 21
113.5726393731
  0
LINE
  5
368
100
AcDbEntity
  8
0
100
AcDbLine
 62
7
  6
CONTINUOUS
 10
95.7261905548
 20
77.5471184958
 11
95.7261905548
 21
84.5471184958
  0
LINE
  5
369
100
AcDbEntity
  8
0
100
AcDbLine
 62
7
  6
CONTINUOUS
 10
96.1261907767
 20
56.8971184958
 11
96.1261907767
 21
64.2471184958
  0
LINE
  5
36A
100
AcDbEntity
  8
0
100
AcDbLine
 62
7
  6
CONTINUOUS
 10
96.5761905448
 20
102.4471184185
 11
96.5761905448
 21
98.5471184529
  0
LINE
  5
36B
100
AcDbEntity
  8
0
100
AcDbLine
 62
7
  6
CONTINUOUS
 10
97.1261905548
 20
115.8251432782
 11
97.1261905548
 21
116.6971184958
  0
LINE
  5
36C
100
AcDbEntity
  8
0
100
AcDbLine
 62
7
  6
CONTINUOUS
 10
97.326190598
 20
57.0971184958
 11
97.326190598
 21
61.5471184958
  0
LINE
  5
36D
100
AcDbEntity
  8
0
100
AcDbLine
 62
7
  6
CONTINUOUS
 10
97.9761905548
 20
75.3471184958
 11
97.9761905548
 21
77.5471184958
  0
LINE
  5
36E
100
AcDbEntity
  8
0
100
AcDbLine
 62
7
  6
CONTINUOUS
 10
97.9761905548
 20
84.5471184958
 11
97.9761905548
 21
86.7471184958
  0
LINE
  5
36F
100
AcDbEntity
  8
0
100
AcDbLine
 62
7
  6
CONTINUOUS
 10
98.5761905548
 20
96.5471184958
 11
98.5761905548
 21
100.4471184729
  0
LINE
  5
370
100
AcDbEntity
  8
0
100
AcDbLine
 62
7
  6
CONTINUOUS
 10
17.2588533515
 20
119.2471184958
 11
17.7921449691
 21
119.2471184958
  0
LINE
  5
371
100
AcDbEntity
  8
0
100
AcDbLine
 62
7
  6
CONTINUOUS
 10
62.0588533515
 20
119.2471184958
 11
62.5921449691
 21
119.2471184958
  0
LINE
  5
372
100
AcDbEntity
  8
0
100
AcDbLine
 62
7
  6
CONTINUOUS
 10
102.2261905548
 20
120.5471184958
 11
87.5761905548
 21
120.5471184958
  0
LINE
  5
373
100
AcDbEntity
  8
0
100
AcDbLine
 62
7
  6
CONTINUOUS
 10
83.5761905548
 20
120.5471184958
 11
71.0261905548
 21
120.5471184958
  0
LINE
  5
374
100
AcDbEntity
  8
0
100
AcDbLine
 62
7
  6
CONTINUOUS
 10
67.0261905548
 20
120.5471184958
 11
42.5761905548
 21
120.5471184958
  0
LINE
  5
375
100
AcDbEntity
  8
0
100
AcDbLine
 62
7
  6
CONTINUOUS
 10
38.5761905548
 20
120.5471184958
 11
25.9261905548
 21
120.5471184958
  0
LINE
  5
376
100
AcDbEntity
  8
0
100
AcDbLine
 62
7
  6
CONTINUOUS
 10
21.9261905548
 20
120.5471184958
 11
12.4261905548
 21
120.5471184958
  0
LINE
  5
377
100
AcDbEntity
  8
0
100
AcDbLine
 62
7
  6
CONTINUOUS
 10
99.4752251054
 20
50.7565283512
 11
99.4752251054
 21
45.7477754171
  0
LINE
  5
378
100
AcDbEntity
  8
0
100
AcDbLine
 62
7
  6
CONTINUOUS
 10
100.1261907767
 20
112.8830027374
 11
100.1261907767
 21
103.4471184185
  0
LINE
  5
379
100
AcDbEntity
  8
0
100
AcDbLine
 62
7
  6
CONTINUOUS
 10
100.1261907767
 20
61.5471184958
 11
100.1261907767
 21
57.0971184958
  0
LINE
  5
37A
100
AcDbEntity
  8
0
100
AcDbLine
 62
7
  6
CONTINUOUS
 10
100.1261907767
 20
52.9971184958
 11
100.1261907767
 21
45.7471184958
  0
LINE
  5
37B
100
AcDbEntity
  8
0
100
AcDbLine
 62
7
  6
CONTINUOUS
 10
100.1261907767
 20
54.3971184958
 11
100.1261907767
 21
55.8971184958
  0
LINE
  5
37C
100
AcDbEntity
  8
0
100
AcDbLine
 62
7
  6
CONTINUOUS
 10
100.6261905548
 20
91.2471184958
 11
100.6261905548
 21
88.2471184958
  0
LINE
  5
37D
100
AcDbEntity
  8
0
100
AcDbLine
 62
7
  6
CONTINUOUS
 10
100.6261905548
 20
86.7471184958
 11
100.6261905548
 21
75.3471184958
  0
LINE
  5
37E
100
AcDbEntity
  8
0
100
AcDbLine
 62
7
  6
CONTINUOUS
 10
100.6261905548
 20
74.0471184958
 11
100.6261905548
 21
70.9471184958
  0
LINE
  5
37F
100
AcDbEntity
  8
0
100
AcDbLine
 62
7
  6
CONTINUOUS
 10
100.9261905548
 20
115.4471184958
 11
100.9261905548
 21
114.802337765
  0
LINE
  5
380
100
AcDbEntity
  8
0
100
AcDbLine
 62
7
  6
CONTINUOUS
 10
101.0261905548
 20
116.6971184958
 11
101.0261905548
 21
120.5471184958
  0
LINE
  5
381
100
AcDbEntity
  8
INTFCLR_74
100
AcDbLine
 62
7
420
48875
  6
CONTINUOUS
 10
102.1261905548
 20
119.2471184958
 11
102.1261905548
 21
42.2471184958
  0
LINE
  5
382
100
AcDbEntity
  8
0
100
AcDbLine
 62
7
  6
CONTINUOUS
 10
102.1261905548
 20
44.8248541646
 11
102.1261905548
 21
116.6971184958
  0
LINE
  5
383
100
AcDbEntity
  8
0
100
AcDbLine
 62
7
  6
CONTINUOUS
 10
102.2261905548
 20
120.5471184958
 11
102.2261905548
 21
116.6971184958
  0
LINE
  5
384
100
AcDbEntity
  8
0
100
AcDbLine
 62
7
  6
CONTINUOUS
 10
102.3261905548
 20
111.1471184958
 11
102.3261905548
 21
107.5471184958
  0
LINE
  5
385
100
AcDbEntity
  8
0
100
AcDbLine
 62
7
  6
CONTINUOUS
 10
102.3261905548
 20
53.8471184958
 11
102.3261905548
 21
50.2471184958
  0
LINE
  5
386
100
AcDbEntity
  8
0
100
AcDbLine
 62
7
  6
CONTINUOUS
 10
102.4761905548
 20
40.9471184958
 11
102.4761905548
 21
44.6971184958
  0
LINE
  5
387
100
AcDbEntity
  8
0
100
AcDbLine
 62
7
  6
CONTINUOUS
 10
87.5761905548
 20
121.8471184958
 11
80.9261905548
 21
121.8471184958
  0
LINE
  5
388
100
AcDbEntity
  8
0
100
AcDbLine
 62
7
  6
CONTINUOUS
 10
71.0261905548
 20
121.8471184958
 11
67.0261905548
 21
121.8471184958
  0
LINE
  5
389
100
AcDbEntity
  8
0
100
AcDbLine
 62
7
  6
CONTINUOUS
 10
42.5761905548
 20
121.8471184958
 11
35.9261905548
 21
121.8471184958
  0
LINE
  5
38A
100
AcDbEntity
  8
0
100
AcDbLine
 62
7
  6
CONTINUOUS
 10
25.9261905548
 20
121.8471184958
 11
21.9261905548
 21
121.8471184958
  0
ARC
  5
38B
100
AcDbEntity
  8
0
100
AcDbCircle
 62
7
  6
CONTINUOUS
 10
34.9266001284
 20
37.7470585791
 40
79.9999155197
100
AcDbArc
 50
74.8375019845
 51
99.0055745551
  0
ARC
  5
38C
100
AcDbEntity
  8
0
100
AcDbCircle
 62
7
  6
CONTINUOUS
 10
34.9261906531
 20
37.7471159421
 40
78.6
100
AcDbArc
 50
75.5257035119
 51
77.7235449287
  0
ARC
  5
38D
100
AcDbEntity
  8
0
100
AcDbCircle
 62
7
  6
CONTINUOUS
 10
52.3276708018
 20
52.2450229102
 40
10.0015414719
100
AcDbArc
 50
271.54522741
 51
292.0206502753
  0
ARC
  5
38E
100
AcDbEntity
  8
0
100
AcDbCircle
 62
7
  6
CONTINUOUS
 10
52.3276708018
 20
52.2450229102
 40
10.0015414719
100
AcDbArc
 50
258.1296886255
 51
268.45477259
  0
CIRCLE
  5
38F
100
AcDbEntity
  8
0
100
AcDbCircle
 62
7
  6
CONTINUOUS
 10
34.9261905548
 20
80.7471184958
 40
8.0
  0
ARC
  5
390
100
AcDbEntity
  8
0
100
AcDbCircle
 62
7
  6
CONTINUOUS
 10
52.4260769725
 20
50.7565283512
 40
2.2491481329
100
AcDbArc
 50
89.9980666177
 51
179.9999999996
  0
ARC
  5
391
100
AcDbEntity
  8
0
100
AcDbCircle
 62
7
  6
CONTINUOUS
 10
52.4260769725
 20
45.7506220724
 40
2.2491481329
100
AcDbArc
 50
180.0000000004
 51
359.910748326
  0
ARC
  5
392
100
AcDbEntity
  8
0
100
AcDbCircle
 62
7
  6
CONTINUOUS
 10
52.4260769725
 20
50.7565283512
 40
2.2491481329
100
AcDbArc
 50
0.0
 51
85.0002044159
  0
ARC
  5
393
100
AcDbEntity
  8
0
100
AcDbCircle
 62
7
  6
CONTINUOUS
 10
55.3287249227
 20
44.8248541646
 40
1.997465632
100
AcDbArc
 50
292.0206502751
 51
360.0
  0
ARC
  5
394
100
AcDbEntity
  8
0
100
AcDbCircle
 62
7
  6
CONTINUOUS
 10
50.6812553784
 20
44.4121086183
 40
1.997465632
100
AcDbArc
 50
209.9976060712
 51
258.1296886262
  0
ARC
  5
395
100
AcDbEntity
  8
0
100
AcDbCircle
 62
7
  6
CONTINUOUS
 10
14.5246777437
 20
48.4601698073
 40
1.997465632
100
AcDbArc
 50
179.9815517936
 51
254.8376560246
  0
ARC
  5
396
100
AcDbEntity
  8
0
100
AcDbCircle
 62
7
  6
CONTINUOUS
 10
52.3261907767
 20
56.8971184958
 40
1.0
100
AcDbArc
 50
180.0
 51
270.0
  0
ARC
  5
397
100
AcDbEntity
  8
0
100
AcDbCircle
 62
7
  6
CONTINUOUS
 10
47.176190966
 20
47.1201161966
 40
1.0
100
AcDbArc
 50
279.0827528229
 51
360.0
  0
ARC
  5
398
100
AcDbEntity
  8
0
100
AcDbCircle
 62
7
  6
CONTINUOUS
 10
47.176190966
 20
51.397118543
 40
1.0
100
AcDbArc
 50
0.0
 51
90.0
  0
ARC
  5
399
100
AcDbEntity
  8
0
100
AcDbCircle
 62
7
  6
CONTINUOUS
 10
15.5261907767
 20
48.611241619
 40
1.0
100
AcDbArc
 50
180.0
 51
255.5224878979
  0
ARC
  5
39A
100
AcDbEntity
  8
0
100
AcDbCircle
 62
7
  6
CONTINUOUS
 10
15.5261907767
 20
51.397118543
 40
1.0
100
AcDbArc
 50
90.0
 51
180.0
  0
ARC
  5
39B
100
AcDbEntity
  8
0
100
AcDbCircle
 62
7
  6
CONTINUOUS
 10
17.5261907767
 20
56.8971184958
 40
1.0
100
AcDbArc
 50
270.0
 51
360.0
  0
ARC
  5
39C
100
AcDbEntity
  8
0
100
AcDbCircle
 62
7
  6
CONTINUOUS
 10
47.6049761742
 20
43.7459022454
 40
0.9998136521
100
AcDbArc
 50
29.9976060712
 51
99.0051756503
  0
ARC
  5
39D
100
AcDbEntity
  8
0
100
AcDbCircle
 62
7
  6
CONTINUOUS
 10
34.9266001284
 20
123.7472454013
 40
79.9999155197
100
AcDbArc
 50
254.8376560245
 51
279.0051756505
  0
ARC
  5
39E
100
AcDbEntity
  8
0
100
AcDbCircle
 62
7
  6
CONTINUOUS
 10
34.9261906531
 20
123.7471185674
 40
78.6
100
AcDbArc
 50
262.837611951
 51
273.793331245
  0
ARC
  5
39F
100
AcDbEntity
  8
0
100
AcDbCircle
 62
7
  6
CONTINUOUS
 10
34.9261906531
 20
123.7471185674
 40
78.6
100
AcDbArc
 50
275.2558364838
 51
279.0827528236
  0
ARC
  5
3A0
100
AcDbEntity
  8
0
100
AcDbCircle
 62
7
  6
CONTINUOUS
 10
34.9261906531
 20
123.7471185674
 40
78.6
100
AcDbArc
 50
255.5224879082
 51
261.3657006033
  0
ARC
  5
3A1
100
AcDbEntity
  8
0
100
AcDbCircle
 62
7
  6
CONTINUOUS
 10
34.9261905548
 20
94.3096184958
 40
45.5625
100
AcDbArc
 50
264.9634339033
 51
275.0365660967
  0
ARC
  5
3A2
100
AcDbEntity
  8
0
100
AcDbCircle
 62
7
  6
CONTINUOUS
 10
17.5254991603
 20
109.2491321072
 40
10.0015414719
100
AcDbArc
 50
91.5277134968
 51
112.0188534303
  0
ARC
  5
3A3
100
AcDbEntity
  8
0
100
AcDbCircle
 62
7
  6
CONTINUOUS
 10
17.5254991603
 20
109.2491321072
 40
10.0015414719
100
AcDbArc
 50
78.1325491009
 51
88.4722865032
  0
ARC
  5
3A4
100
AcDbEntity
  8
0
100
AcDbCircle
 62
7
  6
CONTINUOUS
 10
17.4261905548
 20
110.7447157936
 40
2.2491481329
100
AcDbArc
 50
270.1516868023
 51
0.0255069154
  0
ARC
  5
3A5
100
AcDbEntity
  8
0
100
AcDbCircle
 62
7
  6
CONTINUOUS
 10
17.4261905548
 20
115.7506220724
 40
2.2491481329
100
AcDbArc
 50
0.000000001
 51
180.0892430829
  0
ARC
  5
3A6
100
AcDbEntity
  8
0
100
AcDbCircle
 62
7
  6
CONTINUOUS
 10
17.4261905548
 20
110.7447157936
 40
2.2491481329
100
AcDbArc
 50
180.0000000005
 51
267.872130563
  0
ARC
  5
3A7
100
AcDbEntity
  8
0
100
AcDbCircle
 62
7
  6
CONTINUOUS
 10
55.3287249227
 20
113.034079322
 40
1.997465632
100
AcDbArc
 50
0.0
 51
74.8375019849
  0
ARC
  5
3A8
100
AcDbEntity
  8
0
100
AcDbCircle
 62
7
  6
CONTINUOUS
 10
14.5246777437
 20
116.6693949648
 40
1.997465632
100
AcDbArc
 50
112.0188534303
 51
180.0203152523
  0
ARC
  5
3A9
100
AcDbEntity
  8
0
100
AcDbCircle
 62
7
  6
CONTINUOUS
 10
19.1715235256
 20
117.0821285861
 40
1.997465632
100
AcDbArc
 50
29.9976060708
 51
78.132549101
  0
ARC
  5
3AA
100
AcDbEntity
  8
0
100
AcDbCircle
 62
7
  6
CONTINUOUS
 10
15.5261907767
 20
103.4471184185
 40
1.0
100
AcDbArc
 50
180.0
 51
270.0
  0
ARC
  5
3AB
100
AcDbEntity
  8
0
100
AcDbCircle
 62
7
  6
CONTINUOUS
 10
18.4261910087
 20
105.4971185573
 40
1.0
100
AcDbArc
 50
0.0
 51
90.0
  0
ARC
  5
3AC
100
AcDbEntity
  8
0
100
AcDbCircle
 62
7
  6
CONTINUOUS
 10
15.5261907767
 20
105.4971185573
 40
1.0
100
AcDbArc
 50
90.0
 51
180.0
  0
ARC
  5
3AD
100
AcDbEntity
  8
0
100
AcDbCircle
 62
7
  6
CONTINUOUS
 10
51.4261905448
 20
113.5726393731
 40
1.0
100
AcDbArc
 50
77.72354493
 51
180.0
  0
ARC
  5
3AE
100
AcDbEntity
  8
0
100
AcDbCircle
 62
7
  6
CONTINUOUS
 10
54.3261907767
 20
103.4471184185
 40
1.0
100
AcDbArc
 50
270.0
 51
360.0
  0
ARC
  5
3AF
100
AcDbEntity
  8
0
100
AcDbCircle
 62
7
  6
CONTINUOUS
 10
54.3261907767
 20
112.8830027374
 40
1.0
100
AcDbArc
 50
0.0
 51
75.775107834
  0
ARC
  5
3B0
100
AcDbEntity
  8
0
100
AcDbCircle
 62
7
  6
CONTINUOUS
 10
39.4261908335
 20
115.0471185573
 40
1.0
100
AcDbArc
 50
0.0
 51
90.0
  0
ARC
  5
3B1
100
AcDbEntity
  8
0
100
AcDbCircle
 62
7
  6
CONTINUOUS
 10
30.4261906761
 20
115.0471185573
 40
1.0
100
AcDbArc
 50
90.0
 51
180.0
  0
ARC
  5
3B2
100
AcDbEntity
  8
0
100
AcDbCircle
 62
7
  6
CONTINUOUS
 10
30.4261906761
 20
103.4471184185
 40
1.0
100
AcDbArc
 50
180.0
 51
270.0
  0
ARC
  5
3B3
100
AcDbEntity
  8
0
100
AcDbCircle
 62
7
  6
CONTINUOUS
 10
39.4261908335
 20
103.4471184185
 40
1.0
100
AcDbArc
 50
270.0
 51
360.0
  0
ARC
  5
3B4
100
AcDbEntity
  8
0
100
AcDbCircle
 62
7
  6
CONTINUOUS
 10
22.2478027297
 20
117.748334959
 40
0.9998136521
100
AcDbArc
 50
209.9976060708
 51
278.9977049551
  0
ARC
  5
3B5
100
AcDbEntity
  8
0
100
AcDbCircle
 62
7
  6
CONTINUOUS
 10
47.7761905448
 20
113.7971184786
 40
0.65
100
AcDbArc
 50
0.0
 51
180.0
  0
ARC
  5
3B6
100
AcDbEntity
  8
0
100
AcDbCircle
 62
7
  6
CONTINUOUS
 10
43.0761905448
 20
113.7971184786
 40
0.65
100
AcDbArc
 50
0.0
 51
180.0
  0
ARC
  5
3B7
100
AcDbEntity
  8
0
100
AcDbCircle
 62
7
  6
CONTINUOUS
 10
26.7761906761
 20
113.7971184786
 40
0.65
100
AcDbArc
 50
0.0
 51
180.0
  0
ARC
  5
3B8
100
AcDbEntity
  8
0
100
AcDbCircle
 62
7
  6
CONTINUOUS
 10
22.0761906761
 20
113.7971184786
 40
0.65
100
AcDbArc
 50
0.0
 51
180.0
  0
ARC
  5
3B9
100
AcDbEntity
  8
0
100
AcDbCircle
 62
7
  6
CONTINUOUS
 10
79.7266001284
 20
37.7470585791
 40
79.9999155197
100
AcDbArc
 50
74.8375019845
 51
99.0055745551
  0
ARC
  5
3BA
100
AcDbEntity
  8
0
100
AcDbCircle
 62
7
  6
CONTINUOUS
 10
79.7261906531
 20
37.7471159421
 40
78.6
100
AcDbArc
 50
75.5257035119
 51
77.7235449287
  0
ARC
  5
3BB
100
AcDbEntity
  8
0
100
AcDbCircle
 62
7
  6
CONTINUOUS
 10
97.1276708018
 20
52.2450229102
 40
10.0015414719
100
AcDbArc
 50
271.54522741
 51
292.0206502753
  0
ARC
  5
3BC
100
AcDbEntity
  8
0
100
AcDbCircle
 62
7
  6
CONTINUOUS
 10
97.1276708018
 20
52.2450229102
 40
10.0015414719
100
AcDbArc
 50
258.1296886255
 51
268.45477259
  0
CIRCLE
  5
3BD
100
AcDbEntity
  8
0
100
AcDbCircle
 62
7
  6
CONTINUOUS
 10
79.7261905548
 20
80.7471184958
 40
8.0
  0
ARC
  5
3BE
100
AcDbEntity
  8
0
100
AcDbCircle
 62
7
  6
CONTINUOUS
 10
97.2260769725
 20
50.7565283512
 40
2.2491481329
100
AcDbArc
 50
89.9980666178
 51
180.0
  0
ARC
  5
3BF
100
AcDbEntity
  8
0
100
AcDbCircle
 62
7
  6
CONTINUOUS
 10
97.2260769725
 20
45.7506220724
 40
2.2491481329
100
AcDbArc
 50
180.0
 51
359.910748326
  0
ARC
  5
3C0
100
AcDbEntity
  8
0
100
AcDbCircle
 62
7
  6
CONTINUOUS
 10
97.2260769725
 20
50.7565283512
 40
2.2491481329
100
AcDbArc
 50
0.0
 51
85.0002044159
  0
ARC
  5
3C1
100
AcDbEntity
  8
0
100
AcDbCircle
 62
7
  6
CONTINUOUS
 10
59.3246777437
 20
48.4601698073
 40
1.997465632
100
AcDbArc
 50
179.9631134277
 51
254.8376560246
  0
ARC
  5
3C2
100
AcDbEntity
  8
0
100
AcDbCircle
 62
7
  6
CONTINUOUS
 10
100.1287249227
 20
44.8248541646
 40
1.997465632
100
AcDbArc
 50
292.020650275
 51
360.0
  0
ARC
  5
3C3
100
AcDbEntity
  8
0
100
AcDbCircle
 62
7
  6
CONTINUOUS
 10
95.4812553784
 20
44.4121086183
 40
1.997465632
100
AcDbArc
 50
209.9976060703
 51
258.1296886261
  0
ARC
  5
3C4
100
AcDbEntity
  8
0
100
AcDbCircle
 62
7
  6
CONTINUOUS
 10
62.3261907767
 20
56.8971184958
 40
1.0
100
AcDbArc
 50
270.0
 51
360.0
  0
ARC
  5
3C5
100
AcDbEntity
  8
0
100
AcDbCircle
 62
7
  6
CONTINUOUS
 10
91.976190966
 20
47.1201161966
 40
1.0
100
AcDbArc
 50
279.0827528229
 51
359.9999999994
  0
ARC
  5
3C6
100
AcDbEntity
  8
0
100
AcDbCircle
 62
7
  6
CONTINUOUS
 10
91.976190966
 20
51.397118543
 40
1.0
100
AcDbArc
 50
0.0000000007
 51
90.0
  0
ARC
  5
3C7
100
AcDbEntity
  8
0
100
AcDbCircle
 62
7
  6
CONTINUOUS
 10
60.3261907767
 20
48.611241619
 40
1.0
100
AcDbArc
 50
180.0
 51
255.5224878979
  0
ARC
  5
3C8
100
AcDbEntity
  8
0
100
AcDbCircle
 62
7
  6
CONTINUOUS
 10
60.3261907767
 20
51.397118543
 40
1.0
100
AcDbArc
 50
90.0
 51
180.0
  0
ARC
  5
3C9
100
AcDbEntity
  8
0
100
AcDbCircle
 62
7
  6
CONTINUOUS
 10
97.1261907767
 20
56.8971184958
 40
1.0
100
AcDbArc
 50
180.0
 51
270.0
  0
ARC
  5
3CA
100
AcDbEntity
  8
0
100
AcDbCircle
 62
7
  6
CONTINUOUS
 10
92.4049761742
 20
43.7459022454
 40
0.9998136521
100
AcDbArc
 50
29.9976060702
 51
99.00517565
  0
ARC
  5
3CB
100
AcDbEntity
  8
0
100
AcDbCircle
 62
7
  6
CONTINUOUS
 10
79.7266001284
 20
123.7472454013
 40
79.9999155197
100
AcDbArc
 50
254.8376560245
 51
279.0051756505
  0
ARC
  5
3CC
100
AcDbEntity
  8
0
100
AcDbCircle
 62
7
  6
CONTINUOUS
 10
79.7261906531
 20
123.7471185674
 40
78.6
100
AcDbArc
 50
275.2558364838
 51
279.0827528236
  0
ARC
  5
3CD
100
AcDbEntity
  8
0
100
AcDbCircle
 62
7
  6
CONTINUOUS
 10
79.7261906531
 20
123.7471185674
 40
78.6
100
AcDbArc
 50
262.837611951
 51
273.793331245
  0
ARC
  5
3CE
100
AcDbEntity
  8
0
100
AcDbCircle
 62
7
  6
CONTINUOUS
 10
79.7261906531
 20
123.7471185674
 40
78.6
100
AcDbArc
 50
255.5224879082
 51
261.3657006033
  0
ARC
  5
3CF
100
AcDbEntity
  8
0
100
AcDbCircle
 62
7
  6
CONTINUOUS
 10
79.7261905548
 20
94.3096184958
 40
45.5625
100
AcDbArc
 50
264.9634339033
 51
275.0365660967
  0
ARC
  5
3D0
100
AcDbEntity
  8
0
100
AcDbCircle
 62
7
  6
CONTINUOUS
 10
62.3254991603
 20
109.2491321072
 40
10.0015414719
100
AcDbArc
 50
78.1325491009
 51
88.4722865032
  0
ARC
  5
3D1
100
AcDbEntity
  8
0
100
AcDbCircle
 62
7
  6
CONTINUOUS
 10
62.3254991603
 20
109.2491321072
 40
10.0015414719
100
AcDbArc
 50
91.5277134968
 51
112.0188534303
  0
ARC
  5
3D2
100
AcDbEntity
  8
0
100
AcDbCircle
 62
7
  6
CONTINUOUS
 10
62.2261905548
 20
110.7447157936
 40
2.2491481329
100
AcDbArc
 50
270.151686791
 51
0.025506904
  0
ARC
  5
3D3
100
AcDbEntity
  8
0
100
AcDbCircle
 62
7
  6
CONTINUOUS
 10
62.2261905548
 20
110.7447157936
 40
2.2491481329
100
AcDbArc
 50
180.0000000005
 51
267.872130563
  0
ARC
  5
3D4
100
AcDbEntity
  8
0
100
AcDbCircle
 62
7
  6
CONTINUOUS
 10
62.2261905548
 20
115.7506220724
 40
2.2491481329
100
AcDbArc
 50
0.000000001
 51
180.0892430829
  0
ARC
  5
3D5
100
AcDbEntity
  8
0
100
AcDbCircle
 62
7
  6
CONTINUOUS
 10
100.1287249227
 20
113.034079322
 40
1.997465632
100
AcDbArc
 50
0.0
 51
74.8375019848
  0
ARC
  5
3D6
100
AcDbEntity
  8
0
100
AcDbCircle
 62
7
  6
CONTINUOUS
 10
63.9715235256
 20
117.0821285861
 40
1.997465632
100
AcDbArc
 50
29.9976060708
 51
78.132549101
  0
ARC
  5
3D7
100
AcDbEntity
  8
0
100
AcDbCircle
 62
7
  6
CONTINUOUS
 10
59.3246777437
 20
116.6693949648
 40
1.997465632
100
AcDbArc
 50
112.0188534303
 51
180.0203152523
  0
ARC
  5
3D8
100
AcDbEntity
  8
0
100
AcDbCircle
 62
7
  6
CONTINUOUS
 10
96.2261905448
 20
113.5726393731
 40
1.0
100
AcDbArc
 50
77.7235449297
 51
180.0
  0
ARC
  5
3D9
100
AcDbEntity
  8
0
100
AcDbCircle
 62
7
  6
CONTINUOUS
 10
99.1261907767
 20
103.4471184185
 40
1.0
100
AcDbArc
 50
270.0
 51
360.0
  0
ARC
  5
3DA
100
AcDbEntity
  8
0
100
AcDbCircle
 62
7
  6
CONTINUOUS
 10
99.1261907767
 20
112.8830027374
 40
1.0
100
AcDbArc
 50
0.0
 51
75.7751078342
  0
ARC
  5
3DB
100
AcDbEntity
  8
0
100
AcDbCircle
 62
7
  6
CONTINUOUS
 10
60.3261907767
 20
103.4471184185
 40
1.0
100
AcDbArc
 50
180.0
 51
270.0
  0
ARC
  5
3DC
100
AcDbEntity
  8
0
100
AcDbCircle
 62
7
  6
CONTINUOUS
 10
63.2261910087
 20
105.4971185573
 40
1.0
100
AcDbArc
 50
0.0
 51
90.0
  0
ARC
  5
3DD
100
AcDbEntity
  8
0
100
AcDbCircle
 62
7
  6
CONTINUOUS
 10
60.3261907767
 20
105.4971185573
 40
1.0
100
AcDbArc
 50
90.0
 51
180.0
  0
ARC
  5
3DE
100
AcDbEntity
  8
0
100
AcDbCircle
 62
7
  6
CONTINUOUS
 10
84.2261908335
 20
115.0471185573
 40
1.0
100
AcDbArc
 50
0.0
 51
90.0
  0
ARC
  5
3DF
100
AcDbEntity
  8
0
100
AcDbCircle
 62
7
  6
CONTINUOUS
 10
75.2261906761
 20
115.0471185573
 40
1.0
100
AcDbArc
 50
90.0
 51
180.0
  0
ARC
  5
3E0
100
AcDbEntity
  8
0
100
AcDbCircle
 62
7
  6
CONTINUOUS
 10
75.2261906761
 20
103.4471184185
 40
1.0
100
AcDbArc
 50
180.0
 51
270.0
  0
ARC
  5
3E1
100
AcDbEntity
  8
0
100
AcDbCircle
 62
7
  6
CONTINUOUS
 10
84.2261908335
 20
103.4471184185
 40
1.0
100
AcDbArc
 50
270.0
 51
360.0
  0
ARC
  5
3E2
100
AcDbEntity
  8
0
100
AcDbCircle
 62
7
  6
CONTINUOUS
 10
67.0478027297
 20
117.748334959
 40
0.9998136521
100
AcDbArc
 50
209.9976060708
 51
278.9977049551
  0
ARC
  5
3E3
100
AcDbEntity
  8
0
100
AcDbCircle
 62
7
  6
CONTINUOUS
 10
92.5761905448
 20
113.7971184786
 40
0.65
100
AcDbArc
 50
0.0
 51
179.9999999982
  0
ARC
  5
3E4
100
AcDbEntity
  8
0
100
AcDbCircle
 62
7
  6
CONTINUOUS
 10
87.8761905448
 20
113.7971184786
 40
0.65
100
AcDbArc
 50
0.0
 51
180.0
  0
ARC
  5
3E5
100
AcDbEntity
  8
0
100
AcDbCircle
 62
7
  6
CONTINUOUS
 10
71.5761906761
 20
113.7971184786
 40
0.65
100
AcDbArc
 50
0.0
 51
180.0
  0
ARC
  5
3E6
100
AcDbEntity
  8
0
100
AcDbCircle
 62
7
  6
CONTINUOUS
 10
66.8761906761
 20
113.7971184786
 40
0.65
100
AcDbArc
 50
0.0
 51
180.0
  0
SPLINE
  5
3E7
100
AcDbEntity
  8
0
100
AcDbSpline
 62
7
  6
CONTINUOUS
 70
0
 71
3
 72
11
 73
7
 74
0
 42
0.0000001
 43
0.0000001
 44
0.0000000001
 40
0.0
 40
0.0
 40
0.0
 40
0.0
 40
0.1771462184
 40
0.3923450767
 40
0.6641315266
 40
1.0
 40
1.0
 40
1.0
 40
1.0
 10
102.3261905548
 20
109.7529817267
 30
0.0
 10
102.3261905548
 20
109.740035943
 30
0.0
 10
102.3180078903
 20
109.711279724
 30
0.0
 10
102.2871947368
 20
109.672885894
 30
0.0
 10
102.2394833212
 20
109.6357568314
 30
0.0
 10
102.2005199695
 20
109.6141631597
 30
0.0
 10
102.1785193359
 20
109.6032803043
 30
0.0
  0
SPLINE
  5
3E8
100
AcDbEntity
  8
0
100
AcDbSpline
 62
7
  6
CONTINUOUS
 70
0
 71
3
 72
11
 73
7
 74
0
 42
0.0000001
 43
0.0000001
 44
0.0000000001
 40
0.0
 40
0.0
 40
0.0
 40
0.0
 40
0.1765523912
 40
0.3915052386
 40
0.6635195335
 40
1.0
 40
1.0
 40
1.0
 40
1.0
 10
102.3261905548
 20
51.7330893561
 30
0.0
 10
102.3261905548
 20
51.7461489114
 30
0.0
 10
102.3178500023
 20
51.7751890296
 30
0.0
 10
102.2865127007
 20
51.8138753718
 30
0.0
 10
102.2380216697
 20
51.851268515
 30
0.0
 10
102.1984480724
 20
51.8730059446
 30
0.0
 10
102.1760997176
 20
51.8839619423
 30
0.0
  0
ENDSEC
  0
SECTION
  2
OBJECTS
  0
DICTIONARY
  5
C
100
AcDbDictionary
280
0
281
1
  3
ACAD_GROUP
350
D
  3
ACAD_MLINESTYLE
350
17
  3
ACAD_LAYOUT
350
1A
  3
ACAD_PLOTSETTINGS
350
19
  3
ACAD_PLOTSTYLENAME
350
E
  0
DICTIONARY
  5
D
102
{ACAD_REACTORS
330
C
102
}
100
AcDbDictionary
280
0
281
1
  0
ACDBDICTIONARYWDFLT
  5
E
102
{ACAD_REACTORS
330
C
102
}
100
AcDbDictionary
281
1
  3
Normal
350
F
100
AcDbDictionaryWithDefault
340
F
  0
DICTIONARY
  5
17
102
{ACAD_REACTORS
330
C
102
}
100
AcDbDictionary
280
0
281
1
  3
Standard
350
18
  0
DICTIONARY
  5
19
102
{ACAD_REACTORS
330
C
102
}
100
AcDbDictionary
281
1
  0
DICTIONARY
  5
1A
102
{ACAD_REACTORS
330
C
102
}
100
AcDbDictionary
281
1
  3
Model
350
3E9
  3
Layout1
350
3EA
  0
ACDBPLACEHOLDER
  5
F
102
{ACAD_REACTORS
330
E
102
}
  0
MLINESTYLE
  5
18
102
{ACAD_REACTORS
330
17
102
}
100
AcDbMlineStyle
  2
STANDARD
 70
0
  3

 62
256
 51
90.0
 52
90.0
 71
2
 49
0.5
 62
256
  6
BYLAYER
 49
-0.5
 62
256
  6
BYLAYER
  0
LAYOUT
  5
3E9
102
{ACAD_REACTORS
330
1A
102
}
100
AcDbPlotSettings
  1

  2
none_device
  4

  6

 40
0.0
 41
0.0
 42
0.0
 43
0.0
 44
210.0
 45
297.0
 46
0.0
 47
0.0
 48
0.0
 49
0.0
140
0.0
141
0.0
142
1.0
143
1.0
 70
1024
 72
1
 73
0
 74
0
  7

 75
0
147
1.0
148
0.0
149
0.0
100
AcDbLayout
  1
Model
 70
0
 71
0
 10
0.0
 20
0.0
 11
210.0
 21
297.0
 12
0.0
 22
0.0
 32
0.0
 14
0.0
 24
0.0
 34
0.0
 15
0.0
 25
0.0
 35
0.0
146
0.0
 13
0.0
 23
0.0
 33
0.0
 16
1.0
 26
0.0
 36
0.0
 17
0.0
 27
1.0
 37
0.0
 76
0
330
212
345
0
346
0
  0
LAYOUT
  5
3EA
102
{ACAD_REACTORS
330
1A
102
}
100
AcDbPlotSettings
  1

  2
none_device
  4

  6

 40
0.0
 41
0.0
 42
0.0
 43
0.0
 44
210.0
 45
297.0
 46
0.0
 47
0.0
 48
0.0
 49
0.0
140
0.0
141
0.0
142
1.0
143
1.0
 70
0
 72
1
 73
0
 74
0
  7

 75
0
147
1.0
148
0.0
149
0.0
100
AcDbLayout
  1
Layout1
 70
0
 71
1
 10
0.0
 20
0.0
 11
210.0
 21
297.0
 12
0.0
 22
0.0
 32
0.0
 14
0.0
 24
0.0
 34
0.0
 15
0.0
 25
0.0
 35
0.0
146
0.0
 13
0.0
 23
0.0
 33
0.0
 16
1.0
 26
0.0
 36
0.0
 17
0.0
 27
1.0
 37
0.0
 76
0
330
213
345
0
346
0
  0
ENDSEC
  0
EOF
