999
DXF file: C:\Users\sesa63760\Dev\_Creo\CAD\MCADPE0010579_3D-CAD\drw0001_1.dxf
999
Pro/ENGINEER 2019471 by Parametric Technology Corporation
  0
SECTION
  2
HEADER
  9
$ACADVER
  1
AC1024
  9
$DWGCODEPAGE
  3
ANSI_1252
  9
$EXTMAX
 10
65.0465374415
 20
91.9943886672
 30
0.0
  9
$EXTMIN
 10
0.0
 20
0.0
 30
0.0
  9
$LIMMIN
 10
0.0
 20
0.0
  9
$LIMMAX
 10
65.0465374415
 20
91.9943886672
  9
$VIEWCTR
 10
32.5232687207
 20
45.9971943336
  9
$VIEWSIZE
 40
91.9943886672
  9
$CLAYER
  8
0
  9
$LTSCALE
 40
5.9966712613
  9
$CELTYPE
  6
BYLAYER
  9
$DIMSCALE
 40
1.0
  9
$DIMASZ
 40
0.774363541
  9
$DIMEXO
 40
1.0
  9
$DIMDLI
 40
4.1431546896
  9
$DIMEXE
 40
1.0
  9
$DIMCEN
 40
0.9812734791
  9
$DIMLFAC
 40
1.0
  9
$DIMBLK
  1
_FILLED
  9
$DIMALT
 70
0
  9
$DIMALTF
 40
0.0393700787
  9
$DIMTXT
 40
1.0841089574
  9
$DIMTOL
 70
1
  9
$DIMLIM
 70
0
  9
$DIMTFAC
 40
1.0
  9
$DIMTP
 40
0.01
  9
$DIMTM
 40
0.01
  9
$DIMGAP
 40
0.625
  9
$DIMDSEP
 70
46
  9
$AUNITS
 70
0
  9
$PDMODE
 70
3
  9
$PDSIZE
 40
0.3125
  9
$HANDSEED
  5
3EA
  9
$TILEMODE
 70
1
  9
$MEASUREMENT
 70
1
  9
$INSUNITS
 70
4
  0
ENDSEC
  0
SECTION
  2
CLASSES
  0
CLASS
  1
ACDBDICTIONARYWDFLT
  2
AcDbDictionaryWithDefault
  3
AutoCAD 2000
 90
0
 91
1
280
0
281
0
  0
CLASS
  1
ACDBPLACEHOLDER
  2
AcDbPlaceHolder
  3
AutoCAD 2000
 90
0
 91
1
280
0
281
0
  0
CLASS
  1
LAYOUT
  2
AcDbLayout
  3
AutoCAD 2000
 90
0
 91
0
280
0
281
0
  0
ENDSEC
  0
SECTION
  2
TABLES
  0
TABLE
  2
VPORT
  5
8
100
AcDbSymbolTable
 70
2
  0
VPORT
  5
1F4
100
AcDbSymbolTableRecord
100
AcDbViewportTableRecord
  2
*ACTIVE
 70
0
 10
0.0
 20
0.0
 11
1.0
 21
1.0
 12
32.5232687207
 22
45.9971943336
 13
0.0
 23
0.0
 14
1.0
 24
1.0
 15
0.0
 25
0.0
 16
0.0
 26
0.0
 36
1.0
 17
0.0
 27
0.0
 37
0.0
 40
91.9943886672
 41
0.7070707071
 42
50.0
 43
0.0
 44
0.0
 50
0.0
 51
0.0
 71
0
 72
100
 73
1
 74
1
 75
0
 76
0
 77
0
 78
0
  0
ENDTAB
  0
TABLE
  2
LTYPE
  5
5
100
AcDbSymbolTable
 70
6
  0
LTYPE
  5
14
100
AcDbSymbolTableRecord
100
AcDbLinetypeTableRecord
  2
BYBLOCK
 70
0
  3

 72
65
 73
0
 40
0.0
  0
LTYPE
  5
15
100
AcDbSymbolTableRecord
100
AcDbLinetypeTableRecord
  2
BYLAYER
 70
0
  3

 72
65
 73
0
 40
0.0
  0
LTYPE
  5
16
100
AcDbSymbolTableRecord
100
AcDbLinetypeTableRecord
  2
CONTINUOUS
 70
64
  3
Solid line
 72
65
 73
0
 40
0.0
  0
LTYPE
  5
1F5
100
AcDbSymbolTableRecord
100
AcDbLinetypeTableRecord
  2
CENTER
 70
64
  3
____ _ ____ _ ____ _ ____ _ ____ _ ____ _ ____
 72
65
 73
4
 40
0.6
 49
0.375
 74
0
 49
-0.075
 74
0
 49
0.075
 74
0
 49
-0.075
 74
0
  0
LTYPE
  5
1F6
100
AcDbSymbolTableRecord
100
AcDbLinetypeTableRecord
  2
HIDDEN
 70
64
  3
- - - - - - - - - - - - - - - - - - - -
 72
65
 73
2
 40
0.2
 49
0.1
 74
0
 49
-0.1
 74
0
  0
LTYPE
  5
1F7
100
AcDbSymbolTableRecord
100
AcDbLinetypeTableRecord
  2
PHANTOM
 70
64
  3
_____ _ _ _____ _ _ _____ _ _ _____
 72
65
 73
6
 40
0.8
 49
0.45
 74
0
 49
-0.05
 74
0
 49
0.1
 74
0
 49
-0.05
 74
0
 49
0.1
 74
0
 49
-0.05
 74
0
  0
LTYPE
  5
1F8
100
AcDbSymbolTableRecord
100
AcDbLinetypeTableRecord
  2
DOT
 70
64
  3
. . . . . . . . . . . . . . . . . . . .
 72
65
 73
2
 40
0.2
 49
0.1
 74
0
 49
-0.1
 74
0
  0
LTYPE
  5
1F9
100
AcDbSymbolTableRecord
100
AcDbLinetypeTableRecord
  2
DASHED
 70
64
  3
- - - - - - - - - - - - - - - - - - - -
 72
65
 73
2
 40
0.2
 49
0.1
 74
0
 49
-0.1
 74
0
  0
ENDTAB
  0
TABLE
  2
LAYER
  5
2
100
AcDbSymbolTable
 70
36
  0
LAYER
  5
10
100
AcDbSymbolTableRecord
100
AcDbLayerTableRecord
  2
0
 70
0
 62
7
  6
CONTINUOUS
370
-3
390
F
  0
LAYER
  5
1FA
100
AcDbSymbolTableRecord
100
AcDbLayerTableRecord
  2
DEFAULT_1
 70
0
 62
7
  6
CENTER
370
-3
390
F
  0
LAYER
  5
1FB
100
AcDbSymbolTableRecord
100
AcDbLayerTableRecord
  2
DEFAULT_2
 70
0
 62
7
  6
HIDDEN
370
-3
390
F
  0
LAYER
  5
1FC
100
AcDbSymbolTableRecord
100
AcDbLayerTableRecord
  2
DEFAULT_3
 70
0
 62
7
  6
PHANTOM
370
-3
390
F
  0
LAYER
  5
1FD
100
AcDbSymbolTableRecord
100
AcDbLayerTableRecord
  2
00_COMPONENTS
 70
0
 62
7
  6
CONTINUOUS
370
-3
390
F
  0
LAYER
  5
1FE
100
AcDbSymbolTableRecord
100
AcDbLayerTableRecord
  2
01_1_DEFAULT_DATUMS
 70
0
 62
7
  6
CONTINUOUS
370
-3
390
F
  0
LAYER
  5
1FF
100
AcDbSymbolTableRecord
100
AcDbLayerTableRecord
  2
01_PLANES
 70
0
 62
7
  6
CONTINUOUS
370
-3
390
F
  0
LAYER
  5
200
100
AcDbSymbolTableRecord
100
AcDbLayerTableRecord
  2
02_COORD_SYS
 70
0
 62
7
  6
CONTINUOUS
370
-3
390
F
  0
LAYER
  5
201
100
AcDbSymbolTableRecord
100
AcDbLayerTableRecord
  2
03_AXES
 70
0
 62
7
  6
CONTINUOUS
370
-3
390
F
  0
LAYER
  5
202
100
AcDbSymbolTableRecord
100
AcDbLayerTableRecord
  2
04_POINTS
 70
0
 62
7
  6
CONTINUOUS
370
-3
390
F
  0
LAYER
  5
203
100
AcDbSymbolTableRecord
100
AcDbLayerTableRecord
  2
05_CURVES
 70
0
 62
7
  6
CONTINUOUS
370
-3
390
F
  0
LAYER
  5
204
100
AcDbSymbolTableRecord
100
AcDbLayerTableRecord
  2
06_SURFS
 70
0
 62
7
  6
CONTINUOUS
370
-3
390
F
  0
LAYER
  5
205
100
AcDbSymbolTableRecord
100
AcDbLayerTableRecord
  2
07_COSMETICS
 70
0
 62
7
  6
CONTINUOUS
370
-3
390
F
  0
LAYER
  5
206
100
AcDbSymbolTableRecord
100
AcDbLayerTableRecord
  2
10_NOTES
 70
0
 62
7
  6
CONTINUOUS
370
-3
390
F
  0
LAYER
  5
207
100
AcDbSymbolTableRecord
100
AcDbLayerTableRecord
  2
11_NOTES_PUB
 70
0
 62
7
  6
CONTINUOUS
370
-3
390
F
  0
LAYER
  5
208
100
AcDbSymbolTableRecord
100
AcDbLayerTableRecord
  2
13_REF_GTOL
 70
0
 62
7
  6
CONTINUOUS
370
-3
390
F
  0
LAYER
  5
209
100
AcDbSymbolTableRecord
100
AcDbLayerTableRecord
  2
16_MISC
 70
0
 62
7
  6
CONTINUOUS
370
-3
390
F
  0
LAYER
  5
20A
100
AcDbSymbolTableRecord
100
AcDbLayerTableRecord
  2
17_NO_PRINT
 70
0
 62
7
  6
CONTINUOUS
370
-3
390
F
  0
LAYER
  5
20B
100
AcDbSymbolTableRecord
100
AcDbLayerTableRecord
  2
18_DATUM_CAMS_JOINTS
 70
0
 62
7
  6
CONTINUOUS
370
-3
390
F
  0
LAYER
  5
20C
100
AcDbSymbolTableRecord
100
AcDbLayerTableRecord
  2
19_DATUM_FUNCTIONAL
 70
0
 62
7
  6
CONTINUOUS
370
-3
390
F
  0
LAYER
  5
20D
100
AcDbSymbolTableRecord
100
AcDbLayerTableRecord
  2
20_DATUM_KINEMATIC_SCHEME
 70
0
 62
7
  6
CONTINUOUS
370
-3
390
F
  0
ENDTAB
  0
TABLE
  2
STYLE
  5
3
100
AcDbSymbolTable
 70
1
  0
STYLE
  5
11
100
AcDbSymbolTableRecord
100
AcDbTextStyleTableRecord
  2
STANDARD
 70
0
 40
0.0
 41
1.0
 50
0.0
 71
0
 42
0.2
  3
ARIAL.TTF
  4

  0
STYLE
  5
20E
100
AcDbSymbolTableRecord
100
AcDbTextStyleTableRecord
  2
TEXTSTYLE_1
 70
0
 40
0.0
 41
0.8
 50
0.0
 71
0
 42
0.2
  3
gdt
  4

  0
ENDTAB
  0
TABLE
  2
VIEW
  5
6
100
AcDbSymbolTable
 70
0
  0
ENDTAB
  0
TABLE
  2
UCS
  5
7
100
AcDbSymbolTable
 70
0
  0
ENDTAB
  0
TABLE
  2
APPID
  5
9
100
AcDbSymbolTable
 70
1
  0
APPID
  5
20F
100
AcDbSymbolTableRecord
100
AcDbRegAppTableRecord
  2
ACAD
 70
0
  0
ENDTAB
  0
TABLE
  2
BLOCK_RECORD
  5
1
100
AcDbSymbolTable
 70
0
  0
BLOCK_RECORD
  5
210
100
AcDbSymbolTableRecord
100
AcDbBlockTableRecord
  2
*Model_Space
  0
BLOCK_RECORD
  5
211
100
AcDbSymbolTableRecord
100
AcDbBlockTableRecord
  2
*Paper_Space
  0
BLOCK_RECORD
  5
212
100
AcDbSymbolTableRecord
100
AcDbBlockTableRecord
  2
_FILLED
  0
ENDTAB
  0
TABLE
  2
DIMSTYLE
  5
A
100
AcDbSymbolTable
 70
1
100
AcDbDimStyleTable
 71
0
  0
DIMSTYLE
105
213
100
AcDbSymbolTableRecord
100
AcDbDimStyleTableRecord
  2
STANDARD
 70
0
  3

  4

 40
1.0
 41
0.774363541
 42
1.0
 43
0.38
 44
1.0
 45
0.0
 46
0.0
 47
0.01
 48
0.01
140
1.0841089574
141
0.09
142
0.0
143
25.4
144
1.0
145
0.0
146
1.0
147
0.625
 71
1
 72
0
 73
0
 74
0
 75
0
 76
0
 77
1
 78
8
 79
2
170
0
171
1
172
0
173
0
174
0
175
0
176
0
177
0
178
0
270
2
179
2
271
2
272
2
273
2
274
2
275
0
280
0
281
0
282
0
283
1
284
8
285
0
286
0
287
3
288
0
340
11
278
46
341
212
342
212
343
212
344
212
  0
ENDTAB
  0
ENDSEC
  0
SECTION
  2
BLOCKS
  0
BLOCK
  5
20
100
AcDbEntity
  8
0
100
AcDbBlockBegin
  2
*Model_Space
 70
0
 10
0.0
 20
0.0
 30
0.0
  3
*Model_Space
  1

  0
ENDBLK
  5
21
100
AcDbEntity
  8
0
100
AcDbBlockEnd
  0
BLOCK
  5
1C
100
AcDbEntity
  8
0
100
AcDbBlockBegin
  2
*Paper_Space
 70
0
 10
0.0
 20
0.0
 30
0.0
  3
*Paper_Space
  1

  0
ENDBLK
  5
1D
100
AcDbEntity
  8
0
100
AcDbBlockEnd
  0
BLOCK
  5
214
100
AcDbEntity
  8
0
100
AcDbBlockBegin
  2
_FILLED
 70
64
 10
0.0
 20
0.0
  3
_FILLED
  1

  0
SOLID
  5
215
100
AcDbEntity
  8
0
  6
BYBLOCK
 62
0
100
AcDbTrace
 10
0.0
 20
0.0
 11
-1.0
 21
0.25
 12
-1.0
 22
-0.25
 13
-1.0
 23
-0.25
  0
ENDBLK
  5
216
100
AcDbEntity
  8
0
  6
BYBLOCK
 62
0
100
AcDbBlockEnd
  0
ENDSEC
  0
SECTION
  2
ENTITIES
  0
LINE
  5
217
100
AcDbEntity
  8
0
100
AcDbLine
 62
7
  6
BYLAYER
 10
7.7532590422
 20
15.8945439671
 11
11.3948741266
 21
13.7921040813
  0
LINE
  5
218
100
AcDbEntity
  8
0
100
AcDbLine
 62
7
  6
BYLAYER
 10
11.3948845958
 20
13.7921221883
 11
11.5960306485
 21
13.7456004496
  0
LINE
  5
219
100
AcDbEntity
  8
0
100
AcDbLine
 62
7
  6
BYLAYER
 10
11.1877618059
 20
14.2498902292
 11
7.5461467214
 21
16.3523301149
  0
LINE
  5
21A
100
AcDbEntity
  8
0
100
AcDbLine
 62
7
  6
BYLAYER
 10
13.6385123146
 20
15.8091709461
 11
13.7808466581
 21
15.7269960336
  0
LINE
  5
21B
100
AcDbEntity
  8
0
100
AcDbLine
 62
7
  6
BYLAYER
 10
13.6417724186
 20
15.819126124
 11
13.8150432669
 21
15.7190904162
  0
LINE
  5
21C
100
AcDbEntity
  8
0
100
AcDbLine
 62
7
  6
BYLAYER
 10
17.5055176656
 20
14.0297902827
 11
17.7066667662
 21
13.9832738152
  0
LINE
  5
21D
100
AcDbEntity
  8
0
100
AcDbLine
 62
7
  6
BYLAYER
 10
13.8150261174
 20
15.7190605198
 11
13.7808466581
 21
15.7269960336
  0
LINE
  5
21E
100
AcDbEntity
  8
0
100
AcDbLine
 62
7
  6
BYLAYER
 10
17.5055102443
 20
14.029777447
 11
13.8638951598
 21
16.1322173327
  0
LINE
  5
21F
100
AcDbEntity
  8
0
100
AcDbLine
 62
7
  6
BYLAYER
 10
17.2985734521
 20
14.505856823
 11
13.8615310025
 21
16.4901893149
  0
LINE
  5
220
100
AcDbEntity
  8
0
100
AcDbLine
 62
7
  6
BYLAYER
 10
15.4075812894
 20
16.7542424128
 11
17.3204099001
 21
15.6498952832
  0
LINE
  5
221
100
AcDbEntity
  8
0
100
AcDbLine
 62
7
  6
BYLAYER
 10
17.4913896617
 20
15.8713177092
 11
15.927085764
 21
16.7744485541
  0
LINE
  5
222
100
AcDbEntity
  8
0
100
AcDbLine
 62
7
  6
BYLAYER
 10
17.6628180302
 20
15.8779854205
 11
16.0985141324
 21
16.7811162654
  0
LINE
  5
223
100
AcDbEntity
  8
0
100
AcDbLine
 62
7
  6
BYLAYER
 10
7.5461467214
 20
22.1270809879
 11
11.1877618059
 21
20.0246411022
  0
LINE
  5
224
100
AcDbEntity
  8
0
100
AcDbLine
 62
7
  6
BYLAYER
 10
30.7055270107
 20
12.9799838654
 11
31.4169705887
 21
13.0076554836
  0
LINE
  5
225
100
AcDbEntity
  8
0
100
AcDbLine
 62
7
  6
BYLAYER
 10
36.8161631283
 20
13.217657231
 11
37.414330049
 21
13.2409229504
  0
LINE
  5
226
100
AcDbEntity
  8
0
100
AcDbLine
 62
7
  6
BYLAYER
 10
11.5960306485
 20
13.7456004496
 11
12.3074742265
 21
13.7732720678
  0
LINE
  5
227
100
AcDbEntity
  8
0
100
AcDbLine
 62
7
  6
BYLAYER
 10
17.7066667662
 20
13.9832738152
 11
18.3048336869
 21
14.0065395346
  0
LINE
  5
228
100
AcDbEntity
  8
0
100
AcDbLine
 62
7
  6
BYLAYER
 10
36.7723143923
 20
15.1123688364
 11
36.6008860238
 21
15.1057011251
  0
LINE
  5
229
100
AcDbEntity
  8
0
100
AcDbLine
 62
7
  6
BYLAYER
 10
32.8903430203
 20
14.9613794494
 11
32.7189146518
 21
14.9547117382
  0
LINE
  5
22A
100
AcDbEntity
  8
0
100
AcDbLine
 62
7
  6
BYLAYER
 10
30.5043809579
 20
13.0265056042
 11
30.7055270107
 21
12.9799838654
  0
LINE
  5
22B
100
AcDbEntity
  8
0
100
AcDbLine
 62
7
  6
BYLAYER
 10
36.6150140278
 20
13.2641736986
 11
36.8161631283
 21
13.217657231
  0
LINE
  5
22C
100
AcDbEntity
  8
0
100
AcDbLine
 62
7
  6
BYLAYER
 10
32.9245224795
 20
14.9534439357
 11
32.8903430203
 21
14.9613794494
  0
LINE
  5
22D
100
AcDbEntity
  8
0
100
AcDbLine
 62
7
  6
BYLAYER
 10
11.4203918466
 20
20.5425799652
 11
7.7787767621
 21
22.645019851
  0
LINE
  5
22E
100
AcDbEntity
  8
0
100
AcDbLine
 62
7
  6
BYLAYER
 10
33.038668096
 20
15.9311230469
 11
37.0920678365
 21
16.0887801451
  0
LINE
  5
22F
100
AcDbEntity
  8
0
100
AcDbLine
 62
7
  6
BYLAYER
 10
17.6628180302
 20
15.8779854205
 11
17.4913896617
 21
15.8713177092
  0
LINE
  5
230
100
AcDbEntity
  8
0
100
AcDbLine
 62
7
  6
BYLAYER
 10
13.7808466581
 20
15.7269960336
 11
13.6094182897
 21
15.7203283223
  0
LINE
  5
231
100
AcDbEntity
  8
0
100
AcDbLine
 62
7
  6
BYLAYER
 10
13.9291717338
 20
16.6967396311
 11
17.9825714743
 21
16.8543967293
  0
LINE
  5
232
100
AcDbEntity
  8
0
100
AcDbLine
 62
7
  6
BYLAYER
 10
9.7602866414
 20
24.6218299896
 11
13.4019017259
 21
22.5193901038
  0
LINE
  5
233
100
AcDbEntity
  8
0
100
AcDbLine
 62
7
  6
BYLAYER
 10
13.6437454817
 20
22.7082589487
 11
10.0021303972
 21
24.8106988345
  0
LINE
  5
234
100
AcDbEntity
  8
0
100
AcDbLine
 62
7
  6
BYLAYER
 10
26.8627554042
 20
15.128927383
 11
30.5043704887
 21
13.0264874972
  0
LINE
  5
235
100
AcDbEntity
  8
0
100
AcDbLine
 62
7
  6
BYLAYER
 10
30.297258168
 20
13.484273645
 11
26.6556430835
 21
15.5867135308
  0
LINE
  5
236
100
AcDbEntity
  8
0
100
AcDbLine
 62
7
  6
BYLAYER
 10
12.1423216633
 20
26.0463314624
 11
12.6019429846
 21
25.7809749719
  0
LINE
  5
237
100
AcDbEntity
  8
0
100
AcDbLine
 62
7
  6
BYLAYER
 10
15.4480596283
 20
24.137805935
 11
15.7839367478
 21
23.9438915766
  0
LINE
  5
238
100
AcDbEntity
  8
0
100
AcDbLine
 62
7
  6
BYLAYER
 10
7.5461467214
 20
16.3523301149
 11
7.5461467214
 21
22.1270809879
  0
LINE
  5
239
100
AcDbEntity
  8
0
100
AcDbLine
 62
7
  6
BYLAYER
 10
7.5461467214
 20
31.1904272735
 11
7.5461467214
 21
36.9651781465
  0
LINE
  5
23A
100
AcDbEntity
  8
0
100
AcDbLine
 62
7
  6
BYLAYER
 10
33.5676134151
 20
20.5652399068
 11
29.926013492
 21
20.6777408142
  0
LINE
  5
23B
100
AcDbEntity
  8
0
100
AcDbLine
 62
7
  6
BYLAYER
 10
32.7480086767
 20
15.0435543619
 11
32.8903430202
 21
14.9613794494
  0
LINE
  5
23C
100
AcDbEntity
  8
0
100
AcDbLine
 62
7
  6
BYLAYER
 10
32.7512687807
 20
15.0535095398
 11
32.924539629
 21
14.953473832
  0
LINE
  5
23D
100
AcDbEntity
  8
0
100
AcDbLine
 62
7
  6
BYLAYER
 10
36.6150066064
 20
13.2641608628
 11
32.9733915219
 21
15.3666007486
  0
LINE
  5
23E
100
AcDbEntity
  8
0
100
AcDbLine
 62
7
  6
BYLAYER
 10
27.1229820289
 20
19.0594195045
 11
26.45122779
 21
19.4472482213
  0
LINE
  5
23F
100
AcDbEntity
  8
0
100
AcDbLine
 62
7
  6
BYLAYER
 10
36.4080698142
 20
13.7402402389
 11
32.9710273646
 21
15.7245727307
  0
LINE
  5
240
100
AcDbEntity
  8
0
100
AcDbLine
 62
7
  6
BYLAYER
 10
26.353151987
 20
19.8132772199
 11
27.0249062259
 21
19.4254485031
  0
LINE
  5
241
100
AcDbEntity
  8
0
100
AcDbLine
 62
7
  6
BYLAYER
 10
11.2913179662
 20
28.8590943138
 11
7.6497028818
 21
30.9615341996
  0
LINE
  5
242
100
AcDbEntity
  8
0
100
AcDbLine
 62
7
  6
BYLAYER
 10
11.1877618059
 20
29.0879873877
 11
7.5461467214
 21
31.1904272735
  0
LINE
  5
243
100
AcDbEntity
  8
0
100
AcDbLine
 62
7
  6
BYLAYER
 10
12.6019429846
 20
28.3529575859
 11
15.4480596283
 21
26.709788549
  0
LINE
  5
244
100
AcDbEntity
  8
0
100
AcDbLine
 62
7
  6
BYLAYER
 10
34.5170776516
 20
15.9886258287
 11
36.4299062622
 21
14.8842786991
  0
LINE
  5
245
100
AcDbEntity
  8
0
100
AcDbLine
 62
7
  6
BYLAYER
 10
36.6008860238
 20
15.1057011251
 11
35.0365821261
 21
16.00883197
  0
LINE
  5
246
100
AcDbEntity
  8
0
100
AcDbLine
 62
7
  6
BYLAYER
 10
35.2080104946
 20
16.0154996812
 11
36.7723143923
 21
15.1123688364
  0
LINE
  5
247
100
AcDbEntity
  8
0
100
AcDbLine
 62
7
  6
BYLAYER
 10
10.9402734021
 20
16.3842679494
 11
10.9402734021
 21
18.112959956
  0
LINE
  5
248
100
AcDbEntity
  8
0
100
AcDbLine
 62
7
  6
BYLAYER
 10
10.9402734021
 20
31.285437062
 11
10.9402734021
 21
33.0141290687
  0
LINE
  5
249
100
AcDbEntity
  8
0
100
AcDbLine
 62
7
  6
BYLAYER
 10
45.4889004003
 20
79.1429342722
 11
33.9221324618
 21
72.4648975517
  0
LINE
  5
24A
100
AcDbEntity
  8
0
100
AcDbLine
 62
7
  6
BYLAYER
 10
15.4480596283
 20
28.0978426581
 11
13.5544016034
 21
29.1911218952
  0
LINE
  5
24B
100
AcDbEntity
  8
0
100
AcDbLine
 62
7
  6
BYLAYER
 10
30.297258168
 20
18.6771106951
 11
28.4764506256
 21
19.8408402989
  0
LINE
  5
24C
100
AcDbEntity
  8
0
100
AcDbLine
 62
7
  6
BYLAYER
 10
13.6787948157
 20
42.6465028788
 11
13.6569583676
 21
43.7653269311
  0
LINE
  5
24D
100
AcDbEntity
  8
0
100
AcDbLine
 62
7
  6
BYLAYER
 10
11.1877618059
 20
34.8627382607
 11
11.1877618059
 21
29.0879873877
  0
LINE
  5
24E
100
AcDbEntity
  8
0
100
AcDbLine
 62
7
  6
BYLAYER
 10
11.1877618059
 20
20.0246411022
 11
11.1877618059
 21
14.2498902292
  0
LINE
  5
24F
100
AcDbEntity
  8
0
100
AcDbLine
 62
7
  6
BYLAYER
 10
12.1423216633
 20
28.9520551814
 11
12.1423216633
 21
26.0463314624
  0
LINE
  5
250
100
AcDbEntity
  8
0
100
AcDbLine
 62
7
  6
BYLAYER
 10
12.6019429846
 20
25.7809749719
 11
12.6019429846
 21
28.3529575859
  0
LINE
  5
251
100
AcDbEntity
  8
0
100
AcDbLine
 62
7
  6
BYLAYER
 10
46.0969082085
 20
78.1875843561
 11
37.4255327908
 21
73.1811933086
  0
LINE
  5
252
100
AcDbEntity
  8
0
100
AcDbLine
 62
7
  6
BYLAYER
 10
39.2640180762
 20
72.1197673468
 11
42.3395407194
 21
73.8954105736
  0
LINE
  5
253
100
AcDbEntity
  8
0
100
AcDbLine
 62
7
  6
BYLAYER
 10
45.8320140809
 20
75.911778973
 11
47.9353934939
 21
77.1261583944
  0
LINE
  5
254
100
AcDbEntity
  8
0
100
AcDbLine
 62
7
  6
BYLAYER
 10
11.2913445171
 20
28.8591402466
 11
11.4203918466
 21
28.8386649546
  0
LINE
  5
255
100
AcDbEntity
  8
0
100
AcDbLine
 62
7
  6
BYLAYER
 10
7.5461467214
 20
36.9651781465
 11
11.1877618059
 21
34.8627382607
  0
LINE
  5
256
100
AcDbEntity
  8
0
100
AcDbLine
 62
7
  6
BYLAYER
 10
11.5960306485
 20
35.8384534787
 11
7.9544155641
 21
37.9408933645
  0
LINE
  5
257
100
AcDbEntity
  8
0
100
AcDbLine
 62
7
  6
BYLAYER
 10
13.9291717338
 20
35.5813774831
 11
13.6094182897
 21
36.1885715217
  0
LINE
  5
258
100
AcDbEntity
  8
0
100
AcDbLine
 62
7
  6
BYLAYER
 10
15.4480596283
 20
30.2819933258
 11
15.4480596283
 21
28.0978426581
  0
LINE
  5
259
100
AcDbEntity
  8
0
100
AcDbLine
 62
7
  6
BYLAYER
 10
15.4480596283
 20
26.709788549
 11
15.4480596283
 21
24.137805935
  0
LINE
  5
25A
100
AcDbEntity
  8
0
100
AcDbLine
 62
7
  6
BYLAYER
 10
15.7839367478
 20
23.9438915766
 11
15.7839367478
 21
30.4759109136
  0
LINE
  5
25B
100
AcDbEntity
  8
0
100
AcDbLine
 62
7
  6
BYLAYER
 10
27.0639119262
 20
64.854708721
 11
27.7753555042
 21
65.6485364816
  0
LINE
  5
25C
100
AcDbEntity
  8
0
100
AcDbLine
 62
7
  6
BYLAYER
 10
33.1745480438
 20
71.6729480522
 11
33.7727149645
 21
72.3403818752
  0
LINE
  5
25D
100
AcDbEntity
  8
0
100
AcDbLine
 62
7
  6
BYLAYER
 10
37.5637475463
 20
70.3624576659
 11
43.0112949583
 21
73.5075818568
  0
LINE
  5
25E
100
AcDbEntity
  8
0
100
AcDbLine
 62
7
  6
BYLAYER
 10
46.5037683198
 20
75.5239502561
 11
49.1305154848
 21
77.0404943864
  0
LINE
  5
25F
100
AcDbEntity
  8
0
100
AcDbLine
 62
7
  6
BYLAYER
 10
43.4939142439
 20
73.1020191564
 11
44.3055610189
 21
73.5706208432
  0
LINE
  5
260
100
AcDbEntity
  8
0
100
AcDbLine
 62
7
  6
BYLAYER
 10
44.0966286327
 20
73.2768548636
 11
44.0749261677
 21
73.2643250144
  0
LINE
  5
261
100
AcDbEntity
  8
0
100
AcDbLine
 62
7
  6
BYLAYER
 10
44.7683828715
 20
72.8890261468
 11
44.7466804066
 21
72.8764962976
  0
LINE
  5
262
100
AcDbEntity
  8
0
100
AcDbLine
 62
7
  6
BYLAYER
 10
56.1463055066
 20
31.8425356596
 11
56.2462386348
 21
31.8524011054
  0
LINE
  5
263
100
AcDbEntity
  8
0
100
AcDbLine
 62
7
  6
BYLAYER
 10
50.5354079531
 20
25.2834308375
 11
50.3942093536
 21
25.3017221567
  0
LINE
  5
264
100
AcDbEntity
  8
0
100
AcDbLine
 62
7
  6
BYLAYER
 10
13.8093451825
 20
36.6264218356
 11
13.0727825942
 21
36.9477554489
  0
LINE
  5
265
100
AcDbEntity
  8
0
100
AcDbLine
 62
7
  6
BYLAYER
 10
13.8150424899
 20
36.6235449444
 11
13.8093451825
 21
36.6264218356
  0
LINE
  5
266
100
AcDbEntity
  8
0
100
AcDbLine
 62
7
  6
BYLAYER
 10
10.167730098
 20
38.7288617214
 11
10.1734274055
 21
38.7259848301
  0
LINE
  5
267
100
AcDbEntity
  8
0
100
AcDbLine
 62
7
  6
BYLAYER
 10
8.665859142
 20
38.7347211251
 11
12.3074742265
 21
36.6322812393
  0
LINE
  5
268
100
AcDbEntity
  8
0
100
AcDbLine
 62
7
  6
BYLAYER
 10
13.0727825942
 20
36.9477554489
 11
9.4311675097
 21
39.0501953347
  0
LINE
  5
269
100
AcDbEntity
  8
0
100
AcDbLine
 62
7
  6
BYLAYER
 10
10.167730098
 20
38.7288617214
 11
13.8150432669
 21
36.6235462904
  0
LINE
  5
26A
100
AcDbEntity
  8
0
100
AcDbLine
 62
7
  6
BYLAYER
 10
46.232478391
 20
18.2938029203
 11
45.5607241521
 21
18.6816316371
  0
LINE
  5
26B
100
AcDbEntity
  8
0
100
AcDbLine
 62
7
  6
BYLAYER
 10
45.4626483491
 20
19.0476606357
 11
46.134402588
 21
18.6598319189
  0
LINE
  5
26C
100
AcDbEntity
  8
0
100
AcDbLine
 62
7
  6
BYLAYER
 10
13.7139913754
 20
42.5717844088
 11
13.6900274968
 21
42.5974189509
  0
LINE
  5
26D
100
AcDbEntity
  8
0
100
AcDbLine
 62
7
  6
BYLAYER
 10
17.2985734521
 20
41.6628870454
 11
17.3204099001
 21
40.544062993
  0
LINE
  5
26E
100
AcDbEntity
  8
0
100
AcDbLine
 62
7
  6
BYLAYER
 10
17.3204099001
 20
15.6498952832
 11
17.2985734521
 21
14.505856823
  0
LINE
  5
26F
100
AcDbEntity
  8
0
100
AcDbLine
 62
7
  6
BYLAYER
 10
29.9736625086
 20
65.241012805
 11
33.450452752
 21
69.1204105514
  0
LINE
  5
270
100
AcDbEntity
  8
0
100
AcDbLine
 62
7
  6
BYLAYER
 10
11.4203918466
 20
28.8386649546
 11
13.4019017259
 21
29.1498916826
  0
LINE
  5
271
100
AcDbEntity
  8
0
100
AcDbLine
 62
7
  6
BYLAYER
 10
57.4051874174
 20
32.5196906774
 11
57.5293172121
 21
32.5214224243
  0
LINE
  5
272
100
AcDbEntity
  8
0
100
AcDbLine
 62
7
  6
BYLAYER
 10
9.4311675097
 20
39.0501953347
 11
10.167730098
 21
38.7288617214
  0
LINE
  5
273
100
AcDbEntity
  8
0
100
AcDbLine
 62
7
  6
BYLAYER
 10
17.3316425812
 20
40.4949790651
 11
17.3556064599
 21
40.4693445231
  0
LINE
  5
274
100
AcDbEntity
  8
0
100
AcDbLine
 62
7
  6
BYLAYER
 10
17.6628180302
 20
40.7113493477
 11
17.9825714743
 21
40.1041553091
  0
LINE
  5
275
100
AcDbEntity
  8
0
100
AcDbLine
 62
7
  6
BYLAYER
 10
7.9544155641
 20
37.9408933645
 11
8.6658591421
 21
38.7347211251
  0
LINE
  5
276
100
AcDbEntity
  8
0
100
AcDbLine
 62
7
  6
BYLAYER
 10
14.0650516818
 20
44.7591326957
 11
14.6632186024
 21
45.4265665187
  0
LINE
  5
277
100
AcDbEntity
  8
0
100
AcDbLine
 62
7
  6
BYLAYER
 10
37.4143300491
 20
70.2379419895
 11
36.8161631283
 21
69.5705081664
  0
LINE
  5
278
100
AcDbEntity
  8
0
100
AcDbLine
 62
7
  6
BYLAYER
 10
31.4169705887
 20
63.5460965959
 11
30.7055270107
 21
62.7522688353
  0
LINE
  5
279
100
AcDbEntity
  8
0
100
AcDbLine
 62
7
  6
BYLAYER
 10
32.7189146518
 20
63.1023868782
 11
32.8903430203
 21
63.2936664147
  0
LINE
  5
27A
100
AcDbEntity
  8
0
100
AcDbLine
 62
7
  6
BYLAYER
 10
36.6008860238
 20
67.4338851677
 11
36.7723143923
 21
67.6251647042
  0
LINE
  5
27B
100
AcDbEntity
  8
0
100
AcDbLine
 62
7
  6
BYLAYER
 10
10.8641661465
 20
38.3271974485
 11
14.3409563899
 21
42.2065951948
  0
LINE
  5
27C
100
AcDbEntity
  8
0
100
AcDbLine
 62
7
  6
BYLAYER
 10
37.0920678365
 20
67.0179706656
 11
33.038668096
 21
62.4951928396
  0
LINE
  5
27D
100
AcDbEntity
  8
0
100
AcDbLine
 62
7
  6
BYLAYER
 10
30.0497697642
 20
58.1992524185
 11
29.7937614579
 21
57.9556390665
  0
LINE
  5
27E
100
AcDbEntity
  8
0
100
AcDbLine
 62
7
  6
BYLAYER
 10
55.7944160971
 20
35.2447172475
 11
56.0012990882
 21
35.2476034922
  0
LINE
  5
27F
100
AcDbEntity
  8
0
100
AcDbLine
 62
7
  6
BYLAYER
 10
13.7139740703
 20
42.5717546265
 11
17.9825714743
 21
40.1041553091
  0
LINE
  5
280
100
AcDbEntity
  8
0
100
AcDbLine
 62
7
  6
BYLAYER
 10
17.3204099001
 20
40.544062993
 11
13.6787948156
 21
42.6465028788
  0
LINE
  5
281
100
AcDbEntity
  8
0
100
AcDbLine
 62
7
  6
BYLAYER
 10
13.6569583676
 20
43.7653269311
 11
17.2985734521
 21
41.6628870454
  0
LINE
  5
282
100
AcDbEntity
  8
0
100
AcDbLine
 62
7
  6
BYLAYER
 10
26.45122779
 20
19.4472482213
 11
26.353151987
 21
19.8132772199
  0
LINE
  5
283
100
AcDbEntity
  8
0
100
AcDbLine
 62
7
  6
BYLAYER
 10
27.0249062259
 20
19.4254485031
 11
27.1229820289
 21
19.0594195045
  0
LINE
  5
284
100
AcDbEntity
  8
0
100
AcDbLine
 62
7
  6
BYLAYER
 10
13.6094182897
 20
15.7203283223
 11
13.9291717338
 21
16.6967396311
  0
LINE
  5
285
100
AcDbEntity
  8
0
100
AcDbLine
 62
7
  6
BYLAYER
 10
18.3048336869
 20
43.3241266329
 11
17.7066667662
 21
42.6566928099
  0
LINE
  5
286
100
AcDbEntity
  8
0
100
AcDbLine
 62
7
  6
BYLAYER
 10
12.3074742265
 20
36.6322812393
 11
11.5960306485
 21
35.8384534787
  0
LINE
  5
287
100
AcDbEntity
  8
0
100
AcDbLine
 62
7
  6
BYLAYER
 10
32.7532418438
 20
56.5827574113
 11
34.8934331099
 21
57.8183900392
  0
LINE
  5
288
100
AcDbEntity
  8
0
100
AcDbLine
 62
7
  6
BYLAYER
 10
14.8126360993
 20
45.5510821949
 11
27.561690167
 21
52.9117080558
  0
LINE
  5
289
100
AcDbEntity
  8
0
100
AcDbLine
 62
7
  6
BYLAYER
 10
50.2283785986
 20
33.9806479294
 11
50.0920754471
 21
33.9998780099
  0
LINE
  5
28A
100
AcDbEntity
  8
0
100
AcDbLine
 62
7
  6
BYLAYER
 10
17.7066667662
 20
42.6566928099
 11
14.0650516817
 21
44.7591326957
  0
LINE
  5
28B
100
AcDbEntity
  8
0
100
AcDbLine
 62
7
  6
BYLAYER
 10
14.6632186024
 20
45.4265665187
 11
18.3048336869
 21
43.3241266329
  0
LINE
  5
28C
100
AcDbEntity
  8
0
100
AcDbLine
 62
7
  6
BYLAYER
 10
18.454251184
 20
43.4486423093
 11
14.8126360996
 21
45.5510821951
  0
LINE
  5
28D
100
AcDbEntity
  8
0
100
AcDbLine
 62
7
  6
BYLAYER
 10
50.3348020135
 20
25.3992481105
 11
50.535407953
 21
25.2834308375
  0
LINE
  5
28E
100
AcDbEntity
  8
0
100
AcDbLine
 62
7
  6
BYLAYER
 10
51.7974570039
 20
24.9124426319
 11
54.6640946723
 21
23.2574260438
  0
LINE
  5
28F
100
AcDbEntity
  8
0
100
AcDbLine
 62
7
  6
BYLAYER
 10
54.6640921116
 20
23.7193110391
 11
52.3113356877
 21
25.0776448641
  0
LINE
  5
290
100
AcDbEntity
  8
0
100
AcDbLine
 62
7
  6
BYLAYER
 10
24.271164328
 20
46.3843658802
 11
24.2430429201
 21
46.489317871
  0
LINE
  5
291
100
AcDbEntity
  8
0
100
AcDbLine
 62
7
  6
BYLAYER
 10
26.6556430835
 20
19.3292316665
 11
26.6556430835
 21
15.5867135308
  0
LINE
  5
292
100
AcDbEntity
  8
0
100
AcDbLine
 62
7
  6
BYLAYER
 10
26.6556430835
 20
58.2470458253
 11
26.6556430835
 21
63.878993503
  0
LINE
  5
293
100
AcDbEntity
  8
0
100
AcDbLine
 62
7
  6
BYLAYER
 10
26.3531519869
 20
48.3620587329
 11
26.3810127896
 21
48.49820881
  0
LINE
  5
294
100
AcDbEntity
  8
0
100
AcDbLine
 62
7
  6
BYLAYER
 10
27.0527670286
 20
48.1103800932
 11
27.0249062258
 21
47.974230016
  0
LINE
  5
295
100
AcDbEntity
  8
0
100
AcDbLine
 62
7
  6
BYLAYER
 10
25.1960646567
 20
46.6568054867
 11
26.9874118464
 21
51.2737689996
  0
LINE
  5
296
100
AcDbEntity
  8
0
100
AcDbLine
 62
7
  6
BYLAYER
 10
13.6094182897
 20
36.1885715217
 11
13.7808466581
 21
36.3798510582
  0
LINE
  5
297
100
AcDbEntity
  8
0
100
AcDbLine
 62
7
  6
BYLAYER
 10
17.4913896617
 20
40.5200698111
 11
17.6628180302
 21
40.7113493477
  0
LINE
  5
298
100
AcDbEntity
  8
0
100
AcDbLine
 62
7
  6
BYLAYER
 10
17.9825714743
 20
40.1041553091
 11
13.9291717338
 21
35.5813774831
  0
LINE
  5
299
100
AcDbEntity
  8
0
100
AcDbLine
 62
7
  6
BYLAYER
 10
26.9874118464
 20
51.2737689996
 11
18.3160364287
 21
46.267377952
  0
LINE
  5
29A
100
AcDbEntity
  8
0
100
AcDbLine
 62
7
  6
BYLAYER
 10
31.2518180254
 20
52.9397342585
 11
31.20329009
 21
52.9117168092
  0
LINE
  5
29B
100
AcDbEntity
  8
0
100
AcDbLine
 62
7
  6
BYLAYER
 10
31.7114393468
 20
53.1234540974
 11
33.9388734716
 21
54.4094561126
  0
LINE
  5
29C
100
AcDbEntity
  8
0
100
AcDbLine
 62
7
  6
BYLAYER
 10
54.3741438252
 20
65.6362063264
 11
53.3389161211
 21
65.0385209004
  0
LINE
  5
29D
100
AcDbEntity
  8
0
100
AcDbLine
 62
7
  6
BYLAYER
 10
28.8258971318
 20
50.2123430378
 11
26.7225177187
 21
48.9979636164
  0
LINE
  5
29E
100
AcDbEntity
  8
0
100
AcDbLine
 62
7
  6
BYLAYER
 10
23.2300443578
 20
46.9815952174
 11
20.1545217141
 21
45.2059519903
  0
LINE
  5
29F
100
AcDbEntity
  8
0
100
AcDbLine
 62
7
  6
BYLAYER
 10
18.3160364287
 20
46.267377952
 11
20.5070017673
 21
45.4094552292
  0
LINE
  5
2A0
100
AcDbEntity
  8
0
100
AcDbLine
 62
7
  6
BYLAYER
 10
20.1545217141
 20
45.2059519903
 11
18.3160364287
 21
46.267377952
  0
LINE
  5
2A1
100
AcDbEntity
  8
0
100
AcDbLine
 62
7
  6
BYLAYER
 10
54.6533286682
 20
25.9620820682
 11
55.6325510998
 21
25.3967405234
  0
LINE
  5
2A2
100
AcDbEntity
  8
0
100
AcDbLine
 62
7
  6
BYLAYER
 10
29.926013492
 20
20.6777408142
 11
29.926013492
 21
50.0718278309
  0
LINE
  5
2A3
100
AcDbEntity
  8
0
100
AcDbLine
 62
7
  6
BYLAYER
 10
30.0497697642
 20
59.9279444252
 11
30.0497697642
 21
58.1992524185
  0
LINE
  5
2A4
100
AcDbEntity
  8
0
100
AcDbLine
 62
7
  6
BYLAYER
 10
30.0497697642
 20
17.3473433719
 11
30.0497697642
 21
15.6186513653
  0
LINE
  5
2A5
100
AcDbEntity
  8
0
100
AcDbLine
 62
7
  6
BYLAYER
 10
30.297258168
 20
61.7765536173
 11
30.297258168
 21
56.1446059395
  0
LINE
  5
2A6
100
AcDbEntity
  8
0
100
AcDbLine
 62
7
  6
BYLAYER
 10
30.297258168
 20
13.484273645
 11
30.297258168
 21
18.6771106951
  0
LINE
  5
2A7
100
AcDbEntity
  8
0
100
AcDbLine
 62
7
  6
BYLAYER
 10
24.1730885249
 20
17.3563078621
 11
24.271164328
 21
17.8355843672
  0
LINE
  5
2A8
100
AcDbEntity
  8
0
100
AcDbLine
 62
7
  6
BYLAYER
 10
17.9825714743
 20
16.8543967293
 11
17.6628180302
 21
15.8779854205
  0
LINE
  5
2A9
100
AcDbEntity
  8
0
100
AcDbLine
 62
7
  6
BYLAYER
 10
10.9402734021
 20
31.285437062
 11
10.6842650958
 21
31.04182371
  0
LINE
  5
2AA
100
AcDbEntity
  8
0
100
AcDbLine
 62
7
  6
BYLAYER
 10
18.454251184
 20
43.4486423093
 11
23.9017985967
 21
46.5937665006
  0
LINE
  5
2AB
100
AcDbEntity
  8
0
100
AcDbLine
 62
7
  6
BYLAYER
 10
27.3942719576
 20
48.6101348996
 11
29.926013492
 21
50.0718278309
  0
LINE
  5
2AC
100
AcDbEntity
  8
0
100
AcDbLine
 62
7
  6
BYLAYER
 10
24.3844178818
 20
46.1882037999
 11
25.1960646567
 21
46.6568054867
  0
LINE
  5
2AD
100
AcDbEntity
  8
0
100
AcDbLine
 62
7
  6
BYLAYER
 10
56.3677540966
 20
64.6234794773
 11
55.7933767318
 21
64.2918645306
  0
LINE
  5
2AE
100
AcDbEntity
  8
0
100
AcDbLine
 62
7
  6
BYLAYER
 10
24.9871322705
 20
46.3630395071
 11
24.9654298055
 21
46.3505096579
  0
LINE
  5
2AF
100
AcDbEntity
  8
0
100
AcDbLine
 62
7
  6
BYLAYER
 10
25.6588865094
 20
45.9752107903
 11
25.6371840444
 21
45.9626809411
  0
LINE
  5
2B0
100
AcDbEntity
  8
0
100
AcDbLine
 62
7
  6
BYLAYER
 10
34.8934331099
 20
50.8372943727
 11
33.5676134151
 21
50.0718365842
  0
LINE
  5
2B1
100
AcDbEntity
  8
0
100
AcDbLine
 62
7
  6
BYLAYER
 10
51.1327979663
 20
36.2199763959
 11
51.0483330795
 21
36.243425398
  0
LINE
  5
2B2
100
AcDbEntity
  8
0
100
AcDbLine
 62
7
  6
BYLAYER
 10
23.2300443578
 20
46.9815952174
 11
23.9017985967
 21
46.5937665006
  0
LINE
  5
2B3
100
AcDbEntity
  8
0
100
AcDbLine
 62
7
  6
BYLAYER
 10
24.1517943544
 20
46.6185304426
 11
23.4800401155
 21
47.0063591594
  0
LINE
  5
2B4
100
AcDbEntity
  8
0
100
AcDbLine
 62
7
  6
BYLAYER
 10
25.6371840444
 20
45.9626809411
 11
24.9654298055
 21
46.3505096579
  0
LINE
  5
2B5
100
AcDbEntity
  8
0
100
AcDbLine
 62
7
  6
BYLAYER
 10
24.9871322705
 20
46.3630395071
 11
25.6588865094
 21
45.9752107903
  0
LINE
  5
2B6
100
AcDbEntity
  8
0
100
AcDbLine
 62
7
  6
BYLAYER
 10
53.5945774376
 20
30.015514947
 11
57.2361925221
 21
27.9130750612
  0
LINE
  5
2B7
100
AcDbEntity
  8
0
100
AcDbLine
 62
7
  6
BYLAYER
 10
25.1960646567
 20
46.6568054867
 11
25.2701300623
 21
46.6140447723
  0
LINE
  5
2B8
100
AcDbEntity
  8
0
100
AcDbLine
 62
7
  6
BYLAYER
 10
57.5914662845
 20
28.5264376062
 11
53.9498511999
 21
30.628877492
  0
LINE
  5
2B9
100
AcDbEntity
  8
0
100
AcDbLine
 62
7
  6
BYLAYER
 10
32.7882911778
 20
69.5603182353
 11
32.7664547297
 21
70.6791422877
  0
LINE
  5
2BA
100
AcDbEntity
  8
0
100
AcDbLine
 62
7
  6
BYLAYER
 10
31.2518180254
 20
52.9397342585
 11
31.2518180254
 21
56.2945343069
  0
LINE
  5
2BB
100
AcDbEntity
  8
0
100
AcDbLine
 62
7
  6
BYLAYER
 10
31.7114393468
 20
53.1234540974
 11
31.7114393468
 21
55.6954367114
  0
LINE
  5
2BC
100
AcDbEntity
  8
0
100
AcDbLine
 62
7
  6
BYLAYER
 10
13.0727825942
 20
14.3414945674
 11
13.8093451825
 21
15.5133323212
  0
LINE
  5
2BD
100
AcDbEntity
  8
0
100
AcDbLine
 62
7
  6
BYLAYER
 10
7.7787767621
 20
22.6450198509
 11
9.7602866415
 21
24.6218299895
  0
LINE
  5
2BE
100
AcDbEntity
  8
0
100
AcDbLine
 62
7
  6
BYLAYER
 10
50.0155348791
 20
34.1035305282
 11
50.2283785985
 21
33.9806479295
  0
LINE
  5
2BF
100
AcDbEntity
  8
0
100
AcDbLine
 62
7
  6
BYLAYER
 10
27.0249062259
 20
47.974230016
 11
26.353151987
 21
48.3620587328
  0
LINE
  5
2C0
100
AcDbEntity
  8
0
100
AcDbLine
 62
7
  6
BYLAYER
 10
26.3810127897
 20
48.49820881
 11
27.0527670286
 21
48.1103800932
  0
LINE
  5
2C1
100
AcDbEntity
  8
0
100
AcDbLine
 62
7
  6
BYLAYER
 10
56.1463033396
 20
31.8425319061
 11
52.5556111343
 21
33.915572119
  0
LINE
  5
2C2
100
AcDbEntity
  8
0
100
AcDbLine
 62
7
  6
BYLAYER
 10
56.1048808755
 20
31.9340891357
 11
52.6307809634
 21
33.9398162795
  0
LINE
  5
2C3
100
AcDbEntity
  8
0
100
AcDbLine
 62
7
  6
BYLAYER
 10
27.3942719576
 20
48.6101348996
 11
26.7225177187
 21
48.9979636164
  0
LINE
  5
2C4
100
AcDbEntity
  8
0
100
AcDbLine
 62
7
  6
BYLAYER
 10
33.5676134151
 20
50.0718365842
 11
33.5676134151
 21
20.5652399068
  0
LINE
  5
2C5
100
AcDbEntity
  8
0
100
AcDbLine
 62
7
  6
BYLAYER
 10
34.5575559905
 20
57.6244724514
 11
34.5575559905
 21
55.4403217836
  0
LINE
  5
2C6
100
AcDbEntity
  8
0
100
AcDbLine
 62
7
  6
BYLAYER
 10
34.5575559905
 20
54.0522676745
 11
34.5575559905
 21
51.4802850605
  0
LINE
  5
2C7
100
AcDbEntity
  8
0
100
AcDbLine
 62
7
  6
BYLAYER
 10
34.8934331099
 20
50.8372943727
 11
34.8934331099
 21
57.8183900392
  0
LINE
  5
2C8
100
AcDbEntity
  8
0
100
AcDbLine
 62
7
  6
BYLAYER
 10
44.3055610189
 20
73.5706208432
 11
46.0969082085
 21
78.1875843561
  0
LINE
  5
2C9
100
AcDbEntity
  8
0
100
AcDbLine
 62
7
  6
BYLAYER
 10
13.4019017259
 20
22.5193901038
 11
11.4203918466
 21
20.5425799652
  0
LINE
  5
2CA
100
AcDbEntity
  8
0
100
AcDbLine
 62
7
  6
BYLAYER
 10
57.2661985194
 20
38.1193541441
 11
57.3842681409
 21
38.0775619413
  0
LINE
  5
2CB
100
AcDbEntity
  8
0
100
AcDbLine
 62
7
  6
BYLAYER
 10
58.0964436539
 20
38.900518447
 11
57.9167340496
 21
38.9723508843
  0
LINE
  5
2CC
100
AcDbEntity
  8
0
100
AcDbLine
 62
7
  6
BYLAYER
 10
57.3793324173
 20
32.5065860645
 11
57.5914662845
 21
32.38411329
  0
LINE
  5
2CD
100
AcDbEntity
  8
0
100
AcDbLine
 62
7
  6
BYLAYER
 10
51.0175676583
 20
36.2865031401
 11
51.1327979662
 21
36.2199763959
  0
LINE
  5
2CE
100
AcDbEntity
  8
0
100
AcDbLine
 62
7
  6
BYLAYER
 10
26.9874118464
 20
51.2737689996
 11
28.8258971318
 21
50.2123430378
  0
LINE
  5
2CF
100
AcDbEntity
  8
0
100
AcDbLine
 62
7
  6
BYLAYER
 10
55.7495702522
 20
35.2238889782
 11
56.1048808755
 21
35.018754935
  0
LINE
  5
2D0
100
AcDbEntity
  8
0
100
AcDbLine
 62
7
  6
BYLAYER
 10
53.8791711391
 20
37.0178015443
 11
53.1061358188
 21
37.4641035978
  0
LINE
  5
2D1
100
AcDbEntity
  8
0
100
AcDbLine
 62
7
  6
BYLAYER
 10
53.5869319218
 20
37.8890865732
 11
54.4876185033
 21
37.3690866969
  0
LINE
  5
2D2
100
AcDbEntity
  8
0
100
AcDbLine
 62
7
  6
BYLAYER
 10
36.4080698142
 20
68.5767024019
 11
36.4299062623
 21
67.4578783495
  0
LINE
  5
2D3
100
AcDbEntity
  8
0
100
AcDbLine
 62
7
  6
BYLAYER
 10
36.4299062623
 20
14.884278699
 11
36.4080698142
 21
13.7402402388
  0
LINE
  5
2D4
100
AcDbEntity
  8
0
100
AcDbLine
 62
7
  6
BYLAYER
 10
15.7839367478
 20
30.4759109136
 11
13.6437454817
 21
29.2402782858
  0
LINE
  5
2D5
100
AcDbEntity
  8
0
100
AcDbLine
 62
7
  6
BYLAYER
 10
29.926013492
 20
50.0718278309
 11
33.5676134151
 21
50.0718365842
  0
LINE
  5
2D6
100
AcDbEntity
  8
0
100
AcDbLine
 62
7
  6
BYLAYER
 10
54.2751189651
 20
41.0747907701
 11
54.4548285694
 21
41.0029583328
  0
LINE
  5
2D7
100
AcDbEntity
  8
0
100
AcDbLine
 62
7
  6
BYLAYER
 10
54.628501122
 20
37.6279578875
 11
53.6776078576
 21
38.17694395
  0
LINE
  5
2D8
100
AcDbEntity
  8
0
100
AcDbLine
 62
7
  6
BYLAYER
 10
53.6670399879
 20
38.5701054407
 11
54.5963632766
 21
38.0335725279
  0
LINE
  5
2D9
100
AcDbEntity
  8
0
100
AcDbLine
 62
7
  6
BYLAYER
 10
55.6231297147
 20
37.6033280066
 11
57.2379143659
 21
36.6710527444
  0
LINE
  5
2DA
100
AcDbEntity
  8
0
100
AcDbLine
 62
7
  6
BYLAYER
 10
54.7020252406
 20
38.2277259209
 11
53.6670399879
 21
38.8252614171
  0
LINE
  5
2DB
100
AcDbEntity
  8
0
100
AcDbLine
 62
7
  6
BYLAYER
 10
53.6670399879
 20
39.145950632
 11
54.9797542178
 21
38.3880718635
  0
LINE
  5
2DC
100
AcDbEntity
  8
0
100
AcDbLine
 62
7
  6
BYLAYER
 10
57.5914662845
 20
37.2834260299
 11
56.1949245773
 21
38.0897015201
  0
LINE
  5
2DD
100
AcDbEntity
  8
0
100
AcDbLine
 62
7
  6
BYLAYER
 10
56.6574105197
 20
38.1591900819
 11
57.5914662845
 21
37.6199249345
  0
LINE
  5
2DE
100
AcDbEntity
  8
0
100
AcDbLine
 62
7
  6
BYLAYER
 10
31.2518180254
 20
52.9397342585
 11
34.8934331099
 21
50.8372943727
  0
LINE
  5
2DF
100
AcDbEntity
  8
0
100
AcDbLine
 62
7
  6
BYLAYER
 10
34.5575559905
 20
51.4802850605
 11
31.7114393468
 21
53.1234540974
  0
LINE
  5
2E0
100
AcDbEntity
  8
0
100
AcDbLine
 62
7
  6
BYLAYER
 10
45.5607241521
 20
18.6816316371
 11
45.4626483491
 21
19.0476606357
  0
LINE
  5
2E1
100
AcDbEntity
  8
0
100
AcDbLine
 62
7
  6
BYLAYER
 10
46.134402588
 20
18.6598319189
 11
46.232478391
 21
18.2938029203
  0
LINE
  5
2E2
100
AcDbEntity
  8
0
100
AcDbLine
 62
7
  6
BYLAYER
 10
45.4626483491
 20
75.2758740894
 11
45.4905091518
 21
75.4120241665
  0
LINE
  5
2E3
100
AcDbEntity
  8
0
100
AcDbLine
 62
7
  6
BYLAYER
 10
46.1622633907
 20
75.0241954497
 11
46.134402588
 21
74.8880453725
  0
LINE
  5
2E4
100
AcDbEntity
  8
0
100
AcDbLine
 62
7
  6
BYLAYER
 10
57.1789102947
 20
65.3871235171
 11
58.2091755347
 21
66.814953679
  0
LINE
  5
2E5
100
AcDbEntity
  8
0
100
AcDbLine
 62
7
  6
BYLAYER
 10
10.9402734021
 20
16.3842679494
 11
10.6842650958
 21
16.1406545974
  0
LINE
  5
2E6
100
AcDbEntity
  8
0
100
AcDbLine
 62
7
  6
BYLAYER
 10
10.0021303974
 20
24.8106988346
 11
12.1423216633
 21
26.0463314624
  0
LINE
  5
2E7
100
AcDbEntity
  8
0
100
AcDbLine
 62
7
  6
BYLAYER
 10
12.6019429846
 20
25.7809749719
 11
14.8293771094
 21
27.0669769871
  0
LINE
  5
2E8
100
AcDbEntity
  8
0
100
AcDbLine
 62
7
  6
BYLAYER
 10
31.20329009
 20
52.9117168092
 11
27.561690167
 21
52.9117080558
  0
LINE
  5
2E9
100
AcDbEntity
  8
0
100
AcDbLine
 62
7
  6
BYLAYER
 10
54.0237936048
 20
41.1265831186
 11
57.6654086893
 21
39.0241432328
  0
LINE
  5
2EA
100
AcDbEntity
  8
0
100
AcDbLine
 62
7
  6
BYLAYER
 10
54.2751189651
 20
41.0747907701
 11
57.9167340496
 21
38.9723508843
  0
LINE
  5
2EB
100
AcDbEntity
  8
0
100
AcDbLine
 62
7
  6
BYLAYER
 10
54.4548615469
 20
41.0030155146
 11
58.0964766314
 21
38.9005756288
  0
LINE
  5
2EC
100
AcDbEntity
  8
0
100
AcDbLine
 62
7
  6
BYLAYER
 10
26.6556430835
 20
58.2470458253
 11
30.297258168
 21
56.1446059395
  0
LINE
  5
2ED
100
AcDbEntity
  8
0
100
AcDbLine
 62
7
  6
BYLAYER
 10
31.7114393468
 20
55.6954367114
 11
34.5575559905
 21
54.0522676745
  0
LINE
  5
2EE
100
AcDbEntity
  8
0
100
AcDbLine
 62
7
  6
BYLAYER
 10
33.038668096
 20
62.4951928396
 11
32.7189146518
 21
63.1023868782
  0
LINE
  5
2EF
100
AcDbEntity
  8
0
100
AcDbLine
 62
7
  6
BYLAYER
 10
32.7189146518
 20
14.9547117382
 11
33.038668096
 21
15.9311230469
  0
LINE
  5
2F0
100
AcDbEntity
  8
0
100
AcDbLine
 62
7
  6
BYLAYER
 10
15.7839367478
 20
23.9438915766
 11
13.6437454817
 21
22.7082589487
  0
LINE
  5
2F1
100
AcDbEntity
  8
0
100
AcDbLine
 62
7
  6
BYLAYER
 10
30.297258168
 20
56.1446059395
 11
32.5113980881
 21
56.4923708082
  0
LINE
  5
2F2
100
AcDbEntity
  8
0
100
AcDbLine
 62
7
  6
BYLAYER
 10
34.5575559905
 20
55.4403217836
 11
32.6590907352
 21
56.5363764137
  0
LINE
  5
2F3
100
AcDbEntity
  8
0
100
AcDbLine
 62
7
  6
BYLAYER
 10
37.0920678365
 20
16.0887801451
 11
36.7723143923
 21
15.1123688364
  0
LINE
  5
2F4
100
AcDbEntity
  8
0
100
AcDbLine
 62
7
  6
BYLAYER
 10
26.6556430835
 20
63.878993503
 11
30.297258168
 21
61.7765536173
  0
LINE
  5
2F5
100
AcDbEntity
  8
0
100
AcDbLine
 62
7
  6
BYLAYER
 10
30.7055270107
 20
62.7522688352
 11
27.0639119262
 21
64.854708721
  0
LINE
  5
2F6
100
AcDbEntity
  8
0
100
AcDbLine
 62
7
  6
BYLAYER
 10
27.7753555042
 20
65.6485364817
 11
31.4169705887
 21
63.5460965959
  0
LINE
  5
2F7
100
AcDbEntity
  8
0
100
AcDbLine
 62
7
  6
BYLAYER
 10
36.7723143923
 20
67.6251647042
 11
37.0920678365
 21
67.0179706656
  0
LINE
  5
2F8
100
AcDbEntity
  8
0
100
AcDbLine
 62
7
  6
BYLAYER
 10
49.4244169647
 20
20.5449097233
 11
49.4244169647
 21
23.2593766505
  0
LINE
  5
2F9
100
AcDbEntity
  8
0
100
AcDbLine
 62
7
  6
BYLAYER
 10
43.2825848871
 20
16.5906912779
 11
43.3806606901
 21
17.0699677831
  0
LINE
  5
2FA
100
AcDbEntity
  8
0
100
AcDbLine
 62
7
  6
BYLAYER
 10
32.1822789563
 20
13.5758779832
 11
32.9188415447
 21
14.747715737
  0
LINE
  5
2FB
100
AcDbEntity
  8
0
100
AcDbLine
 62
7
  6
BYLAYER
 10
32.9188415447
 20
63.5402371922
 11
32.1822789563
 21
63.8615708055
  0
LINE
  5
2FC
100
AcDbEntity
  8
0
100
AcDbLine
 62
7
  6
BYLAYER
 10
28.5406638718
 20
65.9640106912
 11
29.2772264602
 21
65.6426770779
  0
LINE
  5
2FD
100
AcDbEntity
  8
0
100
AcDbLine
 62
7
  6
BYLAYER
 10
32.924538852
 20
63.5373603009
 11
32.9188415447
 21
63.5402371922
  0
LINE
  5
2FE
100
AcDbEntity
  8
0
100
AcDbLine
 62
7
  6
BYLAYER
 10
29.2772264602
 20
65.6426770779
 11
29.2829237676
 21
65.6398001867
  0
LINE
  5
2FF
100
AcDbEntity
  8
0
100
AcDbLine
 62
7
  6
BYLAYER
 10
32.1822789563
 20
63.8615708055
 11
28.5406638718
 21
65.9640106913
  0
LINE
  5
300
100
AcDbEntity
  8
0
100
AcDbLine
 62
7
  6
BYLAYER
 10
29.2772264601
 20
65.642677078
 11
32.924539629
 21
63.5373616469
  0
LINE
  5
301
100
AcDbEntity
  8
0
100
AcDbLine
 62
7
  6
BYLAYER
 10
32.8234877375
 20
69.4855997654
 11
32.7995238589
 21
69.5112343074
  0
LINE
  5
302
100
AcDbEntity
  8
0
100
AcDbLine
 62
7
  6
BYLAYER
 10
36.4411389434
 20
67.4087944216
 11
36.465102822
 21
67.3831598796
  0
LINE
  5
303
100
AcDbEntity
  8
0
100
AcDbLine
 62
7
  6
BYLAYER
 10
56.0012990882
 20
35.2476034922
 11
56.1048808755
 21
35.018754935
  0
LINE
  5
304
100
AcDbEntity
  8
0
100
AcDbLine
 62
7
  6
BYLAYER
 10
57.5293172121
 20
32.5214224243
 11
57.5914662845
 21
32.3841132899
  0
LINE
  5
305
100
AcDbEntity
  8
0
100
AcDbLine
 62
7
  6
BYLAYER
 10
56.1048808755
 20
31.9340891357
 11
56.1463055066
 21
31.8425356596
  0
LINE
  5
306
100
AcDbEntity
  8
0
100
AcDbLine
 62
7
  6
BYLAYER
 10
43.3806606901
 20
73.2981812367
 11
43.3525392822
 21
73.4031332275
  0
LINE
  5
307
100
AcDbEntity
  8
0
100
AcDbLine
 62
7
  6
BYLAYER
 10
50.2906191652
 20
32.98144618
 11
50.2906191652
 21
25.5305563249
  0
LINE
  5
308
100
AcDbEntity
  8
0
100
AcDbLine
 62
7
  6
BYLAYER
 10
54.7020252406
 20
38.2277259209
 11
54.9797542178
 21
38.3880718635
  0
LINE
  5
309
100
AcDbEntity
  8
0
100
AcDbLine
 62
7
  6
BYLAYER
 10
53.8791711391
 20
37.0178015443
 11
54.4876185033
 21
37.3690866969
  0
LINE
  5
30A
100
AcDbEntity
  8
0
100
AcDbLine
 62
7
  6
BYLAYER
 10
25.6588865094
 20
19.8471334422
 11
25.6371840444
 21
19.834603593
  0
LINE
  5
30B
100
AcDbEntity
  8
0
100
AcDbLine
 62
7
  6
BYLAYER
 10
55.4152242021
 20
37.5210323379
 11
55.4910641485
 21
37.5571566088
  0
LINE
  5
30C
100
AcDbEntity
  8
0
100
AcDbLine
 62
7
  6
BYLAYER
 10
54.5963632766
 20
38.0335725279
 11
54.628501122
 21
37.6279578875
  0
LINE
  5
30D
100
AcDbEntity
  8
0
100
AcDbLine
 62
7
  6
BYLAYER
 10
53.3389161211
 20
65.0385209004
 11
53.3389161211
 21
64.6897870462
  0
LINE
  5
30E
100
AcDbEntity
  8
0
100
AcDbLine
 62
7
  6
BYLAYER
 10
53.6670399879
 20
64.2317027298
 11
53.6670399879
 21
38.1586394489
  0
LINE
  5
30F
100
AcDbEntity
  8
0
100
AcDbLine
 62
7
  6
BYLAYER
 10
53.9498511999
 20
33.1106254521
 11
53.9498511999
 21
30.628877492
  0
LINE
  5
310
100
AcDbEntity
  8
0
100
AcDbLine
 62
7
  6
BYLAYER
 10
30.0497697642
 20
15.6186513653
 11
29.7937614579
 21
15.3750380132
  0
LINE
  5
311
100
AcDbEntity
  8
0
100
AcDbLine
 62
7
  6
BYLAYER
 10
18.4542511844
 20
14.0545552929
 11
24.1730885249
 21
17.3563078621
  0
LINE
  5
312
100
AcDbEntity
  8
0
100
AcDbLine
 62
7
  6
BYLAYER
 10
27.1229820289
 20
19.0594195045
 11
29.926013492
 21
20.6777408142
  0
LINE
  5
313
100
AcDbEntity
  8
0
100
AcDbLine
 62
7
  6
BYLAYER
 10
33.5676134151
 20
20.5652399068
 11
30.297258168
 21
18.6771106951
  0
LINE
  5
314
100
AcDbEntity
  8
0
100
AcDbLine
 62
7
  6
BYLAYER
 10
32.8234704325
 20
69.4855699831
 11
37.0920678365
 21
67.0179706656
  0
LINE
  5
315
100
AcDbEntity
  8
0
100
AcDbLine
 62
7
  6
BYLAYER
 10
36.4299062623
 20
67.4578783495
 11
32.7882911778
 21
69.5603182353
  0
LINE
  5
316
100
AcDbEntity
  8
0
100
AcDbLine
 62
7
  6
BYLAYER
 10
32.7664547297
 20
70.6791422877
 11
36.4080698142
 21
68.5767024019
  0
LINE
  5
317
100
AcDbEntity
  8
0
100
AcDbLine
 62
7
  6
BYLAYER
 10
36.8161631284
 20
69.5705081664
 11
33.1745480439
 21
71.6729480522
  0
LINE
  5
318
100
AcDbEntity
  8
0
100
AcDbLine
 62
7
  6
BYLAYER
 10
56.1048808755
 20
31.9340891357
 11
56.1048808755
 21
35.018754935
  0
LINE
  5
319
100
AcDbEntity
  8
0
100
AcDbLine
 62
7
  6
BYLAYER
 10
56.1949245773
 20
38.1243683986
 11
56.1949245773
 21
38.0897015201
  0
LINE
  5
31A
100
AcDbEntity
  8
0
100
AcDbLine
 62
7
  6
BYLAYER
 10
57.5914662845
 20
28.5264376062
 11
57.5914662845
 21
32.38411329
  0
LINE
  5
31B
100
AcDbEntity
  8
0
100
AcDbLine
 62
7
  6
BYLAYER
 10
57.5914662845
 20
37.2834260299
 11
57.5914662845
 21
37.6199249345
  0
LINE
  5
31C
100
AcDbEntity
  8
0
100
AcDbLine
 62
7
  6
BYLAYER
 10
54.9845370228
 20
36.7780386803
 11
55.4041232101
 21
37.5047873092
  0
LINE
  5
31D
100
AcDbEntity
  8
0
100
AcDbLine
 62
7
  6
BYLAYER
 10
57.3793351333
 20
32.5065907689
 11
56.2462385647
 21
31.8524010651
  0
LINE
  5
31E
100
AcDbEntity
  8
0
100
AcDbLine
 62
7
  6
BYLAYER
 10
33.7727149645
 20
72.3403818752
 11
37.414330049
 21
70.2379419894
  0
LINE
  5
31F
100
AcDbEntity
  8
0
100
AcDbLine
 62
7
  6
BYLAYER
 10
37.5637475463
 20
70.3624576659
 11
33.9221324618
 21
72.4648975517
  0
LINE
  5
320
100
AcDbEntity
  8
0
100
AcDbLine
 62
7
  6
BYLAYER
 10
58.5107012729
 20
67.7678784934
 11
58.5107012729
 21
67.65787823
  0
LINE
  5
321
100
AcDbEntity
  8
0
100
AcDbLine
 62
7
  6
BYLAYER
 10
58.5107012728
 20
37.9850033331
 11
58.5107012728
 21
26.6073495178
  0
LINE
  5
322
100
AcDbEntity
  8
0
100
AcDbLine
 62
7
  6
BYLAYER
 10
37.4255327908
 20
73.1811933086
 11
39.6164981294
 21
72.3232705857
  0
LINE
  5
323
100
AcDbEntity
  8
0
100
AcDbLine
 62
7
  6
BYLAYER
 10
39.2640180762
 20
72.1197673468
 11
37.4255327908
 21
73.1811933086
  0
LINE
  5
324
100
AcDbEntity
  8
0
100
AcDbLine
 62
7
  6
BYLAYER
 10
53.77308035
 20
65.2891842387
 11
55.5433777727
 21
64.2671024364
  0
LINE
  5
325
100
AcDbEntity
  8
0
100
AcDbLine
 62
7
  6
BYLAYER
 10
54.6662123273
 20
64.8508994443
 11
53.8400714279
 21
65.3278613246
  0
LINE
  5
326
100
AcDbEntity
  8
0
100
AcDbLine
 62
7
  6
BYLAYER
 10
54.2775457924
 20
65.580435759
 11
54.5060911975
 21
65.4484879929
  0
LINE
  5
327
100
AcDbEntity
  8
0
100
AcDbLine
 62
7
  6
BYLAYER
 10
53.6670399879
 20
64.2317027298
 11
53.3389161211
 21
64.6897870462
  0
LINE
  5
328
100
AcDbEntity
  8
0
100
AcDbLine
 62
7
  6
BYLAYER
 10
54.5060911975
 20
65.4484879929
 11
54.6662123273
 21
64.8508994443
  0
LINE
  5
329
100
AcDbEntity
  8
0
100
AcDbLine
 62
7
  6
BYLAYER
 10
55.6325510999
 20
25.3967405233
 11
54.6640921116
 21
23.719311039
  0
LINE
  5
32A
100
AcDbEntity
  8
0
100
AcDbLine
 62
7
  6
BYLAYER
 10
44.7683828715
 20
19.081516858
 11
44.7466804065
 21
19.0689870088
  0
LINE
  5
32B
100
AcDbEntity
  8
0
100
AcDbLine
 62
7
  6
BYLAYER
 10
57.450045517
 20
24.7702296612
 11
54.8640912789
 21
23.2772371977
  0
LINE
  5
32C
100
AcDbEntity
  8
0
100
AcDbLine
 62
7
  6
BYLAYER
 10
37.5637475463
 20
13.2889387086
 11
43.2825848871
 21
16.5906912779
  0
LINE
  5
32D
100
AcDbEntity
  8
0
100
AcDbLine
 62
7
  6
BYLAYER
 10
46.232478391
 20
18.2938029203
 11
49.0708650461
 21
19.9325364378
  0
LINE
  5
32E
100
AcDbEntity
  8
0
100
AcDbLine
 62
7
  6
BYLAYER
 10
42.3395407194
 20
73.8954105736
 11
43.0112949583
 21
73.5075818568
  0
LINE
  5
32F
100
AcDbEntity
  8
0
100
AcDbLine
 62
7
  6
BYLAYER
 10
43.2612907165
 20
73.5323457991
 11
42.5895364776
 21
73.9201745159
  0
LINE
  5
330
100
AcDbEntity
  8
0
100
AcDbLine
 62
7
  6
BYLAYER
 10
44.7466804066
 20
72.8764962976
 11
44.0749261677
 21
73.2643250144
  0
LINE
  5
331
100
AcDbEntity
  8
0
100
AcDbLine
 62
7
  6
BYLAYER
 10
44.0966286327
 20
73.2768548636
 11
44.7683828715
 21
72.8890261468
  0
LINE
  5
332
100
AcDbEntity
  8
0
100
AcDbLine
 62
7
  6
BYLAYER
 10
44.3055610189
 20
73.5706208432
 11
44.3796264244
 21
73.5278601288
  0
LINE
  5
333
100
AcDbEntity
  8
0
100
AcDbLine
 62
7
  6
BYLAYER
 10
54.3741438252
 20
65.6362063264
 11
54.5060911975
 21
65.4484879929
  0
LINE
  5
334
100
AcDbEntity
  8
0
100
AcDbLine
 62
7
  6
BYLAYER
 10
58.3033468695
 20
68.2258042692
 11
53.9809435737
 21
70.7164591218
  0
LINE
  5
335
100
AcDbEntity
  8
0
100
AcDbLine
 62
7
  6
BYLAYER
 10
46.134402588
 20
74.8880453725
 11
45.4626483491
 21
75.2758740893
  0
LINE
  5
336
100
AcDbEntity
  8
0
100
AcDbLine
 62
7
  6
BYLAYER
 10
45.4905091518
 20
75.4120241665
 11
46.1622633907
 21
75.0241954497
  0
LINE
  5
337
100
AcDbEntity
  8
0
100
AcDbLine
 62
7
  6
BYLAYER
 10
46.5037683198
 20
75.5239502561
 11
45.8320140809
 21
75.9117789729
  0
LINE
  5
338
100
AcDbEntity
  8
0
100
AcDbLine
 62
7
  6
BYLAYER
 10
53.9809435737
 20
70.7164591218
 11
49.7470867504
 21
76.9796980433
  0
LINE
  5
339
100
AcDbEntity
  8
0
100
AcDbLine
 62
7
  6
BYLAYER
 10
46.0969082085
 20
78.1875843561
 11
47.9353934939
 21
77.1261583944
  0
LINE
  5
33A
100
AcDbEntity
  8
0
100
AcDbLine
 62
7
  6
BYLAYER
 10
45.4889004003
 20
79.1429342722
 11
49.1305154848
 21
77.0404943864
  0
LINE
  5
33B
100
AcDbEntity
  8
0
100
AcDbLine
 62
7
  6
BYLAYER
 10
49.6305070013
 20
77.090022271
 11
45.9888919168
 21
79.1924621567
  0
LINE
  5
33C
100
AcDbEntity
  8
0
100
AcDbLine
 62
7
  6
BYLAYER
 10
49.7470867504
 20
76.9796980433
 11
49.6304960314
 21
77.090003292
  0
ARC
  5
33D
100
AcDbEntity
  8
0
100
AcDbCircle
 62
7
  6
BYLAYER
 10
46.9479963201
 20
42.8551425145
 40
17.9341733427
100
AcDbArc
 50
281.5388403246
 51
283.0686199058
  0
ARC
  5
33E
100
AcDbEntity
  8
0
100
AcDbCircle
 62
7
  6
BYLAYER
 10
38.072067578
 20
41.0016116165
 40
13.6286901233
100
AcDbArc
 50
331.7644632089
 51
332.4064684378
  0
ARC
  5
33F
100
AcDbEntity
  8
0
100
AcDbCircle
 62
7
  6
BYLAYER
 10
54.1643634112
 20
26.7708478462
 40
7.319660248
100
AcDbArc
 50
120.0142586371
 51
121.9530789392
  0
ARC
  5
340
100
AcDbEntity
  8
0
100
AcDbCircle
 62
7
  6
BYLAYER
 10
53.4387854785
 20
37.6521158439
 40
3.5233730076
100
AcDbArc
 50
76.2687926534
 51
80.4425543854
  0
ARC
  5
341
100
AcDbEntity
  8
0
100
AcDbCircle
 62
7
  6
BYLAYER
 10
57.0859261494
 20
35.576489185
 40
3.4960146521
100
AcDbArc
 50
76.2524542816
 51
80.4588927571
  0
ARC
  5
342
100
AcDbEntity
  8
0
100
AcDbCircle
 62
7
  6
BYLAYER
 10
43.4426101871
 20
73.9632739164
 40
0.8916890677
100
AcDbArc
 50
269.0595488922
 51
273.5665825927
  0
ARC
  5
343
100
AcDbEntity
  8
0
100
AcDbCircle
 62
7
  6
BYLAYER
 10
24.3331138249
 20
47.0494585599
 40
0.8916890677
100
AcDbArc
 50
269.0595488924
 51
273.5665825935
  0
ARC
  5
344
100
AcDbEntity
  8
0
100
AcDbCircle
 62
7
  6
BYLAYER
 10
55.9565856074
 20
34.872773054
 40
0.4057603149
100
AcDbArc
 50
113.5574401113
 51
116.4653127627
  0
SPLINE
  5
345
100
AcDbEntity
  8
0
100
AcDbSpline
 62
7
  6
BYLAYER
 70
0
 71
3
 72
12
 73
8
 74
0
 42
0.0000001
 43
0.0000001
 44
0.0000000001
 40
0.0
 40
0.0
 40
0.0
 40
0.0
 40
0.108169861
 40
0.2183744485
 40
0.4513322769
 40
0.7105272076
 40
1.0
 40
1.0
 40
1.0
 40
1.0
 10
8.5092747719
 20
19.9078707768
 30
0.0
 10
8.544938688
 20
19.9284547269
 30
0.0
 10
8.620679848
 20
19.9638623906
 30
0.0
 10
8.7869071361
 20
20.0099284252
 30
0.0
 10
9.019825919
 20
20.0161426565
 30
0.0
 10
9.3114291083
 20
19.9455462978
 30
0.0
 10
9.5013320395
 20
19.8552610989
 30
0.0
 10
9.5967649243
 20
19.8001641436
 30
0.0
  0
SPLINE
  5
346
100
AcDbEntity
  8
0
100
AcDbSpline
 62
7
  6
BYLAYER
 70
0
 71
3
 72
11
 73
7
 74
0
 42
0.0000001
 43
0.0000001
 44
0.0000000001
 40
0.0
 40
0.0
 40
0.0
 40
0.0
 40
0.2177500553
 40
0.4508676863
 40
0.7103394472
 40
1.0
 40
1.0
 40
1.0
 40
1.0
 10
7.7532607121
 20
15.8945468354
 30
0.0
 10
7.7202828663
 20
15.9135950634
 30
0.0
 10
7.6585560963
 20
15.9654535404
 30
0.0
 10
7.5928620627
 20
16.0729048851
 30
0.0
 10
7.5538420964
 20
16.2053025342
 30
0.0
 10
7.5461467214
 20
16.301669439
 30
0.0
 10
7.5461467214
 20
16.3523301149
 30
0.0
  0
SPLINE
  5
347
100
AcDbEntity
  8
0
100
AcDbSpline
 62
7
  6
BYLAYER
 70
0
 71
3
 72
9
 73
5
 74
0
 42
0.0000001
 43
0.0000001
 44
0.0000000001
 40
0.0
 40
0.0
 40
0.0
 40
0.0
 40
0.2471943143
 40
1.0
 40
1.0
 40
1.0
 40
1.0
 10
13.8638965527
 20
16.1322197282
 30
0.0
 10
13.8550588191
 20
16.1373243182
 30
0.0
 10
13.8202598145
 20
16.1596030303
 30
0.0
 10
13.7897107031
 20
16.1883587423
 30
0.0
 10
13.7699122982
 20
16.2123185706
 30
0.0
  0
SPLINE
  5
348
100
AcDbEntity
  8
0
100
AcDbSpline
 62
7
  6
BYLAYER
 70
0
 71
3
 72
12
 73
8
 74
0
 42
0.0000001
 43
0.0000001
 44
0.0000000001
 40
0.0
 40
0.0
 40
0.0
 40
0.0
 40
0.108169861
 40
0.2183744485
 40
0.4513322769
 40
0.7105272076
 40
1.0
 40
1.0
 40
1.0
 40
1.0
 10
27.618771134
 20
19.1422541927
 30
0.0
 10
27.6544350501
 20
19.1628381428
 30
0.0
 10
27.7301762101
 20
19.1982458065
 30
0.0
 10
27.8964034982
 20
19.244311841
 30
0.0
 10
28.1293222811
 20
19.2505260724
 30
0.0
 10
28.4209254704
 20
19.1799297136
 30
0.0
 10
28.6108284016
 20
19.0896445147
 30
0.0
 10
28.7062612864
 20
19.0345475594
 30
0.0
  0
SPLINE
  5
349
100
AcDbEntity
  8
0
100
AcDbSpline
 62
7
  6
BYLAYER
 70
0
 71
3
 72
9
 73
5
 74
0
 42
0.0000001
 43
0.0000001
 44
0.0000000001
 40
0.0
 40
0.0
 40
0.0
 40
0.0
 40
0.2648699733
 40
1.0
 40
1.0
 40
1.0
 40
1.0
 10
14.6632186024
 20
45.4265665187
 30
0.0
 10
14.6747048366
 20
45.4393828429
 30
0.0
 10
14.7196636187
 20
45.4862615913
 30
0.0
 10
14.7712695602
 20
45.527199355
 30
0.0
 10
14.8126360993
 20
45.5510821949
 30
0.0
  0
SPLINE
  5
34A
100
AcDbEntity
  8
0
100
AcDbSpline
 62
7
  6
BYLAYER
 70
0
 71
3
 72
11
 73
7
 74
0
 42
0.0000001
 43
0.0000001
 44
0.0000000001
 40
0.0
 40
0.0
 40
0.0
 40
0.0
 40
0.2273470324
 40
0.4783396532
 40
0.7406681119
 40
1.0
 40
1.0
 40
1.0
 40
1.0
 10
13.6569583676
 20
43.7653269311
 30
0.0
 10
13.6553377833
 20
43.8483600636
 30
0.0
 10
13.6753248702
 20
44.0237088663
 30
0.0
 10
13.75759551
 20
44.2828071709
 30
0.0
 10
13.8874463503
 20
44.5348030061
 30
0.0
 10
14.0018262289
 20
44.6885858227
 30
0.0
 10
14.0650516818
 20
44.7591326957
 30
0.0
  0
SPLINE
  5
34B
100
AcDbEntity
  8
0
100
AcDbSpline
 62
7
  6
BYLAYER
 70
0
 71
3
 72
9
 73
5
 74
0
 42
0.0000001
 43
0.0000001
 44
0.0000000001
 40
0.0
 40
0.0
 40
0.0
 40
0.0
 40
0.2358774754
 40
1.0
 40
1.0
 40
1.0
 40
1.0
 10
13.6900274968
 20
42.5974189509
 30
0.0
 10
13.6888377627
 20
42.5996781899
 30
0.0
 10
13.6842672882
 20
42.6095051439
 30
0.0
 10
13.68155142
 20
42.6201355599
 30
0.0
 10
13.6803060826
 20
42.6283128456
 30
0.0
  0
SPLINE
  5
34C
100
AcDbEntity
  8
0
100
AcDbSpline
 62
7
  6
BYLAYER
 70
0
 71
3
 72
9
 73
5
 74
0
 42
0.0000001
 43
0.0000001
 44
0.0000000001
 40
0.0
 40
0.0
 40
0.0
 40
0.0
 40
0.243129207
 40
1.0
 40
1.0
 40
1.0
 40
1.0
 10
13.6803060826
 20
42.6283128456
 30
0.0
 10
13.6800832795
 20
42.6297758424
 30
0.0
 10
13.6792748902
 20
42.6358094207
 30
0.0
 10
13.6788847125
 20
42.6418968777
 30
0.0
 10
13.6787948157
 20
42.6465028788
 30
0.0
  0
SPLINE
  5
34D
100
AcDbEntity
  8
0
100
AcDbSpline
 62
7
  6
BYLAYER
 70
0
 71
3
 72
11
 73
7
 74
0
 42
0.0000001
 43
0.0000001
 44
0.0000000001
 40
0.0
 40
0.0
 40
0.0
 40
0.0
 40
0.2176915438
 40
0.4508365886
 40
0.7104344403
 40
1.0
 40
1.0
 40
1.0
 40
1.0
 10
50.3941799152
 20
25.3016711725
 30
0.0
 10
50.3776951531
 20
25.3111917358
 30
0.0
 10
50.3468317558
 20
25.3371137564
 30
0.0
 10
50.3139684642
 20
25.3908413419
 30
0.0
 10
50.2944836661
 20
25.4570521316
 30
0.0
 10
50.2906191652
 20
25.5052346426
 30
0.0
 10
50.2906191652
 20
25.5305563248
 30
0.0
  0
SPLINE
  5
34E
100
AcDbEntity
  8
0
100
AcDbSpline
 62
7
  6
BYLAYER
 70
0
 71
3
 72
13
 73
9
 74
0
 42
0.0000001
 43
0.0000001
 44
0.0000000001
 40
0.0
 40
0.0
 40
0.0
 40
0.0
 40
0.3028309777
 40
0.5713007088
 40
0.6908934091
 40
0.8010513505
 40
0.9032866075
 40
1.0
 40
1.0
 40
1.0
 40
1.0
 10
8.6658591421
 20
38.7347211251
 30
0.0
 10
8.7249782979
 20
38.8006861974
 30
0.0
 10
8.8474089489
 20
38.915965852
 30
0.0
 10
9.0223895272
 20
39.0217008757
 30
0.0
 10
9.1611758255
 20
39.0679898381
 30
0.0
 10
9.25775001
 20
39.0826978843
 30
0.0
 10
9.3487128093
 20
39.0779544074
 30
0.0
 10
9.4052382094
 20
39.0615072801
 30
0.0
 10
9.4311675097
 20
39.0501953347
 30
0.0
  0
SPLINE
  5
34F
100
AcDbEntity
  8
0
100
AcDbSpline
 62
7
  6
BYLAYER
 70
0
 71
3
 72
11
 73
7
 74
0
 42
0.0000001
 43
0.0000001
 44
0.0000000001
 40
0.0
 40
0.0
 40
0.0
 40
0.0
 40
0.2286125437
 40
0.4797640107
 40
0.7414848026
 40
1.0
 40
1.0
 40
1.0
 40
1.0
 10
7.5461467214
 20
36.9651781465
 30
0.0
 10
7.5461467214
 20
37.0473188491
 30
0.0
 10
7.5682475607
 20
37.2198923965
 30
0.0
 10
7.6513457081
 20
37.4742899898
 30
0.0
 10
7.7799906573
 20
37.7211017185
 30
0.0
 10
7.8924235666
 20
37.8717227794
 30
0.0
 10
7.9544155641
 20
37.9408933645
 30
0.0
  0
SPLINE
  5
350
100
AcDbEntity
  8
0
100
AcDbSpline
 62
7
  6
BYLAYER
 70
0
 71
3
 72
13
 73
9
 74
0
 42
0.0000001
 43
0.0000001
 44
0.0000000001
 40
0.0
 40
0.0
 40
0.0
 40
0.0
 40
0.0916003024
 40
0.1892352753
 40
0.2973267817
 40
0.4176732346
 40
0.6930314134
 40
1.0
 40
1.0
 40
1.0
 40
1.0
 10
50.0920489313
 20
33.9998320819
 30
0.0
 10
50.0761227976
 20
34.0090267156
 30
0.0
 10
50.0462792196
 20
34.0338040034
 30
0.0
 10
50.0139232624
 20
34.0848861466
 30
0.0
 10
49.9939647621
 20
34.1478434128
 30
0.0
 10
49.9835162962
 20
34.2489916059
 30
0.0
 10
50.005307852
 20
34.3905120222
 30
0.0
 10
50.0499268869
 20
34.499620958
 30
0.0
 10
50.0790824599
 20
34.5539152758
 30
0.0
  0
SPLINE
  5
351
100
AcDbEntity
  8
0
100
AcDbSpline
 62
7
  6
BYLAYER
 70
0
 71
3
 72
9
 73
5
 74
0
 42
0.0000001
 43
0.0000001
 44
0.0000000001
 40
0.0
 40
0.0
 40
0.0
 40
0.0
 40
0.2629049963
 40
1.0
 40
1.0
 40
1.0
 40
1.0
 10
9.7602866415
 20
24.6218299895
 30
0.0
 10
9.7793530442
 20
24.6408511706
 30
0.0
 10
9.8538783699
 20
24.711111204
 30
0.0
 10
9.9367383946
 20
24.7729449695
 30
0.0
 10
10.0021303974
 20
24.8106988346
 30
0.0
  0
SPLINE
  5
352
100
AcDbEntity
  8
0
100
AcDbSpline
 62
7
  6
BYLAYER
 70
0
 71
3
 72
11
 73
7
 74
0
 42
0.0000001
 43
0.0000001
 44
0.0000000001
 40
0.0
 40
0.0
 40
0.0
 40
0.0
 40
0.2296154374
 40
0.4826037412
 40
0.744739721
 40
1.0
 40
1.0
 40
1.0
 40
1.0
 10
7.5461467214
 20
22.1270809879
 30
0.0
 10
7.5461467214
 20
22.1714892389
 30
0.0
 10
7.5590484509
 20
22.2649287496
 30
0.0
 10
7.6068350131
 20
22.4015770928
 30
0.0
 10
7.68007729
 20
22.5321431637
 30
0.0
 10
7.7438268687
 20
22.6101528515
 30
0.0
 10
7.7787767621
 20
22.6450198509
 30
0.0
  0
SPLINE
  5
353
100
AcDbEntity
  8
0
100
AcDbSpline
 62
7
  6
BYLAYER
 70
0
 71
3
 72
11
 73
7
 74
0
 42
0.0000001
 43
0.0000001
 44
0.0000000001
 40
0.0
 40
0.0
 40
0.0
 40
0.0
 40
0.2897030021
 40
0.5490886384
 40
0.7822190917
 40
1.0
 40
1.0
 40
1.0
 40
1.0
 10
25.6588865094
 20
19.8471334422
 30
0.0
 10
25.7466428281
 20
19.8977992739
 30
0.0
 10
25.9212197324
 20
19.9808450883
 30
0.0
 10
26.1895438656
 20
20.0456570575
 30
0.0
 10
26.4413165371
 20
20.0392673802
 30
0.0
 10
26.5928856119
 20
19.9842522007
 30
0.0
 10
26.6588652363
 20
19.9461817543
 30
0.0
  0
SPLINE
  5
354
100
AcDbEntity
  8
0
100
AcDbSpline
 62
7
  6
BYLAYER
 70
0
 71
3
 72
13
 73
9
 74
0
 42
0.0000001
 43
0.0000001
 44
0.0000000001
 40
0.0
 40
0.0
 40
0.0
 40
0.0
 40
0.1232777227
 40
0.2516387099
 40
0.5138850335
 40
0.7687535607
 40
0.8882964917
 40
1.0
 40
1.0
 40
1.0
 40
1.0
 10
24.271164328
 20
17.8355843672
 30
0.0
 10
24.2916236764
 20
17.9355650427
 30
0.0
 10
24.345266922
 20
18.1373603474
 30
0.0
 10
24.4959413663
 20
18.5357934078
 30
0.0
 10
24.7563585115
 20
19.0061065497
 30
0.0
 10
25.0943955514
 20
19.4154125132
 30
0.0
 10
25.3982107468
 20
19.6804093589
 30
0.0
 10
25.5571016043
 20
19.7883682506
 30
0.0
 10
25.6371840444
 20
19.834603593
 30
0.0
  0
SPLINE
  5
355
100
AcDbEntity
  8
0
100
AcDbSpline
 62
7
  6
BYLAYER
 70
0
 71
3
 72
9
 73
5
 74
0
 42
0.0000001
 43
0.0000001
 44
0.0000000001
 40
0.0
 40
0.0
 40
0.0
 40
0.0
 40
0.2280643103
 40
1.0
 40
1.0
 40
1.0
 40
1.0
 10
18.3048336869
 20
14.0065395346
 30
0.0
 10
18.3168245386
 20
14.0070059191
 30
0.0
 10
18.3692517743
 20
14.013214101
 30
0.0
 10
18.4190762446
 20
14.0342471531
 30
0.0
 10
18.4542511844
 20
14.0545552929
 30
0.0
  0
SPLINE
  5
356
100
AcDbEntity
  8
0
100
AcDbSpline
 62
7
  6
BYLAYER
 70
0
 71
3
 72
11
 73
7
 74
0
 42
0.0000001
 43
0.0000001
 44
0.0000000001
 40
0.0
 40
0.0
 40
0.0
 40
0.0
 40
0.3065062654
 40
0.5760476405
 40
0.8029714142
 40
1.0
 40
1.0
 40
1.0
 40
1.0
 10
13.8389898404
 20
15.5761026889
 30
0.0
 10
13.8439212593
 20
15.5911614575
 30
0.0
 10
13.8506770581
 20
15.6204129606
 30
0.0
 10
13.8507366536
 20
15.6623596386
 30
0.0
 10
13.8397871697
 20
15.6973487614
 30
0.0
 10
13.8238691216
 20
15.7140052577
 30
0.0
 10
13.8150388965
 20
15.7190826843
 30
0.0
  0
SPLINE
  5
357
100
AcDbEntity
  8
0
100
AcDbSpline
 62
7
  6
BYLAYER
 70
0
 71
3
 72
9
 73
5
 74
0
 42
0.0000001
 43
0.0000001
 44
0.0000000001
 40
0.0
 40
0.0
 40
0.0
 40
0.0
 40
0.2529982571
 40
1.0
 40
1.0
 40
1.0
 40
1.0
 10
13.8093451825
 20
15.5133323212
 30
0.0
 10
13.8124648593
 20
15.5182955857
 30
0.0
 10
13.8242026417
 20
15.5382771925
 30
0.0
 10
13.8336030247
 20
15.5596533028
 30
0.0
 10
13.8389898404
 20
15.5761026889
 30
0.0
  0
SPLINE
  5
358
100
AcDbEntity
  8
0
100
AcDbSpline
 62
7
  6
BYLAYER
 70
0
 71
3
 72
12
 73
8
 74
0
 42
0.0000001
 43
0.0000001
 44
0.0000000001
 40
0.0
 40
0.0
 40
0.0
 40
0.0
 40
0.2033356432
 40
0.3185748683
 40
0.4423699182
 40
0.711684758
 40
1.0
 40
1.0
 40
1.0
 40
1.0
 10
12.3074742265
 20
13.7732720678
 30
0.0
 10
12.3741872049
 20
13.775866871
 30
0.0
 10
12.4780739152
 20
13.8027996204
 30
0.0
 10
12.6081522385
 20
13.8675702566
 30
0.0
 10
12.7476141192
 20
13.9601070153
 30
0.0
 10
12.9121308078
 20
14.1139739763
 30
0.0
 10
13.022405236
 20
14.2613464697
 30
0.0
 10
13.0727825942
 20
14.3414945674
 30
0.0
  0
SPLINE
  5
359
100
AcDbEntity
  8
0
100
AcDbSpline
 62
7
  6
BYLAYER
 70
0
 71
3
 72
9
 73
5
 74
0
 42
0.0000001
 43
0.0000001
 44
0.0000000001
 40
0.0
 40
0.0
 40
0.0
 40
0.0
 40
0.2439822202
 40
1.0
 40
1.0
 40
1.0
 40
1.0
 10
13.5575712013
 20
29.196611924
 30
0.0
 10
13.5647764899
 20
29.1997503014
 30
0.0
 10
13.5941124485
 20
29.2130611782
 30
0.0
 10
13.6226553919
 20
29.2281019894
 30
0.0
 10
13.6437454817
 20
29.2402782858
 30
0.0
  0
SPLINE
  5
35A
100
AcDbEntity
  8
0
100
AcDbSpline
 62
7
  6
BYLAYER
 70
0
 71
3
 72
9
 73
5
 74
0
 42
0.0000001
 43
0.0000001
 44
0.0000000001
 40
0.0
 40
0.0
 40
0.0
 40
0.0
 40
0.2381449096
 40
1.0
 40
1.0
 40
1.0
 40
1.0
 10
13.4019017259
 20
29.1498916826
 30
0.0
 10
13.4146672965
 20
29.1518967127
 30
0.0
 10
13.4679587609
 20
29.1622875338
 30
0.0
 10
13.5196710207
 20
29.1801039007
 30
0.0
 10
13.5575712013
 20
29.196611924
 30
0.0
  0
SPLINE
  5
35B
100
AcDbEntity
  8
0
100
AcDbSpline
 62
7
  6
BYLAYER
 70
0
 71
3
 72
9
 73
5
 74
0
 42
0.0000001
 43
0.0000001
 44
0.0000000001
 40
0.0
 40
0.0
 40
0.0
 40
0.0
 40
0.263089758
 40
1.0
 40
1.0
 40
1.0
 40
1.0
 10
13.8389898404
 20
36.5978819661
 30
0.0
 10
13.8375449214
 20
36.6006257871
 30
0.0
 10
13.8314586836
 20
36.6107205829
 30
0.0
 10
13.8225651974
 20
36.6192028223
 30
0.0
 10
13.8150430637
 20
36.6235459381
 30
0.0
  0
SPLINE
  5
35C
100
AcDbEntity
  8
0
100
AcDbSpline
 62
7
  6
BYLAYER
 70
0
 71
3
 72
11
 73
7
 74
0
 42
0.0000001
 43
0.0000001
 44
0.0000000001
 40
0.0
 40
0.0
 40
0.0
 40
0.0
 40
0.2783538213
 40
0.5534938581
 40
0.7991174457
 40
1.0
 40
1.0
 40
1.0
 40
1.0
 10
13.7808466581
 20
36.3798510582
 30
0.0
 10
13.7954901468
 20
36.3961902426
 30
0.0
 10
13.8206725847
 20
36.4323606428
 30
0.0
 10
13.8447780368
 20
36.4911406364
 30
0.0
 10
13.853302321
 20
36.5479495246
 30
0.0
 10
13.8463678106
 20
36.5838716104
 30
0.0
 10
13.8389898404
 20
36.5978819661
 30
0.0
  0
SPLINE
  5
35D
100
AcDbEntity
  8
0
100
AcDbSpline
 62
7
  6
BYLAYER
 70
0
 71
3
 72
10
 73
6
 74
0
 42
0.0000001
 43
0.0000001
 44
0.0000000001
 40
0.0
 40
0.0
 40
0.0
 40
0.0
 40
0.5255778624
 40
0.7668236543
 40
1.0
 40
1.0
 40
1.0
 40
1.0
 10
24.2430429201
 20
46.489317871
 30
0.0
 10
24.2356173258
 20
46.5166702453
 30
0.0
 10
24.218807508
 20
46.5557033353
 30
0.0
 10
24.1834660631
 20
46.5968715143
 30
0.0
 10
24.1626986056
 20
46.6122683157
 30
0.0
 10
24.1518069554
 20
46.6185520396
 30
0.0
  0
SPLINE
  5
35E
100
AcDbEntity
  8
0
100
AcDbSpline
 62
7
  6
BYLAYER
 70
0
 71
3
 72
11
 73
7
 74
0
 42
0.0000001
 43
0.0000001
 44
0.0000000001
 40
0.0
 40
0.0
 40
0.0
 40
0.0
 40
0.2815362864
 40
0.5388780693
 40
0.7754267766
 40
1.0
 40
1.0
 40
1.0
 40
1.0
 10
23.2731314974
 20
47.003428398
 30
0.0
 10
23.29156584
 20
47.0114577676
 30
0.0
 10
23.3281737299
 20
47.0240655254
 30
0.0
 10
23.3834301794
 20
47.0317892479
 30
0.0
 10
23.4350468325
 20
47.0267235553
 30
0.0
 10
23.4661608401
 20
47.0143968074
 30
0.0
 10
23.4800505934
 20
47.0063768685
 30
0.0
  0
SPLINE
  5
35F
100
AcDbEntity
  8
0
100
AcDbSpline
 62
7
  6
BYLAYER
 70
0
 71
3
 72
9
 73
5
 74
0
 42
0.0000001
 43
0.0000001
 44
0.0000000001
 40
0.0
 40
0.0
 40
0.0
 40
0.0
 40
0.256078945
 40
1.0
 40
1.0
 40
1.0
 40
1.0
 10
23.23004436
 20
46.9815952187
 30
0.0
 10
23.2336161515
 20
46.9836573811
 30
0.0
 10
23.2476688302
 20
46.9915265781
 30
0.0
 10
23.2621468568
 20
46.998643864
 30
0.0
 10
23.2731314974
 20
47.003428398
 30
0.0
  0
SPLINE
  5
360
100
AcDbEntity
  8
0
100
AcDbSpline
 62
7
  6
BYLAYER
 70
0
 71
3
 72
11
 73
7
 74
0
 42
0.0000001
 43
0.0000001
 44
0.0000000001
 40
0.0
 40
0.0
 40
0.0
 40
0.0
 40
0.2514850368
 40
0.5139453547
 40
0.7690181708
 40
1.0
 40
1.0
 40
1.0
 40
1.0
 10
26.3810127896
 20
48.49820881
 30
0.0
 10
26.3914390271
 20
48.5491597122
 30
0.0
 10
26.4248869303
 20
48.6509779393
 30
0.0
 10
26.5023202037
 20
48.7908650804
 30
0.0
 10
26.6014605714
 20
48.9108674608
 30
0.0
 10
26.6811504765
 20
48.9740803705
 30
0.0
 10
26.7225177184
 20
48.9979636162
 30
0.0
  0
SPLINE
  5
361
100
AcDbEntity
  8
0
100
AcDbSpline
 62
7
  6
BYLAYER
 70
0
 71
3
 72
13
 73
9
 74
0
 42
0.0000001
 43
0.0000001
 44
0.0000000001
 40
0.0
 40
0.0
 40
0.0
 40
0.0
 40
0.1117035462
 40
0.2312465534
 40
0.4861151238
 40
0.7483614111
 40
0.8767223169
 40
1.0
 40
1.0
 40
1.0
 40
1.0
 10
24.9871322705
 20
46.3630395071
 30
0.0
 10
25.0672147377
 20
46.4092748652
 30
0.0
 10
25.226105653
 20
46.5172338403
 30
0.0
 10
25.5299209593
 20
46.7822307549
 30
0.0
 10
25.8679579894
 20
47.1915368269
 30
0.0
 10
26.1283750409
 20
47.6618499406
 30
0.0
 10
26.2790494572
 20
48.0602828734
 30
0.0
 10
26.332692645
 20
48.2620780896
 30
0.0
 10
26.3531519869
 20
48.3620587329
 30
0.0
  0
SPLINE
  5
362
100
AcDbEntity
  8
0
100
AcDbSpline
 62
7
  6
BYLAYER
 70
0
 71
3
 72
12
 73
8
 74
0
 42
0.0000001
 43
0.0000001
 44
0.0000000001
 40
0.0
 40
0.0
 40
0.0
 40
0.0
 40
0.108169861
 40
0.2183744485
 40
0.4513322769
 40
0.7105272076
 40
1.0
 40
1.0
 40
1.0
 40
1.0
 10
27.6187711341
 20
61.7228552459
 30
0.0
 10
27.6544350501
 20
61.7434391961
 30
0.0
 10
27.7301762102
 20
61.7788468598
 30
0.0
 10
27.8964034983
 20
61.8249128943
 30
0.0
 10
28.1293222812
 20
61.8311271257
 30
0.0
 10
28.4209254704
 20
61.7605307669
 30
0.0
 10
28.6108284016
 20
61.670245568
 30
0.0
 10
28.7062612864
 20
61.6151486127
 30
0.0
  0
SPLINE
  5
363
100
AcDbEntity
  8
0
100
AcDbSpline
 62
7
  6
BYLAYER
 70
0
 71
3
 72
9
 73
5
 74
0
 42
0.0000001
 43
0.0000001
 44
0.0000000001
 40
0.0
 40
0.0
 40
0.0
 40
0.0
 40
0.4718950345
 40
1.0
 40
1.0
 40
1.0
 40
1.0
 10
53.6204678545
 20
65.1961069028
 30
0.0
 10
53.6629016678
 20
65.1860119843
 30
0.0
 10
53.7570590799
 20
65.1811803945
 30
0.0
 10
53.8479216285
 20
65.2031076419
 30
0.0
 10
53.8939387824
 20
65.2193924157
 30
0.0
  0
SPLINE
  5
364
100
AcDbEntity
  8
0
100
AcDbSpline
 62
7
  6
BYLAYER
 70
0
 71
3
 72
11
 73
7
 74
0
 42
0.0000001
 43
0.0000001
 44
0.0000000001
 40
0.0
 40
0.0
 40
0.0
 40
0.0
 40
0.2177500553
 40
0.4508676863
 40
0.7103394472
 40
1.0
 40
1.0
 40
1.0
 40
1.0
 10
26.8627570741
 20
15.1289302512
 30
0.0
 10
26.8297792283
 20
15.1479784793
 30
0.0
 10
26.7680524583
 20
15.1998369563
 30
0.0
 10
26.7023584247
 20
15.307288301
 30
0.0
 10
26.6633384584
 20
15.4396859501
 30
0.0
 10
26.6556430835
 20
15.5360528549
 30
0.0
 10
26.6556430835
 20
15.5867135308
 30
0.0
  0
SPLINE
  5
365
100
AcDbEntity
  8
0
100
AcDbSpline
 62
7
  6
BYLAYER
 70
0
 71
3
 72
11
 73
7
 74
0
 42
0.0000001
 43
0.0000001
 44
0.0000000001
 40
0.0
 40
0.0
 40
0.0
 40
0.0
 40
0.2280611576
 40
0.477886368
 40
0.7392025456
 40
1.0
 40
1.0
 40
1.0
 40
1.0
 10
9.5967649243
 20
34.7013332562
 30
0.0
 10
9.7411744741
 20
34.6179602499
 30
0.0
 10
10.0231599777
 20
34.4067680489
 30
0.0
 10
10.3926365001
 20
34.0092565992
 30
0.0
 10
10.7089497423
 20
33.5392461984
 30
0.0
 10
10.8729472749
 20
33.1925322084
 30
0.0
 10
10.9402734021
 20
33.0141290687
 30
0.0
  0
SPLINE
  5
366
100
AcDbEntity
  8
0
100
AcDbSpline
 62
7
  6
BYLAYER
 70
0
 71
3
 72
9
 73
5
 74
0
 42
0.0000001
 43
0.0000001
 44
0.0000000001
 40
0.0
 40
0.0
 40
0.0
 40
0.0
 40
0.2471943143
 40
1.0
 40
1.0
 40
1.0
 40
1.0
 10
32.9733929148
 20
15.3666031441
 30
0.0
 10
32.9645551811
 20
15.371707734
 30
0.0
 10
32.9297561766
 20
15.3939864462
 30
0.0
 10
32.8992070652
 20
15.4227421582
 30
0.0
 10
32.8794086603
 20
15.4467019865
 30
0.0
  0
SPLINE
  5
367
100
AcDbEntity
  8
0
100
AcDbSpline
 62
7
  6
BYLAYER
 70
0
 71
3
 72
11
 73
7
 74
0
 42
0.0000001
 43
0.0000001
 44
0.0000000001
 40
0.0
 40
0.0
 40
0.0
 40
0.0
 40
0.2177123653
 40
0.4508781542
 40
0.7105598397
 40
1.0
 40
1.0
 40
1.0
 40
1.0
 10
54.6641072479
 20
23.2574476545
 30
0.0
 10
54.6772916105
 20
23.2498239957
 30
0.0
 10
54.7075968933
 20
23.2388011605
 30
0.0
 10
54.757973647
 20
23.237523316
 30
0.0
 10
54.811628271
 20
23.2505342608
 30
0.0
 10
54.8465564349
 20
23.2671135112
 30
0.0
 10
54.864091279
 20
23.2772371976
 30
0.0
  0
SPLINE
  5
368
100
AcDbEntity
  8
0
100
AcDbSpline
 62
7
  6
BYLAYER
 70
0
 71
3
 72
16
 73
12
 74
0
 42
0.0000001
 43
0.0000001
 44
0.0000000001
 40
0.0
 40
0.0
 40
0.0
 40
0.0
 40
0.0429408712
 40
0.0876013548
 40
0.1869862606
 40
0.3042839815
 40
0.4379964138
 40
0.5823959864
 40
0.7295498807
 40
0.8713110424
 40
1.0
 40
1.0
 40
1.0
 40
1.0
 10
51.0482674945
 20
36.2433116572
 30
0.0
 10
51.0359113877
 20
36.2504186585
 30
0.0
 10
51.0125017198
 20
36.2682977059
 30
0.0
 10
50.9737079579
 20
36.3174481019
 30
0.0
 10
50.944827686
 20
36.4016966189
 30
0.0
 10
50.9422229642
 20
36.5191185703
 30
0.0
 10
50.9685667535
 20
36.6486304496
 30
0.0
 10
51.0217758028
 20
36.7801270143
 30
0.0
 10
51.0974166887
 20
36.9032865085
 30
0.0
 10
51.1894214246
 20
37.0078483456
 30
0.0
 10
51.2612469463
 20
37.0631815153
 30
0.0
 10
51.2982421333
 20
37.0845405689
 30
0.0
  0
SPLINE
  5
369
100
AcDbEntity
  8
0
100
AcDbSpline
 62
7
  6
BYLAYER
 70
0
 71
3
 72
11
 73
7
 74
0
 42
0.0000001
 43
0.0000001
 44
0.0000000001
 40
0.0
 40
0.0
 40
0.0
 40
0.0
 40
0.2324401814
 40
0.4726445942
 40
0.727206468
 40
1.0
 40
1.0
 40
1.0
 40
1.0
 10
43.7467016797
 20
72.7774479855
 30
0.0
 10
43.7029158138
 20
72.8027125649
 30
0.0
 10
43.6195467004
 20
72.8646000161
 30
0.0
 10
43.5156621085
 20
72.9853648516
 30
0.0
 10
43.4338931254
 20
73.1320072258
 30
0.0
 10
43.3960157479
 20
73.2408745793
 30
0.0
 10
43.3806606901
 20
73.2981812367
 30
0.0
  0
SPLINE
  5
36A
100
AcDbEntity
  8
0
100
AcDbSpline
 62
7
  6
BYLAYER
 70
0
 71
3
 72
10
 73
6
 74
0
 42
0.0000001
 43
0.0000001
 44
0.0000000001
 40
0.0
 40
0.0
 40
0.0
 40
0.0
 40
0.2282179999
 40
0.5973919631
 40
1.0
 40
1.0
 40
1.0
 40
1.0
 10
43.4980807515
 20
73.0733118891
 30
0.0
 10
43.5445775213
 20
73.0761705362
 30
0.0
 10
43.6658349222
 20
73.0927228887
 30
0.0
 10
43.8619118121
 20
73.1532479318
 30
0.0
 10
44.0037547124
 20
73.2232344009
 30
0.0
 10
44.0749261677
 20
73.2643250144
 30
0.0
  0
SPLINE
  5
36B
100
AcDbEntity
  8
0
100
AcDbSpline
 62
7
  6
BYLAYER
 70
0
 71
3
 72
11
 73
7
 74
0
 42
0.0000001
 43
0.0000001
 44
0.0000000001
 40
0.0
 40
0.0
 40
0.0
 40
0.0
 40
0.1970295426
 40
0.4239534194
 40
0.6934942177
 40
1.0
 40
1.0
 40
1.0
 40
1.0
 10
36.4650900253
 20
67.3831377444
 30
0.0
 10
36.4739022268
 20
67.3780295441
 30
0.0
 10
36.4962856889
 20
67.3725727934
 30
0.0
 10
36.5320609063
 20
67.380584832
 30
0.0
 10
36.5683568722
 20
67.4016093912
 30
0.0
 10
36.5903107981
 20
67.4220853454
 30
0.0
 10
36.6008860238
 20
67.4338851677
 30
0.0
  0
SPLINE
  5
36C
100
AcDbEntity
  8
0
100
AcDbSpline
 62
7
  6
BYLAYER
 70
0
 71
3
 72
9
 73
5
 74
0
 42
0.0000001
 43
0.0000001
 44
0.0000000001
 40
0.0
 40
0.0
 40
0.0
 40
0.0
 40
0.2535531159
 40
1.0
 40
1.0
 40
1.0
 40
1.0
 10
53.6774581839
 20
41.1624436753
 30
0.0
 10
53.7068711666
 20
41.1612140722
 30
0.0
 10
53.8227930008
 20
41.1546303339
 30
0.0
 10
53.9383327863
 20
41.1409853585
 30
0.0
 10
54.0237936048
 20
41.1265831186
 30
0.0
  0
SPLINE
  5
36D
100
AcDbEntity
  8
0
100
AcDbSpline
 62
7
  6
BYLAYER
 70
0
 71
3
 72
12
 73
8
 74
0
 42
0.0000001
 43
0.0000001
 44
0.0000000001
 40
0.0
 40
0.0
 40
0.0
 40
0.0
 40
0.108169861
 40
0.2183744485
 40
0.4513322769
 40
0.7105272076
 40
1.0
 40
1.0
 40
1.0
 40
1.0
 10
8.5092747719
 20
34.8090398894
 30
0.0
 10
8.544938688
 20
34.8296238395
 30
0.0
 10
8.620679848
 20
34.8650315032
 30
0.0
 10
8.7869071361
 20
34.9110975378
 30
0.0
 10
9.019825919
 20
34.9173117691
 30
0.0
 10
9.3114291083
 20
34.8467154104
 30
0.0
 10
9.5013320395
 20
34.7564302115
 30
0.0
 10
9.5967649243
 20
34.7013332562
 30
0.0
  0
SPLINE
  5
36E
100
AcDbEntity
  8
0
100
AcDbSpline
 62
7
  6
BYLAYER
 70
0
 71
3
 72
11
 73
7
 74
0
 42
0.0000001
 43
0.0000001
 44
0.0000000001
 40
0.0
 40
0.0
 40
0.0
 40
0.0
 40
0.2177068691
 40
0.4508430786
 40
0.7104028475
 40
1.0
 40
1.0
 40
1.0
 40
1.0
 10
7.649706378
 20
30.9615402065
 30
0.0
 10
7.6332210981
 20
30.9710627448
 30
0.0
 10
7.6023559942
 20
30.9969842151
 30
0.0
 10
7.5694995425
 20
31.0507127462
 30
0.0
 10
7.5500056488
 20
31.1169193948
 30
0.0
 10
7.5461467214
 20
31.1651027008
 30
0.0
 10
7.5461467214
 20
31.1904272735
 30
0.0
  0
SPLINE
  5
36F
100
AcDbEntity
  8
0
100
AcDbSpline
 62
7
  6
BYLAYER
 70
0
 71
3
 72
11
 73
7
 74
0
 42
0.0000001
 43
0.0000001
 44
0.0000000001
 40
0.0
 40
0.0
 40
0.0
 40
0.0
 40
0.1970295426
 40
0.4239534194
 40
0.6934942177
 40
1.0
 40
1.0
 40
1.0
 40
1.0
 10
17.3555936632
 20
40.4693223879
 30
0.0
 10
17.3644058647
 20
40.4642141876
 30
0.0
 10
17.3867893267
 20
40.4587574369
 30
0.0
 10
17.4225645441
 20
40.4667694754
 30
0.0
 10
17.45886051
 20
40.4877940346
 30
0.0
 10
17.4808144359
 20
40.5082699888
 30
0.0
 10
17.4913896617
 20
40.5200698111
 30
0.0
  0
SPLINE
  5
370
100
AcDbEntity
  8
0
100
AcDbSpline
 62
7
  6
BYLAYER
 70
0
 71
3
 72
11
 73
7
 74
0
 42
0.0000001
 43
0.0000001
 44
0.0000000001
 40
0.0
 40
0.0
 40
0.0
 40
0.0
 40
0.2324401814
 40
0.4726445942
 40
0.727206468
 40
1.0
 40
1.0
 40
1.0
 40
1.0
 10
24.6372053175
 20
45.863632629
 30
0.0
 10
24.5934194517
 20
45.8888972084
 30
0.0
 10
24.5100503383
 20
45.9507846596
 30
0.0
 10
24.4061657463
 20
46.0715494951
 30
0.0
 10
24.3243967633
 20
46.2181918693
 30
0.0
 10
24.2865193858
 20
46.3270592228
 30
0.0
 10
24.271164328
 20
46.3843658802
 30
0.0
  0
SPLINE
  5
371
100
AcDbEntity
  8
0
100
AcDbSpline
 62
7
  6
BYLAYER
 70
0
 71
3
 72
10
 73
6
 74
0
 42
0.0000001
 43
0.0000001
 44
0.0000000001
 40
0.0
 40
0.0
 40
0.0
 40
0.0
 40
0.2282179999
 40
0.5973919631
 40
1.0
 40
1.0
 40
1.0
 40
1.0
 10
24.3885843894
 20
46.1594965326
 30
0.0
 10
24.4350811591
 20
46.1623551797
 30
0.0
 10
24.5563385601
 20
46.1789075322
 30
0.0
 10
24.75241545
 20
46.2394325753
 30
0.0
 10
24.8942583503
 20
46.3094190444
 30
0.0
 10
24.9654298055
 20
46.3505096579
 30
0.0
  0
SPLINE
  5
372
100
AcDbEntity
  8
0
100
AcDbSpline
 62
7
  6
BYLAYER
 70
0
 71
3
 72
11
 73
7
 74
0
 42
0.0000001
 43
0.0000001
 44
0.0000000001
 40
0.0
 40
0.0
 40
0.0
 40
0.0
 40
0.2819597088
 40
0.5390822309
 40
0.7753074169
 40
1.0
 40
1.0
 40
1.0
 40
1.0
 10
45.5750746807
 20
79.186600634
 30
0.0
 10
45.6120006143
 20
79.2026843085
 30
0.0
 10
45.685218871
 20
79.2279824795
 30
0.0
 10
45.7957375661
 20
79.2434387385
 30
0.0
 10
45.8988914621
 20
79.2331474345
 30
0.0
 10
45.9610987805
 20
79.2085156426
 30
0.0
 10
45.9888780335
 20
79.1924381357
 30
0.0
  0
SPLINE
  5
373
100
AcDbEntity
  8
0
100
AcDbSpline
 62
7
  6
BYLAYER
 70
0
 71
3
 72
9
 73
5
 74
0
 42
0.0000001
 43
0.0000001
 44
0.0000000001
 40
0.0
 40
0.0
 40
0.0
 40
0.0
 40
0.2560789398
 40
1.0
 40
1.0
 40
1.0
 40
1.0
 10
45.4889004002
 20
79.1429342721
 30
0.0
 10
45.4960439834
 20
79.1470585972
 30
0.0
 10
45.5241493439
 20
79.1627969904
 30
0.0
 10
45.5531053978
 20
79.1770315653
 30
0.0
 10
45.5750746807
 20
79.186600634
 30
0.0
  0
SPLINE
  5
374
100
AcDbEntity
  8
0
100
AcDbSpline
 62
7
  6
BYLAYER
 70
0
 71
3
 72
9
 73
5
 74
0
 42
0.0000001
 43
0.0000001
 44
0.0000000001
 40
0.0
 40
0.0
 40
0.0
 40
0.0
 40
0.2648699734
 40
1.0
 40
1.0
 40
1.0
 40
1.0
 10
33.7727149645
 20
72.3403818752
 30
0.0
 10
33.7842011988
 20
72.3531981995
 30
0.0
 10
33.8291599809
 20
72.400076948
 30
0.0
 10
33.8807659226
 20
72.4410147117
 30
0.0
 10
33.9221324618
 20
72.4648975517
 30
0.0
  0
SPLINE
  5
375
100
AcDbEntity
  8
0
100
AcDbSpline
 62
7
  6
BYLAYER
 70
0
 71
3
 72
11
 73
7
 74
0
 42
0.0000001
 43
0.0000001
 44
0.0000000001
 40
0.0
 40
0.0
 40
0.0
 40
0.0
 40
0.2273470324
 40
0.4783396532
 40
0.7406681119
 40
1.0
 40
1.0
 40
1.0
 40
1.0
 10
32.7664547297
 20
70.6791422877
 30
0.0
 10
32.7648341454
 20
70.7621754201
 30
0.0
 10
32.7848212323
 20
70.9375242228
 30
0.0
 10
32.8670918721
 20
71.1966225274
 30
0.0
 10
32.9969427123
 20
71.4486183627
 30
0.0
 10
33.111322591
 20
71.6024011793
 30
0.0
 10
33.1745480438
 20
71.6729480522
 30
0.0
  0
SPLINE
  5
376
100
AcDbEntity
  8
0
100
AcDbSpline
 62
7
  6
BYLAYER
 70
0
 71
3
 72
9
 73
5
 74
0
 42
0.0000001
 43
0.0000001
 44
0.0000000001
 40
0.0
 40
0.0
 40
0.0
 40
0.0
 40
0.2358774754
 40
1.0
 40
1.0
 40
1.0
 40
1.0
 10
32.7995238589
 20
69.5112343074
 30
0.0
 10
32.7983341248
 20
69.5134935464
 30
0.0
 10
32.7937636503
 20
69.5233205005
 30
0.0
 10
32.7910477821
 20
69.5339509165
 30
0.0
 10
32.7898024447
 20
69.5421282022
 30
0.0
  0
SPLINE
  5
377
100
AcDbEntity
  8
0
100
AcDbSpline
 62
7
  6
BYLAYER
 70
0
 71
3
 72
9
 73
5
 74
0
 42
0.0000001
 43
0.0000001
 44
0.0000000001
 40
0.0
 40
0.0
 40
0.0
 40
0.0
 40
0.243129207
 40
1.0
 40
1.0
 40
1.0
 40
1.0
 10
32.7898024447
 20
69.5421282022
 30
0.0
 10
32.7895796416
 20
69.5435911989
 30
0.0
 10
32.7887712523
 20
69.5496247772
 30
0.0
 10
32.7883810746
 20
69.5557122342
 30
0.0
 10
32.7882911778
 20
69.5603182353
 30
0.0
  0
SPLINE
  5
378
100
AcDbEntity
  8
0
100
AcDbSpline
 62
7
  6
BYLAYER
 70
0
 71
3
 72
13
 73
9
 74
0
 42
0.0000001
 43
0.0000001
 44
0.0000000001
 40
0.0
 40
0.0
 40
0.0
 40
0.0
 40
0.3028309777
 40
0.5713007088
 40
0.6908934091
 40
0.8010513505
 40
0.9032866075
 40
1.0
 40
1.0
 40
1.0
 40
1.0
 10
27.7753555042
 20
65.6485364816
 30
0.0
 10
27.83447466
 20
65.7145015539
 30
0.0
 10
27.956905311
 20
65.8297812086
 30
0.0
 10
28.1318858893
 20
65.9355162322
 30
0.0
 10
28.2706721876
 20
65.9818051946
 30
0.0
 10
28.3672463721
 20
65.9965132408
 30
0.0
 10
28.4582091714
 20
65.9917697639
 30
0.0
 10
28.5147345715
 20
65.9753226366
 30
0.0
 10
28.5406638718
 20
65.9640106912
 30
0.0
  0
SPLINE
  5
379
100
AcDbEntity
  8
0
100
AcDbSpline
 62
7
  6
BYLAYER
 70
0
 71
3
 72
11
 73
7
 74
0
 42
0.0000001
 43
0.0000001
 44
0.0000000001
 40
0.0
 40
0.0
 40
0.0
 40
0.0
 40
0.2286125437
 40
0.4797640107
 40
0.7414848026
 40
1.0
 40
1.0
 40
1.0
 40
1.0
 10
26.6556430835
 20
63.878993503
 30
0.0
 10
26.6556430835
 20
63.9611342057
 30
0.0
 10
26.6777439228
 20
64.133707753
 30
0.0
 10
26.7608420702
 20
64.3881053464
 30
0.0
 10
26.8894870194
 20
64.634917075
 30
0.0
 10
27.0019199287
 20
64.7855381359
 30
0.0
 10
27.0639119262
 20
64.854708721
 30
0.0
  0
SPLINE
  5
37A
100
AcDbEntity
  8
0
100
AcDbSpline
 62
7
  6
BYLAYER
 70
0
 71
3
 72
9
 73
5
 74
0
 42
0.0000001
 43
0.0000001
 44
0.0000000001
 40
0.0
 40
0.0
 40
0.0
 40
0.0
 40
0.2425171833
 40
1.0
 40
1.0
 40
1.0
 40
1.0
 10
50.2861477374
 20
28.4113748498
 30
0.0
 10
50.5625406195
 20
28.5210891584
 30
0.0
 10
51.6934101383
 20
28.9955593667
 30
0.0
 10
52.7882397622
 20
29.5545130305
 30
0.0
 10
53.5945774376
 20
30.015514947
 30
0.0
  0
SPLINE
  5
37B
100
AcDbEntity
  8
0
100
AcDbSpline
 62
7
  6
BYLAYER
 70
0
 71
3
 72
9
 73
5
 74
0
 42
0.0000001
 43
0.0000001
 44
0.0000000001
 40
0.0
 40
0.0
 40
0.0
 40
0.0
 40
0.2553529242
 40
1.0
 40
1.0
 40
1.0
 40
1.0
 10
53.9472158776
 20
30.5776026903
 30
0.0
 10
53.9476516118
 20
30.5819520739
 30
0.0
 10
53.9491582718
 20
30.5990039696
 30
0.0
 10
53.9498511999
 20
30.6161305523
 30
0.0
 10
53.9498511999
 20
30.628877492
 30
0.0
  0
SPLINE
  5
37C
100
AcDbEntity
  8
0
100
AcDbSpline
 62
7
  6
BYLAYER
 70
0
 71
3
 72
11
 73
7
 74
0
 42
0.0000001
 43
0.0000001
 44
0.0000000001
 40
0.0
 40
0.0
 40
0.0
 40
0.0
 40
0.2336288514
 40
0.4925267279
 40
0.7554390111
 40
1.0
 40
1.0
 40
1.0
 40
1.0
 10
53.5945774376
 20
30.015514947
 30
0.0
 10
53.640821748
 20
30.0419538899
 30
0.0
 10
53.7291641384
 20
30.1138809361
 30
0.0
 10
53.8355274376
 20
30.2507944415
 30
0.0
 10
53.9133512207
 20
30.4085069623
 30
0.0
 10
53.94165737
 20
30.5221191443
 30
0.0
 10
53.9472158776
 20
30.5776026903
 30
0.0
  0
SPLINE
  5
37D
100
AcDbEntity
  8
0
100
AcDbSpline
 62
7
  6
BYLAYER
 70
0
 71
3
 72
9
 73
5
 74
0
 42
0.0000001
 43
0.0000001
 44
0.0000000001
 40
0.0
 40
0.0
 40
0.0
 40
0.0
 40
0.2596483737
 40
1.0
 40
1.0
 40
1.0
 40
1.0
 10
26.353151987
 20
19.8132772199
 30
0.0
 10
26.3476134968
 20
19.8339474356
 30
0.0
 10
26.3241853339
 20
19.9129624012
 30
0.0
 10
26.2920390459
 20
19.9895210744
 30
0.0
 10
26.2628805952
 20
20.0431205167
 30
0.0
  0
SPLINE
  5
37E
100
AcDbEntity
  8
0
100
AcDbSpline
 62
7
  6
BYLAYER
 70
0
 71
3
 72
11
 73
7
 74
0
 42
0.0000001
 43
0.0000001
 44
0.0000000001
 40
0.0
 40
0.0
 40
0.0
 40
0.0
 40
0.2280611576
 40
0.477886368
 40
0.7392025456
 40
1.0
 40
1.0
 40
1.0
 40
1.0
 10
28.7062612864
 20
19.0345475594
 30
0.0
 10
28.8506708362
 20
18.9511745532
 30
0.0
 10
29.1326563398
 20
18.7399823522
 30
0.0
 10
29.5021328622
 20
18.3424709024
 30
0.0
 10
29.8184461044
 20
17.8724605017
 30
0.0
 10
29.982443637
 20
17.5257465117
 30
0.0
 10
30.0497697642
 20
17.3473433719
 30
0.0
  0
SPLINE
  5
37F
100
AcDbEntity
  8
0
100
AcDbSpline
 62
7
  6
BYLAYER
 70
0
 71
3
 72
9
 73
5
 74
0
 42
0.0000001
 43
0.0000001
 44
0.0000000001
 40
0.0
 40
0.0
 40
0.0
 40
0.0
 40
0.2322170285
 40
1.0
 40
1.0
 40
1.0
 40
1.0
 10
32.5113980881
 20
56.4923708082
 30
0.0
 10
32.5312058388
 20
56.4954819213
 30
0.0
 10
32.6157400426
 20
56.513757748
 30
0.0
 10
32.6958298313
 20
56.5496107683
 30
0.0
 10
32.7532418438
 20
56.5827574113
 30
0.0
  0
SPLINE
  5
380
100
AcDbEntity
  8
0
100
AcDbSpline
 62
7
  6
BYLAYER
 70
0
 71
3
 72
9
 73
5
 74
0
 42
0.0000001
 43
0.0000001
 44
0.0000000001
 40
0.0
 40
0.0
 40
0.0
 40
0.0
 40
0.263089758
 40
1.0
 40
1.0
 40
1.0
 40
1.0
 10
32.9484862026
 20
63.5116973226
 30
0.0
 10
32.9470412835
 20
63.5144411436
 30
0.0
 10
32.9409550458
 20
63.5245359394
 30
0.0
 10
32.9320615596
 20
63.5330181788
 30
0.0
 10
32.9245394258
 20
63.5373612947
 30
0.0
  0
SPLINE
  5
381
100
AcDbEntity
  8
0
100
AcDbSpline
 62
7
  6
BYLAYER
 70
0
 71
3
 72
11
 73
7
 74
0
 42
0.0000001
 43
0.0000001
 44
0.0000000001
 40
0.0
 40
0.0
 40
0.0
 40
0.0
 40
0.2783538213
 40
0.5534938581
 40
0.7991174457
 40
1.0
 40
1.0
 40
1.0
 40
1.0
 10
32.8903430203
 20
63.2936664147
 30
0.0
 10
32.9049865089
 20
63.3100055991
 30
0.0
 10
32.9301689468
 20
63.3461759993
 30
0.0
 10
32.954274399
 20
63.4049559929
 30
0.0
 10
32.9627986831
 20
63.4617648811
 30
0.0
 10
32.9558641727
 20
63.4976869669
 30
0.0
 10
32.9484862026
 20
63.5116973226
 30
0.0
  0
SPLINE
  5
382
100
AcDbEntity
  8
0
100
AcDbSpline
 62
7
  6
BYLAYER
 70
0
 71
3
 72
10
 73
6
 74
0
 42
0.0000001
 43
0.0000001
 44
0.0000000001
 40
0.0
 40
0.0
 40
0.0
 40
0.0
 40
0.5255778624
 40
0.7668236543
 40
1.0
 40
1.0
 40
1.0
 40
1.0
 10
43.3525392822
 20
73.4031332275
 30
0.0
 10
43.3451136879
 20
73.4304856019
 30
0.0
 10
43.3283038701
 20
73.4695186918
 30
0.0
 10
43.2929624252
 20
73.5106868708
 30
0.0
 10
43.2721949678
 20
73.5260836723
 30
0.0
 10
43.2613033176
 20
73.5323673961
 30
0.0
  0
SPLINE
  5
383
100
AcDbEntity
  8
0
100
AcDbSpline
 62
7
  6
BYLAYER
 70
0
 71
3
 72
11
 73
7
 74
0
 42
0.0000001
 43
0.0000001
 44
0.0000000001
 40
0.0
 40
0.0
 40
0.0
 40
0.0
 40
0.2897211455
 40
0.5490700808
 40
0.7822818176
 40
1.0
 40
1.0
 40
1.0
 40
1.0
 10
58.5107012729
 20
67.7678784934
 30
0.0
 10
58.5107012729
 20
67.8185764504
 30
0.0
 10
58.5029973685
 20
67.9149801978
 30
0.0
 10
58.4639599469
 20
68.047464073
 30
0.0
 10
58.3981301958
 20
68.1548954628
 30
0.0
 10
58.3363570624
 20
68.2067831387
 30
0.0
 10
58.3033468695
 20
68.2258042692
 30
0.0
  0
SPLINE
  5
384
100
AcDbEntity
  8
0
100
AcDbSpline
 62
7
  6
BYLAYER
 70
0
 71
3
 72
11
 73
7
 74
0
 42
0.0000001
 43
0.0000001
 44
0.0000000001
 40
0.0
 40
0.0
 40
0.0
 40
0.0
 40
0.263286056
 40
0.52405504
 40
0.7723689199
 40
1.0
 40
1.0
 40
1.0
 40
1.0
 10
58.2091755347
 20
66.814953679
 30
0.0
 10
58.2558045547
 20
66.8795761845
 30
0.0
 10
58.339581208
 20
67.0149544998
 30
0.0
 10
58.4348340537
 20
67.2292626964
 30
0.0
 10
58.4950566092
 20
67.4447822809
 30
0.0
 10
58.5107012729
 20
67.5889809662
 30
0.0
 10
58.5107012729
 20
67.65787823
 30
0.0
  0
SPLINE
  5
385
100
AcDbEntity
  8
0
100
AcDbSpline
 62
7
  6
BYLAYER
 70
0
 71
3
 72
10
 73
6
 74
0
 42
0.0000001
 43
0.0000001
 44
0.0000000001
 40
0.0
 40
0.0
 40
0.0
 40
0.0
 40
0.2305281889
 40
0.4761763338
 40
1.0
 40
1.0
 40
1.0
 40
1.0
 10
56.3677540966
 20
64.6234794773
 30
0.0
 10
56.4423487308
 20
64.6665464524
 30
0.0
 10
56.5904844678
 20
64.7660959938
 30
0.0
 10
56.8753169734
 20
65.0086983919
 30
0.0
 10
57.064386587
 20
65.2284067151
 30
0.0
 10
57.1789102947
 20
65.3871235171
 30
0.0
  0
SPLINE
  5
386
100
AcDbEntity
  8
0
100
AcDbSpline
 62
7
  6
BYLAYER
 70
0
 71
3
 72
11
 73
7
 74
0
 42
0.0000001
 43
0.0000001
 44
0.0000000001
 40
0.0
 40
0.0
 40
0.0
 40
0.0
 40
0.2177182217
 40
0.4509432136
 40
0.7102956781
 40
1.0
 40
1.0
 40
1.0
 40
1.0
 10
55.5433777727
 20
64.2671024364
 30
0.0
 10
55.5598655779
 20
64.2575829254
 30
0.0
 10
55.5977657842
 20
64.2438415979
 30
0.0
 10
55.6607081458
 20
64.242222169
 30
0.0
 10
55.7277935937
 20
64.2584430862
 30
0.0
 10
55.7714372282
 20
64.2791978279
 30
0.0
 10
55.7933767318
 20
64.2918645306
 30
0.0
  0
SPLINE
  5
387
100
AcDbEntity
  8
0
100
AcDbSpline
 62
7
  6
BYLAYER
 70
0
 71
3
 72
11
 73
7
 74
0
 42
0.0000001
 43
0.0000001
 44
0.0000000001
 40
0.0
 40
0.0
 40
0.0
 40
0.0
 40
0.2372423294
 40
0.4999983821
 40
0.7627553152
 40
1.0
 40
1.0
 40
1.0
 40
1.0
 10
53.3134880693
 20
37.5462661633
 30
0.0
 10
53.3636830064
 20
37.5752460508
 30
0.0
 10
53.4586657272
 20
37.6551937716
 30
0.0
 10
53.5695259664
 20
37.8066899664
 30
0.0
 10
53.6452947365
 20
37.9784467721
 30
0.0
 10
53.6670399879
 20
38.100678839
 30
0.0
 10
53.667039988
 20
38.1586394488
 30
0.0
  0
SPLINE
  5
388
100
AcDbEntity
  8
0
100
AcDbSpline
 62
7
  6
BYLAYER
 70
0
 71
3
 72
9
 73
5
 74
0
 42
0.0000001
 43
0.0000001
 44
0.0000000001
 40
0.0
 40
0.0
 40
0.0
 40
0.0
 40
0.2441998105
 40
1.0
 40
1.0
 40
1.0
 40
1.0
 10
53.2718937259
 20
37.5250869135
 30
0.0
 10
53.2753716684
 20
37.5266191146
 30
0.0
 10
53.2895220322
 20
37.533100858
 30
0.0
 10
53.3033013922
 20
37.5403849177
 30
0.0
 10
53.3134880693
 20
37.5462661633
 30
0.0
  0
SPLINE
  5
389
100
AcDbEntity
  8
0
100
AcDbSpline
 62
7
  6
BYLAYER
 70
0
 71
3
 72
10
 73
6
 74
0
 42
0.0000001
 43
0.0000001
 44
0.0000000001
 40
0.0
 40
0.0
 40
0.0
 40
0.0
 40
0.4734292772
 40
0.7297807613
 40
1.0
 40
1.0
 40
1.0
 40
1.0
 10
51.4636863
 20
37.1326023248
 30
0.0
 10
51.7575379143
 20
37.1225895719
 30
0.0
 10
52.2141436964
 20
37.1721634301
 30
0.0
 10
52.8128747761
 20
37.3386494016
 30
0.0
 10
53.118317494
 20
37.4574291868
 30
0.0
 10
53.2718937259
 20
37.5250869135
 30
0.0
  0
SPLINE
  5
38A
100
AcDbEntity
  8
0
100
AcDbSpline
 62
7
  6
BYLAYER
 70
0
 71
3
 72
9
 73
5
 74
0
 42
0.0000001
 43
0.0000001
 44
0.0000000001
 40
0.0
 40
0.0
 40
0.0
 40
0.0
 40
0.2775224547
 40
1.0
 40
1.0
 40
1.0
 40
1.0
 10
51.2982421333
 20
37.0845405689
 30
0.0
 10
51.3121367987
 20
37.0925626099
 30
0.0
 10
51.3634558433
 20
37.1188669364
 30
0.0
 10
51.4219425878
 20
37.1340247076
 30
0.0
 10
51.4636863
 20
37.1326023248
 30
0.0
  0
SPLINE
  5
38B
100
AcDbEntity
  8
0
100
AcDbSpline
 62
7
  6
BYLAYER
 70
0
 71
3
 72
12
 73
8
 74
0
 42
0.0000001
 43
0.0000001
 44
0.0000000001
 40
0.0
 40
0.0
 40
0.0
 40
0.0
 40
0.2895104871
 40
0.5486232845
 40
0.7815559591
 40
0.891768883
 40
1.0
 40
1.0
 40
1.0
 40
1.0
 10
58.5107012729
 20
37.9850033331
 30
0.0
 10
58.5107012729
 20
38.086349788
 30
0.0
 10
58.4953225643
 20
38.279084754
 30
0.0
 10
58.4174274081
 20
38.5437370609
 30
0.0
 10
58.3054268625
 20
38.7263347352
 30
0.0
 10
58.1923638044
 20
38.8376175012
 30
0.0
 10
58.1292784001
 20
38.8816148272
 30
0.0
 10
58.096461308
 20
38.9005490321
 30
0.0
  0
SPLINE
  5
38C
100
AcDbEntity
  8
0
100
AcDbSpline
 62
7
  6
BYLAYER
 70
0
 71
3
 72
9
 73
5
 74
0
 42
0.0000001
 43
0.0000001
 44
0.0000000001
 40
0.0
 40
0.0
 40
0.0
 40
0.0
 40
0.2553529195
 40
1.0
 40
1.0
 40
1.0
 40
1.0
 10
58.5027953057
 20
26.4535251124
 30
0.0
 10
58.5041025085
 20
26.4665732631
 30
0.0
 10
58.5086224852
 20
26.5177289507
 30
0.0
 10
58.5107012729
 20
26.5691086987
 30
0.0
 10
58.5107012729
 20
26.6073495182
 30
0.0
  0
SPLINE
  5
38D
100
AcDbEntity
  8
0
100
AcDbSpline
 62
7
  6
BYLAYER
 70
0
 71
3
 72
13
 73
9
 74
0
 42
0.0000001
 43
0.0000001
 44
0.0000000001
 40
0.0
 40
0.0
 40
0.0
 40
0.0
 40
0.1128262485
 40
0.2342246104
 40
0.4928751591
 40
0.7553659985
 40
0.881307291
 40
1.0
 40
1.0
 40
1.0
 40
1.0
 10
57.450045517
 20
24.7702296611
 30
0.0
 10
57.5167539326
 20
24.8087435529
 30
0.0
 10
57.6488462556
 20
24.9000511824
 30
0.0
 10
57.8988004352
 20
25.1263929192
 30
0.0
 10
58.1695212459
 20
25.476238743
 30
0.0
 10
58.3661709463
 20
25.8756199013
 30
0.0
 10
58.4660408721
 20
26.2077798312
 30
0.0
 10
58.4947175881
 20
26.3728954804
 30
0.0
 10
58.5027953057
 20
26.4535251124
 30
0.0
  0
SPLINE
  5
38E
100
AcDbEntity
  8
0
100
AcDbSpline
 62
7
  6
BYLAYER
 70
0
 71
3
 72
11
 73
7
 74
0
 42
0.0000001
 43
0.0000001
 44
0.0000000001
 40
0.0
 40
0.0
 40
0.0
 40
0.0
 40
0.2840221059
 40
0.5418291722
 40
0.7772512752
 40
1.0
 40
1.0
 40
1.0
 40
1.0
 10
55.3051879872
 20
26.2506557293
 30
0.0
 10
55.334281489
 20
26.2644229698
 30
0.0
 10
55.3920292365
 20
26.2863720446
 30
0.0
 10
55.4795986228
 20
26.3010339105
 30
0.0
 10
55.5614064577
 20
26.2944696736
 30
0.0
 10
55.6106836234
 20
26.27539319
 30
0.0
 10
55.6325347228
 20
26.2627549488
 30
0.0
  0
SPLINE
  5
38F
100
AcDbEntity
  8
0
100
AcDbSpline
 62
7
  6
BYLAYER
 70
0
 71
3
 72
9
 73
5
 74
0
 42
0.0000001
 43
0.0000001
 44
0.0000000001
 40
0.0
 40
0.0
 40
0.0
 40
0.0
 40
0.2418164229
 40
1.0
 40
1.0
 40
1.0
 40
1.0
 10
51.7986043709
 20
24.9144299748
 30
0.0
 10
52.0895726545
 20
24.9977696532
 30
0.0
 10
53.2850197755
 20
25.3694756438
 30
0.0
 10
54.4474037624
 20
25.8447464754
 30
0.0
 10
55.3051879872
 20
26.2506557293
 30
0.0
  0
SPLINE
  5
390
100
AcDbEntity
  8
0
100
AcDbSpline
 62
7
  6
BYLAYER
 70
0
 71
3
 72
9
 73
5
 74
0
 42
0.0000001
 43
0.0000001
 44
0.0000000001
 40
0.0
 40
0.0
 40
0.0
 40
0.0
 40
0.2629464805
 40
1.0
 40
1.0
 40
1.0
 40
1.0
 10
50.502955873
 20
24.3519601621
 30
0.0
 10
50.6103156994
 20
24.4139440168
 30
0.0
 10
51.0246100988
 20
24.638834187
 30
0.0
 10
51.4645470224
 20
24.8187486462
 30
0.0
 10
51.7986043709
 20
24.9144299748
 30
0.0
  0
SPLINE
  5
391
100
AcDbEntity
  8
0
100
AcDbSpline
 62
7
  6
BYLAYER
 70
0
 71
3
 72
9
 73
5
 74
0
 42
0.0000001
 43
0.0000001
 44
0.0000000001
 40
0.0
 40
0.0
 40
0.0
 40
0.0
 40
0.2563400095
 40
1.0
 40
1.0
 40
1.0
 40
1.0
 10
49.7261840983
 20
23.8374492055
 30
0.0
 10
49.7899457646
 20
23.8851634497
 30
0.0
 10
50.0412314819
 20
24.0678534486
 30
0.0
 10
50.3028733112
 20
24.2364431308
 30
0.0
 10
50.502955873
 20
24.3519601621
 30
0.0
  0
SPLINE
  5
392
100
AcDbEntity
  8
0
100
AcDbSpline
 62
7
  6
BYLAYER
 70
0
 71
3
 72
11
 73
7
 74
0
 42
0.0000001
 43
0.0000001
 44
0.0000000001
 40
0.0
 40
0.0
 40
0.0
 40
0.0
 40
0.2333350285
 40
0.4915213108
 40
0.7542481311
 40
1.0
 40
1.0
 40
1.0
 40
1.0
 10
49.4244169647
 20
23.2593766505
 30
0.0
 10
49.4244169647
 20
23.3115930429
 30
0.0
 10
49.4421626038
 20
23.4216867378
 30
0.0
 10
49.5056149735
 20
23.5792489839
 30
0.0
 10
49.600412174
 20
23.7235312095
 30
0.0
 10
49.6821525992
 20
23.8044994755
 30
0.0
 10
49.7261840983
 20
23.8374492055
 30
0.0
  0
SPLINE
  5
393
100
AcDbEntity
  8
0
100
AcDbSpline
 62
7
  6
BYLAYER
 70
0
 71
3
 72
11
 73
7
 74
0
 42
0.0000001
 43
0.0000001
 44
0.0000000001
 40
0.0
 40
0.0
 40
0.0
 40
0.0
 40
0.2372423294
 40
0.4999983821
 40
0.7627553152
 40
1.0
 40
1.0
 40
1.0
 40
1.0
 10
49.0708650461
 20
19.9325364378
 30
0.0
 10
49.1210599831
 20
19.9615163252
 30
0.0
 10
49.2160427039
 20
20.041464046
 30
0.0
 10
49.3269029431
 20
20.1929602408
 30
0.0
 10
49.4026717132
 20
20.3647170465
 30
0.0
 10
49.4244169647
 20
20.4869491135
 30
0.0
 10
49.4244169647
 20
20.5449097233
 30
0.0
  0
SPLINE
  5
394
100
AcDbEntity
  8
0
100
AcDbSpline
 62
7
  6
BYLAYER
 70
0
 71
3
 72
11
 73
7
 74
0
 42
0.0000001
 43
0.0000001
 44
0.0000000001
 40
0.0
 40
0.0
 40
0.0
 40
0.0
 40
0.2897030021
 40
0.5490886384
 40
0.7822190917
 40
1.0
 40
1.0
 40
1.0
 40
1.0
 10
44.7683828715
 20
19.081516858
 30
0.0
 10
44.8561391902
 20
19.1321826898
 30
0.0
 10
45.0307160945
 20
19.2152285041
 30
0.0
 10
45.2990402277
 20
19.2800404734
 30
0.0
 10
45.5508128992
 20
19.273650796
 30
0.0
 10
45.7023819741
 20
19.2186356165
 30
0.0
 10
45.7683615984
 20
19.1805651701
 30
0.0
  0
SPLINE
  5
395
100
AcDbEntity
  8
0
100
AcDbSpline
 62
7
  6
BYLAYER
 70
0
 71
3
 72
13
 73
9
 74
0
 42
0.0000001
 43
0.0000001
 44
0.0000000001
 40
0.0
 40
0.0
 40
0.0
 40
0.0
 40
0.1232777227
 40
0.2516387099
 40
0.5138850335
 40
0.7687535607
 40
0.8882964917
 40
1.0
 40
1.0
 40
1.0
 40
1.0
 10
43.3806606901
 20
17.0699677831
 30
0.0
 10
43.4011200386
 20
17.1699484585
 30
0.0
 10
43.4547632842
 20
17.3717437632
 30
0.0
 10
43.6054377285
 20
17.7701768236
 30
0.0
 10
43.8658548737
 20
18.2404899655
 30
0.0
 10
44.2038919135
 20
18.6497959291
 30
0.0
 10
44.507707109
 20
18.9147927748
 30
0.0
 10
44.6665979665
 20
19.0227516664
 30
0.0
 10
44.7466804066
 20
19.0689870088
 30
0.0
  0
SPLINE
  5
396
100
AcDbEntity
  8
0
100
AcDbSpline
 62
7
  6
BYLAYER
 70
0
 71
3
 72
9
 73
5
 74
0
 42
0.0000001
 43
0.0000001
 44
0.0000000001
 40
0.0
 40
0.0
 40
0.0
 40
0.0
 40
0.2280643103
 40
1.0
 40
1.0
 40
1.0
 40
1.0
 10
37.414330049
 20
13.2409229504
 30
0.0
 10
37.4263209008
 20
13.241389335
 30
0.0
 10
37.4787481364
 20
13.2475975168
 30
0.0
 10
37.5285726065
 20
13.2686305689
 30
0.0
 10
37.5637475463
 20
13.2889387086
 30
0.0
  0
SPLINE
  5
397
100
AcDbEntity
  8
0
100
AcDbSpline
 62
7
  6
BYLAYER
 70
0
 71
3
 72
11
 73
7
 74
0
 42
0.0000001
 43
0.0000001
 44
0.0000000001
 40
0.0
 40
0.0
 40
0.0
 40
0.0
 40
0.3065062654
 40
0.5760476405
 40
0.8029714142
 40
1.0
 40
1.0
 40
1.0
 40
1.0
 10
32.9484862026
 20
14.8104861047
 30
0.0
 10
32.9534176214
 20
14.8255448734
 30
0.0
 10
32.9601734203
 20
14.8547963764
 30
0.0
 10
32.9602330157
 20
14.8967430544
 30
0.0
 10
32.9492835318
 20
14.9317321772
 30
0.0
 10
32.9333654838
 20
14.9483886735
 30
0.0
 10
32.9245352586
 20
14.9534661002
 30
0.0
  0
SPLINE
  5
398
100
AcDbEntity
  8
0
100
AcDbSpline
 62
7
  6
BYLAYER
 70
0
 71
3
 72
9
 73
5
 74
0
 42
0.0000001
 43
0.0000001
 44
0.0000000001
 40
0.0
 40
0.0
 40
0.0
 40
0.0
 40
0.2529982571
 40
1.0
 40
1.0
 40
1.0
 40
1.0
 10
32.9188415447
 20
14.747715737
 30
0.0
 10
32.9219612214
 20
14.7526790016
 30
0.0
 10
32.9336990038
 20
14.7726606084
 30
0.0
 10
32.9430993868
 20
14.7940367186
 30
0.0
 10
32.9484862026
 20
14.8104861047
 30
0.0
  0
SPLINE
  5
399
100
AcDbEntity
  8
0
100
AcDbSpline
 62
7
  6
BYLAYER
 70
0
 71
3
 72
12
 73
8
 74
0
 42
0.0000001
 43
0.0000001
 44
0.0000000001
 40
0.0
 40
0.0
 40
0.0
 40
0.0
 40
0.2033356432
 40
0.3185748683
 40
0.4423699182
 40
0.711684758
 40
1.0
 40
1.0
 40
1.0
 40
1.0
 10
31.4169705887
 20
13.0076554836
 30
0.0
 10
31.4836835671
 20
13.0102502868
 30
0.0
 10
31.5875702774
 20
13.0371830363
 30
0.0
 10
31.7176486006
 20
13.1019536724
 30
0.0
 10
31.8571104814
 20
13.1944904312
 30
0.0
 10
32.02162717
 20
13.3483573922
 30
0.0
 10
32.1319015981
 20
13.4957298855
 30
0.0
 10
32.1822789563
 20
13.5758779832
 30
0.0
  0
SPLINE
  5
39A
100
AcDbEntity
  8
0
100
AcDbSpline
 62
7
  6
BYLAYER
 70
0
 71
3
 72
10
 73
6
 74
0
 42
0.0000001
 43
0.0000001
 44
0.0000000001
 40
0.0
 40
0.0
 40
0.0
 40
0.0
 40
0.532691869
 40
0.778749162
 40
1.0
 40
1.0
 40
1.0
 40
1.0
 10
50.1505743042
 20
34.6888570878
 30
0.0
 10
50.1876643797
 20
34.7598237722
 30
0.0
 10
50.2564999244
 20
34.8572913117
 30
0.0
 10
50.3697371204
 20
34.9568618909
 30
0.0
 10
50.4306584267
 20
34.9931359832
 30
0.0
 10
50.4611501365
 20
35.0064171297
 30
0.0
  0
SPLINE
  5
39B
100
AcDbEntity
  8
0
100
AcDbSpline
 62
7
  6
BYLAYER
 70
0
 71
3
 72
9
 73
5
 74
0
 42
0.0000001
 43
0.0000001
 44
0.0000000001
 40
0.0
 40
0.0
 40
0.0
 40
0.0
 40
0.5128301941
 40
1.0
 40
1.0
 40
1.0
 40
1.0
 10
56.155258358
 20
38.1243683986
 30
0.0
 10
56.343899513
 20
38.1505202588
 30
0.0
 10
56.7156402153
 20
38.1775849912
 30
0.0
 10
57.0876532489
 20
38.1485463999
 30
0.0
 10
57.2661985194
 20
38.1193541441
 30
0.0
  0
SPLINE
  5
39C
100
AcDbEntity
  8
0
100
AcDbSpline
 62
7
  6
BYLAYER
 70
0
 71
3
 72
9
 73
5
 74
0
 42
0.0000001
 43
0.0000001
 44
0.0000000001
 40
0.0
 40
0.0
 40
0.0
 40
0.0
 40
0.269843888
 40
1.0
 40
1.0
 40
1.0
 40
1.0
 10
55.9041211284
 20
38.0326075399
 30
0.0
 10
55.9250171952
 20
38.0446718177
 30
0.0
 10
56.0040440134
 20
38.0863597157
 30
0.0
 10
56.0905883913
 20
38.1154030171
 30
0.0
 10
56.155258358
 20
38.1243683986
 30
0.0
  0
SPLINE
  5
39D
100
AcDbEntity
  8
0
100
AcDbSpline
 62
7
  6
BYLAYER
 70
0
 71
3
 72
10
 73
6
 74
0
 42
0.0000001
 43
0.0000001
 44
0.0000000001
 40
0.0
 40
0.0
 40
0.0
 40
0.0
 40
0.5249298085
 40
0.7715437808
 40
1.0
 40
1.0
 40
1.0
 40
1.0
 10
55.4041232101
 20
37.5047873092
 30
0.0
 10
55.4683230228
 20
37.6159852639
 30
0.0
 10
55.5811212864
 20
37.7701969669
 30
0.0
 10
55.7601120024
 20
37.9376081926
 30
0.0
 10
55.8557263401
 20
38.0046669627
 30
0.0
 10
55.9041211284
 20
38.0326075399
 30
0.0
  0
SPLINE
  5
39E
100
AcDbEntity
  8
0
100
AcDbSpline
 62
7
  6
BYLAYER
 70
0
 71
3
 72
10
 73
6
 74
0
 42
0.0000001
 43
0.0000001
 44
0.0000000001
 40
0.0
 40
0.0
 40
0.0
 40
0.0
 40
0.2284562192
 40
0.4750701915
 40
1.0
 40
1.0
 40
1.0
 40
1.0
 10
54.4845391045
 20
36.2502184496
 30
0.0
 10
54.5329338928
 20
36.2781590269
 30
0.0
 10
54.6285482305
 20
36.3452177969
 30
0.0
 10
54.8075389465
 20
36.5126290226
 30
0.0
 10
54.9203372101
 20
36.6668407256
 30
0.0
 10
54.9845370228
 20
36.7780386803
 30
0.0
  0
SPLINE
  5
39F
100
AcDbEntity
  8
0
100
AcDbSpline
 62
7
  6
BYLAYER
 70
0
 71
3
 72
9
 73
5
 74
0
 42
0.0000001
 43
0.0000001
 44
0.0000000001
 40
0.0
 40
0.0
 40
0.0
 40
0.0
 40
0.2431080585
 40
1.0
 40
1.0
 40
1.0
 40
1.0
 10
54.3864450792
 20
36.2014791543
 30
0.0
 10
54.3946449882
 20
36.2048869826
 30
0.0
 10
54.4281260214
 20
36.2194991392
 30
0.0
 10
54.4605964879
 20
36.236395256
 30
0.0
 10
54.4845391045
 20
36.2502184496
 30
0.0
  0
SPLINE
  5
3A0
100
AcDbEntity
  8
0
100
AcDbSpline
 62
7
  6
BYLAYER
 70
0
 71
3
 72
9
 73
5
 74
0
 42
0.0000001
 43
0.0000001
 44
0.0000000001
 40
0.0
 40
0.0
 40
0.0
 40
0.0
 40
0.2402105482
 40
1.0
 40
1.0
 40
1.0
 40
1.0
 10
50.5310469598
 20
35.0284075209
 30
0.0
 10
50.8485018382
 20
35.0880625572
 30
0.0
 10
52.1627217135
 20
35.3750905891
 30
0.0
 10
53.4429879469
 20
35.8093845638
 30
0.0
 10
54.3864450792
 20
36.2014791543
 30
0.0
  0
SPLINE
  5
3A1
100
AcDbEntity
  8
0
100
AcDbSpline
 62
7
  6
BYLAYER
 70
0
 71
3
 72
9
 73
5
 74
0
 42
0.0000001
 43
0.0000001
 44
0.0000000001
 40
0.0
 40
0.0
 40
0.0
 40
0.0
 40
0.2611807561
 40
1.0
 40
1.0
 40
1.0
 40
1.0
 10
50.4611501365
 20
35.0064171297
 30
0.0
 10
50.4670054357
 20
35.008967498
 30
0.0
 10
50.4896561513
 20
35.0181768811
 30
0.0
 10
50.5132914845
 20
35.0250709726
 30
0.0
 10
50.5310469598
 20
35.0284075209
 30
0.0
  0
SPLINE
  5
3A2
100
AcDbEntity
  8
0
100
AcDbSpline
 62
7
  6
BYLAYER
 70
0
 71
3
 72
9
 73
5
 74
0
 42
0.0000001
 43
0.0000001
 44
0.0000000001
 40
0.0
 40
0.0
 40
0.0
 40
0.0
 40
0.2560789452
 40
1.0
 40
1.0
 40
1.0
 40
1.0
 10
57.3793351333
 20
32.5065907689
 30
0.0
 10
57.3814782083
 20
32.5078280665
 30
0.0
 10
57.3899098161
 20
32.512549585
 30
0.0
 10
57.3985966326
 20
32.5168199569
 30
0.0
 10
57.4051874174
 20
32.5196906774
 30
0.0
  0
SPLINE
  5
3A3
100
AcDbEntity
  8
0
100
AcDbSpline
 62
7
  6
BYLAYER
 70
0
 71
3
 72
9
 73
5
 74
0
 42
0.0000001
 43
0.0000001
 44
0.0000000001
 40
0.0
 40
0.0
 40
0.0
 40
0.0
 40
0.2407876756
 40
1.0
 40
1.0
 40
1.0
 40
1.0
 10
51.798604371
 20
33.6714183985
 30
0.0
 10
52.1286367445
 20
33.7659468863
 30
0.0
 10
53.4891791075
 20
34.1935012245
 30
0.0
 10
54.8065707439
 20
34.7539621822
 30
0.0
 10
55.775756116
 20
35.2360114444
 30
0.0
  0
SPLINE
  5
3A4
100
AcDbEntity
  8
0
100
AcDbSpline
 62
7
  6
BYLAYER
 70
0
 71
3
 72
9
 73
5
 74
0
 42
0.0000001
 43
0.0000001
 44
0.0000000001
 40
0.0
 40
0.0
 40
0.0
 40
0.0
 40
0.2629464805
 40
1.0
 40
1.0
 40
1.0
 40
1.0
 10
50.502955873
 20
33.1089485858
 30
0.0
 10
50.6103156994
 20
33.1709324405
 30
0.0
 10
51.0246100989
 20
33.3958226107
 30
0.0
 10
51.4645470225
 20
33.5757370699
 30
0.0
 10
51.798604371
 20
33.6714183985
 30
0.0
  0
SPLINE
  5
3A5
100
AcDbEntity
  8
0
100
AcDbSpline
 62
7
  6
BYLAYER
 70
0
 71
3
 72
11
 73
7
 74
0
 42
0.0000001
 43
0.0000001
 44
0.0000000001
 40
0.0
 40
0.0
 40
0.0
 40
0.0
 40
0.2280611576
 40
0.477886368
 40
0.7392025456
 40
1.0
 40
1.0
 40
1.0
 40
1.0
 10
28.7062612864
 20
61.6151486127
 30
0.0
 10
28.8506708362
 20
61.5317756064
 30
0.0
 10
29.1326563399
 20
61.3205834055
 30
0.0
 10
29.5021328623
 20
60.9230719557
 30
0.0
 10
29.8184461044
 20
60.4530615549
 30
0.0
 10
29.982443637
 20
60.1063475649
 30
0.0
 10
30.0497697642
 20
59.9279444252
 30
0.0
  0
SPLINE
  5
3A6
100
AcDbEntity
  8
0
100
AcDbSpline
 62
7
  6
BYLAYER
 70
0
 71
3
 72
11
 73
7
 74
0
 42
0.0000001
 43
0.0000001
 44
0.0000000001
 40
0.0
 40
0.0
 40
0.0
 40
0.0
 40
0.2815362864
 40
0.5388780693
 40
0.7754267766
 40
1.0
 40
1.0
 40
1.0
 40
1.0
 10
42.3826278596
 20
73.9172437545
 30
0.0
 10
42.4010622021
 20
73.9252731241
 30
0.0
 10
42.437670092
 20
73.9378808819
 30
0.0
 10
42.4929265416
 20
73.9456046044
 30
0.0
 10
42.5445431946
 20
73.9405389118
 30
0.0
 10
42.5756572023
 20
73.9282121639
 30
0.0
 10
42.5895469555
 20
73.920192225
 30
0.0
  0
SPLINE
  5
3A7
100
AcDbEntity
  8
0
100
AcDbSpline
 62
7
  6
BYLAYER
 70
0
 71
3
 72
9
 73
5
 74
0
 42
0.0000001
 43
0.0000001
 44
0.0000000001
 40
0.0
 40
0.0
 40
0.0
 40
0.0
 40
0.2560789452
 40
1.0
 40
1.0
 40
1.0
 40
1.0
 10
42.3395407194
 20
73.8954105736
 30
0.0
 10
42.3431125111
 20
73.8974727362
 30
0.0
 10
42.3571651907
 20
73.9053419338
 30
0.0
 10
42.3716432182
 20
73.9124592202
 30
0.0
 10
42.3826278596
 20
73.9172437545
 30
0.0
  0
SPLINE
  5
3A8
100
AcDbEntity
  8
0
100
AcDbSpline
 62
7
  6
BYLAYER
 70
0
 71
3
 72
11
 73
7
 74
0
 42
0.0000001
 43
0.0000001
 44
0.0000000001
 40
0.0
 40
0.0
 40
0.0
 40
0.0
 40
0.2514850368
 40
0.5139453547
 40
0.7690181709
 40
1.0
 40
1.0
 40
1.0
 40
1.0
 10
45.4905091518
 20
75.4120241665
 30
0.0
 10
45.5009353893
 20
75.4629750688
 30
0.0
 10
45.5343832925
 20
75.5647932959
 30
0.0
 10
45.611816566
 20
75.7046804371
 30
0.0
 10
45.7109569338
 20
75.8246828175
 30
0.0
 10
45.790646839
 20
75.8878957273
 30
0.0
 10
45.8320140809
 20
75.911778973
 30
0.0
  0
SPLINE
  5
3A9
100
AcDbEntity
  8
0
100
AcDbSpline
 62
7
  6
BYLAYER
 70
0
 71
3
 72
13
 73
9
 74
0
 42
0.0000001
 43
0.0000001
 44
0.0000000001
 40
0.0
 40
0.0
 40
0.0
 40
0.0
 40
0.1117035462
 40
0.2312465534
 40
0.4861151238
 40
0.7483614111
 40
0.8767223169
 40
1.0
 40
1.0
 40
1.0
 40
1.0
 10
44.0966286326
 20
73.2768548636
 30
0.0
 10
44.1767110999
 20
73.3230902217
 30
0.0
 10
44.3356020151
 20
73.4310491968
 30
0.0
 10
44.6394173214
 20
73.6960461114
 30
0.0
 10
44.9774543516
 20
74.1053521834
 30
0.0
 10
45.2378714031
 20
74.5756652971
 30
0.0
 10
45.3885458193
 20
74.9740982299
 30
0.0
 10
45.4421890072
 20
75.1758934461
 30
0.0
 10
45.4626483491
 20
75.2758740894
 30
0.0
  0
SPLINE
  5
3AA
100
AcDbEntity
  8
0
100
AcDbSpline
 62
7
  6
BYLAYER
 70
0
 71
3
 72
11
 73
7
 74
0
 42
0.0000001
 43
0.0000001
 44
0.0000000001
 40
0.0
 40
0.0
 40
0.0
 40
0.0
 40
0.2280611576
 40
0.477886368
 40
0.7392025456
 40
1.0
 40
1.0
 40
1.0
 40
1.0
 10
9.5967649243
 20
19.8001641436
 30
0.0
 10
9.7411744741
 20
19.7167911373
 30
0.0
 10
10.0231599777
 20
19.5055989363
 30
0.0
 10
10.3926365001
 20
19.1080874866
 30
0.0
 10
10.7089497423
 20
18.6380770858
 30
0.0
 10
10.8729472748
 20
18.2913630958
 30
0.0
 10
10.9402734021
 20
18.112959956
 30
0.0
  0
SPLINE
  5
3AB
100
AcDbEntity
  8
0
100
AcDbSpline
 62
7
  6
BYLAYER
 70
0
 71
3
 72
9
 73
5
 74
0
 42
0.0000001
 43
0.0000001
 44
0.0000000001
 40
0.0
 40
0.0
 40
0.0
 40
0.0
 40
0.2596483737
 40
1.0
 40
1.0
 40
1.0
 40
1.0
 10
45.4626483491
 20
19.0476606357
 30
0.0
 10
45.4571098589
 20
19.0683308514
 30
0.0
 10
45.433681696
 20
19.147345817
 30
0.0
 10
45.401535408
 20
19.2239044903
 30
0.0
 10
45.3723769573
 20
19.2775039325
 30
0.0
  0
SPLINE
  5
3AC
100
AcDbEntity
  8
0
100
AcDbSpline
 62
7
  6
BYLAYER
 70
0
 71
3
 72
11
 73
7
 74
0
 42
0.0000001
 43
0.0000001
 44
0.0000000001
 40
0.0
 40
0.0
 40
0.0
 40
0.0
 40
0.2827725759
 40
0.5406831207
 40
0.7773390782
 40
1.0
 40
1.0
 40
1.0
 40
1.0
 10
55.4910641485
 20
37.5571566088
 30
0.0
 10
55.5344434801
 20
37.5778191593
 30
0.0
 10
55.6204778187
 20
37.6113963796
 30
0.0
 10
55.7510254342
 20
37.6365914331
 30
0.0
 10
55.8739540837
 20
37.6329665175
 30
0.0
 10
55.9498648326
 20
37.6104399894
 30
0.0
 10
55.984234608
 20
37.5946226324
 30
0.0
  0
SPLINE
  5
3AD
100
AcDbEntity
  8
0
100
AcDbSpline
 62
7
  6
BYLAYER
 70
0
 71
3
 72
19
 73
15
 74
0
 42
0.0000001
 43
0.0000001
 44
0.0000000001
 40
0.0
 40
0.0
 40
0.0
 40
0.0
 40
0.0623912204
 40
0.12883165
 40
0.2703521188
 40
0.4174418405
 40
0.5617162437
 40
0.6953237839
 40
0.7563173263
 40
0.8127977205
 40
0.8647364846
 40
0.9125503751
 40
0.9571578678
 40
1.0
 40
1.0
 40
1.0
 40
1.0
 10
28.7062612864
 20
15.4827620449
 30
0.0
 10
28.6281671232
 20
15.5278487111
 30
0.0
 10
28.4729423171
 20
15.6316527454
 30
0.0
 10
28.173472382
 20
15.8835612663
 30
0.0
 10
27.8326050718
 20
16.2714617396
 30
0.0
 10
27.503488614
 20
16.8068389441
 30
0.0
 10
27.2722423249
 20
17.3789616705
 30
0.0
 10
27.1735744556
 20
17.8626804226
 30
0.0
 10
27.1642287478
 20
18.226309641
 30
0.0
 10
27.1905903669
 20
18.4706029877
 30
0.0
 10
27.2497947172
 20
18.6896240252
 30
0.0
 10
27.3411609617
 20
18.8788130464
 30
0.0
 10
27.4635267175
 20
19.0334582779
 30
0.0
 10
27.5651422663
 20
19.1113015083
 30
0.0
 10
27.618771134
 20
19.1422541927
 30
0.0
  0
SPLINE
  5
3AE
100
AcDbEntity
  8
0
100
AcDbSpline
 62
7
  6
BYLAYER
 70
0
 71
3
 72
11
 73
7
 74
0
 42
0.0000001
 43
0.0000001
 44
0.0000000001
 40
0.0
 40
0.0
 40
0.0
 40
0.0
 40
0.2324401814
 40
0.4726445942
 40
0.727206468
 40
1.0
 40
1.0
 40
1.0
 40
1.0
 10
45.7683615984
 20
19.1805651701
 30
0.0
 10
45.8121474643
 20
19.1553005907
 30
0.0
 10
45.8955165777
 20
19.0934131395
 30
0.0
 10
45.9994011697
 20
18.972648304
 30
0.0
 10
46.0811701527
 20
18.8260059298
 30
0.0
 10
46.1190475302
 20
18.7171385763
 30
0.0
 10
46.134402588
 20
18.6598319189
 30
0.0
  0
SPLINE
  5
3AF
100
AcDbEntity
  8
0
100
AcDbSpline
 62
7
  6
BYLAYER
 70
0
 71
3
 72
11
 73
7
 74
0
 42
0.0000001
 43
0.0000001
 44
0.0000000001
 40
0.0
 40
0.0
 40
0.0
 40
0.0
 40
0.2585151974
 40
0.5202359893
 40
0.7713874563
 40
1.0
 40
1.0
 40
1.0
 40
1.0
 10
30.7055270107
 20
62.7522688353
 30
0.0
 10
30.6435350132
 20
62.6830982502
 30
0.0
 10
30.5311021039
 20
62.5324771893
 30
0.0
 10
30.4024571547
 20
62.2856654606
 30
0.0
 10
30.3193590073
 20
62.0312678673
 30
0.0
 10
30.297258168
 20
61.8586943199
 30
0.0
 10
30.297258168
 20
61.7765536173
 30
0.0
  0
SPLINE
  5
3B0
100
AcDbEntity
  8
0
100
AcDbSpline
 62
7
  6
BYLAYER
 70
0
 71
3
 72
13
 73
9
 74
0
 42
0.0000001
 43
0.0000001
 44
0.0000000001
 40
0.0
 40
0.0
 40
0.0
 40
0.0
 40
0.0967133925
 40
0.1989486495
 40
0.3091065909
 40
0.4286992912
 40
0.6971690223
 40
1.0
 40
1.0
 40
1.0
 40
1.0
 10
32.1822789563
 20
63.8615708055
 30
0.0
 10
32.156349656
 20
63.8728827509
 30
0.0
 10
32.0998242559
 20
63.8893298781
 30
0.0
 10
32.0088614566
 20
63.894073355
 30
0.0
 10
31.912287272
 20
63.8793653088
 30
0.0
 10
31.7735009738
 20
63.8330763465
 30
0.0
 10
31.5985203955
 20
63.7273413228
 30
0.0
 10
31.4760897444
 20
63.6120616682
 30
0.0
 10
31.4169705887
 20
63.5460965959
 30
0.0
  0
SPLINE
  5
3B1
100
AcDbEntity
  8
0
100
AcDbSpline
 62
7
  6
BYLAYER
 70
0
 71
3
 72
9
 73
5
 74
0
 42
0.0000001
 43
0.0000001
 44
0.0000000001
 40
0.0
 40
0.0
 40
0.0
 40
0.0
 40
0.2731871285
 40
1.0
 40
1.0
 40
1.0
 40
1.0
 10
36.4299062623
 20
67.4578783495
 30
0.0
 10
36.4299961591
 20
67.4532723485
 30
0.0
 10
36.4310659259
 20
67.4364662814
 30
0.0
 10
36.4354280032
 20
67.41963918
 30
0.0
 10
36.4411389434
 20
67.4087944216
 30
0.0
  0
SPLINE
  5
3B2
100
AcDbEntity
  8
0
100
AcDbSpline
 62
7
  6
BYLAYER
 70
0
 71
3
 72
11
 73
7
 74
0
 42
0.0000001
 43
0.0000001
 44
0.0000000001
 40
0.0
 40
0.0
 40
0.0
 40
0.0
 40
0.2593318881
 40
0.5216603468
 40
0.7726529676
 40
1.0
 40
1.0
 40
1.0
 40
1.0
 10
36.8161631283
 20
69.5705081664
 30
0.0
 10
36.7529376754
 20
69.4999612935
 30
0.0
 10
36.6385577968
 20
69.3461784769
 30
0.0
 10
36.5087069566
 20
69.0941826416
 30
0.0
 10
36.4264363168
 20
68.835084337
 30
0.0
 10
36.4064492299
 20
68.6597355344
 30
0.0
 10
36.4080698142
 20
68.5767024019
 30
0.0
  0
SPLINE
  5
3B3
100
AcDbEntity
  8
0
100
AcDbSpline
 62
7
  6
BYLAYER
 70
0
 71
3
 72
9
 73
5
 74
0
 42
0.0000001
 43
0.0000001
 44
0.0000000001
 40
0.0
 40
0.0
 40
0.0
 40
0.0
 40
0.2344130631
 40
1.0
 40
1.0
 40
1.0
 40
1.0
 10
37.5637475463
 20
70.3624576659
 30
0.0
 10
37.5505543892
 20
70.3548406386
 30
0.0
 10
37.4958560962
 20
70.3196172693
 30
0.0
 10
37.4475364151
 20
70.2749936068
 30
0.0
 10
37.4143300491
 20
70.2379419895
 30
0.0
  0
SPLINE
  5
3B4
100
AcDbEntity
  8
0
100
AcDbSpline
 62
7
  6
BYLAYER
 70
0
 71
3
 72
9
 73
5
 74
0
 42
0.0000001
 43
0.0000001
 44
0.0000000001
 40
0.0
 40
0.0
 40
0.0
 40
0.0
 40
0.2439822152
 40
1.0
 40
1.0
 40
1.0
 40
1.0
 10
43.0543820985
 20
73.5294150377
 30
0.0
 10
43.0507794542
 20
73.527845849
 30
0.0
 10
43.0361114744
 20
73.5211904117
 30
0.0
 10
43.0218400033
 20
73.513670005
 30
0.0
 10
43.0112949583
 20
73.5075818568
 30
0.0
  0
SPLINE
  5
3B5
100
AcDbEntity
  8
0
100
AcDbSpline
 62
7
  6
BYLAYER
 70
0
 71
3
 72
11
 73
7
 74
0
 42
0.0000001
 43
0.0000001
 44
0.0000000001
 40
0.0
 40
0.0
 40
0.0
 40
0.0
 40
0.2897030021
 40
0.5490886384
 40
0.7822190917
 40
1.0
 40
1.0
 40
1.0
 40
1.0
 10
44.7466804066
 20
72.8764962976
 30
0.0
 10
44.6589240879
 20
72.8258304658
 30
0.0
 10
44.4843471836
 20
72.7427846515
 30
0.0
 10
44.2160230504
 20
72.6779726823
 30
0.0
 10
43.9642503789
 20
72.6843623596
 30
0.0
 10
43.812681304
 20
72.7393775391
 30
0.0
 10
43.7467016797
 20
72.7774479855
 30
0.0
  0
SPLINE
  5
3B6
100
AcDbEntity
  8
0
100
AcDbSpline
 62
7
  6
BYLAYER
 70
0
 71
3
 72
13
 73
9
 74
0
 42
0.0000001
 43
0.0000001
 44
0.0000000001
 40
0.0
 40
0.0
 40
0.0
 40
0.0
 40
0.1232777227
 40
0.2516387099
 40
0.5138850335
 40
0.7687535607
 40
0.8882964917
 40
1.0
 40
1.0
 40
1.0
 40
1.0
 10
46.134402588
 20
74.8880453725
 30
0.0
 10
46.1139432395
 20
74.7880646971
 30
0.0
 10
46.0602999939
 20
74.5862693924
 30
0.0
 10
45.9096255496
 20
74.187836332
 30
0.0
 10
45.6492084044
 20
73.7175231901
 30
0.0
 10
45.3111713645
 20
73.3082172266
 30
0.0
 10
45.0073561691
 20
73.0432203809
 30
0.0
 10
44.8484653116
 20
72.9352614892
 30
0.0
 10
44.7683828715
 20
72.8890261468
 30
0.0
  0
SPLINE
  5
3B7
100
AcDbEntity
  8
0
100
AcDbSpline
 62
7
  6
BYLAYER
 70
0
 71
3
 72
11
 73
7
 74
0
 42
0.0000001
 43
0.0000001
 44
0.0000000001
 40
0.0
 40
0.0
 40
0.0
 40
0.0
 40
0.2309818291
 40
0.4860546453
 40
0.7485149632
 40
1.0
 40
1.0
 40
1.0
 40
1.0
 10
46.5037683198
 20
75.5239502562
 30
0.0
 10
46.4624010779
 20
75.5000670105
 30
0.0
 10
46.3827111727
 20
75.4368541007
 30
0.0
 10
46.2835708049
 20
75.3168517202
 30
0.0
 10
46.2061375314
 20
75.1769645791
 30
0.0
 10
46.1726896282
 20
75.0751463519
 30
0.0
 10
46.1622633907
 20
75.0241954497
 30
0.0
  0
SPLINE
  5
3B8
100
AcDbEntity
  8
0
100
AcDbSpline
 62
7
  6
BYLAYER
 70
0
 71
3
 72
9
 73
5
 74
0
 42
0.0000001
 43
0.0000001
 44
0.0000000001
 40
0.0
 40
0.0
 40
0.0
 40
0.0
 40
0.2439822202
 40
1.0
 40
1.0
 40
1.0
 40
1.0
 10
49.2166897652
 20
77.0841607482
 30
0.0
 10
49.2094844766
 20
77.0810223708
 30
0.0
 10
49.180148518
 20
77.067711494
 30
0.0
 10
49.1516055746
 20
77.0526706828
 30
0.0
 10
49.1305154848
 20
77.0404943864
 30
0.0
  0
SPLINE
  5
3B9
100
AcDbEntity
  8
0
100
AcDbSpline
 62
7
  6
BYLAYER
 70
0
 71
3
 72
19
 73
15
 74
0
 42
0.0000001
 43
0.0000001
 44
0.0000000001
 40
0.0
 40
0.0
 40
0.0
 40
0.0
 40
0.0623912204
 40
0.12883165
 40
0.2703521188
 40
0.4174418405
 40
0.5617162437
 40
0.6953237839
 40
0.7563173263
 40
0.8127977205
 40
0.8647364846
 40
0.9125503751
 40
0.9571578678
 40
1.0
 40
1.0
 40
1.0
 40
1.0
 10
9.5967649243
 20
31.1495477417
 30
0.0
 10
9.5186707611
 20
31.1946344078
 30
0.0
 10
9.363445955
 20
31.2984384421
 30
0.0
 10
9.0639760199
 20
31.550346963
 30
0.0
 10
8.7231087097
 20
31.9382474363
 30
0.0
 10
8.3939922519
 20
32.4736246408
 30
0.0
 10
8.1627459628
 20
33.0457473673
 30
0.0
 10
8.0640780935
 20
33.5294661193
 30
0.0
 10
8.0547323857
 20
33.8930953377
 30
0.0
 10
8.0810940048
 20
34.1373886845
 30
0.0
 10
8.1402983551
 20
34.356409722
 30
0.0
 10
8.2316645996
 20
34.5455987432
 30
0.0
 10
8.3540303554
 20
34.7002439746
 30
0.0
 10
8.4556459042
 20
34.778087205
 30
0.0
 10
8.5092747719
 20
34.8090398894
 30
0.0
  0
SPLINE
  5
3BA
100
AcDbEntity
  8
0
100
AcDbSpline
 62
7
  6
BYLAYER
 70
0
 71
3
 72
9
 73
5
 74
0
 42
0.0000001
 43
0.0000001
 44
0.0000000001
 40
0.0
 40
0.0
 40
0.0
 40
0.0
 40
0.5278949473
 40
1.0
 40
1.0
 40
1.0
 40
1.0
 10
54.6662123273
 20
64.8508994443
 30
0.0
 10
54.6736048619
 20
64.8233097438
 30
0.0
 10
54.6949745291
 20
64.7722494363
 30
0.0
 10
54.7355964458
 20
64.7334885373
 30
0.0
 10
54.7577182972
 20
64.7207161153
 30
0.0
  0
SPLINE
  5
3BB
100
AcDbEntity
  8
0
100
AcDbSpline
 62
7
  6
BYLAYER
 70
0
 71
3
 72
11
 73
7
 74
0
 42
0.0000001
 43
0.0000001
 44
0.0000000001
 40
0.0
 40
0.0
 40
0.0
 40
0.0
 40
0.211220547
 40
0.4417728375
 40
0.7039588957
 40
1.0
 40
1.0
 40
1.0
 40
1.0
 10
55.6325347228
 20
26.2627549488
 30
0.0
 10
55.6611837521
 20
26.2461849202
 30
0.0
 10
55.714396347
 20
26.1987955055
 30
0.0
 10
55.7658507847
 20
26.099145238
 30
0.0
 10
55.7901370175
 20
25.9767410365
 30
0.0
 10
55.7885515181
 20
25.8886782425
 30
0.0
 10
55.7839275555
 20
25.8425230759
 30
0.0
  0
SPLINE
  5
3BC
100
AcDbEntity
  8
0
100
AcDbSpline
 62
7
  6
BYLAYER
 70
0
 71
3
 72
11
 73
7
 74
0
 42
0.0000001
 43
0.0000001
 44
0.0000000001
 40
0.0
 40
0.0
 40
0.0
 40
0.0
 40
0.2760631793
 40
0.534292438
 40
0.7750487151
 40
1.0
 40
1.0
 40
1.0
 40
1.0
 10
53.8791711391
 20
37.0178015442
 30
0.0
 10
53.6485196922
 20
36.8846356641
 30
0.0
 10
53.1884982534
 20
36.6493636114
 30
0.0
 10
52.4851718187
 20
36.3896607711
 30
0.0
 10
51.8007751124
 20
36.2390725506
 30
0.0
 10
51.349694656
 20
36.2125858189
 30
0.0
 10
51.1327979663
 20
36.2199763959
 30
0.0
  0
SPLINE
  5
3BD
100
AcDbEntity
  8
0
100
AcDbSpline
 62
7
  6
BYLAYER
 70
0
 71
3
 72
11
 73
7
 74
0
 42
0.0000001
 43
0.0000001
 44
0.0000000001
 40
0.0
 40
0.0
 40
0.0
 40
0.0
 40
0.2316400065
 40
0.4942145089
 40
0.7599720437
 40
1.0
 40
1.0
 40
1.0
 40
1.0
 10
54.628501122
 20
37.6279578875
 30
0.0
 10
54.6303729983
 20
37.6043327691
 30
0.0
 10
54.6239198845
 20
37.5531231193
 30
0.0
 10
54.5944367246
 20
37.4804978287
 30
0.0
 10
54.5488590292
 20
37.415668273
 30
0.0
 10
54.5088858091
 20
37.3813653083
 30
0.0
 10
54.4876185033
 20
37.3690866969
 30
0.0
  0
SPLINE
  5
3BE
100
AcDbEntity
  8
0
100
AcDbSpline
 62
7
  6
BYLAYER
 70
0
 71
3
 72
11
 73
7
 74
0
 42
0.0000001
 43
0.0000001
 44
0.0000000001
 40
0.0
 40
0.0
 40
0.0
 40
0.0
 40
0.2400279563
 40
0.5057854911
 40
0.7683599935
 40
1.0
 40
1.0
 40
1.0
 40
1.0
 10
54.7020252406
 20
38.2277259209
 30
0.0
 10
54.6860747613
 20
38.2185169623
 30
0.0
 10
54.6560948462
 20
38.1927897388
 30
0.0
 10
54.6219115746
 20
38.144167572
 30
0.0
 10
54.5997992047
 20
38.089698604
 30
0.0
 10
54.5949593694
 20
38.0512913667
 30
0.0
 10
54.5963632766
 20
38.0335725279
 30
0.0
  0
SPLINE
  5
3BF
100
AcDbEntity
  8
0
100
AcDbSpline
 62
7
  6
BYLAYER
 70
0
 71
3
 72
11
 73
7
 74
0
 42
0.0000001
 43
0.0000001
 44
0.0000000001
 40
0.0
 40
0.0
 40
0.0
 40
0.0
 40
0.2214719067
 40
0.4601806075
 40
0.7193694319
 40
1.0
 40
1.0
 40
1.0
 40
1.0
 10
57.6654086894
 20
39.0241432328
 30
0.0
 10
57.4607780444
 20
39.0586285056
 30
0.0
 10
57.026140577
 20
39.0798992767
 30
0.0
 10
56.3562778828
 20
38.9777959084
 30
0.0
 10
55.6612798389
 20
38.7467525125
 30
0.0
 10
55.2074732993
 20
38.5195447517
 30
0.0
 10
54.9797542178
 20
38.3880718635
 30
0.0
  0
SPLINE
  5
3C0
100
AcDbEntity
  8
0
100
AcDbSpline
 62
7
  6
BYLAYER
 70
0
 71
3
 72
11
 73
7
 74
0
 42
0.0000001
 43
0.0000001
 44
0.0000000001
 40
0.0
 40
0.0
 40
0.0
 40
0.0
 40
0.2959763721
 40
0.558239324
 40
0.7887957419
 40
1.0
 40
1.0
 40
1.0
 40
1.0
 10
54.583358002
 20
23.4815603443
 30
0.0
 10
54.5808924474
 20
23.4569498334
 30
0.0
 10
54.5800559726
 20
23.4099823505
 30
0.0
 10
54.5929968599
 20
23.344699426
 30
0.0
 10
54.6204334303
 20
23.2915388583
 30
0.0
 10
54.6488281039
 20
23.2662825891
 30
0.0
 10
54.6641072479
 20
23.2574476545
 30
0.0
  0
SPLINE
  5
3C1
100
AcDbEntity
  8
0
100
AcDbSpline
 62
7
  6
BYLAYER
 70
0
 71
3
 72
9
 73
5
 74
0
 42
0.0000001
 43
0.0000001
 44
0.0000000001
 40
0.0
 40
0.0
 40
0.0
 40
0.0
 40
0.5182794029
 40
1.0
 40
1.0
 40
1.0
 40
1.0
 10
54.6640921116
 20
23.719311039
 30
0.0
 10
54.6422864901
 20
23.681542385
 30
0.0
 10
54.6069013862
 20
23.6046016949
 30
0.0
 10
54.5873987053
 20
23.521893572
 30
0.0
 10
54.583358002
 20
23.4815603443
 30
0.0
  0
SPLINE
  5
3C2
100
AcDbEntity
  8
0
100
AcDbSpline
 62
7
  6
BYLAYER
 70
0
 71
3
 72
9
 73
5
 74
0
 42
0.0000001
 43
0.0000001
 44
0.0000000001
 40
0.0
 40
0.0
 40
0.0
 40
0.0
 40
0.4817205971
 40
1.0
 40
1.0
 40
1.0
 40
1.0
 10
55.7839275555
 20
25.8425230759
 30
0.0
 10
55.7763512367
 20
25.7668982741
 30
0.0
 10
55.7397837102
 20
25.6118205436
 30
0.0
 10
55.6734366402
 20
25.4675567496
 30
0.0
 10
55.6325510999
 20
25.3967405233
 30
0.0
  0
SPLINE
  5
3C3
100
AcDbEntity
  8
0
100
AcDbSpline
 62
7
  6
BYLAYER
 70
0
 71
3
 72
11
 73
7
 74
0
 42
0.0000001
 43
0.0000001
 44
0.0000000001
 40
0.0
 40
0.0
 40
0.0
 40
0.0
 40
0.2909168997
 40
0.5508681759
 40
0.7834721543
 40
1.0
 40
1.0
 40
1.0
 40
1.0
 10
36.4080698142
 20
13.7402402388
 30
0.0
 10
36.4070651769
 20
13.68760605
 30
0.0
 10
36.4131798313
 20
13.5874443397
 30
0.0
 10
36.4512666815
 20
13.4495470993
 30
0.0
 10
36.5176664899
 20
13.3376130325
 30
0.0
 10
36.5810785112
 20
13.2837606042
 30
0.0
 10
36.6150079993
 20
13.2641632583
 30
0.0
  0
SPLINE
  5
3C4
100
AcDbEntity
  8
0
100
AcDbSpline
 62
7
  6
BYLAYER
 70
0
 71
3
 72
9
 73
5
 74
0
 42
0.0000001
 43
0.0000001
 44
0.0000000001
 40
0.0
 40
0.0
 40
0.0
 40
0.0
 40
0.2638467375
 40
1.0
 40
1.0
 40
1.0
 40
1.0
 10
36.4411389434
 20
14.9463329324
 30
0.0
 10
36.4394094674
 20
14.9410517385
 30
0.0
 10
36.4335012111
 20
14.9208411413
 30
0.0
 10
36.4302021535
 20
14.8997808085
 30
0.0
 10
36.4299062623
 20
14.884278699
 30
0.0
  0
SPLINE
  5
3C5
100
AcDbEntity
  8
0
100
AcDbSpline
 62
7
  6
BYLAYER
 70
0
 71
3
 72
11
 73
7
 74
0
 42
0.0000001
 43
0.0000001
 44
0.0000000001
 40
0.0
 40
0.0
 40
0.0
 40
0.0
 40
0.2008807883
 40
0.4465032364
 40
0.7216437902
 40
1.0
 40
1.0
 40
1.0
 40
1.0
 10
36.6008860238
 20
15.1057011251
 30
0.0
 10
36.5850639383
 20
15.1050857246
 30
0.0
 10
36.5504875072
 20
15.093130538
 30
0.0
 10
36.5055521798
 20
15.0573440741
 30
0.0
 10
36.4667003275
 20
15.0070781344
 30
0.0
 10
36.4479672914
 20
14.9671842364
 30
0.0
 10
36.4411389434
 20
14.9463329324
 30
0.0
  0
SPLINE
  5
3C6
100
AcDbEntity
  8
0
100
AcDbSpline
 62
7
  6
BYLAYER
 70
0
 71
3
 72
11
 73
7
 74
0
 42
0.0000001
 43
0.0000001
 44
0.0000000001
 40
0.0
 40
0.0
 40
0.0
 40
0.0
 40
0.2896605528
 40
0.5491323137
 40
0.7822499447
 40
1.0
 40
1.0
 40
1.0
 40
1.0
 10
30.297258168
 20
13.484273645
 30
0.0
 10
30.297258168
 20
13.4336129691
 30
0.0
 10
30.304953543
 20
13.3372460643
 30
0.0
 10
30.3439735093
 20
13.2048484152
 30
0.0
 10
30.4096675428
 20
13.0973970705
 30
0.0
 10
30.4713943129
 20
13.0455385935
 30
0.0
 10
30.5043721587
 20
13.0264903654
 30
0.0
  0
SPLINE
  5
3C7
100
AcDbEntity
  8
0
100
AcDbSpline
 62
7
  6
BYLAYER
 70
0
 71
3
 72
10
 73
6
 74
0
 42
0.0000001
 43
0.0000001
 44
0.0000000001
 40
0.0
 40
0.0
 40
0.0
 40
0.0
 40
0.2670753553
 40
0.5228398314
 40
1.0
 40
1.0
 40
1.0
 40
1.0
 10
57.2378209765
 20
36.6709771924
 30
0.0
 10
56.6553228207
 20
36.3379184049
 30
0.0
 10
55.4918534157
 20
35.7246318196
 30
0.0
 10
53.1859130868
 20
34.7248427089
 30
0.0
 10
51.4071204258
 20
34.1990557374
 30
0.0
 10
50.2283785986
 20
33.9806479294
 30
0.0
  0
SPLINE
  5
3C8
100
AcDbEntity
  8
0
100
AcDbSpline
 62
7
  6
BYLAYER
 70
0
 71
3
 72
11
 73
7
 74
0
 42
0.0000001
 43
0.0000001
 44
0.0000000001
 40
0.0
 40
0.0
 40
0.0
 40
0.0
 40
0.2372493641
 40
0.5000113245
 40
0.7627635042
 40
1.0
 40
1.0
 40
1.0
 40
1.0
 10
57.5914662845
 20
37.2834260299
 30
0.0
 10
57.5914662845
 20
37.2254547686
 30
0.0
 10
57.5697131587
 20
37.103200416
 30
0.0
 10
57.4939218027
 20
36.9314179226
 30
0.0
 10
57.3830268733
 20
36.7799090464
 30
0.0
 10
57.2880229134
 20
36.6999611211
 30
0.0
 10
57.2378209765
 20
36.6709771924
 30
0.0
  0
SPLINE
  5
3C9
100
AcDbEntity
  8
0
100
AcDbSpline
 62
7
  6
BYLAYER
 70
0
 71
3
 72
11
 73
7
 74
0
 42
0.0000001
 43
0.0000001
 44
0.0000000001
 40
0.0
 40
0.0
 40
0.0
 40
0.0
 40
0.2909168997
 40
0.5508681759
 40
0.7834721543
 40
1.0
 40
1.0
 40
1.0
 40
1.0
 10
17.2985734521
 20
14.505856823
 30
0.0
 10
17.2975688148
 20
14.4532226342
 30
0.0
 10
17.3036834692
 20
14.3530609238
 30
0.0
 10
17.3417703194
 20
14.2151636834
 30
0.0
 10
17.4081701277
 20
14.1032296166
 30
0.0
 10
17.471582149
 20
14.0493771884
 30
0.0
 10
17.5055116372
 20
14.0297798425
 30
0.0
  0
SPLINE
  5
3CA
100
AcDbEntity
  8
0
100
AcDbSpline
 62
7
  6
BYLAYER
 70
0
 71
3
 72
9
 73
5
 74
0
 42
0.0000001
 43
0.0000001
 44
0.0000000001
 40
0.0
 40
0.0
 40
0.0
 40
0.0
 40
0.2638467375
 40
1.0
 40
1.0
 40
1.0
 40
1.0
 10
17.3316425812
 20
15.7119495166
 30
0.0
 10
17.3299131052
 20
15.7066683227
 30
0.0
 10
17.324004849
 20
15.6864577255
 30
0.0
 10
17.3207057914
 20
15.6653973926
 30
0.0
 10
17.3204099001
 20
15.6498952832
 30
0.0
  0
SPLINE
  5
3CB
100
AcDbEntity
  8
0
100
AcDbSpline
 62
7
  6
BYLAYER
 70
0
 71
3
 72
10
 73
6
 74
0
 42
0.0000001
 43
0.0000001
 44
0.0000000001
 40
0.0
 40
0.0
 40
0.0
 40
0.0
 40
0.2649717904
 40
0.5200530352
 40
1.0
 40
1.0
 40
1.0
 40
1.0
 10
57.2361925221
 20
27.9130750612
 30
0.0
 10
56.7189591455
 20
27.6173607653
 30
0.0
 10
55.6855848859
 20
27.067662909
 30
0.0
 10
53.6337856024
 20
26.1460655618
 30
0.0
 10
52.054472915
 20
25.6294403445
 30
0.0
 10
51.0032328676
 20
25.3854650696
 30
0.0
  0
SPLINE
  5
3CC
100
AcDbEntity
  8
0
100
AcDbSpline
 62
7
  6
BYLAYER
 70
0
 71
3
 72
11
 73
7
 74
0
 42
0.0000001
 43
0.0000001
 44
0.0000000001
 40
0.0
 40
0.0
 40
0.0
 40
0.0
 40
0.2445609889
 40
0.5074732721
 40
0.7663711486
 40
1.0
 40
1.0
 40
1.0
 40
1.0
 10
57.5888309621
 20
28.4751628045
 30
0.0
 10
57.5832724546
 20
28.4196792585
 30
0.0
 10
57.5549663052
 20
28.3060670765
 30
0.0
 10
57.4771425221
 20
28.1483545556
 30
0.0
 10
57.370779223
 20
28.0114410503
 30
0.0
 10
57.2824368325
 20
27.9395140041
 30
0.0
 10
57.2361925221
 20
27.9130750612
 30
0.0
  0
SPLINE
  5
3CD
100
AcDbEntity
  8
0
100
AcDbSpline
 62
7
  6
BYLAYER
 70
0
 71
3
 72
9
 73
5
 74
0
 42
0.0000001
 43
0.0000001
 44
0.0000000001
 40
0.0
 40
0.0
 40
0.0
 40
0.0
 40
0.2446437089
 40
1.0
 40
1.0
 40
1.0
 40
1.0
 10
57.5914662845
 20
28.5264376062
 30
0.0
 10
57.5914662845
 20
28.5222497439
 30
0.0
 10
57.5912381342
 20
28.5051319651
 30
0.0
 10
57.5901199107
 20
28.4880287476
 30
0.0
 10
57.5888309621
 20
28.4751628045
 30
0.0
  0
SPLINE
  5
3CE
100
AcDbEntity
  8
0
100
AcDbSpline
 62
7
  6
BYLAYER
 70
0
 71
3
 72
11
 73
7
 74
0
 42
0.0000001
 43
0.0000001
 44
0.0000000001
 40
0.0
 40
0.0
 40
0.0
 40
0.0
 40
0.2008807883
 40
0.4465032364
 40
0.7216437902
 40
1.0
 40
1.0
 40
1.0
 40
1.0
 10
17.4913896617
 20
15.8713177092
 30
0.0
 10
17.4755675762
 20
15.8707023088
 30
0.0
 10
17.4409911451
 20
15.8587471222
 30
0.0
 10
17.3960558177
 20
15.8229606583
 30
0.0
 10
17.3572039653
 20
15.7726947185
 30
0.0
 10
17.3384709293
 20
15.7328008206
 30
0.0
 10
17.3316425812
 20
15.7119495166
 30
0.0
  0
SPLINE
  5
3CF
100
AcDbEntity
  8
0
100
AcDbSpline
 62
7
  6
BYLAYER
 70
0
 71
3
 72
11
 73
7
 74
0
 42
0.0000001
 43
0.0000001
 44
0.0000000001
 40
0.0
 40
0.0
 40
0.0
 40
0.0
 40
0.2246925831
 40
0.4609177691
 40
0.7180402912
 40
1.0
 40
1.0
 40
1.0
 40
1.0
 10
49.630493118
 20
77.08999825
 30
0.0
 10
49.602713865
 20
77.1060757569
 30
0.0
 10
49.5405065466
 20
77.1307075487
 30
0.0
 10
49.4373526506
 20
77.1409988527
 30
0.0
 10
49.3268339555
 20
77.1255425937
 30
0.0
 10
49.2536156988
 20
77.1002444228
 30
0.0
 10
49.2166897652
 20
77.0841607482
 30
0.0
  0
SPLINE
  5
3D0
100
AcDbEntity
  8
0
100
AcDbSpline
 62
7
  6
BYLAYER
 70
0
 71
3
 72
11
 73
7
 74
0
 42
0.0000001
 43
0.0000001
 44
0.0000000001
 40
0.0
 40
0.0
 40
0.0
 40
0.0
 40
0.2245460584
 40
0.4611487036
 40
0.7185071945
 40
1.0
 40
1.0
 40
1.0
 40
1.0
 10
43.2613033176
 20
73.5323673961
 30
0.0
 10
43.247413091
 20
73.5403810897
 30
0.0
 10
43.2162948487
 20
73.5526984619
 30
0.0
 10
43.1646773233
 20
73.5577467286
 30
0.0
 10
43.1094208554
 20
73.5500418869
 30
0.0
 10
43.0728127069
 20
73.5374427808
 30
0.0
 10
43.0543820985
 20
73.5294150377
 30
0.0
  0
SPLINE
  5
3D1
100
AcDbEntity
  8
0
100
AcDbSpline
 62
7
  6
BYLAYER
 70
0
 71
3
 72
12
 73
8
 74
0
 42
0.0000001
 43
0.0000001
 44
0.0000000001
 40
0.0
 40
0.0
 40
0.0
 40
0.0
 40
0.1081994026
 40
0.2183836247
 40
0.4513151177
 40
0.7105219601
 40
1.0
 40
1.0
 40
1.0
 40
1.0
 10
29.7937549173
 20
15.3750493406
 30
0.0
 10
29.7580871079
 20
15.3544493564
 30
0.0
 10
29.6823465016
 20
15.319026253
 30
0.0
 10
29.5161139855
 20
15.2729968527
 30
0.0
 10
29.2832132274
 20
15.2668044491
 30
0.0
 10
28.991606451
 20
15.3373736655
 30
0.0
 10
28.8016962326
 20
15.4276638995
 30
0.0
 10
28.7062612864
 20
15.4827620449
 30
0.0
  0
SPLINE
  5
3D2
100
AcDbEntity
  8
0
100
AcDbSpline
 62
7
  6
BYLAYER
 70
0
 71
3
 72
11
 73
7
 74
0
 42
0.0000001
 43
0.0000001
 44
0.0000000001
 40
0.0
 40
0.0
 40
0.0
 40
0.0
 40
0.2896605528
 40
0.5491323137
 40
0.7822499447
 40
1.0
 40
1.0
 40
1.0
 40
1.0
 10
11.1877618059
 20
14.2498902292
 30
0.0
 10
11.1877618059
 20
14.1992295532
 30
0.0
 10
11.1954571808
 20
14.1028626485
 30
0.0
 10
11.2344771471
 20
13.9704649994
 30
0.0
 10
11.3001711807
 20
13.8630136547
 30
0.0
 10
11.3618979507
 20
13.8111551776
 30
0.0
 10
11.3948757965
 20
13.7921069496
 30
0.0
  0
SPLINE
  5
3D3
100
AcDbEntity
  8
0
100
AcDbSpline
 62
7
  6
BYLAYER
 70
0
 71
3
 72
11
 73
7
 74
0
 42
0.0000001
 43
0.0000001
 44
0.0000000001
 40
0.0
 40
0.0
 40
0.0
 40
0.0
 40
0.2324401814
 40
0.4726445942
 40
0.727206468
 40
1.0
 40
1.0
 40
1.0
 40
1.0
 10
26.6588652363
 20
19.9461817543
 30
0.0
 10
26.7026511021
 20
19.9209171749
 30
0.0
 10
26.7860202155
 20
19.8590297237
 30
0.0
 10
26.8899048075
 20
19.7382648882
 30
0.0
 10
26.9716737905
 20
19.5916225139
 30
0.0
 10
27.009551168
 20
19.4827551604
 30
0.0
 10
27.0249062259
 20
19.4254485031
 30
0.0
  0
SPLINE
  5
3D4
100
AcDbEntity
  8
0
100
AcDbSpline
 62
7
  6
BYLAYER
 70
0
 71
3
 72
11
 73
7
 74
0
 42
0.0000001
 43
0.0000001
 44
0.0000000001
 40
0.0
 40
0.0
 40
0.0
 40
0.0
 40
0.255260279
 40
0.5173962588
 40
0.7703845626
 40
1.0
 40
1.0
 40
1.0
 40
1.0
 10
11.4203918466
 20
20.5425799652
 30
0.0
 10
11.3854419531
 20
20.5077129658
 30
0.0
 10
11.3216923745
 20
20.429703278
 30
0.0
 10
11.2484500976
 20
20.2991372071
 30
0.0
 10
11.2006635354
 20
20.1624888638
 30
0.0
 10
11.1877618059
 20
20.0690493532
 30
0.0
 10
11.1877618059
 20
20.0246411022
 30
0.0
  0
SPLINE
  5
3D5
100
AcDbEntity
  8
0
100
AcDbSpline
 62
7
  6
BYLAYER
 70
0
 71
3
 72
19
 73
15
 74
0
 42
0.0000001
 43
0.0000001
 44
0.0000000001
 40
0.0
 40
0.0
 40
0.0
 40
0.0
 40
0.0623912204
 40
0.12883165
 40
0.2703521188
 40
0.4174418405
 40
0.5617162437
 40
0.6953237839
 40
0.7563173263
 40
0.8127977205
 40
0.8647364846
 40
0.9125503751
 40
0.9571578678
 40
1.0
 40
1.0
 40
1.0
 40
1.0
 10
28.7062612864
 20
58.0633630982
 30
0.0
 10
28.6281671232
 20
58.1084497644
 30
0.0
 10
28.4729423171
 20
58.2122537987
 30
0.0
 10
28.1734723821
 20
58.4641623196
 30
0.0
 10
27.8326050718
 20
58.8520627929
 30
0.0
 10
27.503488614
 20
59.3874399973
 30
0.0
 10
27.2722423249
 20
59.9595627238
 30
0.0
 10
27.1735744556
 20
60.4432814758
 30
0.0
 10
27.1642287479
 20
60.8069106943
 30
0.0
 10
27.1905903669
 20
61.051204041
 30
0.0
 10
27.2497947172
 20
61.2702250785
 30
0.0
 10
27.3411609618
 20
61.4594140997
 30
0.0
 10
27.4635267175
 20
61.6140593312
 30
0.0
 10
27.5651422663
 20
61.6919025615
 30
0.0
 10
27.6187711341
 20
61.7228552459
 30
0.0
  0
SPLINE
  5
3D6
100
AcDbEntity
  8
0
100
AcDbSpline
 62
7
  6
BYLAYER
 70
0
 71
3
 72
9
 73
5
 74
0
 42
0.0000001
 43
0.0000001
 44
0.0000000001
 40
0.0
 40
0.0
 40
0.0
 40
0.0
 40
0.2367348574
 40
1.0
 40
1.0
 40
1.0
 40
1.0
 10
13.6437454817
 20
22.7082589487
 30
0.0
 10
13.6227410339
 20
22.6961320975
 30
0.0
 10
13.536001582
 20
22.6414825862
 30
0.0
 10
13.4572613636
 20
22.5746184396
 30
0.0
 10
13.4019017259
 20
22.5193901038
 30
0.0
  0
SPLINE
  5
3D7
100
AcDbEntity
  8
0
100
AcDbSpline
 62
7
  6
BYLAYER
 70
0
 71
3
 72
11
 73
7
 74
0
 42
0.0000001
 43
0.0000001
 44
0.0000000001
 40
0.0
 40
0.0
 40
0.0
 40
0.0
 40
0.2895971525
 40
0.5491569214
 40
0.7822931309
 40
1.0
 40
1.0
 40
1.0
 40
1.0
 10
11.1877618059
 20
29.0879873877
 30
0.0
 10
11.1877618059
 20
29.062662815
 30
0.0
 10
11.1916207332
 20
29.014479509
 30
0.0
 10
11.211114627
 20
28.9482728605
 30
0.0
 10
11.2439710787
 20
28.8945443294
 30
0.0
 10
11.2748361826
 20
28.8686228591
 30
0.0
 10
11.2913214624
 20
28.8591003207
 30
0.0
  0
SPLINE
  5
3D8
100
AcDbEntity
  8
0
100
AcDbSpline
 62
7
  6
BYLAYER
 70
0
 71
3
 72
11
 73
7
 74
0
 42
0.0000001
 43
0.0000001
 44
0.0000000001
 40
0.0
 40
0.0
 40
0.0
 40
0.0
 40
0.2585151974
 40
0.5202359893
 40
0.7713874563
 40
1.0
 40
1.0
 40
1.0
 40
1.0
 10
11.5960306485
 20
35.8384534787
 30
0.0
 10
11.5340386511
 20
35.7692828937
 30
0.0
 10
11.4216057417
 20
35.6186618327
 30
0.0
 10
11.2929607925
 20
35.3718501041
 30
0.0
 10
11.2098626452
 20
35.1174525107
 30
0.0
 10
11.1877618059
 20
34.9448789634
 30
0.0
 10
11.1877618059
 20
34.8627382607
 30
0.0
  0
SPLINE
  5
3D9
100
AcDbEntity
  8
0
100
AcDbSpline
 62
7
  6
BYLAYER
 70
0
 71
3
 72
13
 73
9
 74
0
 42
0.0000001
 43
0.0000001
 44
0.0000000001
 40
0.0
 40
0.0
 40
0.0
 40
0.0
 40
0.0967133925
 40
0.1989486495
 40
0.3091065909
 40
0.4286992912
 40
0.6971690223
 40
1.0
 40
1.0
 40
1.0
 40
1.0
 10
13.0727825942
 20
36.9477554489
 30
0.0
 10
13.0468532938
 20
36.9590673943
 30
0.0
 10
12.9903278938
 20
36.9755145216
 30
0.0
 10
12.8993650945
 20
36.9802579985
 30
0.0
 10
12.8027909099
 20
36.9655499523
 30
0.0
 10
12.6640046117
 20
36.9192609899
 30
0.0
 10
12.4890240334
 20
36.8135259663
 30
0.0
 10
12.3665933823
 20
36.6982463116
 30
0.0
 10
12.3074742265
 20
36.6322812393
 30
0.0
  0
SPLINE
  5
3DA
100
AcDbEntity
  8
0
100
AcDbSpline
 62
7
  6
BYLAYER
 70
0
 71
3
 72
19
 73
15
 74
0
 42
0.0000001
 43
0.0000001
 44
0.0000000001
 40
0.0
 40
0.0
 40
0.0
 40
0.0
 40
0.0623912204
 40
0.12883165
 40
0.2703521188
 40
0.4174418405
 40
0.5617162437
 40
0.6953237839
 40
0.7563173263
 40
0.8127977205
 40
0.8647364846
 40
0.9125503751
 40
0.9571578678
 40
1.0
 40
1.0
 40
1.0
 40
1.0
 10
9.5967649243
 20
16.2483786291
 30
0.0
 10
9.5186707611
 20
16.2934652952
 30
0.0
 10
9.363445955
 20
16.3972693295
 30
0.0
 10
9.0639760199
 20
16.6491778504
 30
0.0
 10
8.7231087097
 20
17.0370783237
 30
0.0
 10
8.3939922519
 20
17.5724555282
 30
0.0
 10
8.1627459628
 20
18.1445782547
 30
0.0
 10
8.0640780935
 20
18.6282970067
 30
0.0
 10
8.0547323857
 20
18.9919262251
 30
0.0
 10
8.0810940048
 20
19.2362195719
 30
0.0
 10
8.1402983551
 20
19.4552406094
 30
0.0
 10
8.2316645996
 20
19.6444296306
 30
0.0
 10
8.3540303554
 20
19.799074862
 30
0.0
 10
8.4556459042
 20
19.8769180924
 30
0.0
 10
8.5092747719
 20
19.9078707768
 30
0.0
  0
SPLINE
  5
3DB
100
AcDbEntity
  8
0
100
AcDbSpline
 62
7
  6
BYLAYER
 70
0
 71
3
 72
9
 73
5
 74
0
 42
0.0000001
 43
0.0000001
 44
0.0000000001
 40
0.0
 40
0.0
 40
0.0
 40
0.0
 40
0.2731871285
 40
1.0
 40
1.0
 40
1.0
 40
1.0
 10
17.3204099001
 20
40.544062993
 30
0.0
 10
17.3204997969
 20
40.5394569919
 30
0.0
 10
17.3215695637
 20
40.5226509249
 30
0.0
 10
17.3259316411
 20
40.5058238234
 30
0.0
 10
17.3316425812
 20
40.4949790651
 30
0.0
  0
SPLINE
  5
3DC
100
AcDbEntity
  8
0
100
AcDbSpline
 62
7
  6
BYLAYER
 70
0
 71
3
 72
12
 73
8
 74
0
 42
0.0000001
 43
0.0000001
 44
0.0000000001
 40
0.0
 40
0.0
 40
0.0
 40
0.0
 40
0.1081994026
 40
0.2183836247
 40
0.4513151177
 40
0.7105219601
 40
1.0
 40
1.0
 40
1.0
 40
1.0
 10
10.6842585552
 20
31.0418350374
 30
0.0
 10
10.6485907458
 20
31.0212350531
 30
0.0
 10
10.5728501395
 20
30.9858119497
 30
0.0
 10
10.4066176234
 20
30.9397825494
 30
0.0
 10
10.1737168653
 20
30.9335901459
 30
0.0
 10
9.8821100889
 20
31.0041593623
 30
0.0
 10
9.6921998705
 20
31.0944495963
 30
0.0
 10
9.5967649243
 20
31.1495477417
 30
0.0
  0
SPLINE
  5
3DD
100
AcDbEntity
  8
0
100
AcDbSpline
 62
7
  6
BYLAYER
 70
0
 71
3
 72
11
 73
7
 74
0
 42
0.0000001
 43
0.0000001
 44
0.0000000001
 40
0.0
 40
0.0
 40
0.0
 40
0.0
 40
0.2593318881
 40
0.5216603468
 40
0.7726529676
 40
1.0
 40
1.0
 40
1.0
 40
1.0
 10
17.7066667662
 20
42.6566928099
 30
0.0
 10
17.6434413133
 20
42.586145937
 30
0.0
 10
17.5290614347
 20
42.4323631204
 30
0.0
 10
17.3992105945
 20
42.1803672851
 30
0.0
 10
17.3169399546
 20
41.9212689805
 30
0.0
 10
17.2969528678
 20
41.7459201778
 30
0.0
 10
17.2985734521
 20
41.6628870454
 30
0.0
  0
SPLINE
  5
3DE
100
AcDbEntity
  8
0
100
AcDbSpline
 62
7
  6
BYLAYER
 70
0
 71
3
 72
9
 73
5
 74
0
 42
0.0000001
 43
0.0000001
 44
0.0000000001
 40
0.0
 40
0.0
 40
0.0
 40
0.0
 40
0.2344130631
 40
1.0
 40
1.0
 40
1.0
 40
1.0
 10
18.4542511834
 20
43.448642309
 30
0.0
 10
18.4410580264
 20
43.4410252817
 30
0.0
 10
18.3863597337
 20
43.4058019124
 30
0.0
 10
18.3380400528
 20
43.3611782501
 30
0.0
 10
18.3048336869
 20
43.3241266329
 30
0.0
  0
SPLINE
  5
3DF
100
AcDbEntity
  8
0
100
AcDbSpline
 62
7
  6
BYLAYER
 70
0
 71
3
 72
9
 73
5
 74
0
 42
0.0000001
 43
0.0000001
 44
0.0000000001
 40
0.0
 40
0.0
 40
0.0
 40
0.0
 40
0.2439822153
 40
1.0
 40
1.0
 40
1.0
 40
1.0
 10
23.9448857363
 20
46.6155996812
 30
0.0
 10
23.9412830922
 20
46.6140304926
 30
0.0
 10
23.926615113
 20
46.6073750556
 30
0.0
 10
23.9123436424
 20
46.5998546492
 30
0.0
 10
23.9017985978
 20
46.5937665012
 30
0.0
  0
SPLINE
  5
3E0
100
AcDbEntity
  8
0
100
AcDbSpline
 62
7
  6
BYLAYER
 70
0
 71
3
 72
11
 73
7
 74
0
 42
0.0000001
 43
0.0000001
 44
0.0000000001
 40
0.0
 40
0.0
 40
0.0
 40
0.0
 40
0.2897030021
 40
0.5490886384
 40
0.7822190917
 40
1.0
 40
1.0
 40
1.0
 40
1.0
 10
25.6371840444
 20
45.9626809411
 30
0.0
 10
25.5494277257
 20
45.9120151093
 30
0.0
 10
25.3748508215
 20
45.828969295
 30
0.0
 10
25.1065266883
 20
45.7641573258
 30
0.0
 10
24.8547540168
 20
45.7705470031
 30
0.0
 10
24.7031849419
 20
45.8255621826
 30
0.0
 10
24.6372053175
 20
45.863632629
 30
0.0
  0
SPLINE
  5
3E1
100
AcDbEntity
  8
0
100
AcDbSpline
 62
7
  6
BYLAYER
 70
0
 71
3
 72
13
 73
9
 74
0
 42
0.0000001
 43
0.0000001
 44
0.0000000001
 40
0.0
 40
0.0
 40
0.0
 40
0.0
 40
0.1232777227
 40
0.2516387099
 40
0.5138850335
 40
0.7687535607
 40
0.8882964917
 40
1.0
 40
1.0
 40
1.0
 40
1.0
 10
27.0249062258
 20
47.974230016
 30
0.0
 10
27.0044468774
 20
47.8742493406
 30
0.0
 10
26.9508036318
 20
47.6724540359
 30
0.0
 10
26.8001291875
 20
47.2740209755
 30
0.0
 10
26.5397120423
 20
46.8037078336
 30
0.0
 10
26.2016750024
 20
46.3944018701
 30
0.0
 10
25.897859807
 20
46.1294050243
 30
0.0
 10
25.7389689495
 20
46.0214461327
 30
0.0
 10
25.6588865094
 20
45.9752107903
 30
0.0
  0
SPLINE
  5
3E2
100
AcDbEntity
  8
0
100
AcDbSpline
 62
7
  6
BYLAYER
 70
0
 71
3
 72
11
 73
7
 74
0
 42
0.0000001
 43
0.0000001
 44
0.0000000001
 40
0.0
 40
0.0
 40
0.0
 40
0.0
 40
0.2245460584
 40
0.4611487036
 40
0.7185071945
 40
1.0
 40
1.0
 40
1.0
 40
1.0
 10
24.1518069554
 20
46.6185520396
 30
0.0
 10
24.1379167288
 20
46.6265657332
 30
0.0
 10
24.1067984866
 20
46.6388831054
 30
0.0
 10
24.0551809612
 20
46.643931372
 30
0.0
 10
23.9999244932
 20
46.6362265304
 30
0.0
 10
23.9633163448
 20
46.6236274243
 30
0.0
 10
23.9448857363
 20
46.6155996812
 30
0.0
  0
SPLINE
  5
3E3
100
AcDbEntity
  8
0
100
AcDbSpline
 62
7
  6
BYLAYER
 70
0
 71
3
 72
11
 73
7
 74
0
 42
0.0000001
 43
0.0000001
 44
0.0000000001
 40
0.0
 40
0.0
 40
0.0
 40
0.0
 40
0.2309818292
 40
0.4860546453
 40
0.7485149632
 40
1.0
 40
1.0
 40
1.0
 40
1.0
 10
27.3942719573
 20
48.6101348994
 30
0.0
 10
27.3529047154
 20
48.5862516537
 30
0.0
 10
27.2732148103
 20
48.523038744
 30
0.0
 10
27.1740744426
 20
48.4030363635
 30
0.0
 10
27.0966411692
 20
48.2631492224
 30
0.0
 10
27.063193266
 20
48.1613309954
 30
0.0
 10
27.0527670286
 20
48.1103800932
 30
0.0
  0
SPLINE
  5
3E4
100
AcDbEntity
  8
0
100
AcDbSpline
 62
7
  6
BYLAYER
 70
0
 71
3
 72
11
 73
7
 74
0
 42
0.0000001
 43
0.0000001
 44
0.0000000001
 40
0.0
 40
0.0
 40
0.0
 40
0.0
 40
0.217919818
 40
0.4510137269
 40
0.7105966575
 40
1.0
 40
1.0
 40
1.0
 40
1.0
 10
57.3843154447
 20
38.0776439134
 30
0.0
 10
57.4173339332
 20
38.0586074272
 30
0.0
 10
57.4791437438
 20
38.0067981538
 30
0.0
 10
57.5448309004
 20
37.8992684508
 30
0.0
 10
57.5837005307
 20
37.7668687956
 30
0.0
 10
57.5914662845
 20
37.6705401499
 30
0.0
 10
57.5914662845
 20
37.6199249345
 30
0.0
  0
SPLINE
  5
3E5
100
AcDbEntity
  8
0
100
AcDbSpline
 62
7
  6
BYLAYER
 70
0
 71
3
 72
12
 73
8
 74
0
 42
0.0000001
 43
0.0000001
 44
0.0000000001
 40
0.0
 40
0.0
 40
0.0
 40
0.0
 40
0.1081994026
 40
0.2183836247
 40
0.4513151177
 40
0.7105219601
 40
1.0
 40
1.0
 40
1.0
 40
1.0
 10
10.6842585552
 20
16.1406659247
 30
0.0
 10
10.6485907458
 20
16.1200659405
 30
0.0
 10
10.5728501395
 20
16.0846428371
 30
0.0
 10
10.4066176234
 20
16.0386134368
 30
0.0
 10
10.1737168653
 20
16.0324210332
 30
0.0
 10
9.8821100889
 20
16.1029902497
 30
0.0
 10
9.6921998705
 20
16.1932804837
 30
0.0
 10
9.5967649243
 20
16.2483786291
 30
0.0
  0
SPLINE
  5
3E6
100
AcDbEntity
  8
0
100
AcDbSpline
 62
7
  6
BYLAYER
 70
0
 71
3
 72
11
 73
7
 74
0
 42
0.0000001
 43
0.0000001
 44
0.0000000001
 40
0.0
 40
0.0
 40
0.0
 40
0.0
 40
0.2576560653
 40
0.5196345986
 40
0.7712973348
 40
1.0
 40
1.0
 40
1.0
 40
1.0
 10
55.984234608
 20
37.5946226324
 30
0.0
 10
56.0161307722
 20
37.6293077019
 30
0.0
 10
56.0740291216
 20
37.7053547183
 30
0.0
 10
56.1405336921
 20
37.8304498173
 30
0.0
 10
56.183387001
 20
37.9599394066
 30
0.0
 10
56.1949245773
 20
38.0478753253
 30
0.0
 10
56.1949245773
 20
38.0897015201
 30
0.0
  0
SPLINE
  5
3E7
100
AcDbEntity
  8
0
100
AcDbSpline
 62
7
  6
BYLAYER
 70
0
 71
3
 72
12
 73
8
 74
0
 42
0.0000001
 43
0.0000001
 44
0.0000000001
 40
0.0
 40
0.0
 40
0.0
 40
0.0
 40
0.1081994026
 40
0.2183836247
 40
0.4513151177
 40
0.7105219601
 40
1.0
 40
1.0
 40
1.0
 40
1.0
 10
29.7937549173
 20
57.9556503939
 30
0.0
 10
29.7580871079
 20
57.9350504097
 30
0.0
 10
29.6823465016
 20
57.8996273063
 30
0.0
 10
29.5161139855
 20
57.8535979059
 30
0.0
 10
29.2832132274
 20
57.8474055024
 30
0.0
 10
28.991606451
 20
57.9179747188
 30
0.0
 10
28.8016962326
 20
58.0082649528
 30
0.0
 10
28.7062612864
 20
58.0633630982
 30
0.0
  0
ENDSEC
  0
SECTION
  2
OBJECTS
  0
DICTIONARY
  5
C
100
AcDbDictionary
280
0
281
1
  3
ACAD_GROUP
350
D
  3
ACAD_MLINESTYLE
350
17
  3
ACAD_LAYOUT
350
1A
  3
ACAD_PLOTSETTINGS
350
19
  3
ACAD_PLOTSTYLENAME
350
E
  0
DICTIONARY
  5
D
102
{ACAD_REACTORS
330
C
102
}
100
AcDbDictionary
280
0
281
1
  0
ACDBDICTIONARYWDFLT
  5
E
102
{ACAD_REACTORS
330
C
102
}
100
AcDbDictionary
281
1
  3
Normal
350
F
100
AcDbDictionaryWithDefault
340
F
  0
DICTIONARY
  5
17
102
{ACAD_REACTORS
330
C
102
}
100
AcDbDictionary
280
0
281
1
  3
Standard
350
18
  0
DICTIONARY
  5
19
102
{ACAD_REACTORS
330
C
102
}
100
AcDbDictionary
281
1
  0
DICTIONARY
  5
1A
102
{ACAD_REACTORS
330
C
102
}
100
AcDbDictionary
281
1
  3
Model
350
3E8
  3
Layout1
350
3E9
  0
ACDBPLACEHOLDER
  5
F
102
{ACAD_REACTORS
330
E
102
}
  0
MLINESTYLE
  5
18
102
{ACAD_REACTORS
330
17
102
}
100
AcDbMlineStyle
  2
STANDARD
 70
0
  3

 62
256
 51
90.0
 52
90.0
 71
2
 49
0.5
 62
256
  6
BYLAYER
 49
-0.5
 62
256
  6
BYLAYER
  0
LAYOUT
  5
3E8
102
{ACAD_REACTORS
330
1A
102
}
100
AcDbPlotSettings
  1

  2
none_device
  4

  6

 40
0.0
 41
0.0
 42
0.0
 43
0.0
 44
210.0
 45
297.0
 46
0.0
 47
0.0
 48
0.0
 49
0.0
140
0.0
141
0.0
142
1.0
143
1.0
 70
1024
 72
1
 73
0
 74
0
  7

 75
0
147
1.0
148
0.0
149
0.0
100
AcDbLayout
  1
Model
 70
0
 71
0
 10
0.0
 20
0.0
 11
210.0
 21
297.0
 12
0.0
 22
0.0
 32
0.0
 14
0.0
 24
0.0
 34
0.0
 15
0.0
 25
0.0
 35
0.0
146
0.0
 13
0.0
 23
0.0
 33
0.0
 16
1.0
 26
0.0
 36
0.0
 17
0.0
 27
1.0
 37
0.0
 76
0
330
210
345
0
346
0
  0
LAYOUT
  5
3E9
102
{ACAD_REACTORS
330
1A
102
}
100
AcDbPlotSettings
  1

  2
none_device
  4

  6

 40
0.0
 41
0.0
 42
0.0
 43
0.0
 44
210.0
 45
297.0
 46
0.0
 47
0.0
 48
0.0
 49
0.0
140
0.0
141
0.0
142
1.0
143
1.0
 70
0
 72
1
 73
0
 74
0
  7

 75
0
147
1.0
148
0.0
149
0.0
100
AcDbLayout
  1
Layout1
 70
0
 71
1
 10
0.0
 20
0.0
 11
210.0
 21
297.0
 12
0.0
 22
0.0
 32
0.0
 14
0.0
 24
0.0
 34
0.0
 15
0.0
 25
0.0
 35
0.0
146
0.0
 13
0.0
 23
0.0
 33
0.0
 16
1.0
 26
0.0
 36
0.0
 17
0.0
 27
1.0
 37
0.0
 76
0
330
211
345
0
346
0
  0
ENDSEC
  0
EOF
