999
DXF file: C:\Users\sesa63760\Dev\_Creo\CAD\MCADFD0002523_3D-CAD\drw0001_7.dxf
999
Pro/ENGINEER 2019471 by Parametric Technology Corporation
  0
SECTION
  2
HEADER
  9
$ACADVER
  1
AC1024
  9
$DWGCODEPAGE
  3
ANSI_1252
  9
$EXTMAX
 10
811.5533333333
 20
1147.7682857143
 30
0.0
  9
$EXTMIN
 10
0.0
 20
0.0
 30
0.0
  9
$LIMMIN
 10
0.0
 20
0.0
  9
$LIMMAX
 10
811.5533333333
 20
1147.7682857143
  9
$VIEWCTR
 10
405.7766666667
 20
573.8841428572
  9
$VIEWSIZE
 40
1147.7682857143
  9
$CLAYER
  8
0
  9
$LTSCALE
 40
74.817488254
  9
$CELTYPE
  6
BYLAYER
  9
$DIMSCALE
 40
1.0
  9
$DIMASZ
 40
9.6613492063
  9
$DIMEXO
 40
1.0
  9
$DIMDLI
 40
51.6920827937
  9
$DIMEXE
 40
1.0
  9
$DIMCEN
 40
12.2428617143
  9
$DIMLFAC
 40
1.0
  9
$DIMBLK
  1
_FILLED
  9
$DIMALT
 70
0
  9
$DIMALTF
 40
0.0393700787
  9
$DIMTXT
 40
13.5258888889
  9
$DIMTOL
 70
1
  9
$DIMLIM
 70
0
  9
$DIMTFAC
 40
1.0
  9
$DIMTP
 40
0.01
  9
$DIMTM
 40
0.01
  9
$DIMGAP
 40
0.625
  9
$DIMDSEP
 70
46
  9
$AUNITS
 70
0
  9
$PDMODE
 70
3
  9
$PDSIZE
 40
0.3125
  9
$HANDSEED
  5
74F
  9
$TILEMODE
 70
1
  9
$MEASUREMENT
 70
1
  9
$INSUNITS
 70
4
  0
ENDSEC
  0
SECTION
  2
CLASSES
  0
CLASS
  1
ACDBDICTIONARYWDFLT
  2
AcDbDictionaryWithDefault
  3
AutoCAD 2000
 90
0
 91
1
280
0
281
0
  0
CLASS
  1
ACDBPLACEHOLDER
  2
AcDbPlaceHolder
  3
AutoCAD 2000
 90
0
 91
1
280
0
281
0
  0
CLASS
  1
LAYOUT
  2
AcDbLayout
  3
AutoCAD 2000
 90
0
 91
0
280
0
281
0
  0
ENDSEC
  0
SECTION
  2
TABLES
  0
TABLE
  2
VPORT
  5
8
100
AcDbSymbolTable
 70
2
  0
VPORT
  5
1F4
100
AcDbSymbolTableRecord
100
AcDbViewportTableRecord
  2
*ACTIVE
 70
0
 10
0.0
 20
0.0
 11
1.0
 21
1.0
 12
405.7766666667
 22
573.8841428572
 13
0.0
 23
0.0
 14
1.0
 24
1.0
 15
0.0
 25
0.0
 16
0.0
 26
0.0
 36
1.0
 17
0.0
 27
0.0
 37
0.0
 40
1147.7682857143
 41
0.7070707071
 42
50.0
 43
0.0
 44
0.0
 50
0.0
 51
0.0
 71
0
 72
100
 73
1
 74
1
 75
0
 76
0
 77
0
 78
0
  0
ENDTAB
  0
TABLE
  2
LTYPE
  5
5
100
AcDbSymbolTable
 70
6
  0
LTYPE
  5
14
100
AcDbSymbolTableRecord
100
AcDbLinetypeTableRecord
  2
BYBLOCK
 70
0
  3

 72
65
 73
0
 40
0.0
  0
LTYPE
  5
15
100
AcDbSymbolTableRecord
100
AcDbLinetypeTableRecord
  2
BYLAYER
 70
0
  3

 72
65
 73
0
 40
0.0
  0
LTYPE
  5
16
100
AcDbSymbolTableRecord
100
AcDbLinetypeTableRecord
  2
CONTINUOUS
 70
64
  3
Solid line
 72
65
 73
0
 40
0.0
  0
LTYPE
  5
1F5
100
AcDbSymbolTableRecord
100
AcDbLinetypeTableRecord
  2
CENTER
 70
64
  3
____ _ ____ _ ____ _ ____ _ ____ _ ____ _ ____
 72
65
 73
4
 40
0.6
 49
0.375
 74
0
 49
-0.075
 74
0
 49
0.075
 74
0
 49
-0.075
 74
0
  0
LTYPE
  5
1F6
100
AcDbSymbolTableRecord
100
AcDbLinetypeTableRecord
  2
HIDDEN
 70
64
  3
- - - - - - - - - - - - - - - - - - - -
 72
65
 73
2
 40
0.2
 49
0.1
 74
0
 49
-0.1
 74
0
  0
LTYPE
  5
1F7
100
AcDbSymbolTableRecord
100
AcDbLinetypeTableRecord
  2
PHANTOM
 70
64
  3
_____ _ _ _____ _ _ _____ _ _ _____
 72
65
 73
6
 40
0.8
 49
0.45
 74
0
 49
-0.05
 74
0
 49
0.1
 74
0
 49
-0.05
 74
0
 49
0.1
 74
0
 49
-0.05
 74
0
  0
LTYPE
  5
1F8
100
AcDbSymbolTableRecord
100
AcDbLinetypeTableRecord
  2
DOT
 70
64
  3
. . . . . . . . . . . . . . . . . . . .
 72
65
 73
2
 40
0.2
 49
0.1
 74
0
 49
-0.1
 74
0
  0
LTYPE
  5
1F9
100
AcDbSymbolTableRecord
100
AcDbLinetypeTableRecord
  2
DASHED
 70
64
  3
- - - - - - - - - - - - - - - - - - - -
 72
65
 73
2
 40
0.2
 49
0.1
 74
0
 49
-0.1
 74
0
  0
ENDTAB
  0
TABLE
  2
LAYER
  5
2
100
AcDbSymbolTable
 70
36
  0
LAYER
  5
10
100
AcDbSymbolTableRecord
100
AcDbLayerTableRecord
  2
0
 70
0
 62
7
  6
CONTINUOUS
370
-3
390
F
  0
LAYER
  5
1FA
100
AcDbSymbolTableRecord
100
AcDbLayerTableRecord
  2
DEFAULT_1
 70
0
 62
7
  6
CENTER
370
-3
390
F
  0
LAYER
  5
1FB
100
AcDbSymbolTableRecord
100
AcDbLayerTableRecord
  2
DEFAULT_2
 70
0
 62
8
  6
HIDDEN
370
-3
390
F
  0
LAYER
  5
1FC
100
AcDbSymbolTableRecord
100
AcDbLayerTableRecord
  2
DEFAULT_3
 70
0
 62
7
  6
PHANTOM
370
-3
390
F
  0
LAYER
  5
1FD
100
AcDbSymbolTableRecord
100
AcDbLayerTableRecord
  2
00_COMPONENTS
 70
0
 62
7
  6
CONTINUOUS
370
-3
390
F
  0
LAYER
  5
1FE
100
AcDbSymbolTableRecord
100
AcDbLayerTableRecord
  2
01_1_DEFAULT_DATUMS
 70
0
 62
7
  6
CONTINUOUS
370
-3
390
F
  0
LAYER
  5
1FF
100
AcDbSymbolTableRecord
100
AcDbLayerTableRecord
  2
01_PLANES
 70
0
 62
7
  6
CONTINUOUS
370
-3
390
F
  0
LAYER
  5
200
100
AcDbSymbolTableRecord
100
AcDbLayerTableRecord
  2
02_COORD_SYS
 70
0
 62
7
  6
CONTINUOUS
370
-3
390
F
  0
LAYER
  5
201
100
AcDbSymbolTableRecord
100
AcDbLayerTableRecord
  2
03_AXES
 70
0
 62
7
  6
CONTINUOUS
370
-3
390
F
  0
LAYER
  5
202
100
AcDbSymbolTableRecord
100
AcDbLayerTableRecord
  2
04_POINTS
 70
0
 62
7
  6
CONTINUOUS
370
-3
390
F
  0
LAYER
  5
203
100
AcDbSymbolTableRecord
100
AcDbLayerTableRecord
  2
05_CURVES
 70
0
 62
7
  6
CONTINUOUS
370
-3
390
F
  0
LAYER
  5
204
100
AcDbSymbolTableRecord
100
AcDbLayerTableRecord
  2
06_SURFS
 70
0
 62
7
  6
CONTINUOUS
370
-3
390
F
  0
LAYER
  5
205
100
AcDbSymbolTableRecord
100
AcDbLayerTableRecord
  2
07_COSMETICS
 70
0
 62
7
  6
CONTINUOUS
370
-3
390
F
  0
LAYER
  5
206
100
AcDbSymbolTableRecord
100
AcDbLayerTableRecord
  2
10_NOTES
 70
0
 62
7
  6
CONTINUOUS
370
-3
390
F
  0
LAYER
  5
207
100
AcDbSymbolTableRecord
100
AcDbLayerTableRecord
  2
11_NOTES_PUB
 70
0
 62
7
  6
CONTINUOUS
370
-3
390
F
  0
LAYER
  5
208
100
AcDbSymbolTableRecord
100
AcDbLayerTableRecord
  2
13_REF_GTOL
 70
0
 62
7
  6
CONTINUOUS
370
-3
390
F
  0
LAYER
  5
209
100
AcDbSymbolTableRecord
100
AcDbLayerTableRecord
  2
16_MISC
 70
0
 62
7
  6
CONTINUOUS
370
-3
390
F
  0
LAYER
  5
20A
100
AcDbSymbolTableRecord
100
AcDbLayerTableRecord
  2
17_NO_PRINT
 70
0
 62
7
  6
CONTINUOUS
370
-3
390
F
  0
LAYER
  5
20B
100
AcDbSymbolTableRecord
100
AcDbLayerTableRecord
  2
18_DATUM_CAMS_JOINTS
 70
0
 62
7
  6
CONTINUOUS
370
-3
390
F
  0
LAYER
  5
20C
100
AcDbSymbolTableRecord
100
AcDbLayerTableRecord
  2
19_DATUM_FUNCTIONAL
 70
0
 62
7
  6
CONTINUOUS
370
-3
390
F
  0
LAYER
  5
20D
100
AcDbSymbolTableRecord
100
AcDbLayerTableRecord
  2
20_DATUM_KINEMATIC_SCHEME
 70
0
 62
7
  6
CONTINUOUS
370
-3
390
F
  0
ENDTAB
  0
TABLE
  2
STYLE
  5
3
100
AcDbSymbolTable
 70
1
  0
STYLE
  5
11
100
AcDbSymbolTableRecord
100
AcDbTextStyleTableRecord
  2
STANDARD
 70
0
 40
0.0
 41
0.8
 50
0.0
 71
0
 42
0.2
  3
txt
  4

  0
STYLE
  5
20E
100
AcDbSymbolTableRecord
100
AcDbTextStyleTableRecord
  2
TEXTSTYLE_1
 70
0
 40
0.0
 41
0.8
 50
0.0
 71
0
 42
0.2
  3
gdt
  4

  0
ENDTAB
  0
TABLE
  2
VIEW
  5
6
100
AcDbSymbolTable
 70
0
  0
ENDTAB
  0
TABLE
  2
UCS
  5
7
100
AcDbSymbolTable
 70
0
  0
ENDTAB
  0
TABLE
  2
APPID
  5
9
100
AcDbSymbolTable
 70
1
  0
APPID
  5
20F
100
AcDbSymbolTableRecord
100
AcDbRegAppTableRecord
  2
ACAD
 70
0
  0
ENDTAB
  0
TABLE
  2
BLOCK_RECORD
  5
1
100
AcDbSymbolTable
 70
0
  0
BLOCK_RECORD
  5
210
100
AcDbSymbolTableRecord
100
AcDbBlockTableRecord
  2
*Model_Space
  0
BLOCK_RECORD
  5
211
100
AcDbSymbolTableRecord
100
AcDbBlockTableRecord
  2
*Paper_Space
  0
BLOCK_RECORD
  5
212
100
AcDbSymbolTableRecord
100
AcDbBlockTableRecord
  2
_FILLED
  0
ENDTAB
  0
TABLE
  2
DIMSTYLE
  5
A
100
AcDbSymbolTable
 70
1
100
AcDbDimStyleTable
 71
0
  0
DIMSTYLE
105
213
100
AcDbSymbolTableRecord
100
AcDbDimStyleTableRecord
  2
STANDARD
 70
0
  3

  4

 40
1.0
 41
9.6613492063
 42
1.0
 43
0.38
 44
1.0
 45
0.0
 46
0.0
 47
0.01
 48
0.01
140
13.5258888889
141
0.09
142
0.0
143
25.4
144
1.0
145
0.0
146
1.0
147
0.625
 71
1
 72
0
 73
0
 74
0
 75
0
 76
0
 77
1
 78
8
 79
2
170
0
171
1
172
0
173
0
174
0
175
0
176
0
177
0
178
0
270
2
179
2
271
2
272
2
273
2
274
2
275
0
280
0
281
0
282
0
283
1
284
8
285
0
286
0
287
3
288
0
340
11
278
46
341
212
342
212
343
212
344
212
  0
ENDTAB
  0
ENDSEC
  0
SECTION
  2
BLOCKS
  0
BLOCK
  5
20
100
AcDbEntity
  8
0
100
AcDbBlockBegin
  2
*Model_Space
 70
0
 10
0.0
 20
0.0
 30
0.0
  3
*Model_Space
  1

  0
ENDBLK
  5
21
100
AcDbEntity
  8
0
100
AcDbBlockEnd
  0
BLOCK
  5
1C
100
AcDbEntity
  8
0
100
AcDbBlockBegin
  2
*Paper_Space
 70
0
 10
0.0
 20
0.0
 30
0.0
  3
*Paper_Space
  1

  0
ENDBLK
  5
1D
100
AcDbEntity
  8
0
100
AcDbBlockEnd
  0
BLOCK
  5
214
100
AcDbEntity
  8
0
100
AcDbBlockBegin
  2
_FILLED
 70
64
 10
0.0
 20
0.0
  3
_FILLED
  1

  0
SOLID
  5
215
100
AcDbEntity
  8
0
  6
BYBLOCK
 62
0
100
AcDbTrace
 10
0.0
 20
0.0
 11
-1.0
 21
0.25
 12
-1.0
 22
-0.25
 13
-1.0
 23
-0.25
  0
ENDBLK
  5
216
100
AcDbEntity
  8
0
  6
BYBLOCK
 62
0
100
AcDbBlockEnd
  0
ENDSEC
  0
SECTION
  2
ENTITIES
  0
LINE
  5
217
100
AcDbEntity
  8
0
100
AcDbLine
 62
7
  6
CONTINUOUS
 10
397.5315238095
 20
84.9938571429
 11
416.8315238095
 21
84.9938571429
  0
LINE
  5
218
100
AcDbEntity
  8
0
100
AcDbLine
 62
7
  6
CONTINUOUS
 10
415.5315238095
 20
90.5938571429
 11
397.5315238095
 21
90.5938571429
  0
LINE
  5
219
100
AcDbEntity
  8
0
100
AcDbLine
 62
7
  6
CONTINUOUS
 10
397.5315238095
 20
91.0938571429
 11
415.0318520286
 21
91.0938064842
  0
LINE
  5
21A
100
AcDbEntity
  8
0
100
AcDbLine
 62
7
  6
CONTINUOUS
 10
397.5315238095
 20
91.6938571429
 11
414.0315238095
 21
91.6938571429
  0
LINE
  5
21B
100
AcDbEntity
  8
0
100
AcDbLine
 62
7
  6
CONTINUOUS
 10
397.5315238095
 20
92.1938571429
 11
412.5315238095
 21
92.1938571429
  0
LINE
  5
21C
100
AcDbEntity
  8
0
100
AcDbLine
 62
7
  6
CONTINUOUS
 10
397.5315238095
 20
92.5938571429
 11
409.1394767029
 21
92.5938571429
  0
LINE
  5
21D
100
AcDbEntity
  8
0
100
AcDbLine
 62
7
  6
CONTINUOUS
 10
397.5315238095
 20
94.5938571429
 11
402.9771694738
 21
94.5938571429
  0
LINE
  5
21E
100
AcDbEntity
  8
0
100
AcDbLine
 62
7
  6
CONTINUOUS
 10
399.3315238095
 20
95.0938571429
 11
397.5315238095
 21
95.0938571429
  0
LINE
  5
21F
100
AcDbEntity
  8
0
100
AcDbLine
 62
7
  6
CONTINUOUS
 10
399.3315238095
 20
99.0938571429
 11
397.5315238095
 21
99.0938571429
  0
LINE
  5
220
100
AcDbEntity
  8
0
100
AcDbLine
 62
7
  6
CONTINUOUS
 10
402.7807184738
 20
99.5938571429
 11
397.5315238095
 21
99.5938571429
  0
LINE
  5
221
100
AcDbEntity
  8
0
100
AcDbLine
 62
7
  6
CONTINUOUS
 10
397.5315238095
 20
101.5938571429
 11
409.1394767029
 21
101.5938571429
  0
LINE
  5
222
100
AcDbEntity
  8
0
100
AcDbLine
 62
7
  6
CONTINUOUS
 10
412.5315238095
 20
101.9938571429
 11
397.5315238095
 21
101.9938571429
  0
LINE
  5
223
100
AcDbEntity
  8
0
100
AcDbLine
 62
7
  6
CONTINUOUS
 10
397.5315238095
 20
102.4938571429
 11
414.0315238095
 21
102.4938571429
  0
LINE
  5
224
100
AcDbEntity
  8
0
100
AcDbLine
 62
7
  6
CONTINUOUS
 10
415.0318520286
 20
103.0938571429
 11
397.5315238095
 21
103.0938571429
  0
LINE
  5
225
100
AcDbEntity
  8
0
100
AcDbLine
 62
7
  6
CONTINUOUS
 10
397.5315238095
 20
103.5938571429
 11
415.5315238095
 21
103.5938571429
  0
LINE
  5
226
100
AcDbEntity
  8
0
100
AcDbLine
 62
7
  6
CONTINUOUS
 10
415.5315238095
 20
108.1938571429
 11
397.5315238095
 21
108.1938571429
  0
LINE
  5
227
100
AcDbEntity
  8
0
100
AcDbLine
 62
7
  6
CONTINUOUS
 10
397.5315238095
 20
108.6938571429
 11
415.0318520286
 21
108.6938571429
  0
LINE
  5
228
100
AcDbEntity
  8
0
100
AcDbLine
 62
7
  6
CONTINUOUS
 10
397.5315238095
 20
109.2938571429
 11
414.0315238095
 21
109.2938571429
  0
LINE
  5
229
100
AcDbEntity
  8
0
100
AcDbLine
 62
7
  6
CONTINUOUS
 10
397.5315238095
 20
109.7938571429
 11
412.5315238095
 21
109.7938571429
  0
LINE
  5
22A
100
AcDbEntity
  8
0
100
AcDbLine
 62
7
  6
CONTINUOUS
 10
397.5315238095
 20
110.1938571429
 11
409.1394767029
 21
110.1938571429
  0
LINE
  5
22B
100
AcDbEntity
  8
0
100
AcDbLine
 62
7
  6
CONTINUOUS
 10
397.5315238095
 20
112.1938571429
 11
402.7807184738
 21
112.1938571429
  0
LINE
  5
22C
100
AcDbEntity
  8
0
100
AcDbLine
 62
7
  6
CONTINUOUS
 10
399.3315238095
 20
112.6938571429
 11
397.5315238095
 21
112.6938571429
  0
LINE
  5
22D
100
AcDbEntity
  8
0
100
AcDbLine
 62
7
  6
CONTINUOUS
 10
399.3315238095
 20
116.6938571429
 11
397.5315238095
 21
116.6938571429
  0
LINE
  5
22E
100
AcDbEntity
  8
0
100
AcDbLine
 62
7
  6
CONTINUOUS
 10
399.3315238095
 20
117.1938571429
 11
397.5315238095
 21
117.1938571429
  0
LINE
  5
22F
100
AcDbEntity
  8
0
100
AcDbLine
 62
7
  6
CONTINUOUS
 10
397.5315238095
 20
119.1938571429
 11
409.1394767029
 21
119.1938571429
  0
LINE
  5
230
100
AcDbEntity
  8
0
100
AcDbLine
 62
7
  6
CONTINUOUS
 10
412.5315238095
 20
119.5938571429
 11
397.5315238095
 21
119.5938571429
  0
LINE
  5
231
100
AcDbEntity
  8
0
100
AcDbLine
 62
7
  6
CONTINUOUS
 10
397.5315238095
 20
120.0938571429
 11
414.0315238095
 21
120.0938571429
  0
LINE
  5
232
100
AcDbEntity
  8
0
100
AcDbLine
 62
7
  6
CONTINUOUS
 10
397.5315238095
 20
120.6938571429
 11
415.0318520286
 21
120.6939078016
  0
LINE
  5
233
100
AcDbEntity
  8
0
100
AcDbLine
 62
7
  6
CONTINUOUS
 10
397.5315238095
 20
121.1938571429
 11
415.5315238095
 21
121.1938571429
  0
LINE
  5
234
100
AcDbEntity
  8
0
100
AcDbLine
 62
7
  6
CONTINUOUS
 10
402.7807184738
 20
117.189338286
 11
399.3315238095
 21
117.1904215466
  0
LINE
  5
235
100
AcDbEntity
  8
0
100
AcDbLine
 62
7
  6
CONTINUOUS
 10
415.5315238095
 20
125.7938571429
 11
397.5315238095
 21
125.7938571429
  0
LINE
  5
236
100
AcDbEntity
  8
0
100
AcDbLine
 62
7
  6
CONTINUOUS
 10
397.5315238095
 20
126.2938571429
 11
415.0318520286
 21
126.2938064842
  0
LINE
  5
237
100
AcDbEntity
  8
0
100
AcDbLine
 62
7
  6
CONTINUOUS
 10
397.5315238095
 20
126.8938571429
 11
414.0315238095
 21
126.8938571429
  0
LINE
  5
238
100
AcDbEntity
  8
0
100
AcDbLine
 62
7
  6
CONTINUOUS
 10
397.5315238095
 20
127.3938571429
 11
412.5315238095
 21
127.3938571429
  0
LINE
  5
239
100
AcDbEntity
  8
0
100
AcDbLine
 62
7
  6
CONTINUOUS
 10
397.5315238095
 20
127.7938571429
 11
409.1394767029
 21
127.7938571429
  0
LINE
  5
23A
100
AcDbEntity
  8
0
100
AcDbLine
 62
7
  6
CONTINUOUS
 10
397.5315238095
 20
129.7938571429
 11
402.7807184738
 21
129.7938571429
  0
LINE
  5
23B
100
AcDbEntity
  8
0
100
AcDbLine
 62
7
  6
CONTINUOUS
 10
399.3315238095
 20
130.2938571429
 11
397.5315238095
 21
130.2938571429
  0
LINE
  5
23C
100
AcDbEntity
  8
0
100
AcDbLine
 62
7
  6
CONTINUOUS
 10
399.3315238095
 20
134.2938571429
 11
397.5315238095
 21
134.2938571429
  0
LINE
  5
23D
100
AcDbEntity
  8
0
100
AcDbLine
 62
7
  6
CONTINUOUS
 10
397.5315238095
 20
134.7938571429
 11
402.9771694738
 21
134.7938571429
  0
LINE
  5
23E
100
AcDbEntity
  8
0
100
AcDbLine
 62
7
  6
CONTINUOUS
 10
397.5315238095
 20
136.7938571429
 11
409.1394767029
 21
136.7938571429
  0
LINE
  5
23F
100
AcDbEntity
  8
0
100
AcDbLine
 62
7
  6
CONTINUOUS
 10
412.5315238095
 20
137.1938571429
 11
397.5315238095
 21
137.1938571429
  0
LINE
  5
240
100
AcDbEntity
  8
0
100
AcDbLine
 62
7
  6
CONTINUOUS
 10
397.5315238095
 20
137.6938571429
 11
414.0315238095
 21
137.6938571429
  0
LINE
  5
241
100
AcDbEntity
  8
0
100
AcDbLine
 62
7
  6
CONTINUOUS
 10
397.5315238095
 20
138.2938571429
 11
415.0318520286
 21
138.2939078016
  0
LINE
  5
242
100
AcDbEntity
  8
0
100
AcDbLine
 62
7
  6
CONTINUOUS
 10
397.5315238095
 20
138.7938571429
 11
415.5315238095
 21
138.7938571429
  0
LINE
  5
243
100
AcDbEntity
  8
0
100
AcDbLine
 62
7
  6
CONTINUOUS
 10
415.5315238095
 20
152.1938571429
 11
397.5315238095
 21
152.1938571429
  0
LINE
  5
244
100
AcDbEntity
  8
0
100
AcDbLine
 62
7
  6
CONTINUOUS
 10
397.5315238095
 20
152.6938571429
 11
415.0318520286
 21
152.6938064842
  0
LINE
  5
245
100
AcDbEntity
  8
0
100
AcDbLine
 62
7
  6
CONTINUOUS
 10
397.5315238095
 20
153.2938571429
 11
414.0315238095
 21
153.2938571429
  0
LINE
  5
246
100
AcDbEntity
  8
0
100
AcDbLine
 62
7
  6
CONTINUOUS
 10
397.5315238095
 20
153.7938571429
 11
412.5315238095
 21
153.7938571429
  0
LINE
  5
247
100
AcDbEntity
  8
0
100
AcDbLine
 62
7
  6
CONTINUOUS
 10
397.5315238095
 20
154.1938571429
 11
409.1394767029
 21
154.1938571429
  0
LINE
  5
248
100
AcDbEntity
  8
0
100
AcDbLine
 62
7
  6
CONTINUOUS
 10
397.5315238095
 20
156.1938571429
 11
402.9771694738
 21
156.1938571429
  0
LINE
  5
249
100
AcDbEntity
  8
0
100
AcDbLine
 62
7
  6
CONTINUOUS
 10
399.3315238095
 20
156.6938571429
 11
397.5315238095
 21
156.6938571429
  0
LINE
  5
24A
100
AcDbEntity
  8
0
100
AcDbLine
 62
7
  6
CONTINUOUS
 10
399.3315238095
 20
160.6938571429
 11
397.5315238095
 21
160.6938571429
  0
LINE
  5
24B
100
AcDbEntity
  8
0
100
AcDbLine
 62
7
  6
CONTINUOUS
 10
402.7807184738
 20
161.1938571429
 11
397.5315238095
 21
161.1938571429
  0
LINE
  5
24C
100
AcDbEntity
  8
0
100
AcDbLine
 62
7
  6
CONTINUOUS
 10
397.5315238095
 20
163.1938571429
 11
409.1394767029
 21
163.1938571429
  0
LINE
  5
24D
100
AcDbEntity
  8
0
100
AcDbLine
 62
7
  6
CONTINUOUS
 10
412.5315238095
 20
163.5938571429
 11
397.5315238095
 21
163.5938571429
  0
LINE
  5
24E
100
AcDbEntity
  8
0
100
AcDbLine
 62
7
  6
CONTINUOUS
 10
397.5315238095
 20
164.0938571429
 11
414.0315238095
 21
164.0938571429
  0
LINE
  5
24F
100
AcDbEntity
  8
0
100
AcDbLine
 62
7
  6
CONTINUOUS
 10
415.0318520286
 20
164.6938571429
 11
397.5315238095
 21
164.6938571429
  0
LINE
  5
250
100
AcDbEntity
  8
0
100
AcDbLine
 62
7
  6
CONTINUOUS
 10
397.5315238095
 20
165.1938571429
 11
415.5315238095
 21
165.1938571429
  0
LINE
  5
251
100
AcDbEntity
  8
0
100
AcDbLine
 62
7
  6
CONTINUOUS
 10
415.5315238095
 20
169.7938571429
 11
397.5315238095
 21
169.7938571429
  0
LINE
  5
252
100
AcDbEntity
  8
0
100
AcDbLine
 62
7
  6
CONTINUOUS
 10
397.5315238095
 20
170.2938571429
 11
415.0318520286
 21
170.2938571429
  0
LINE
  5
253
100
AcDbEntity
  8
0
100
AcDbLine
 62
7
  6
CONTINUOUS
 10
397.5315238095
 20
170.8938571429
 11
414.0315238095
 21
170.8938571429
  0
LINE
  5
254
100
AcDbEntity
  8
0
100
AcDbLine
 62
7
  6
CONTINUOUS
 10
397.5315238095
 20
171.3938571429
 11
412.5315238095
 21
171.3938571429
  0
LINE
  5
255
100
AcDbEntity
  8
0
100
AcDbLine
 62
7
  6
CONTINUOUS
 10
397.5315238095
 20
171.7938571429
 11
409.1394767029
 21
171.7938571429
  0
LINE
  5
256
100
AcDbEntity
  8
0
100
AcDbLine
 62
7
  6
CONTINUOUS
 10
397.5315238095
 20
173.7938571429
 11
402.7807184738
 21
173.7938571429
  0
LINE
  5
257
100
AcDbEntity
  8
0
100
AcDbLine
 62
7
  6
CONTINUOUS
 10
399.3315238095
 20
174.2938571429
 11
397.5315238095
 21
174.2938571429
  0
LINE
  5
258
100
AcDbEntity
  8
0
100
AcDbLine
 62
7
  6
CONTINUOUS
 10
399.3315238095
 20
178.2938571429
 11
397.5315238095
 21
178.2938571429
  0
LINE
  5
259
100
AcDbEntity
  8
0
100
AcDbLine
 62
7
  6
CONTINUOUS
 10
399.3315238095
 20
178.7938571429
 11
397.5315238095
 21
178.7938571429
  0
LINE
  5
25A
100
AcDbEntity
  8
0
100
AcDbLine
 62
7
  6
CONTINUOUS
 10
397.5315238095
 20
180.7938571429
 11
409.1394767029
 21
180.7938571429
  0
LINE
  5
25B
100
AcDbEntity
  8
0
100
AcDbLine
 62
7
  6
CONTINUOUS
 10
412.5315238095
 20
181.1938571429
 11
397.5315238095
 21
181.1938571429
  0
LINE
  5
25C
100
AcDbEntity
  8
0
100
AcDbLine
 62
7
  6
CONTINUOUS
 10
397.5315238095
 20
181.6938571429
 11
414.0315238095
 21
181.6938571429
  0
LINE
  5
25D
100
AcDbEntity
  8
0
100
AcDbLine
 62
7
  6
CONTINUOUS
 10
397.5315238095
 20
182.2938571429
 11
415.0318520286
 21
182.2939078016
  0
LINE
  5
25E
100
AcDbEntity
  8
0
100
AcDbLine
 62
7
  6
CONTINUOUS
 10
397.5315238095
 20
182.7938571429
 11
415.5315238095
 21
182.7938571429
  0
LINE
  5
25F
100
AcDbEntity
  8
0
100
AcDbLine
 62
7
  6
CONTINUOUS
 10
415.5315238095
 20
187.3938571429
 11
397.5315238095
 21
187.3938571429
  0
LINE
  5
260
100
AcDbEntity
  8
0
100
AcDbLine
 62
7
  6
CONTINUOUS
 10
402.7807184738
 20
178.789338286
 11
399.3315238095
 21
178.7904215466
  0
LINE
  5
261
100
AcDbEntity
  8
0
100
AcDbLine
 62
7
  6
CONTINUOUS
 10
397.5315238095
 20
187.8938571429
 11
415.0318520286
 21
187.8938064842
  0
LINE
  5
262
100
AcDbEntity
  8
0
100
AcDbLine
 62
7
  6
CONTINUOUS
 10
397.5315238095
 20
188.4938571429
 11
414.0315238095
 21
188.4938571429
  0
LINE
  5
263
100
AcDbEntity
  8
0
100
AcDbLine
 62
7
  6
CONTINUOUS
 10
397.5315238095
 20
188.9938571429
 11
412.5315238095
 21
188.9938571429
  0
LINE
  5
264
100
AcDbEntity
  8
0
100
AcDbLine
 62
7
  6
CONTINUOUS
 10
397.5315238095
 20
189.3938571429
 11
409.1394767029
 21
189.3938571429
  0
LINE
  5
265
100
AcDbEntity
  8
0
100
AcDbLine
 62
7
  6
CONTINUOUS
 10
397.5315238095
 20
191.3938571429
 11
402.7807184738
 21
191.3938571429
  0
LINE
  5
266
100
AcDbEntity
  8
0
100
AcDbLine
 62
7
  6
CONTINUOUS
 10
399.3315238095
 20
191.8938571429
 11
397.5315238095
 21
191.8938571429
  0
LINE
  5
267
100
AcDbEntity
  8
0
100
AcDbLine
 62
7
  6
CONTINUOUS
 10
399.3315238095
 20
195.8938571429
 11
397.5315238095
 21
195.8938571429
  0
LINE
  5
268
100
AcDbEntity
  8
0
100
AcDbLine
 62
7
  6
CONTINUOUS
 10
397.5315238095
 20
196.3938571429
 11
402.9771694738
 21
196.3938571429
  0
LINE
  5
269
100
AcDbEntity
  8
0
100
AcDbLine
 62
7
  6
CONTINUOUS
 10
397.5315238095
 20
198.3938571429
 11
409.1394767029
 21
198.3938571429
  0
LINE
  5
26A
100
AcDbEntity
  8
0
100
AcDbLine
 62
7
  6
CONTINUOUS
 10
412.5315238095
 20
198.7938571429
 11
397.5315238095
 21
198.7938571429
  0
LINE
  5
26B
100
AcDbEntity
  8
0
100
AcDbLine
 62
7
  6
CONTINUOUS
 10
397.5315238095
 20
199.2938571429
 11
414.0315238095
 21
199.2938571429
  0
LINE
  5
26C
100
AcDbEntity
  8
0
100
AcDbLine
 62
7
  6
CONTINUOUS
 10
397.5315238095
 20
199.8938571429
 11
415.0318520286
 21
199.8939078016
  0
LINE
  5
26D
100
AcDbEntity
  8
0
100
AcDbLine
 62
7
  6
CONTINUOUS
 10
397.5315238095
 20
200.3938571429
 11
415.5315238095
 21
200.3938571429
  0
LINE
  5
26E
100
AcDbEntity
  8
0
100
AcDbLine
 62
7
  6
CONTINUOUS
 10
415.5315238095
 20
213.7938571429
 11
397.5315238095
 21
213.7938571429
  0
LINE
  5
26F
100
AcDbEntity
  8
0
100
AcDbLine
 62
7
  6
CONTINUOUS
 10
397.5315238095
 20
214.2938571429
 11
415.0318520286
 21
214.2938064842
  0
LINE
  5
270
100
AcDbEntity
  8
0
100
AcDbLine
 62
7
  6
CONTINUOUS
 10
397.5315238095
 20
214.8938571429
 11
414.0315238095
 21
214.8938571429
  0
LINE
  5
271
100
AcDbEntity
  8
0
100
AcDbLine
 62
7
  6
CONTINUOUS
 10
397.5315238095
 20
215.3938571429
 11
412.5315238095
 21
215.3938571429
  0
LINE
  5
272
100
AcDbEntity
  8
0
100
AcDbLine
 62
7
  6
CONTINUOUS
 10
397.5315238095
 20
215.7938571429
 11
409.1394767029
 21
215.7938571429
  0
LINE
  5
273
100
AcDbEntity
  8
0
100
AcDbLine
 62
7
  6
CONTINUOUS
 10
397.5315238095
 20
217.7938571429
 11
402.9771694738
 21
217.7938571429
  0
LINE
  5
274
100
AcDbEntity
  8
0
100
AcDbLine
 62
7
  6
CONTINUOUS
 10
399.3315238095
 20
218.2938571429
 11
397.5315238095
 21
218.2938571429
  0
LINE
  5
275
100
AcDbEntity
  8
0
100
AcDbLine
 62
7
  6
CONTINUOUS
 10
399.3315238095
 20
222.2938571429
 11
397.5315238095
 21
222.2938571429
  0
LINE
  5
276
100
AcDbEntity
  8
0
100
AcDbLine
 62
7
  6
CONTINUOUS
 10
402.7807184738
 20
222.7938571429
 11
397.5315238095
 21
222.7938571429
  0
LINE
  5
277
100
AcDbEntity
  8
0
100
AcDbLine
 62
7
  6
CONTINUOUS
 10
397.5315238095
 20
224.7938571429
 11
409.1394767029
 21
224.7938571429
  0
LINE
  5
278
100
AcDbEntity
  8
0
100
AcDbLine
 62
7
  6
CONTINUOUS
 10
412.5315238095
 20
225.1938571429
 11
397.5315238095
 21
225.1938571429
  0
LINE
  5
279
100
AcDbEntity
  8
0
100
AcDbLine
 62
7
  6
CONTINUOUS
 10
397.5315238095
 20
225.6938571429
 11
414.0315238095
 21
225.6938571429
  0
LINE
  5
27A
100
AcDbEntity
  8
0
100
AcDbLine
 62
7
  6
CONTINUOUS
 10
415.0318520286
 20
226.2938571429
 11
397.5315238095
 21
226.2938571429
  0
LINE
  5
27B
100
AcDbEntity
  8
0
100
AcDbLine
 62
7
  6
CONTINUOUS
 10
397.5315238095
 20
226.7938571429
 11
415.5315238095
 21
226.7938571429
  0
LINE
  5
27C
100
AcDbEntity
  8
0
100
AcDbLine
 62
7
  6
CONTINUOUS
 10
415.5315238095
 20
231.3938571429
 11
397.5315238095
 21
231.3938571429
  0
LINE
  5
27D
100
AcDbEntity
  8
0
100
AcDbLine
 62
7
  6
CONTINUOUS
 10
397.5315238095
 20
231.8938571429
 11
415.0318520286
 21
231.8938571429
  0
LINE
  5
27E
100
AcDbEntity
  8
0
100
AcDbLine
 62
7
  6
CONTINUOUS
 10
397.5315238095
 20
232.4938571429
 11
414.0315238095
 21
232.4938571429
  0
LINE
  5
27F
100
AcDbEntity
  8
0
100
AcDbLine
 62
7
  6
CONTINUOUS
 10
397.5315238095
 20
232.9938571429
 11
412.5315238095
 21
232.9938571429
  0
LINE
  5
280
100
AcDbEntity
  8
0
100
AcDbLine
 62
7
  6
CONTINUOUS
 10
397.5315238095
 20
233.3938571429
 11
409.1394767029
 21
233.3938571429
  0
LINE
  5
281
100
AcDbEntity
  8
0
100
AcDbLine
 62
7
  6
CONTINUOUS
 10
397.5315238095
 20
235.3938571429
 11
402.7807184738
 21
235.3938571429
  0
LINE
  5
282
100
AcDbEntity
  8
0
100
AcDbLine
 62
7
  6
CONTINUOUS
 10
399.3315238095
 20
235.8938571429
 11
397.5315238095
 21
235.8938571429
  0
LINE
  5
283
100
AcDbEntity
  8
0
100
AcDbLine
 62
7
  6
CONTINUOUS
 10
399.3315238095
 20
239.8938571429
 11
397.5315238095
 21
239.8938571429
  0
LINE
  5
284
100
AcDbEntity
  8
0
100
AcDbLine
 62
7
  6
CONTINUOUS
 10
399.3315238095
 20
240.3938571429
 11
397.5315238095
 21
240.3938571429
  0
LINE
  5
285
100
AcDbEntity
  8
0
100
AcDbLine
 62
7
  6
CONTINUOUS
 10
397.5315238095
 20
242.3938571429
 11
409.1394767029
 21
242.3938571429
  0
LINE
  5
286
100
AcDbEntity
  8
0
100
AcDbLine
 62
7
  6
CONTINUOUS
 10
412.5315238095
 20
242.7938571429
 11
397.5315238095
 21
242.7938571429
  0
LINE
  5
287
100
AcDbEntity
  8
0
100
AcDbLine
 62
7
  6
CONTINUOUS
 10
397.5315238095
 20
243.2938571429
 11
414.0315238095
 21
243.2938571429
  0
LINE
  5
288
100
AcDbEntity
  8
0
100
AcDbLine
 62
7
  6
CONTINUOUS
 10
397.5315238095
 20
243.8938571429
 11
415.0318520286
 21
243.8939078016
  0
LINE
  5
289
100
AcDbEntity
  8
0
100
AcDbLine
 62
7
  6
CONTINUOUS
 10
397.5315238095
 20
244.3938571429
 11
415.5315238095
 21
244.3938571429
  0
LINE
  5
28A
100
AcDbEntity
  8
0
100
AcDbLine
 62
7
  6
CONTINUOUS
 10
415.5315238095
 20
248.9938571429
 11
397.5315238095
 21
248.9938571429
  0
LINE
  5
28B
100
AcDbEntity
  8
0
100
AcDbLine
 62
7
  6
CONTINUOUS
 10
397.5315238095
 20
249.4938571429
 11
415.0318520286
 21
249.4938064842
  0
LINE
  5
28C
100
AcDbEntity
  8
0
100
AcDbLine
 62
7
  6
CONTINUOUS
 10
397.5315238095
 20
250.0938571429
 11
414.0315238095
 21
250.0938571429
  0
LINE
  5
28D
100
AcDbEntity
  8
0
100
AcDbLine
 62
7
  6
CONTINUOUS
 10
397.5315238095
 20
250.5938571429
 11
412.5315238095
 21
250.5938571429
  0
LINE
  5
28E
100
AcDbEntity
  8
0
100
AcDbLine
 62
7
  6
CONTINUOUS
 10
397.5315238095
 20
250.9938571429
 11
409.1394767029
 21
250.9938571429
  0
LINE
  5
28F
100
AcDbEntity
  8
0
100
AcDbLine
 62
7
  6
CONTINUOUS
 10
397.5315238095
 20
252.9938571429
 11
402.7807184738
 21
252.9938571429
  0
LINE
  5
290
100
AcDbEntity
  8
0
100
AcDbLine
 62
7
  6
CONTINUOUS
 10
402.7807184738
 20
240.389338286
 11
399.3315238095
 21
240.3904215466
  0
LINE
  5
291
100
AcDbEntity
  8
0
100
AcDbLine
 62
7
  6
CONTINUOUS
 10
399.3315238095
 20
253.4938571429
 11
397.5315238095
 21
253.4938571429
  0
LINE
  5
292
100
AcDbEntity
  8
0
100
AcDbLine
 62
7
  6
CONTINUOUS
 10
399.3315238095
 20
257.4938571429
 11
397.5315238095
 21
257.4938571429
  0
LINE
  5
293
100
AcDbEntity
  8
0
100
AcDbLine
 62
7
  6
CONTINUOUS
 10
397.5315238095
 20
257.9938571429
 11
402.9771694738
 21
257.9938571429
  0
LINE
  5
294
100
AcDbEntity
  8
0
100
AcDbLine
 62
7
  6
CONTINUOUS
 10
397.5315238095
 20
259.9938571429
 11
409.1394767029
 21
259.9938571429
  0
LINE
  5
295
100
AcDbEntity
  8
0
100
AcDbLine
 62
7
  6
CONTINUOUS
 10
412.5315238095
 20
260.3938571429
 11
397.5315238095
 21
260.3938571429
  0
LINE
  5
296
100
AcDbEntity
  8
0
100
AcDbLine
 62
7
  6
CONTINUOUS
 10
397.5315238095
 20
260.8938571429
 11
414.0315238095
 21
260.8938571429
  0
LINE
  5
297
100
AcDbEntity
  8
0
100
AcDbLine
 62
7
  6
CONTINUOUS
 10
397.5315238095
 20
261.4938571429
 11
415.0318520286
 21
261.4939078016
  0
LINE
  5
298
100
AcDbEntity
  8
0
100
AcDbLine
 62
7
  6
CONTINUOUS
 10
397.5315238095
 20
261.9938571429
 11
415.5315238095
 21
261.9938571429
  0
LINE
  5
299
100
AcDbEntity
  8
0
100
AcDbLine
 62
7
  6
CONTINUOUS
 10
415.5315238095
 20
275.3938571429
 11
397.5315238095
 21
275.3938571429
  0
LINE
  5
29A
100
AcDbEntity
  8
0
100
AcDbLine
 62
7
  6
CONTINUOUS
 10
397.5315238095
 20
275.8938571429
 11
415.0318520286
 21
275.8938064842
  0
LINE
  5
29B
100
AcDbEntity
  8
0
100
AcDbLine
 62
7
  6
CONTINUOUS
 10
397.5315238095
 20
276.4938571429
 11
414.0315238095
 21
276.4938571429
  0
LINE
  5
29C
100
AcDbEntity
  8
0
100
AcDbLine
 62
7
  6
CONTINUOUS
 10
397.5315238095
 20
276.9938571429
 11
412.5315238095
 21
276.9938571429
  0
LINE
  5
29D
100
AcDbEntity
  8
0
100
AcDbLine
 62
7
  6
CONTINUOUS
 10
397.5315238095
 20
277.3938571429
 11
409.1394767029
 21
277.3938571429
  0
LINE
  5
29E
100
AcDbEntity
  8
0
100
AcDbLine
 62
7
  6
CONTINUOUS
 10
397.5315238095
 20
279.3938571429
 11
402.9771694738
 21
279.3938571429
  0
LINE
  5
29F
100
AcDbEntity
  8
0
100
AcDbLine
 62
7
  6
CONTINUOUS
 10
399.3315238095
 20
279.8938571429
 11
397.5315238095
 21
279.8938571429
  0
LINE
  5
2A0
100
AcDbEntity
  8
0
100
AcDbLine
 62
7
  6
CONTINUOUS
 10
399.3315238095
 20
283.8938571429
 11
397.5315238095
 21
283.8938571429
  0
LINE
  5
2A1
100
AcDbEntity
  8
0
100
AcDbLine
 62
7
  6
CONTINUOUS
 10
402.7807184738
 20
284.3938571429
 11
397.5315238095
 21
284.3938571429
  0
LINE
  5
2A2
100
AcDbEntity
  8
0
100
AcDbLine
 62
7
  6
CONTINUOUS
 10
397.5315238095
 20
286.3938571429
 11
409.1394767029
 21
286.3938571429
  0
LINE
  5
2A3
100
AcDbEntity
  8
0
100
AcDbLine
 62
7
  6
CONTINUOUS
 10
412.5315238095
 20
286.7938571429
 11
397.5315238095
 21
286.7938571429
  0
LINE
  5
2A4
100
AcDbEntity
  8
0
100
AcDbLine
 62
7
  6
CONTINUOUS
 10
397.5315238095
 20
287.2938571429
 11
414.0315238095
 21
287.2938571429
  0
LINE
  5
2A5
100
AcDbEntity
  8
0
100
AcDbLine
 62
7
  6
CONTINUOUS
 10
415.0318520286
 20
287.8938571429
 11
397.5315238095
 21
287.8938571429
  0
LINE
  5
2A6
100
AcDbEntity
  8
0
100
AcDbLine
 62
7
  6
CONTINUOUS
 10
397.5315238095
 20
288.3938571429
 11
415.5315238095
 21
288.3938571429
  0
LINE
  5
2A7
100
AcDbEntity
  8
0
100
AcDbLine
 62
7
  6
CONTINUOUS
 10
415.5315238095
 20
292.9938571429
 11
397.5315238095
 21
292.9938571429
  0
LINE
  5
2A8
100
AcDbEntity
  8
0
100
AcDbLine
 62
7
  6
CONTINUOUS
 10
397.5315238095
 20
293.4938571429
 11
415.0318520286
 21
293.4938571429
  0
LINE
  5
2A9
100
AcDbEntity
  8
0
100
AcDbLine
 62
7
  6
CONTINUOUS
 10
397.5315238095
 20
294.0938571429
 11
414.0315238095
 21
294.0938571429
  0
LINE
  5
2AA
100
AcDbEntity
  8
0
100
AcDbLine
 62
7
  6
CONTINUOUS
 10
397.5315238095
 20
294.5938571429
 11
412.5315238095
 21
294.5938571429
  0
LINE
  5
2AB
100
AcDbEntity
  8
0
100
AcDbLine
 62
7
  6
CONTINUOUS
 10
397.5315238095
 20
294.9938571429
 11
409.1394767029
 21
294.9938571429
  0
LINE
  5
2AC
100
AcDbEntity
  8
0
100
AcDbLine
 62
7
  6
CONTINUOUS
 10
397.5315238095
 20
296.9938571429
 11
402.7807184738
 21
296.9938571429
  0
LINE
  5
2AD
100
AcDbEntity
  8
0
100
AcDbLine
 62
7
  6
CONTINUOUS
 10
399.3315238095
 20
297.4938571429
 11
397.5315238095
 21
297.4938571429
  0
LINE
  5
2AE
100
AcDbEntity
  8
0
100
AcDbLine
 62
7
  6
CONTINUOUS
 10
399.3315238095
 20
301.4938571429
 11
397.5315238095
 21
301.4938571429
  0
LINE
  5
2AF
100
AcDbEntity
  8
0
100
AcDbLine
 62
7
  6
CONTINUOUS
 10
399.3315238095
 20
301.9938571429
 11
397.5315238095
 21
301.9938571429
  0
LINE
  5
2B0
100
AcDbEntity
  8
0
100
AcDbLine
 62
7
  6
CONTINUOUS
 10
397.5315238095
 20
303.9938571429
 11
409.1394767029
 21
303.9938571429
  0
LINE
  5
2B1
100
AcDbEntity
  8
0
100
AcDbLine
 62
7
  6
CONTINUOUS
 10
412.5315238095
 20
304.3938571429
 11
397.5315238095
 21
304.3938571429
  0
LINE
  5
2B2
100
AcDbEntity
  8
0
100
AcDbLine
 62
7
  6
CONTINUOUS
 10
397.5315238095
 20
304.8938571429
 11
414.0315238095
 21
304.8938571429
  0
LINE
  5
2B3
100
AcDbEntity
  8
0
100
AcDbLine
 62
7
  6
CONTINUOUS
 10
397.5315238095
 20
305.4938571429
 11
415.0318520286
 21
305.4939078016
  0
LINE
  5
2B4
100
AcDbEntity
  8
0
100
AcDbLine
 62
7
  6
CONTINUOUS
 10
397.5315238095
 20
305.9938571429
 11
415.5315238095
 21
305.9938571429
  0
LINE
  5
2B5
100
AcDbEntity
  8
0
100
AcDbLine
 62
7
  6
CONTINUOUS
 10
415.5315238095
 20
310.5938571429
 11
397.5315238095
 21
310.5938571429
  0
LINE
  5
2B6
100
AcDbEntity
  8
0
100
AcDbLine
 62
7
  6
CONTINUOUS
 10
397.5315238095
 20
311.0938571429
 11
415.0318520286
 21
311.0938064842
  0
LINE
  5
2B7
100
AcDbEntity
  8
0
100
AcDbLine
 62
7
  6
CONTINUOUS
 10
397.5315238095
 20
311.6938571429
 11
414.0315238095
 21
311.6938571429
  0
LINE
  5
2B8
100
AcDbEntity
  8
0
100
AcDbLine
 62
7
  6
CONTINUOUS
 10
397.5315238095
 20
312.1938571429
 11
412.5315238095
 21
312.1938571429
  0
LINE
  5
2B9
100
AcDbEntity
  8
0
100
AcDbLine
 62
7
  6
CONTINUOUS
 10
397.5315238095
 20
312.5938571429
 11
409.1394767029
 21
312.5938571429
  0
LINE
  5
2BA
100
AcDbEntity
  8
0
100
AcDbLine
 62
7
  6
CONTINUOUS
 10
397.5315238095
 20
314.5938571429
 11
402.7807184738
 21
314.5938571429
  0
LINE
  5
2BB
100
AcDbEntity
  8
0
100
AcDbLine
 62
7
  6
CONTINUOUS
 10
399.3315238095
 20
315.0938571429
 11
397.5315238095
 21
315.0938571429
  0
LINE
  5
2BC
100
AcDbEntity
  8
0
100
AcDbLine
 62
7
  6
CONTINUOUS
 10
402.7807184738
 20
301.989338286
 11
399.3315238095
 21
301.9904215466
  0
LINE
  5
2BD
100
AcDbEntity
  8
0
100
AcDbLine
 62
7
  6
CONTINUOUS
 10
399.3315238095
 20
319.0938571429
 11
397.5315238095
 21
319.0938571429
  0
LINE
  5
2BE
100
AcDbEntity
  8
0
100
AcDbLine
 62
7
  6
CONTINUOUS
 10
397.5315238095
 20
319.5938571429
 11
402.9771694738
 21
319.5938571429
  0
LINE
  5
2BF
100
AcDbEntity
  8
0
100
AcDbLine
 62
7
  6
CONTINUOUS
 10
397.5315238095
 20
321.5938571429
 11
409.1394767029
 21
321.5938571429
  0
LINE
  5
2C0
100
AcDbEntity
  8
0
100
AcDbLine
 62
7
  6
CONTINUOUS
 10
412.5315238095
 20
321.9938571429
 11
397.5315238095
 21
321.9938571429
  0
LINE
  5
2C1
100
AcDbEntity
  8
0
100
AcDbLine
 62
7
  6
CONTINUOUS
 10
397.5315238095
 20
322.4938571429
 11
414.0315238095
 21
322.4938571429
  0
LINE
  5
2C2
100
AcDbEntity
  8
0
100
AcDbLine
 62
7
  6
CONTINUOUS
 10
397.5315238095
 20
323.0938571429
 11
415.0318520286
 21
323.0939078016
  0
LINE
  5
2C3
100
AcDbEntity
  8
0
100
AcDbLine
 62
7
  6
CONTINUOUS
 10
397.5315238095
 20
323.5938571429
 11
415.5315238095
 21
323.5938571429
  0
LINE
  5
2C4
100
AcDbEntity
  8
0
100
AcDbLine
 62
7
  6
CONTINUOUS
 10
415.5315238095
 20
336.9938571429
 11
397.5315238095
 21
336.9938571429
  0
LINE
  5
2C5
100
AcDbEntity
  8
0
100
AcDbLine
 62
7
  6
CONTINUOUS
 10
397.5315238095
 20
337.4938571429
 11
415.0318520286
 21
337.4938064842
  0
LINE
  5
2C6
100
AcDbEntity
  8
0
100
AcDbLine
 62
7
  6
CONTINUOUS
 10
397.5315238095
 20
338.0938571429
 11
414.0315238095
 21
338.0938571429
  0
LINE
  5
2C7
100
AcDbEntity
  8
0
100
AcDbLine
 62
7
  6
CONTINUOUS
 10
397.5315238095
 20
338.5938571429
 11
412.5315238095
 21
338.5938571429
  0
LINE
  5
2C8
100
AcDbEntity
  8
0
100
AcDbLine
 62
7
  6
CONTINUOUS
 10
397.5315238095
 20
338.9938571429
 11
409.1394767029
 21
338.9938571429
  0
LINE
  5
2C9
100
AcDbEntity
  8
0
100
AcDbLine
 62
7
  6
CONTINUOUS
 10
397.5315238095
 20
340.9938571429
 11
402.9771694738
 21
340.9938571429
  0
LINE
  5
2CA
100
AcDbEntity
  8
0
100
AcDbLine
 62
7
  6
CONTINUOUS
 10
399.3315238095
 20
341.4938571429
 11
397.5315238095
 21
341.4938571429
  0
LINE
  5
2CB
100
AcDbEntity
  8
0
100
AcDbLine
 62
7
  6
CONTINUOUS
 10
399.3315238095
 20
345.4938571429
 11
397.5315238095
 21
345.4938571429
  0
LINE
  5
2CC
100
AcDbEntity
  8
0
100
AcDbLine
 62
7
  6
CONTINUOUS
 10
402.7807184738
 20
345.9938571429
 11
397.5315238095
 21
345.9938571429
  0
LINE
  5
2CD
100
AcDbEntity
  8
0
100
AcDbLine
 62
7
  6
CONTINUOUS
 10
397.5315238095
 20
347.9938571429
 11
409.1394767029
 21
347.9938571429
  0
LINE
  5
2CE
100
AcDbEntity
  8
0
100
AcDbLine
 62
7
  6
CONTINUOUS
 10
412.5315238095
 20
348.3938571429
 11
397.5315238095
 21
348.3938571429
  0
LINE
  5
2CF
100
AcDbEntity
  8
0
100
AcDbLine
 62
7
  6
CONTINUOUS
 10
397.5315238095
 20
348.8938571429
 11
414.0315238095
 21
348.8938571429
  0
LINE
  5
2D0
100
AcDbEntity
  8
0
100
AcDbLine
 62
7
  6
CONTINUOUS
 10
415.0318520286
 20
349.4938571429
 11
397.5315238095
 21
349.4938571429
  0
LINE
  5
2D1
100
AcDbEntity
  8
0
100
AcDbLine
 62
7
  6
CONTINUOUS
 10
397.5315238095
 20
349.9938571429
 11
415.5315238095
 21
349.9938571429
  0
LINE
  5
2D2
100
AcDbEntity
  8
0
100
AcDbLine
 62
7
  6
CONTINUOUS
 10
415.5315238095
 20
354.5938571429
 11
397.5315238095
 21
354.5938571429
  0
LINE
  5
2D3
100
AcDbEntity
  8
0
100
AcDbLine
 62
7
  6
CONTINUOUS
 10
397.5315238095
 20
355.0938571429
 11
415.0318520286
 21
355.0938571429
  0
LINE
  5
2D4
100
AcDbEntity
  8
0
100
AcDbLine
 62
7
  6
CONTINUOUS
 10
397.5315238095
 20
355.6938571429
 11
414.0315238095
 21
355.6938571429
  0
LINE
  5
2D5
100
AcDbEntity
  8
0
100
AcDbLine
 62
7
  6
CONTINUOUS
 10
397.5315238095
 20
356.1938571429
 11
412.5315238095
 21
356.1938571429
  0
LINE
  5
2D6
100
AcDbEntity
  8
0
100
AcDbLine
 62
7
  6
CONTINUOUS
 10
397.5315238095
 20
356.5938571429
 11
409.1394767029
 21
356.5938571429
  0
LINE
  5
2D7
100
AcDbEntity
  8
0
100
AcDbLine
 62
7
  6
CONTINUOUS
 10
397.5315238095
 20
358.5938571429
 11
402.7807184738
 21
358.5938571429
  0
LINE
  5
2D8
100
AcDbEntity
  8
0
100
AcDbLine
 62
7
  6
CONTINUOUS
 10
399.3315238095
 20
359.0938571429
 11
397.5315238095
 21
359.0938571429
  0
LINE
  5
2D9
100
AcDbEntity
  8
0
100
AcDbLine
 62
7
  6
CONTINUOUS
 10
399.3315238095
 20
363.0938571429
 11
397.5315238095
 21
363.0938571429
  0
LINE
  5
2DA
100
AcDbEntity
  8
0
100
AcDbLine
 62
7
  6
CONTINUOUS
 10
399.3315238095
 20
363.5938571429
 11
397.5315238095
 21
363.5938571429
  0
LINE
  5
2DB
100
AcDbEntity
  8
0
100
AcDbLine
 62
7
  6
CONTINUOUS
 10
397.5315238095
 20
365.5938571429
 11
409.1394767029
 21
365.5938571429
  0
LINE
  5
2DC
100
AcDbEntity
  8
0
100
AcDbLine
 62
7
  6
CONTINUOUS
 10
412.5315238095
 20
365.9938571429
 11
397.5315238095
 21
365.9938571429
  0
LINE
  5
2DD
100
AcDbEntity
  8
0
100
AcDbLine
 62
7
  6
CONTINUOUS
 10
397.5315238095
 20
366.4938571429
 11
414.0315238095
 21
366.4938571429
  0
LINE
  5
2DE
100
AcDbEntity
  8
0
100
AcDbLine
 62
7
  6
CONTINUOUS
 10
397.5315238095
 20
367.0938571429
 11
415.0318520286
 21
367.0939078016
  0
LINE
  5
2DF
100
AcDbEntity
  8
0
100
AcDbLine
 62
7
  6
CONTINUOUS
 10
397.5315238095
 20
367.5938571429
 11
415.5315238095
 21
367.5938571429
  0
LINE
  5
2E0
100
AcDbEntity
  8
0
100
AcDbLine
 62
7
  6
CONTINUOUS
 10
415.5315238095
 20
372.1938571429
 11
397.5315238095
 21
372.1938571429
  0
LINE
  5
2E1
100
AcDbEntity
  8
0
100
AcDbLine
 62
7
  6
CONTINUOUS
 10
397.5315238095
 20
372.6938571429
 11
415.0318520286
 21
372.6938064842
  0
LINE
  5
2E2
100
AcDbEntity
  8
0
100
AcDbLine
 62
7
  6
CONTINUOUS
 10
397.5315238095
 20
373.2938571429
 11
414.0315238095
 21
373.2938571429
  0
LINE
  5
2E3
100
AcDbEntity
  8
0
100
AcDbLine
 62
7
  6
CONTINUOUS
 10
397.5315238095
 20
373.7938571429
 11
412.5315238095
 21
373.7938571429
  0
LINE
  5
2E4
100
AcDbEntity
  8
0
100
AcDbLine
 62
7
  6
CONTINUOUS
 10
397.5315238095
 20
374.1938571429
 11
409.1394767029
 21
374.1938571429
  0
LINE
  5
2E5
100
AcDbEntity
  8
0
100
AcDbLine
 62
7
  6
CONTINUOUS
 10
397.5315238095
 20
376.1938571429
 11
402.7807184738
 21
376.1938571429
  0
LINE
  5
2E6
100
AcDbEntity
  8
0
100
AcDbLine
 62
7
  6
CONTINUOUS
 10
399.3315238095
 20
376.6938571429
 11
397.5315238095
 21
376.6938571429
  0
LINE
  5
2E7
100
AcDbEntity
  8
0
100
AcDbLine
 62
7
  6
CONTINUOUS
 10
399.3315238095
 20
380.6938571429
 11
397.5315238095
 21
380.6938571429
  0
LINE
  5
2E8
100
AcDbEntity
  8
0
100
AcDbLine
 62
7
  6
CONTINUOUS
 10
397.5315238095
 20
381.1938571429
 11
402.9771694738
 21
381.1938571429
  0
LINE
  5
2E9
100
AcDbEntity
  8
0
100
AcDbLine
 62
7
  6
CONTINUOUS
 10
397.5315238095
 20
383.1938571429
 11
409.1394767029
 21
383.1938571429
  0
LINE
  5
2EA
100
AcDbEntity
  8
0
100
AcDbLine
 62
7
  6
CONTINUOUS
 10
412.5315238095
 20
383.5938571429
 11
397.5315238095
 21
383.5938571429
  0
LINE
  5
2EB
100
AcDbEntity
  8
0
100
AcDbLine
 62
7
  6
CONTINUOUS
 10
397.5315238095
 20
384.0938571429
 11
414.0315238095
 21
384.0938571429
  0
LINE
  5
2EC
100
AcDbEntity
  8
0
100
AcDbLine
 62
7
  6
CONTINUOUS
 10
402.7807184738
 20
363.589338286
 11
399.3315238095
 21
363.5904215466
  0
LINE
  5
2ED
100
AcDbEntity
  8
0
100
AcDbLine
 62
7
  6
CONTINUOUS
 10
397.5315238095
 20
384.6938571429
 11
415.0318520286
 21
384.6939078016
  0
LINE
  5
2EE
100
AcDbEntity
  8
0
100
AcDbLine
 62
7
  6
CONTINUOUS
 10
397.5315238095
 20
385.1938571429
 11
415.5315238095
 21
385.1938571429
  0
LINE
  5
2EF
100
AcDbEntity
  8
0
100
AcDbLine
 62
7
  6
CONTINUOUS
 10
415.5315238095
 20
398.5938571429
 11
397.5315238095
 21
398.5938571429
  0
LINE
  5
2F0
100
AcDbEntity
  8
0
100
AcDbLine
 62
7
  6
CONTINUOUS
 10
397.5315238095
 20
399.0938571429
 11
415.0318520286
 21
399.0938064842
  0
LINE
  5
2F1
100
AcDbEntity
  8
0
100
AcDbLine
 62
7
  6
CONTINUOUS
 10
397.5315238095
 20
399.6938571429
 11
414.0315238095
 21
399.6938571429
  0
LINE
  5
2F2
100
AcDbEntity
  8
0
100
AcDbLine
 62
7
  6
CONTINUOUS
 10
397.5315238095
 20
400.1938571429
 11
412.5315238095
 21
400.1938571429
  0
LINE
  5
2F3
100
AcDbEntity
  8
0
100
AcDbLine
 62
7
  6
CONTINUOUS
 10
397.5315238095
 20
400.5938571429
 11
409.1394767029
 21
400.5938571429
  0
LINE
  5
2F4
100
AcDbEntity
  8
0
100
AcDbLine
 62
7
  6
CONTINUOUS
 10
397.5315238095
 20
402.5938571429
 11
402.9771694738
 21
402.5938571429
  0
LINE
  5
2F5
100
AcDbEntity
  8
0
100
AcDbLine
 62
7
  6
CONTINUOUS
 10
399.3315238095
 20
403.0938571429
 11
397.5315238095
 21
403.0938571429
  0
LINE
  5
2F6
100
AcDbEntity
  8
0
100
AcDbLine
 62
7
  6
CONTINUOUS
 10
399.3315238095
 20
407.0938571429
 11
397.5315238095
 21
407.0938571429
  0
LINE
  5
2F7
100
AcDbEntity
  8
0
100
AcDbLine
 62
7
  6
CONTINUOUS
 10
402.7807184738
 20
407.5938571429
 11
397.5315238095
 21
407.5938571429
  0
LINE
  5
2F8
100
AcDbEntity
  8
0
100
AcDbLine
 62
7
  6
CONTINUOUS
 10
397.5315238095
 20
409.5938571429
 11
409.1394767029
 21
409.5938571429
  0
LINE
  5
2F9
100
AcDbEntity
  8
0
100
AcDbLine
 62
7
  6
CONTINUOUS
 10
412.5315238095
 20
409.9938571429
 11
397.5315238095
 21
409.9938571429
  0
LINE
  5
2FA
100
AcDbEntity
  8
0
100
AcDbLine
 62
7
  6
CONTINUOUS
 10
397.5315238095
 20
410.4938571429
 11
414.0315238095
 21
410.4938571429
  0
LINE
  5
2FB
100
AcDbEntity
  8
0
100
AcDbLine
 62
7
  6
CONTINUOUS
 10
415.0318520286
 20
411.0938571429
 11
397.5315238095
 21
411.0938571429
  0
LINE
  5
2FC
100
AcDbEntity
  8
0
100
AcDbLine
 62
7
  6
CONTINUOUS
 10
397.5315238095
 20
411.5938571429
 11
415.5315238095
 21
411.5938571429
  0
LINE
  5
2FD
100
AcDbEntity
  8
0
100
AcDbLine
 62
7
  6
CONTINUOUS
 10
415.5315238095
 20
416.1938571429
 11
397.5315238095
 21
416.1938571429
  0
LINE
  5
2FE
100
AcDbEntity
  8
0
100
AcDbLine
 62
7
  6
CONTINUOUS
 10
397.5315238095
 20
416.6938571429
 11
415.0318520286
 21
416.6938571429
  0
LINE
  5
2FF
100
AcDbEntity
  8
0
100
AcDbLine
 62
7
  6
CONTINUOUS
 10
397.5315238095
 20
417.2938571429
 11
414.0315238095
 21
417.2938571429
  0
LINE
  5
300
100
AcDbEntity
  8
0
100
AcDbLine
 62
7
  6
CONTINUOUS
 10
397.5315238095
 20
417.7938571429
 11
412.5315238095
 21
417.7938571429
  0
LINE
  5
301
100
AcDbEntity
  8
0
100
AcDbLine
 62
7
  6
CONTINUOUS
 10
397.5315238095
 20
418.1938571429
 11
409.1394767029
 21
418.1938571429
  0
LINE
  5
302
100
AcDbEntity
  8
0
100
AcDbLine
 62
7
  6
CONTINUOUS
 10
397.5315238095
 20
420.1938571429
 11
402.7807184738
 21
420.1938571429
  0
LINE
  5
303
100
AcDbEntity
  8
0
100
AcDbLine
 62
7
  6
CONTINUOUS
 10
399.3315238095
 20
420.6938571429
 11
397.5315238095
 21
420.6938571429
  0
LINE
  5
304
100
AcDbEntity
  8
0
100
AcDbLine
 62
7
  6
CONTINUOUS
 10
399.3315238095
 20
424.6938571429
 11
397.5315238095
 21
424.6938571429
  0
LINE
  5
305
100
AcDbEntity
  8
0
100
AcDbLine
 62
7
  6
CONTINUOUS
 10
399.3315238095
 20
425.1938571429
 11
397.5315238095
 21
425.1938571429
  0
LINE
  5
306
100
AcDbEntity
  8
0
100
AcDbLine
 62
7
  6
CONTINUOUS
 10
397.5315238095
 20
427.1938571429
 11
409.1394767029
 21
427.1938571429
  0
LINE
  5
307
100
AcDbEntity
  8
0
100
AcDbLine
 62
7
  6
CONTINUOUS
 10
412.5315238095
 20
427.5938571429
 11
397.5315238095
 21
427.5938571429
  0
LINE
  5
308
100
AcDbEntity
  8
0
100
AcDbLine
 62
7
  6
CONTINUOUS
 10
397.5315238095
 20
428.0938571429
 11
414.0315238095
 21
428.0938571429
  0
LINE
  5
309
100
AcDbEntity
  8
0
100
AcDbLine
 62
7
  6
CONTINUOUS
 10
397.5315238095
 20
428.6938571429
 11
415.0318520286
 21
428.6939078016
  0
LINE
  5
30A
100
AcDbEntity
  8
0
100
AcDbLine
 62
7
  6
CONTINUOUS
 10
397.5315238095
 20
429.1938571429
 11
415.5315238095
 21
429.1938571429
  0
LINE
  5
30B
100
AcDbEntity
  8
0
100
AcDbLine
 62
7
  6
CONTINUOUS
 10
415.5315238095
 20
433.7938571429
 11
397.5315238095
 21
433.7938571429
  0
LINE
  5
30C
100
AcDbEntity
  8
0
100
AcDbLine
 62
7
  6
CONTINUOUS
 10
397.5315238095
 20
434.2938571429
 11
415.0318520286
 21
434.2938064842
  0
LINE
  5
30D
100
AcDbEntity
  8
0
100
AcDbLine
 62
7
  6
CONTINUOUS
 10
397.5315238095
 20
434.8938571429
 11
414.0315238095
 21
434.8938571429
  0
LINE
  5
30E
100
AcDbEntity
  8
0
100
AcDbLine
 62
7
  6
CONTINUOUS
 10
397.5315238095
 20
435.3938571429
 11
412.5315238095
 21
435.3938571429
  0
LINE
  5
30F
100
AcDbEntity
  8
0
100
AcDbLine
 62
7
  6
CONTINUOUS
 10
397.5315238095
 20
435.7938571429
 11
409.1394767029
 21
435.7938571429
  0
LINE
  5
310
100
AcDbEntity
  8
0
100
AcDbLine
 62
7
  6
CONTINUOUS
 10
397.5315238095
 20
437.7938571429
 11
402.7807184738
 21
437.7938571429
  0
LINE
  5
311
100
AcDbEntity
  8
0
100
AcDbLine
 62
7
  6
CONTINUOUS
 10
399.3315238095
 20
438.2938571429
 11
397.5315238095
 21
438.2938571429
  0
LINE
  5
312
100
AcDbEntity
  8
0
100
AcDbLine
 62
7
  6
CONTINUOUS
 10
399.3315238095
 20
442.2938571429
 11
397.5315238095
 21
442.2938571429
  0
LINE
  5
313
100
AcDbEntity
  8
0
100
AcDbLine
 62
7
  6
CONTINUOUS
 10
397.5315238095
 20
442.7938571429
 11
402.9771694738
 21
442.7938571429
  0
LINE
  5
314
100
AcDbEntity
  8
0
100
AcDbLine
 62
7
  6
CONTINUOUS
 10
397.5315238095
 20
444.7938571429
 11
409.1394767029
 21
444.7938571429
  0
LINE
  5
315
100
AcDbEntity
  8
0
100
AcDbLine
 62
7
  6
CONTINUOUS
 10
412.5315238095
 20
445.1938571429
 11
397.5315238095
 21
445.1938571429
  0
LINE
  5
316
100
AcDbEntity
  8
0
100
AcDbLine
 62
7
  6
CONTINUOUS
 10
397.5315238095
 20
445.6938571429
 11
414.0315238095
 21
445.6938571429
  0
LINE
  5
317
100
AcDbEntity
  8
0
100
AcDbLine
 62
7
  6
CONTINUOUS
 10
397.5315238095
 20
446.2938571429
 11
415.0318520286
 21
446.2939078016
  0
LINE
  5
318
100
AcDbEntity
  8
0
100
AcDbLine
 62
7
  6
CONTINUOUS
 10
397.5315238095
 20
446.7938571429
 11
415.5315238095
 21
446.7938571429
  0
LINE
  5
319
100
AcDbEntity
  8
0
100
AcDbLine
 62
7
  6
CONTINUOUS
 10
402.7807184738
 20
425.189338286
 11
399.3315238095
 21
425.1904215466
  0
LINE
  5
31A
100
AcDbEntity
  8
0
100
AcDbLine
 62
7
  6
CONTINUOUS
 10
415.5315238095
 20
460.1938571429
 11
397.5315238095
 21
460.1938571429
  0
LINE
  5
31B
100
AcDbEntity
  8
0
100
AcDbLine
 62
7
  6
CONTINUOUS
 10
397.5315238095
 20
460.6938571429
 11
415.0318520286
 21
460.6938064842
  0
LINE
  5
31C
100
AcDbEntity
  8
0
100
AcDbLine
 62
7
  6
CONTINUOUS
 10
397.5315238095
 20
461.2938571429
 11
414.0315238095
 21
461.2938571429
  0
LINE
  5
31D
100
AcDbEntity
  8
0
100
AcDbLine
 62
7
  6
CONTINUOUS
 10
397.5315238095
 20
461.7938571429
 11
412.5315238095
 21
461.7938571429
  0
LINE
  5
31E
100
AcDbEntity
  8
0
100
AcDbLine
 62
7
  6
CONTINUOUS
 10
397.5315238095
 20
462.1938571429
 11
409.1394767029
 21
462.1938571429
  0
LINE
  5
31F
100
AcDbEntity
  8
0
100
AcDbLine
 62
7
  6
CONTINUOUS
 10
397.5315238095
 20
464.1938571429
 11
402.9771694738
 21
464.1938571429
  0
LINE
  5
320
100
AcDbEntity
  8
0
100
AcDbLine
 62
7
  6
CONTINUOUS
 10
399.3315238095
 20
464.6938571429
 11
397.5315238095
 21
464.6938571429
  0
LINE
  5
321
100
AcDbEntity
  8
0
100
AcDbLine
 62
7
  6
CONTINUOUS
 10
399.3315238095
 20
468.6938571429
 11
397.5315238095
 21
468.6938571429
  0
LINE
  5
322
100
AcDbEntity
  8
0
100
AcDbLine
 62
7
  6
CONTINUOUS
 10
402.7807184738
 20
469.1938571429
 11
397.5315238095
 21
469.1938571429
  0
LINE
  5
323
100
AcDbEntity
  8
0
100
AcDbLine
 62
7
  6
CONTINUOUS
 10
397.5315238095
 20
471.1938571429
 11
409.1394767029
 21
471.1938571429
  0
LINE
  5
324
100
AcDbEntity
  8
0
100
AcDbLine
 62
7
  6
CONTINUOUS
 10
412.5315238095
 20
471.5938571429
 11
397.5315238095
 21
471.5938571429
  0
LINE
  5
325
100
AcDbEntity
  8
0
100
AcDbLine
 62
7
  6
CONTINUOUS
 10
397.5315238095
 20
472.0938571429
 11
414.0315238095
 21
472.0938571429
  0
LINE
  5
326
100
AcDbEntity
  8
0
100
AcDbLine
 62
7
  6
CONTINUOUS
 10
415.0318520286
 20
472.6938571429
 11
397.5315238095
 21
472.6938571429
  0
LINE
  5
327
100
AcDbEntity
  8
0
100
AcDbLine
 62
7
  6
CONTINUOUS
 10
397.5315238095
 20
473.1938571429
 11
415.5315238095
 21
473.1938571429
  0
LINE
  5
328
100
AcDbEntity
  8
0
100
AcDbLine
 62
7
  6
CONTINUOUS
 10
415.5315238095
 20
477.7938571429
 11
397.5315238095
 21
477.7938571429
  0
LINE
  5
329
100
AcDbEntity
  8
0
100
AcDbLine
 62
7
  6
CONTINUOUS
 10
397.5315238095
 20
478.2938571429
 11
415.0318520286
 21
478.2938571429
  0
LINE
  5
32A
100
AcDbEntity
  8
0
100
AcDbLine
 62
7
  6
CONTINUOUS
 10
397.5315238095
 20
478.8938571429
 11
414.0315238095
 21
478.8938571429
  0
LINE
  5
32B
100
AcDbEntity
  8
0
100
AcDbLine
 62
7
  6
CONTINUOUS
 10
397.5315238095
 20
479.3938571429
 11
412.5315238095
 21
479.3938571429
  0
LINE
  5
32C
100
AcDbEntity
  8
0
100
AcDbLine
 62
7
  6
CONTINUOUS
 10
397.5315238095
 20
479.7938571429
 11
409.1394767029
 21
479.7938571429
  0
LINE
  5
32D
100
AcDbEntity
  8
0
100
AcDbLine
 62
7
  6
CONTINUOUS
 10
397.5315238095
 20
481.7938571429
 11
402.7807184738
 21
481.7938571429
  0
LINE
  5
32E
100
AcDbEntity
  8
0
100
AcDbLine
 62
7
  6
CONTINUOUS
 10
399.3315238095
 20
482.2938571429
 11
397.5315238095
 21
482.2938571429
  0
LINE
  5
32F
100
AcDbEntity
  8
0
100
AcDbLine
 62
7
  6
CONTINUOUS
 10
399.3315238095
 20
486.2938571429
 11
397.5315238095
 21
486.2938571429
  0
LINE
  5
330
100
AcDbEntity
  8
0
100
AcDbLine
 62
7
  6
CONTINUOUS
 10
399.3315238095
 20
486.7938571429
 11
397.5315238095
 21
486.7938571429
  0
LINE
  5
331
100
AcDbEntity
  8
0
100
AcDbLine
 62
7
  6
CONTINUOUS
 10
397.5315238095
 20
488.7938571429
 11
409.1394767029
 21
488.7938571429
  0
LINE
  5
332
100
AcDbEntity
  8
0
100
AcDbLine
 62
7
  6
CONTINUOUS
 10
412.5315238095
 20
489.1938571429
 11
397.5315238095
 21
489.1938571429
  0
LINE
  5
333
100
AcDbEntity
  8
0
100
AcDbLine
 62
7
  6
CONTINUOUS
 10
397.5315238095
 20
489.6938571429
 11
414.0315238095
 21
489.6938571429
  0
LINE
  5
334
100
AcDbEntity
  8
0
100
AcDbLine
 62
7
  6
CONTINUOUS
 10
397.5315238095
 20
490.2938571429
 11
415.0318520286
 21
490.2939078016
  0
LINE
  5
335
100
AcDbEntity
  8
0
100
AcDbLine
 62
7
  6
CONTINUOUS
 10
397.5315238095
 20
490.7938571429
 11
415.5315238095
 21
490.7938571429
  0
LINE
  5
336
100
AcDbEntity
  8
0
100
AcDbLine
 62
7
  6
CONTINUOUS
 10
415.5315238095
 20
495.3938571429
 11
397.5315238095
 21
495.3938571429
  0
LINE
  5
337
100
AcDbEntity
  8
0
100
AcDbLine
 62
7
  6
CONTINUOUS
 10
397.5315238095
 20
495.8938571429
 11
415.0318520286
 21
495.8938064842
  0
LINE
  5
338
100
AcDbEntity
  8
0
100
AcDbLine
 62
7
  6
CONTINUOUS
 10
397.5315238095
 20
496.4938571429
 11
414.0315238095
 21
496.4938571429
  0
LINE
  5
339
100
AcDbEntity
  8
0
100
AcDbLine
 62
7
  6
CONTINUOUS
 10
397.5315238095
 20
496.9938571429
 11
412.5315238095
 21
496.9938571429
  0
LINE
  5
33A
100
AcDbEntity
  8
0
100
AcDbLine
 62
7
  6
CONTINUOUS
 10
397.5315238095
 20
497.3938571429
 11
409.1394767029
 21
497.3938571429
  0
LINE
  5
33B
100
AcDbEntity
  8
0
100
AcDbLine
 62
7
  6
CONTINUOUS
 10
397.5315238095
 20
499.3938571429
 11
402.7807184738
 21
499.3938571429
  0
LINE
  5
33C
100
AcDbEntity
  8
0
100
AcDbLine
 62
7
  6
CONTINUOUS
 10
399.3315238095
 20
499.8938571429
 11
397.5315238095
 21
499.8938571429
  0
LINE
  5
33D
100
AcDbEntity
  8
0
100
AcDbLine
 62
7
  6
CONTINUOUS
 10
399.3315238095
 20
503.8938571429
 11
397.5315238095
 21
503.8938571429
  0
LINE
  5
33E
100
AcDbEntity
  8
0
100
AcDbLine
 62
7
  6
CONTINUOUS
 10
397.5315238095
 20
504.3938571429
 11
402.9771694738
 21
504.3938571429
  0
LINE
  5
33F
100
AcDbEntity
  8
0
100
AcDbLine
 62
7
  6
CONTINUOUS
 10
397.5315238095
 20
506.3938571429
 11
409.1394767029
 21
506.3938571429
  0
LINE
  5
340
100
AcDbEntity
  8
0
100
AcDbLine
 62
7
  6
CONTINUOUS
 10
412.5315238095
 20
506.7938571429
 11
397.5315238095
 21
506.7938571429
  0
LINE
  5
341
100
AcDbEntity
  8
0
100
AcDbLine
 62
7
  6
CONTINUOUS
 10
397.5315238095
 20
507.2938571429
 11
414.0315238095
 21
507.2938571429
  0
LINE
  5
342
100
AcDbEntity
  8
0
100
AcDbLine
 62
7
  6
CONTINUOUS
 10
397.5315238095
 20
507.8938571429
 11
415.0318520286
 21
507.8939078016
  0
LINE
  5
343
100
AcDbEntity
  8
0
100
AcDbLine
 62
7
  6
CONTINUOUS
 10
397.5315238095
 20
508.3938571429
 11
415.5315238095
 21
508.3938571429
  0
LINE
  5
344
100
AcDbEntity
  8
0
100
AcDbLine
 62
7
  6
CONTINUOUS
 10
402.7807184738
 20
486.789338286
 11
399.3315238095
 21
486.7904215466
  0
LINE
  5
345
100
AcDbEntity
  8
0
100
AcDbLine
 62
7
  6
CONTINUOUS
 10
415.5315238095
 20
521.7938571429
 11
397.5315238095
 21
521.7938571429
  0
LINE
  5
346
100
AcDbEntity
  8
0
100
AcDbLine
 62
7
  6
CONTINUOUS
 10
397.5315238095
 20
522.2938571429
 11
415.0318520286
 21
522.2938064842
  0
LINE
  5
347
100
AcDbEntity
  8
0
100
AcDbLine
 62
7
  6
CONTINUOUS
 10
397.5315238095
 20
522.8938571429
 11
414.0315238095
 21
522.8938571429
  0
LINE
  5
348
100
AcDbEntity
  8
0
100
AcDbLine
 62
7
  6
CONTINUOUS
 10
397.5315238095
 20
523.3938571429
 11
412.5315238095
 21
523.3938571429
  0
LINE
  5
349
100
AcDbEntity
  8
0
100
AcDbLine
 62
7
  6
CONTINUOUS
 10
397.5315238095
 20
523.7938571429
 11
409.1394767029
 21
523.7938571429
  0
LINE
  5
34A
100
AcDbEntity
  8
0
100
AcDbLine
 62
7
  6
CONTINUOUS
 10
397.5315238095
 20
525.7938571429
 11
402.9771694738
 21
525.7938571429
  0
LINE
  5
34B
100
AcDbEntity
  8
0
100
AcDbLine
 62
7
  6
CONTINUOUS
 10
399.3315238095
 20
526.2938571429
 11
397.5315238095
 21
526.2938571429
  0
LINE
  5
34C
100
AcDbEntity
  8
0
100
AcDbLine
 62
7
  6
CONTINUOUS
 10
399.3315238095
 20
530.2938571429
 11
397.5315238095
 21
530.2938571429
  0
LINE
  5
34D
100
AcDbEntity
  8
0
100
AcDbLine
 62
7
  6
CONTINUOUS
 10
402.7807184738
 20
530.7938571429
 11
397.5315238095
 21
530.7938571429
  0
LINE
  5
34E
100
AcDbEntity
  8
0
100
AcDbLine
 62
7
  6
CONTINUOUS
 10
397.5315238095
 20
532.7938571429
 11
409.1394767029
 21
532.7938571429
  0
LINE
  5
34F
100
AcDbEntity
  8
0
100
AcDbLine
 62
7
  6
CONTINUOUS
 10
412.5315238095
 20
533.1938571429
 11
397.5315238095
 21
533.1938571429
  0
LINE
  5
350
100
AcDbEntity
  8
0
100
AcDbLine
 62
7
  6
CONTINUOUS
 10
397.5315238095
 20
533.6938571429
 11
414.0315238095
 21
533.6938571429
  0
LINE
  5
351
100
AcDbEntity
  8
0
100
AcDbLine
 62
7
  6
CONTINUOUS
 10
415.0318520286
 20
534.2938571429
 11
397.5315238095
 21
534.2938571429
  0
LINE
  5
352
100
AcDbEntity
  8
0
100
AcDbLine
 62
7
  6
CONTINUOUS
 10
397.5315238095
 20
534.7938571429
 11
415.5315238095
 21
534.7938571429
  0
LINE
  5
353
100
AcDbEntity
  8
0
100
AcDbLine
 62
7
  6
CONTINUOUS
 10
415.5315238095
 20
539.3938571429
 11
397.5315238095
 21
539.3938571429
  0
LINE
  5
354
100
AcDbEntity
  8
0
100
AcDbLine
 62
7
  6
CONTINUOUS
 10
397.5315238095
 20
539.8938571429
 11
415.0318520286
 21
539.8938571429
  0
LINE
  5
355
100
AcDbEntity
  8
0
100
AcDbLine
 62
7
  6
CONTINUOUS
 10
397.5315238095
 20
540.4938571429
 11
414.0315238095
 21
540.4938571429
  0
LINE
  5
356
100
AcDbEntity
  8
0
100
AcDbLine
 62
7
  6
CONTINUOUS
 10
397.5315238095
 20
540.9938571429
 11
412.5315238095
 21
540.9938571429
  0
LINE
  5
357
100
AcDbEntity
  8
0
100
AcDbLine
 62
7
  6
CONTINUOUS
 10
397.5315238095
 20
541.3938571429
 11
409.1394767029
 21
541.3938571429
  0
LINE
  5
358
100
AcDbEntity
  8
0
100
AcDbLine
 62
7
  6
CONTINUOUS
 10
397.5315238095
 20
543.3938571429
 11
402.7807184738
 21
543.3938571429
  0
LINE
  5
359
100
AcDbEntity
  8
0
100
AcDbLine
 62
7
  6
CONTINUOUS
 10
399.3315238095
 20
543.8938571429
 11
397.5315238095
 21
543.8938571429
  0
LINE
  5
35A
100
AcDbEntity
  8
0
100
AcDbLine
 62
7
  6
CONTINUOUS
 10
399.3315238095
 20
547.8938571429
 11
397.5315238095
 21
547.8938571429
  0
LINE
  5
35B
100
AcDbEntity
  8
0
100
AcDbLine
 62
7
  6
CONTINUOUS
 10
397.5315238095
 20
84.9938571429
 11
397.5315238095
 21
1068.3938571429
  0
LINE
  5
35C
100
AcDbEntity
  8
0
100
AcDbLine
 62
7
  6
CONTINUOUS
 10
397.8315238095
 20
1068.3938571429
 11
397.8315238095
 21
1062.7938571429
  0
LINE
  5
35D
100
AcDbEntity
  8
0
100
AcDbLine
 62
7
  6
CONTINUOUS
 10
397.8315238095
 20
1049.7938571429
 11
397.8315238095
 21
1045.1938571429
  0
LINE
  5
35E
100
AcDbEntity
  8
0
100
AcDbLine
 62
7
  6
CONTINUOUS
 10
397.8315238095
 20
1032.1938571429
 11
397.8315238095
 21
1027.5938571429
  0
LINE
  5
35F
100
AcDbEntity
  8
0
100
AcDbLine
 62
7
  6
CONTINUOUS
 10
397.8315238095
 20
1014.5938571429
 11
397.8315238095
 21
1001.1938571429
  0
LINE
  5
360
100
AcDbEntity
  8
0
100
AcDbLine
 62
7
  6
CONTINUOUS
 10
397.8315238095
 20
988.1938571429
 11
397.8315238095
 21
983.5938571429
  0
LINE
  5
361
100
AcDbEntity
  8
0
100
AcDbLine
 62
7
  6
CONTINUOUS
 10
397.8315238095
 20
970.5938571429
 11
397.8315238095
 21
965.9938571429
  0
LINE
  5
362
100
AcDbEntity
  8
0
100
AcDbLine
 62
7
  6
CONTINUOUS
 10
397.8315238095
 20
952.9938571429
 11
397.8315238095
 21
939.5938571429
  0
LINE
  5
363
100
AcDbEntity
  8
0
100
AcDbLine
 62
7
  6
CONTINUOUS
 10
397.8315238095
 20
926.5938571429
 11
397.8315238095
 21
921.9938571429
  0
LINE
  5
364
100
AcDbEntity
  8
0
100
AcDbLine
 62
7
  6
CONTINUOUS
 10
397.8315238095
 20
908.9938571429
 11
397.8315238095
 21
904.3938571429
  0
LINE
  5
365
100
AcDbEntity
  8
0
100
AcDbLine
 62
7
  6
CONTINUOUS
 10
397.8315238095
 20
891.3938571429
 11
397.8315238095
 21
877.9938571429
  0
LINE
  5
366
100
AcDbEntity
  8
0
100
AcDbLine
 62
7
  6
CONTINUOUS
 10
397.8315238095
 20
864.9938571429
 11
397.8315238095
 21
860.3938571429
  0
LINE
  5
367
100
AcDbEntity
  8
0
100
AcDbLine
 62
7
  6
CONTINUOUS
 10
397.8315238095
 20
847.3938571429
 11
397.8315238095
 21
842.7938571429
  0
LINE
  5
368
100
AcDbEntity
  8
0
100
AcDbLine
 62
7
  6
CONTINUOUS
 10
397.8315238095
 20
829.7938571429
 11
397.8315238095
 21
816.3938571429
  0
LINE
  5
369
100
AcDbEntity
  8
0
100
AcDbLine
 62
7
  6
CONTINUOUS
 10
397.8315238095
 20
803.3938571429
 11
397.8315238095
 21
798.7938571429
  0
LINE
  5
36A
100
AcDbEntity
  8
0
100
AcDbLine
 62
7
  6
CONTINUOUS
 10
397.8315238095
 20
785.7938571429
 11
397.8315238095
 21
781.1938571429
  0
LINE
  5
36B
100
AcDbEntity
  8
0
100
AcDbLine
 62
7
  6
CONTINUOUS
 10
397.8315238095
 20
768.1938571429
 11
397.8315238095
 21
754.7938571429
  0
LINE
  5
36C
100
AcDbEntity
  8
0
100
AcDbLine
 62
7
  6
CONTINUOUS
 10
397.8315238095
 20
741.7938571429
 11
397.8315238095
 21
737.1938571429
  0
LINE
  5
36D
100
AcDbEntity
  8
0
100
AcDbLine
 62
7
  6
CONTINUOUS
 10
397.8315238095
 20
724.1938571429
 11
397.8315238095
 21
719.5938571429
  0
LINE
  5
36E
100
AcDbEntity
  8
0
100
AcDbLine
 62
7
  6
CONTINUOUS
 10
397.8315238095
 20
706.5938571429
 11
397.8315238095
 21
693.1938571429
  0
LINE
  5
36F
100
AcDbEntity
  8
0
100
AcDbLine
 62
7
  6
CONTINUOUS
 10
397.8315238095
 20
680.1938571429
 11
397.8315238095
 21
675.5938571429
  0
LINE
  5
370
100
AcDbEntity
  8
0
100
AcDbLine
 62
7
  6
CONTINUOUS
 10
397.8315238095
 20
662.5938571429
 11
397.8315238095
 21
657.9938571429
  0
LINE
  5
371
100
AcDbEntity
  8
0
100
AcDbLine
 62
7
  6
CONTINUOUS
 10
397.8315238095
 20
644.9938571429
 11
397.8315238095
 21
631.5938571429
  0
LINE
  5
372
100
AcDbEntity
  8
0
100
AcDbLine
 62
7
  6
CONTINUOUS
 10
397.8315238095
 20
618.5938571429
 11
397.8315238095
 21
613.9938571429
  0
LINE
  5
373
100
AcDbEntity
  8
0
100
AcDbLine
 62
7
  6
CONTINUOUS
 10
397.8315238095
 20
600.9938571429
 11
397.8315238095
 21
596.3938571429
  0
LINE
  5
374
100
AcDbEntity
  8
0
100
AcDbLine
 62
7
  6
CONTINUOUS
 10
397.8315238095
 20
583.3938571429
 11
397.8315238095
 21
569.9938571429
  0
LINE
  5
375
100
AcDbEntity
  8
0
100
AcDbLine
 62
7
  6
CONTINUOUS
 10
397.8315238095
 20
556.9938571429
 11
397.8315238095
 21
552.3938571429
  0
LINE
  5
376
100
AcDbEntity
  8
0
100
AcDbLine
 62
7
  6
CONTINUOUS
 10
397.8315238095
 20
539.3938571429
 11
397.8315238095
 21
534.7938571429
  0
LINE
  5
377
100
AcDbEntity
  8
0
100
AcDbLine
 62
7
  6
CONTINUOUS
 10
397.8315238095
 20
521.7938571429
 11
397.8315238095
 21
508.3938571429
  0
LINE
  5
378
100
AcDbEntity
  8
0
100
AcDbLine
 62
7
  6
CONTINUOUS
 10
397.8315238095
 20
495.3938571429
 11
397.8315238095
 21
490.7938571429
  0
LINE
  5
379
100
AcDbEntity
  8
0
100
AcDbLine
 62
7
  6
CONTINUOUS
 10
397.8315238095
 20
477.7938571429
 11
397.8315238095
 21
473.1938571429
  0
LINE
  5
37A
100
AcDbEntity
  8
0
100
AcDbLine
 62
7
  6
CONTINUOUS
 10
397.8315238095
 20
460.1938571429
 11
397.8315238095
 21
446.7938571429
  0
LINE
  5
37B
100
AcDbEntity
  8
0
100
AcDbLine
 62
7
  6
CONTINUOUS
 10
397.8315238095
 20
433.7938571429
 11
397.8315238095
 21
429.1938571429
  0
LINE
  5
37C
100
AcDbEntity
  8
0
100
AcDbLine
 62
7
  6
CONTINUOUS
 10
397.8315238095
 20
416.1938571429
 11
397.8315238095
 21
411.5938571429
  0
LINE
  5
37D
100
AcDbEntity
  8
0
100
AcDbLine
 62
7
  6
CONTINUOUS
 10
397.8315238095
 20
398.5938571429
 11
397.8315238095
 21
385.1938571429
  0
LINE
  5
37E
100
AcDbEntity
  8
0
100
AcDbLine
 62
7
  6
CONTINUOUS
 10
397.8315238095
 20
372.1938571429
 11
397.8315238095
 21
367.5938571429
  0
LINE
  5
37F
100
AcDbEntity
  8
0
100
AcDbLine
 62
7
  6
CONTINUOUS
 10
397.8315238095
 20
354.5938571429
 11
397.8315238095
 21
349.9938571429
  0
LINE
  5
380
100
AcDbEntity
  8
0
100
AcDbLine
 62
7
  6
CONTINUOUS
 10
397.8315238095
 20
336.9938571429
 11
397.8315238095
 21
323.5938571429
  0
LINE
  5
381
100
AcDbEntity
  8
0
100
AcDbLine
 62
7
  6
CONTINUOUS
 10
397.8315238095
 20
310.5938571429
 11
397.8315238095
 21
305.9938571429
  0
LINE
  5
382
100
AcDbEntity
  8
0
100
AcDbLine
 62
7
  6
CONTINUOUS
 10
397.8315238095
 20
292.9938571429
 11
397.8315238095
 21
288.3938571429
  0
LINE
  5
383
100
AcDbEntity
  8
0
100
AcDbLine
 62
7
  6
CONTINUOUS
 10
397.8315238095
 20
275.3938571429
 11
397.8315238095
 21
261.9938571429
  0
LINE
  5
384
100
AcDbEntity
  8
0
100
AcDbLine
 62
7
  6
CONTINUOUS
 10
397.8315238095
 20
248.9938571429
 11
397.8315238095
 21
244.3938571429
  0
LINE
  5
385
100
AcDbEntity
  8
0
100
AcDbLine
 62
7
  6
CONTINUOUS
 10
397.8315238095
 20
231.3938571429
 11
397.8315238095
 21
226.7938571429
  0
LINE
  5
386
100
AcDbEntity
  8
0
100
AcDbLine
 62
7
  6
CONTINUOUS
 10
397.8315238095
 20
213.7938571429
 11
397.8315238095
 21
200.3938571429
  0
LINE
  5
387
100
AcDbEntity
  8
0
100
AcDbLine
 62
7
  6
CONTINUOUS
 10
397.8315238095
 20
187.3938571429
 11
397.8315238095
 21
182.7938571429
  0
LINE
  5
388
100
AcDbEntity
  8
0
100
AcDbLine
 62
7
  6
CONTINUOUS
 10
397.8315238095
 20
169.7938571429
 11
397.8315238095
 21
165.1938571429
  0
LINE
  5
389
100
AcDbEntity
  8
0
100
AcDbLine
 62
7
  6
CONTINUOUS
 10
397.8315238095
 20
152.1938571429
 11
397.8315238095
 21
138.7938571429
  0
LINE
  5
38A
100
AcDbEntity
  8
0
100
AcDbLine
 62
7
  6
CONTINUOUS
 10
397.8315238095
 20
125.7938571429
 11
397.8315238095
 21
121.1938571429
  0
LINE
  5
38B
100
AcDbEntity
  8
0
100
AcDbLine
 62
7
  6
CONTINUOUS
 10
397.8315238095
 20
108.1938571429
 11
397.8315238095
 21
103.5938571429
  0
LINE
  5
38C
100
AcDbEntity
  8
0
100
AcDbLine
 62
7
  6
CONTINUOUS
 10
397.8315238095
 20
90.5938571429
 11
397.8315238095
 21
84.9938571429
  0
LINE
  5
38D
100
AcDbEntity
  8
0
100
AcDbLine
 62
7
  6
CONTINUOUS
 10
399.3315238095
 20
94.5938571429
 11
399.3315238095
 21
99.5938571429
  0
LINE
  5
38E
100
AcDbEntity
  8
0
100
AcDbLine
 62
7
  6
CONTINUOUS
 10
399.3315238095
 20
112.1938571429
 11
399.3315238095
 21
117.1938571429
  0
LINE
  5
38F
100
AcDbEntity
  8
0
100
AcDbLine
 62
7
  6
CONTINUOUS
 10
399.3315238095
 20
129.7938571429
 11
399.3315238095
 21
134.7938571429
  0
LINE
  5
390
100
AcDbEntity
  8
0
100
AcDbLine
 62
7
  6
CONTINUOUS
 10
399.3315238095
 20
156.1938571429
 11
399.3315238095
 21
161.1938571429
  0
LINE
  5
391
100
AcDbEntity
  8
0
100
AcDbLine
 62
7
  6
CONTINUOUS
 10
399.3315238095
 20
173.7938571429
 11
399.3315238095
 21
178.7938571429
  0
LINE
  5
392
100
AcDbEntity
  8
0
100
AcDbLine
 62
7
  6
CONTINUOUS
 10
399.3315238095
 20
191.3938571429
 11
399.3315238095
 21
196.3938571429
  0
LINE
  5
393
100
AcDbEntity
  8
0
100
AcDbLine
 62
7
  6
CONTINUOUS
 10
399.3315238095
 20
217.7938571429
 11
399.3315238095
 21
222.7938571429
  0
LINE
  5
394
100
AcDbEntity
  8
0
100
AcDbLine
 62
7
  6
CONTINUOUS
 10
399.3315238095
 20
235.3938571429
 11
399.3315238095
 21
240.3938571429
  0
LINE
  5
395
100
AcDbEntity
  8
0
100
AcDbLine
 62
7
  6
CONTINUOUS
 10
399.3315238095
 20
252.9938571429
 11
399.3315238095
 21
257.9938571429
  0
LINE
  5
396
100
AcDbEntity
  8
0
100
AcDbLine
 62
7
  6
CONTINUOUS
 10
399.3315238095
 20
279.3938571429
 11
399.3315238095
 21
284.3938571429
  0
LINE
  5
397
100
AcDbEntity
  8
0
100
AcDbLine
 62
7
  6
CONTINUOUS
 10
399.3315238095
 20
296.9938571429
 11
399.3315238095
 21
301.9938571429
  0
LINE
  5
398
100
AcDbEntity
  8
0
100
AcDbLine
 62
7
  6
CONTINUOUS
 10
399.3315238095
 20
314.5938571429
 11
399.3315238095
 21
319.5938571429
  0
LINE
  5
399
100
AcDbEntity
  8
0
100
AcDbLine
 62
7
  6
CONTINUOUS
 10
399.3315238095
 20
340.9938571429
 11
399.3315238095
 21
345.9938571429
  0
LINE
  5
39A
100
AcDbEntity
  8
0
100
AcDbLine
 62
7
  6
CONTINUOUS
 10
399.3315238095
 20
358.5938571429
 11
399.3315238095
 21
363.5938571429
  0
LINE
  5
39B
100
AcDbEntity
  8
0
100
AcDbLine
 62
7
  6
CONTINUOUS
 10
399.3315238095
 20
376.1938571429
 11
399.3315238095
 21
381.1938571429
  0
LINE
  5
39C
100
AcDbEntity
  8
0
100
AcDbLine
 62
7
  6
CONTINUOUS
 10
399.3315238095
 20
402.5938571429
 11
399.3315238095
 21
407.5938571429
  0
LINE
  5
39D
100
AcDbEntity
  8
0
100
AcDbLine
 62
7
  6
CONTINUOUS
 10
399.3315238095
 20
420.1938571429
 11
399.3315238095
 21
425.1938571429
  0
LINE
  5
39E
100
AcDbEntity
  8
0
100
AcDbLine
 62
7
  6
CONTINUOUS
 10
399.3315238095
 20
437.7938571429
 11
399.3315238095
 21
442.7938571429
  0
LINE
  5
39F
100
AcDbEntity
  8
0
100
AcDbLine
 62
7
  6
CONTINUOUS
 10
399.3315238095
 20
464.1938571429
 11
399.3315238095
 21
469.1938571429
  0
LINE
  5
3A0
100
AcDbEntity
  8
0
100
AcDbLine
 62
7
  6
CONTINUOUS
 10
399.3315238095
 20
481.7938571429
 11
399.3315238095
 21
486.7938571429
  0
LINE
  5
3A1
100
AcDbEntity
  8
0
100
AcDbLine
 62
7
  6
CONTINUOUS
 10
399.3315238095
 20
499.3938571429
 11
399.3315238095
 21
504.3938571429
  0
LINE
  5
3A2
100
AcDbEntity
  8
0
100
AcDbLine
 62
7
  6
CONTINUOUS
 10
399.3315238095
 20
525.7938571429
 11
399.3315238095
 21
530.7938571429
  0
LINE
  5
3A3
100
AcDbEntity
  8
0
100
AcDbLine
 62
7
  6
CONTINUOUS
 10
399.3315238095
 20
543.3938571429
 11
399.3315238095
 21
548.3938571429
  0
LINE
  5
3A4
100
AcDbEntity
  8
0
100
AcDbLine
 62
7
  6
CONTINUOUS
 10
399.3315238095
 20
560.9938571429
 11
399.3315238095
 21
565.9938571429
  0
LINE
  5
3A5
100
AcDbEntity
  8
0
100
AcDbLine
 62
7
  6
CONTINUOUS
 10
399.3315238095
 20
587.3938571429
 11
399.3315238095
 21
592.3938571429
  0
LINE
  5
3A6
100
AcDbEntity
  8
0
100
AcDbLine
 62
7
  6
CONTINUOUS
 10
399.3315238095
 20
604.9938571429
 11
399.3315238095
 21
609.9938571429
  0
LINE
  5
3A7
100
AcDbEntity
  8
0
100
AcDbLine
 62
7
  6
CONTINUOUS
 10
399.3315238095
 20
622.5938571429
 11
399.3315238095
 21
627.5938571429
  0
LINE
  5
3A8
100
AcDbEntity
  8
0
100
AcDbLine
 62
7
  6
CONTINUOUS
 10
399.3315238095
 20
648.9938571429
 11
399.3315238095
 21
653.9938571429
  0
LINE
  5
3A9
100
AcDbEntity
  8
0
100
AcDbLine
 62
7
  6
CONTINUOUS
 10
399.3315238095
 20
666.5938571429
 11
399.3315238095
 21
671.5938571429
  0
LINE
  5
3AA
100
AcDbEntity
  8
0
100
AcDbLine
 62
7
  6
CONTINUOUS
 10
399.3315238095
 20
684.1938571429
 11
399.3315238095
 21
689.1938571429
  0
LINE
  5
3AB
100
AcDbEntity
  8
0
100
AcDbLine
 62
7
  6
CONTINUOUS
 10
399.3315238095
 20
710.5938571429
 11
399.3315238095
 21
715.5938571429
  0
LINE
  5
3AC
100
AcDbEntity
  8
0
100
AcDbLine
 62
7
  6
CONTINUOUS
 10
399.3315238095
 20
728.1938571429
 11
399.3315238095
 21
733.1938571429
  0
LINE
  5
3AD
100
AcDbEntity
  8
0
100
AcDbLine
 62
7
  6
CONTINUOUS
 10
399.3315238095
 20
745.7938571429
 11
399.3315238095
 21
750.7938571429
  0
LINE
  5
3AE
100
AcDbEntity
  8
0
100
AcDbLine
 62
7
  6
CONTINUOUS
 10
399.3315238095
 20
772.1938571429
 11
399.3315238095
 21
777.1938571429
  0
LINE
  5
3AF
100
AcDbEntity
  8
0
100
AcDbLine
 62
7
  6
CONTINUOUS
 10
399.3315238095
 20
789.7938571429
 11
399.3315238095
 21
794.7938571429
  0
LINE
  5
3B0
100
AcDbEntity
  8
0
100
AcDbLine
 62
7
  6
CONTINUOUS
 10
399.3315238095
 20
807.3938571429
 11
399.3315238095
 21
812.3938571429
  0
LINE
  5
3B1
100
AcDbEntity
  8
0
100
AcDbLine
 62
7
  6
CONTINUOUS
 10
399.3315238095
 20
833.7938571429
 11
399.3315238095
 21
838.7938571429
  0
LINE
  5
3B2
100
AcDbEntity
  8
0
100
AcDbLine
 62
7
  6
CONTINUOUS
 10
399.3315238095
 20
851.3938571429
 11
399.3315238095
 21
856.3938571429
  0
LINE
  5
3B3
100
AcDbEntity
  8
0
100
AcDbLine
 62
7
  6
CONTINUOUS
 10
399.3315238095
 20
868.9938571429
 11
399.3315238095
 21
873.9938571429
  0
LINE
  5
3B4
100
AcDbEntity
  8
0
100
AcDbLine
 62
7
  6
CONTINUOUS
 10
399.3315238095
 20
895.3938571429
 11
399.3315238095
 21
900.3938571429
  0
LINE
  5
3B5
100
AcDbEntity
  8
0
100
AcDbLine
 62
7
  6
CONTINUOUS
 10
399.3315238095
 20
912.9938571429
 11
399.3315238095
 21
917.9938571429
  0
LINE
  5
3B6
100
AcDbEntity
  8
0
100
AcDbLine
 62
7
  6
CONTINUOUS
 10
399.3315238095
 20
930.5938571429
 11
399.3315238095
 21
935.5938571429
  0
LINE
  5
3B7
100
AcDbEntity
  8
0
100
AcDbLine
 62
7
  6
CONTINUOUS
 10
399.3315238095
 20
956.9938571429
 11
399.3315238095
 21
961.9938571429
  0
LINE
  5
3B8
100
AcDbEntity
  8
0
100
AcDbLine
 62
7
  6
CONTINUOUS
 10
399.3315238095
 20
974.5938571429
 11
399.3315238095
 21
979.5938571429
  0
LINE
  5
3B9
100
AcDbEntity
  8
0
100
AcDbLine
 62
7
  6
CONTINUOUS
 10
399.3315238095
 20
992.1938571429
 11
399.3315238095
 21
997.1938571429
  0
LINE
  5
3BA
100
AcDbEntity
  8
0
100
AcDbLine
 62
7
  6
CONTINUOUS
 10
399.3315238095
 20
1018.5938571429
 11
399.3315238095
 21
1023.5938571429
  0
LINE
  5
3BB
100
AcDbEntity
  8
0
100
AcDbLine
 62
7
  6
CONTINUOUS
 10
399.3315238095
 20
1036.1938571429
 11
399.3315238095
 21
1041.1938571429
  0
LINE
  5
3BC
100
AcDbEntity
  8
0
100
AcDbLine
 62
7
  6
CONTINUOUS
 10
399.3315238095
 20
1053.7938571429
 11
399.3315238095
 21
1058.7938571429
  0
LINE
  5
3BD
100
AcDbEntity
  8
0
100
AcDbLine
 62
7
  6
CONTINUOUS
 10
399.9711591549
 20
1058.7938571429
 11
399.9711591549
 21
1053.7938571429
  0
LINE
  5
3BE
100
AcDbEntity
  8
0
100
AcDbLine
 62
7
  6
CONTINUOUS
 10
399.9711591549
 20
1041.1900050787
 11
399.9711591549
 21
1036.1938571429
  0
LINE
  5
3BF
100
AcDbEntity
  8
0
100
AcDbLine
 62
7
  6
CONTINUOUS
 10
399.9711591549
 20
1023.5938571429
 11
399.9711591549
 21
1018.5938571429
  0
LINE
  5
3C0
100
AcDbEntity
  8
0
100
AcDbLine
 62
7
  6
CONTINUOUS
 10
399.9711591549
 20
997.1938571429
 11
399.9711591549
 21
992.1938571429
  0
LINE
  5
3C1
100
AcDbEntity
  8
0
100
AcDbLine
 62
7
  6
CONTINUOUS
 10
399.9711591549
 20
979.5900050787
 11
399.9711591549
 21
974.5938571429
  0
LINE
  5
3C2
100
AcDbEntity
  8
0
100
AcDbLine
 62
7
  6
CONTINUOUS
 10
399.9711591549
 20
961.9938571429
 11
399.9711591549
 21
956.9938571429
  0
LINE
  5
3C3
100
AcDbEntity
  8
0
100
AcDbLine
 62
7
  6
CONTINUOUS
 10
399.9711591549
 20
935.5938571429
 11
399.9711591549
 21
930.5938571429
  0
LINE
  5
3C4
100
AcDbEntity
  8
0
100
AcDbLine
 62
7
  6
CONTINUOUS
 10
399.9711591549
 20
917.9900050787
 11
399.9711591549
 21
912.9938571429
  0
LINE
  5
3C5
100
AcDbEntity
  8
0
100
AcDbLine
 62
7
  6
CONTINUOUS
 10
399.9711591549
 20
900.3938571429
 11
399.9711591549
 21
895.3938571429
  0
LINE
  5
3C6
100
AcDbEntity
  8
0
100
AcDbLine
 62
7
  6
CONTINUOUS
 10
399.9711591549
 20
873.9938571429
 11
399.9711591549
 21
868.9938571429
  0
LINE
  5
3C7
100
AcDbEntity
  8
0
100
AcDbLine
 62
7
  6
CONTINUOUS
 10
399.9711591549
 20
856.3900050787
 11
399.9711591549
 21
851.3938571429
  0
LINE
  5
3C8
100
AcDbEntity
  8
0
100
AcDbLine
 62
7
  6
CONTINUOUS
 10
399.9711591549
 20
838.7938571429
 11
399.9711591549
 21
833.7938571429
  0
LINE
  5
3C9
100
AcDbEntity
  8
0
100
AcDbLine
 62
7
  6
CONTINUOUS
 10
399.9711591549
 20
812.3938571429
 11
399.9711591549
 21
807.3938571429
  0
LINE
  5
3CA
100
AcDbEntity
  8
0
100
AcDbLine
 62
7
  6
CONTINUOUS
 10
399.9711591549
 20
794.7900050787
 11
399.9711591549
 21
789.7938571429
  0
LINE
  5
3CB
100
AcDbEntity
  8
0
100
AcDbLine
 62
7
  6
CONTINUOUS
 10
399.9711591549
 20
777.1938571429
 11
399.9711591549
 21
772.1938571429
  0
LINE
  5
3CC
100
AcDbEntity
  8
0
100
AcDbLine
 62
7
  6
CONTINUOUS
 10
399.9711591549
 20
750.7938571429
 11
399.9711591549
 21
745.7938571429
  0
LINE
  5
3CD
100
AcDbEntity
  8
0
100
AcDbLine
 62
7
  6
CONTINUOUS
 10
399.9711591549
 20
733.1900050787
 11
399.9711591549
 21
728.1938571429
  0
LINE
  5
3CE
100
AcDbEntity
  8
0
100
AcDbLine
 62
7
  6
CONTINUOUS
 10
399.9711591549
 20
715.5938571429
 11
399.9711591549
 21
710.5938571429
  0
LINE
  5
3CF
100
AcDbEntity
  8
0
100
AcDbLine
 62
7
  6
CONTINUOUS
 10
399.9711591549
 20
689.1938571429
 11
399.9711591549
 21
684.1938571429
  0
LINE
  5
3D0
100
AcDbEntity
  8
0
100
AcDbLine
 62
7
  6
CONTINUOUS
 10
399.9711591549
 20
671.5900050787
 11
399.9711591549
 21
666.5938571429
  0
LINE
  5
3D1
100
AcDbEntity
  8
0
100
AcDbLine
 62
7
  6
CONTINUOUS
 10
399.9711591549
 20
653.9938571429
 11
399.9711591549
 21
648.9938571429
  0
LINE
  5
3D2
100
AcDbEntity
  8
0
100
AcDbLine
 62
7
  6
CONTINUOUS
 10
399.9711591549
 20
627.5938571429
 11
399.9711591549
 21
622.5938571429
  0
LINE
  5
3D3
100
AcDbEntity
  8
0
100
AcDbLine
 62
7
  6
CONTINUOUS
 10
399.9711591549
 20
609.9900050787
 11
399.9711591549
 21
604.9938571429
  0
LINE
  5
3D4
100
AcDbEntity
  8
0
100
AcDbLine
 62
7
  6
CONTINUOUS
 10
399.9711591549
 20
592.3938571429
 11
399.9711591549
 21
587.3938571429
  0
LINE
  5
3D5
100
AcDbEntity
  8
0
100
AcDbLine
 62
7
  6
CONTINUOUS
 10
399.9711591549
 20
565.9938571429
 11
399.9711591549
 21
560.9938571429
  0
LINE
  5
3D6
100
AcDbEntity
  8
0
100
AcDbLine
 62
7
  6
CONTINUOUS
 10
399.9711591549
 20
548.3900050787
 11
399.9711591549
 21
543.3938571429
  0
LINE
  5
3D7
100
AcDbEntity
  8
0
100
AcDbLine
 62
7
  6
CONTINUOUS
 10
399.9711591549
 20
530.7938571429
 11
399.9711591549
 21
525.7938571429
  0
LINE
  5
3D8
100
AcDbEntity
  8
0
100
AcDbLine
 62
7
  6
CONTINUOUS
 10
399.9711591549
 20
504.3938571429
 11
399.9711591549
 21
499.3938571429
  0
LINE
  5
3D9
100
AcDbEntity
  8
0
100
AcDbLine
 62
7
  6
CONTINUOUS
 10
399.9711591549
 20
486.7900050787
 11
399.9711591549
 21
481.7938571429
  0
LINE
  5
3DA
100
AcDbEntity
  8
0
100
AcDbLine
 62
7
  6
CONTINUOUS
 10
399.9711591549
 20
469.1938571429
 11
399.9711591549
 21
464.1938571429
  0
LINE
  5
3DB
100
AcDbEntity
  8
0
100
AcDbLine
 62
7
  6
CONTINUOUS
 10
399.9711591549
 20
442.7938571429
 11
399.9711591549
 21
437.7938571429
  0
LINE
  5
3DC
100
AcDbEntity
  8
0
100
AcDbLine
 62
7
  6
CONTINUOUS
 10
399.9711591549
 20
425.1900050787
 11
399.9711591549
 21
420.1938571429
  0
LINE
  5
3DD
100
AcDbEntity
  8
0
100
AcDbLine
 62
7
  6
CONTINUOUS
 10
399.9711591549
 20
407.5938571429
 11
399.9711591549
 21
402.5938571429
  0
LINE
  5
3DE
100
AcDbEntity
  8
0
100
AcDbLine
 62
7
  6
CONTINUOUS
 10
399.9711591549
 20
381.1938571429
 11
399.9711591549
 21
376.1938571429
  0
LINE
  5
3DF
100
AcDbEntity
  8
0
100
AcDbLine
 62
7
  6
CONTINUOUS
 10
399.9711591549
 20
363.5900050787
 11
399.9711591549
 21
358.5938571429
  0
LINE
  5
3E0
100
AcDbEntity
  8
0
100
AcDbLine
 62
7
  6
CONTINUOUS
 10
399.9711591549
 20
345.9938571429
 11
399.9711591549
 21
340.9938571429
  0
LINE
  5
3E1
100
AcDbEntity
  8
0
100
AcDbLine
 62
7
  6
CONTINUOUS
 10
399.9711591549
 20
319.5938571429
 11
399.9711591549
 21
314.5938571429
  0
LINE
  5
3E2
100
AcDbEntity
  8
0
100
AcDbLine
 62
7
  6
CONTINUOUS
 10
399.9711591549
 20
301.9900050787
 11
399.9711591549
 21
296.9938571429
  0
LINE
  5
3E3
100
AcDbEntity
  8
0
100
AcDbLine
 62
7
  6
CONTINUOUS
 10
399.9711591549
 20
284.3938571429
 11
399.9711591549
 21
279.3938571429
  0
LINE
  5
3E4
100
AcDbEntity
  8
0
100
AcDbLine
 62
7
  6
CONTINUOUS
 10
399.9711591549
 20
257.9938571429
 11
399.9711591549
 21
252.9938571429
  0
LINE
  5
3E5
100
AcDbEntity
  8
0
100
AcDbLine
 62
7
  6
CONTINUOUS
 10
399.9711591549
 20
240.3900050787
 11
399.9711591549
 21
235.3938571429
  0
LINE
  5
3E6
100
AcDbEntity
  8
0
100
AcDbLine
 62
7
  6
CONTINUOUS
 10
399.9711591549
 20
222.7938571429
 11
399.9711591549
 21
217.7938571429
  0
LINE
  5
3E7
100
AcDbEntity
  8
0
100
AcDbLine
 62
7
  6
CONTINUOUS
 10
399.9711591549
 20
196.3938571429
 11
399.9711591549
 21
191.3938571429
  0
LINE
  5
3E8
100
AcDbEntity
  8
0
100
AcDbLine
 62
7
  6
CONTINUOUS
 10
399.9711591549
 20
178.7900050787
 11
399.9711591549
 21
173.7938571429
  0
LINE
  5
3E9
100
AcDbEntity
  8
0
100
AcDbLine
 62
7
  6
CONTINUOUS
 10
399.9711591549
 20
161.1938571429
 11
399.9711591549
 21
156.1938571429
  0
LINE
  5
3EA
100
AcDbEntity
  8
0
100
AcDbLine
 62
7
  6
CONTINUOUS
 10
399.9711591549
 20
134.7938571429
 11
399.9711591549
 21
129.7938571429
  0
LINE
  5
3EB
100
AcDbEntity
  8
0
100
AcDbLine
 62
7
  6
CONTINUOUS
 10
399.9711591549
 20
117.1900050787
 11
399.9711591549
 21
112.1938571429
  0
LINE
  5
3EC
100
AcDbEntity
  8
0
100
AcDbLine
 62
7
  6
CONTINUOUS
 10
399.9711591549
 20
99.5938571429
 11
399.9711591549
 21
94.5938571429
  0
LINE
  5
3ED
100
AcDbEntity
  8
0
100
AcDbLine
 62
7
  6
CONTINUOUS
 10
402.7807184738
 20
117.189338286
 11
402.7807184738
 21
119.1760027611
  0
LINE
  5
3EE
100
AcDbEntity
  8
0
100
AcDbLine
 62
7
  6
CONTINUOUS
 10
402.7807184738
 20
178.789338286
 11
402.7807184738
 21
180.7760027611
  0
LINE
  5
3EF
100
AcDbEntity
  8
0
100
AcDbLine
 62
7
  6
CONTINUOUS
 10
402.7807184738
 20
240.389338286
 11
402.7807184738
 21
242.3760027611
  0
LINE
  5
3F0
100
AcDbEntity
  8
0
100
AcDbLine
 62
7
  6
CONTINUOUS
 10
402.7807184738
 20
301.989338286
 11
402.7807184738
 21
303.9760027611
  0
LINE
  5
3F1
100
AcDbEntity
  8
0
100
AcDbLine
 62
7
  6
CONTINUOUS
 10
402.7807184738
 20
363.589338286
 11
402.7807184738
 21
365.5760027611
  0
LINE
  5
3F2
100
AcDbEntity
  8
0
100
AcDbLine
 62
7
  6
CONTINUOUS
 10
402.7807184738
 20
425.189338286
 11
402.7807184738
 21
427.1760027611
  0
LINE
  5
3F3
100
AcDbEntity
  8
0
100
AcDbLine
 62
7
  6
CONTINUOUS
 10
402.7807184738
 20
486.789338286
 11
402.7807184738
 21
488.7760027611
  0
LINE
  5
3F4
100
AcDbEntity
  8
0
100
AcDbLine
 62
7
  6
CONTINUOUS
 10
402.7807184738
 20
548.389338286
 11
402.7807184738
 21
550.3760027611
  0
LINE
  5
3F5
100
AcDbEntity
  8
0
100
AcDbLine
 62
7
  6
CONTINUOUS
 10
402.7807184738
 20
609.989338286
 11
402.7807184738
 21
611.9760027611
  0
LINE
  5
3F6
100
AcDbEntity
  8
0
100
AcDbLine
 62
7
  6
CONTINUOUS
 10
402.7807184738
 20
671.589338286
 11
402.7807184738
 21
673.5760027611
  0
LINE
  5
3F7
100
AcDbEntity
  8
0
100
AcDbLine
 62
7
  6
CONTINUOUS
 10
402.7807184738
 20
733.189338286
 11
402.7807184738
 21
735.1760027611
  0
LINE
  5
3F8
100
AcDbEntity
  8
0
100
AcDbLine
 62
7
  6
CONTINUOUS
 10
402.7807184738
 20
794.789338286
 11
402.7807184738
 21
796.7760027611
  0
LINE
  5
3F9
100
AcDbEntity
  8
0
100
AcDbLine
 62
7
  6
CONTINUOUS
 10
402.7807184738
 20
856.389338286
 11
402.7807184738
 21
858.3760027611
  0
LINE
  5
3FA
100
AcDbEntity
  8
0
100
AcDbLine
 62
7
  6
CONTINUOUS
 10
402.7807184738
 20
917.989338286
 11
402.7807184738
 21
919.9760027611
  0
LINE
  5
3FB
100
AcDbEntity
  8
0
100
AcDbLine
 62
7
  6
CONTINUOUS
 10
402.7807184738
 20
979.589338286
 11
402.7807184738
 21
981.5760027611
  0
LINE
  5
3FC
100
AcDbEntity
  8
0
100
AcDbLine
 62
7
  6
CONTINUOUS
 10
402.7807184738
 20
1041.189338286
 11
402.7807184738
 21
1043.1760027611
  0
LINE
  5
3FD
100
AcDbEntity
  8
0
100
AcDbLine
 62
7
  6
CONTINUOUS
 10
406.7815238095
 20
92.5938571429
 11
406.7815238095
 21
101.5938571429
  0
LINE
  5
3FE
100
AcDbEntity
  8
0
100
AcDbLine
 62
7
  6
CONTINUOUS
 10
406.7815238095
 20
110.1938571429
 11
406.7815238095
 21
119.1938571429
  0
LINE
  5
3FF
100
AcDbEntity
  8
0
100
AcDbLine
 62
7
  6
CONTINUOUS
 10
406.7815238095
 20
127.7938571429
 11
406.7815238095
 21
136.7938571429
  0
LINE
  5
400
100
AcDbEntity
  8
0
100
AcDbLine
 62
7
  6
CONTINUOUS
 10
406.7815238095
 20
154.1938571429
 11
406.7815238095
 21
163.1938571429
  0
LINE
  5
401
100
AcDbEntity
  8
0
100
AcDbLine
 62
7
  6
CONTINUOUS
 10
406.7815238095
 20
171.7938571429
 11
406.7815238095
 21
180.7938571429
  0
LINE
  5
402
100
AcDbEntity
  8
0
100
AcDbLine
 62
7
  6
CONTINUOUS
 10
406.7815238095
 20
189.3938571429
 11
406.7815238095
 21
198.3938571429
  0
LINE
  5
403
100
AcDbEntity
  8
0
100
AcDbLine
 62
7
  6
CONTINUOUS
 10
406.7815238095
 20
215.7938571429
 11
406.7815238095
 21
224.7938571429
  0
LINE
  5
404
100
AcDbEntity
  8
0
100
AcDbLine
 62
7
  6
CONTINUOUS
 10
406.7815238095
 20
233.3938571429
 11
406.7815238095
 21
242.3938571429
  0
LINE
  5
405
100
AcDbEntity
  8
0
100
AcDbLine
 62
7
  6
CONTINUOUS
 10
406.7815238095
 20
250.9938571429
 11
406.7815238095
 21
259.9938571429
  0
LINE
  5
406
100
AcDbEntity
  8
0
100
AcDbLine
 62
7
  6
CONTINUOUS
 10
406.7815238095
 20
277.3938571429
 11
406.7815238095
 21
286.3938571429
  0
LINE
  5
407
100
AcDbEntity
  8
0
100
AcDbLine
 62
7
  6
CONTINUOUS
 10
406.7815238095
 20
294.9938571429
 11
406.7815238095
 21
303.9938571429
  0
LINE
  5
408
100
AcDbEntity
  8
0
100
AcDbLine
 62
7
  6
CONTINUOUS
 10
406.7815238095
 20
312.5938571429
 11
406.7815238095
 21
321.5938571429
  0
LINE
  5
409
100
AcDbEntity
  8
0
100
AcDbLine
 62
7
  6
CONTINUOUS
 10
406.7815238095
 20
338.9938571429
 11
406.7815238095
 21
347.9938571429
  0
LINE
  5
40A
100
AcDbEntity
  8
0
100
AcDbLine
 62
7
  6
CONTINUOUS
 10
406.7815238095
 20
356.5938571429
 11
406.7815238095
 21
365.5938571429
  0
LINE
  5
40B
100
AcDbEntity
  8
0
100
AcDbLine
 62
7
  6
CONTINUOUS
 10
406.7815238095
 20
374.1938571429
 11
406.7815238095
 21
383.1938571429
  0
LINE
  5
40C
100
AcDbEntity
  8
0
100
AcDbLine
 62
7
  6
CONTINUOUS
 10
406.7815238095
 20
400.5938571429
 11
406.7815238095
 21
409.5938571429
  0
LINE
  5
40D
100
AcDbEntity
  8
0
100
AcDbLine
 62
7
  6
CONTINUOUS
 10
406.7815238095
 20
418.1938571429
 11
406.7815238095
 21
427.1938571429
  0
LINE
  5
40E
100
AcDbEntity
  8
0
100
AcDbLine
 62
7
  6
CONTINUOUS
 10
406.7815238095
 20
435.7938571429
 11
406.7815238095
 21
444.7938571429
  0
LINE
  5
40F
100
AcDbEntity
  8
0
100
AcDbLine
 62
7
  6
CONTINUOUS
 10
406.7815238095
 20
462.1938571429
 11
406.7815238095
 21
471.1938571429
  0
LINE
  5
410
100
AcDbEntity
  8
0
100
AcDbLine
 62
7
  6
CONTINUOUS
 10
406.7815238095
 20
479.7938571429
 11
406.7815238095
 21
488.7938571429
  0
LINE
  5
411
100
AcDbEntity
  8
0
100
AcDbLine
 62
7
  6
CONTINUOUS
 10
406.7815238095
 20
497.3938571429
 11
406.7815238095
 21
506.3938571429
  0
LINE
  5
412
100
AcDbEntity
  8
0
100
AcDbLine
 62
7
  6
CONTINUOUS
 10
406.7815238095
 20
523.7938571429
 11
406.7815238095
 21
532.7938571429
  0
LINE
  5
413
100
AcDbEntity
  8
0
100
AcDbLine
 62
7
  6
CONTINUOUS
 10
406.7815238095
 20
541.3938571429
 11
406.7815238095
 21
550.3938571429
  0
LINE
  5
414
100
AcDbEntity
  8
0
100
AcDbLine
 62
7
  6
CONTINUOUS
 10
406.7815238095
 20
558.9938571429
 11
406.7815238095
 21
567.9938571429
  0
LINE
  5
415
100
AcDbEntity
  8
0
100
AcDbLine
 62
7
  6
CONTINUOUS
 10
406.7815238095
 20
585.3938571429
 11
406.7815238095
 21
594.3938571429
  0
LINE
  5
416
100
AcDbEntity
  8
0
100
AcDbLine
 62
7
  6
CONTINUOUS
 10
406.7815238095
 20
602.9938571429
 11
406.7815238095
 21
611.9938571429
  0
LINE
  5
417
100
AcDbEntity
  8
0
100
AcDbLine
 62
7
  6
CONTINUOUS
 10
406.7815238095
 20
620.5938571429
 11
406.7815238095
 21
629.5938571429
  0
LINE
  5
418
100
AcDbEntity
  8
0
100
AcDbLine
 62
7
  6
CONTINUOUS
 10
406.7815238095
 20
646.9938571429
 11
406.7815238095
 21
655.9938571429
  0
LINE
  5
419
100
AcDbEntity
  8
0
100
AcDbLine
 62
7
  6
CONTINUOUS
 10
406.7815238095
 20
664.5938571429
 11
406.7815238095
 21
673.5938571429
  0
LINE
  5
41A
100
AcDbEntity
  8
0
100
AcDbLine
 62
7
  6
CONTINUOUS
 10
406.7815238095
 20
682.1938571429
 11
406.7815238095
 21
691.1938571429
  0
LINE
  5
41B
100
AcDbEntity
  8
0
100
AcDbLine
 62
7
  6
CONTINUOUS
 10
406.7815238095
 20
708.5938571429
 11
406.7815238095
 21
717.5938571429
  0
LINE
  5
41C
100
AcDbEntity
  8
0
100
AcDbLine
 62
7
  6
CONTINUOUS
 10
406.7815238095
 20
726.1938571429
 11
406.7815238095
 21
735.1938571429
  0
LINE
  5
41D
100
AcDbEntity
  8
0
100
AcDbLine
 62
7
  6
CONTINUOUS
 10
406.7815238095
 20
743.7938571429
 11
406.7815238095
 21
752.7938571429
  0
LINE
  5
41E
100
AcDbEntity
  8
0
100
AcDbLine
 62
7
  6
CONTINUOUS
 10
406.7815238095
 20
770.1938571429
 11
406.7815238095
 21
779.1938571429
  0
LINE
  5
41F
100
AcDbEntity
  8
0
100
AcDbLine
 62
7
  6
CONTINUOUS
 10
406.7815238095
 20
787.7938571429
 11
406.7815238095
 21
796.7938571429
  0
LINE
  5
420
100
AcDbEntity
  8
0
100
AcDbLine
 62
7
  6
CONTINUOUS
 10
406.7815238095
 20
805.3938571429
 11
406.7815238095
 21
814.3938571429
  0
LINE
  5
421
100
AcDbEntity
  8
0
100
AcDbLine
 62
7
  6
CONTINUOUS
 10
406.7815238095
 20
831.7938571429
 11
406.7815238095
 21
840.7938571429
  0
LINE
  5
422
100
AcDbEntity
  8
0
100
AcDbLine
 62
7
  6
CONTINUOUS
 10
406.7815238095
 20
849.3938571429
 11
406.7815238095
 21
858.3938571429
  0
LINE
  5
423
100
AcDbEntity
  8
0
100
AcDbLine
 62
7
  6
CONTINUOUS
 10
406.7815238095
 20
866.9938571429
 11
406.7815238095
 21
875.9938571429
  0
LINE
  5
424
100
AcDbEntity
  8
0
100
AcDbLine
 62
7
  6
CONTINUOUS
 10
406.7815238095
 20
893.3938571429
 11
406.7815238095
 21
902.3938571429
  0
LINE
  5
425
100
AcDbEntity
  8
0
100
AcDbLine
 62
7
  6
CONTINUOUS
 10
406.7815238095
 20
910.9938571429
 11
406.7815238095
 21
919.9938571429
  0
LINE
  5
426
100
AcDbEntity
  8
0
100
AcDbLine
 62
7
  6
CONTINUOUS
 10
406.7815238095
 20
928.5938571429
 11
406.7815238095
 21
937.5938571429
  0
LINE
  5
427
100
AcDbEntity
  8
0
100
AcDbLine
 62
7
  6
CONTINUOUS
 10
406.7815238095
 20
954.9938571429
 11
406.7815238095
 21
963.9938571429
  0
LINE
  5
428
100
AcDbEntity
  8
0
100
AcDbLine
 62
7
  6
CONTINUOUS
 10
406.7815238095
 20
972.5938571429
 11
406.7815238095
 21
981.5938571429
  0
LINE
  5
429
100
AcDbEntity
  8
0
100
AcDbLine
 62
7
  6
CONTINUOUS
 10
406.7815238095
 20
990.1938571429
 11
406.7815238095
 21
999.1938571429
  0
LINE
  5
42A
100
AcDbEntity
  8
0
100
AcDbLine
 62
7
  6
CONTINUOUS
 10
406.7815238095
 20
1016.5938571429
 11
406.7815238095
 21
1025.5938571429
  0
LINE
  5
42B
100
AcDbEntity
  8
0
100
AcDbLine
 62
7
  6
CONTINUOUS
 10
406.7815238095
 20
1034.1938571429
 11
406.7815238095
 21
1043.1938571429
  0
LINE
  5
42C
100
AcDbEntity
  8
0
100
AcDbLine
 62
7
  6
CONTINUOUS
 10
406.7815238095
 20
1051.7938571429
 11
406.7815238095
 21
1060.7938571429
  0
LINE
  5
42D
100
AcDbEntity
  8
0
100
AcDbLine
 62
7
  6
CONTINUOUS
 10
409.1394767029
 20
92.5938571429
 11
409.1394767029
 21
101.5938571429
  0
LINE
  5
42E
100
AcDbEntity
  8
0
100
AcDbLine
 62
7
  6
CONTINUOUS
 10
409.1394767029
 20
110.1938571429
 11
409.1394767029
 21
119.1938571429
  0
LINE
  5
42F
100
AcDbEntity
  8
0
100
AcDbLine
 62
7
  6
CONTINUOUS
 10
409.1394767029
 20
127.7938571429
 11
409.1394767029
 21
136.7938571429
  0
LINE
  5
430
100
AcDbEntity
  8
0
100
AcDbLine
 62
7
  6
CONTINUOUS
 10
409.1394767029
 20
154.1938571429
 11
409.1394767029
 21
163.1938571429
  0
LINE
  5
431
100
AcDbEntity
  8
0
100
AcDbLine
 62
7
  6
CONTINUOUS
 10
409.1394767029
 20
171.7938571429
 11
409.1394767029
 21
180.7938571429
  0
LINE
  5
432
100
AcDbEntity
  8
0
100
AcDbLine
 62
7
  6
CONTINUOUS
 10
409.1394767029
 20
189.3938571429
 11
409.1394767029
 21
198.3938571429
  0
LINE
  5
433
100
AcDbEntity
  8
0
100
AcDbLine
 62
7
  6
CONTINUOUS
 10
409.1394767029
 20
215.7938571429
 11
409.1394767029
 21
224.7938571429
  0
LINE
  5
434
100
AcDbEntity
  8
0
100
AcDbLine
 62
7
  6
CONTINUOUS
 10
409.1394767029
 20
233.3938571429
 11
409.1394767029
 21
242.3938571429
  0
LINE
  5
435
100
AcDbEntity
  8
0
100
AcDbLine
 62
7
  6
CONTINUOUS
 10
409.1394767029
 20
250.9938571429
 11
409.1394767029
 21
259.9938571429
  0
LINE
  5
436
100
AcDbEntity
  8
0
100
AcDbLine
 62
7
  6
CONTINUOUS
 10
409.1394767029
 20
277.3938571429
 11
409.1394767029
 21
286.3938571429
  0
LINE
  5
437
100
AcDbEntity
  8
0
100
AcDbLine
 62
7
  6
CONTINUOUS
 10
409.1394767029
 20
294.9938571429
 11
409.1394767029
 21
303.9938571429
  0
LINE
  5
438
100
AcDbEntity
  8
0
100
AcDbLine
 62
7
  6
CONTINUOUS
 10
409.1394767029
 20
312.5938571429
 11
409.1394767029
 21
321.5938571429
  0
LINE
  5
439
100
AcDbEntity
  8
0
100
AcDbLine
 62
7
  6
CONTINUOUS
 10
409.1394767029
 20
338.9938571429
 11
409.1394767029
 21
347.9938571429
  0
LINE
  5
43A
100
AcDbEntity
  8
0
100
AcDbLine
 62
7
  6
CONTINUOUS
 10
409.1394767029
 20
356.5938571429
 11
409.1394767029
 21
365.5938571429
  0
LINE
  5
43B
100
AcDbEntity
  8
0
100
AcDbLine
 62
7
  6
CONTINUOUS
 10
409.1394767029
 20
374.1938571429
 11
409.1394767029
 21
383.1938571429
  0
LINE
  5
43C
100
AcDbEntity
  8
0
100
AcDbLine
 62
7
  6
CONTINUOUS
 10
409.1394767029
 20
400.5938571429
 11
409.1394767029
 21
409.5938571429
  0
LINE
  5
43D
100
AcDbEntity
  8
0
100
AcDbLine
 62
7
  6
CONTINUOUS
 10
409.1394767029
 20
418.1938571429
 11
409.1394767029
 21
427.1938571429
  0
LINE
  5
43E
100
AcDbEntity
  8
0
100
AcDbLine
 62
7
  6
CONTINUOUS
 10
409.1394767029
 20
435.7938571429
 11
409.1394767029
 21
444.7938571429
  0
LINE
  5
43F
100
AcDbEntity
  8
0
100
AcDbLine
 62
7
  6
CONTINUOUS
 10
409.1394767029
 20
462.1938571429
 11
409.1394767029
 21
471.1938571429
  0
LINE
  5
440
100
AcDbEntity
  8
0
100
AcDbLine
 62
7
  6
CONTINUOUS
 10
409.1394767029
 20
479.7938571429
 11
409.1394767029
 21
488.7938571429
  0
LINE
  5
441
100
AcDbEntity
  8
0
100
AcDbLine
 62
7
  6
CONTINUOUS
 10
409.1394767029
 20
497.3938571429
 11
409.1394767029
 21
506.3938571429
  0
LINE
  5
442
100
AcDbEntity
  8
0
100
AcDbLine
 62
7
  6
CONTINUOUS
 10
409.1394767029
 20
523.7938571429
 11
409.1394767029
 21
532.7938571429
  0
LINE
  5
443
100
AcDbEntity
  8
0
100
AcDbLine
 62
7
  6
CONTINUOUS
 10
409.1394767029
 20
541.3938571429
 11
409.1394767029
 21
550.3938571429
  0
LINE
  5
444
100
AcDbEntity
  8
0
100
AcDbLine
 62
7
  6
CONTINUOUS
 10
409.1394767029
 20
558.9938571429
 11
409.1394767029
 21
567.9938571429
  0
LINE
  5
445
100
AcDbEntity
  8
0
100
AcDbLine
 62
7
  6
CONTINUOUS
 10
409.1394767029
 20
585.3938571429
 11
409.1394767029
 21
594.3938571429
  0
LINE
  5
446
100
AcDbEntity
  8
0
100
AcDbLine
 62
7
  6
CONTINUOUS
 10
409.1394767029
 20
602.9938571429
 11
409.1394767029
 21
611.9938571429
  0
LINE
  5
447
100
AcDbEntity
  8
0
100
AcDbLine
 62
7
  6
CONTINUOUS
 10
409.1394767029
 20
620.5938571429
 11
409.1394767029
 21
629.5938571429
  0
LINE
  5
448
100
AcDbEntity
  8
0
100
AcDbLine
 62
7
  6
CONTINUOUS
 10
409.1394767029
 20
646.9938571429
 11
409.1394767029
 21
655.9938571429
  0
LINE
  5
449
100
AcDbEntity
  8
0
100
AcDbLine
 62
7
  6
CONTINUOUS
 10
409.1394767029
 20
664.5938571429
 11
409.1394767029
 21
673.5938571429
  0
LINE
  5
44A
100
AcDbEntity
  8
0
100
AcDbLine
 62
7
  6
CONTINUOUS
 10
409.1394767029
 20
682.1938571429
 11
409.1394767029
 21
691.1938571429
  0
LINE
  5
44B
100
AcDbEntity
  8
0
100
AcDbLine
 62
7
  6
CONTINUOUS
 10
409.1394767029
 20
708.5938571429
 11
409.1394767029
 21
717.5938571429
  0
LINE
  5
44C
100
AcDbEntity
  8
0
100
AcDbLine
 62
7
  6
CONTINUOUS
 10
409.1394767029
 20
726.1938571429
 11
409.1394767029
 21
735.1938571429
  0
LINE
  5
44D
100
AcDbEntity
  8
0
100
AcDbLine
 62
7
  6
CONTINUOUS
 10
409.1394767029
 20
743.7938571429
 11
409.1394767029
 21
752.7938571429
  0
LINE
  5
44E
100
AcDbEntity
  8
0
100
AcDbLine
 62
7
  6
CONTINUOUS
 10
409.1394767029
 20
770.1938571429
 11
409.1394767029
 21
779.1938571429
  0
LINE
  5
44F
100
AcDbEntity
  8
0
100
AcDbLine
 62
7
  6
CONTINUOUS
 10
409.1394767029
 20
787.7938571429
 11
409.1394767029
 21
796.7938571429
  0
LINE
  5
450
100
AcDbEntity
  8
0
100
AcDbLine
 62
7
  6
CONTINUOUS
 10
409.1394767029
 20
805.3938571429
 11
409.1394767029
 21
814.3938571429
  0
LINE
  5
451
100
AcDbEntity
  8
0
100
AcDbLine
 62
7
  6
CONTINUOUS
 10
409.1394767029
 20
831.7938571429
 11
409.1394767029
 21
840.7938571429
  0
LINE
  5
452
100
AcDbEntity
  8
0
100
AcDbLine
 62
7
  6
CONTINUOUS
 10
409.1394767029
 20
849.3938571429
 11
409.1394767029
 21
858.3938571429
  0
LINE
  5
453
100
AcDbEntity
  8
0
100
AcDbLine
 62
7
  6
CONTINUOUS
 10
409.1394767029
 20
866.9938571429
 11
409.1394767029
 21
875.9938571429
  0
LINE
  5
454
100
AcDbEntity
  8
0
100
AcDbLine
 62
7
  6
CONTINUOUS
 10
409.1394767029
 20
893.3938571429
 11
409.1394767029
 21
902.3938571429
  0
LINE
  5
455
100
AcDbEntity
  8
0
100
AcDbLine
 62
7
  6
CONTINUOUS
 10
409.1394767029
 20
910.9938571429
 11
409.1394767029
 21
919.9938571429
  0
LINE
  5
456
100
AcDbEntity
  8
0
100
AcDbLine
 62
7
  6
CONTINUOUS
 10
409.1394767029
 20
928.5938571429
 11
409.1394767029
 21
937.5938571429
  0
LINE
  5
457
100
AcDbEntity
  8
0
100
AcDbLine
 62
7
  6
CONTINUOUS
 10
409.1394767029
 20
954.9938571429
 11
409.1394767029
 21
963.9938571429
  0
LINE
  5
458
100
AcDbEntity
  8
0
100
AcDbLine
 62
7
  6
CONTINUOUS
 10
409.1394767029
 20
972.5938571429
 11
409.1394767029
 21
981.5938571429
  0
LINE
  5
459
100
AcDbEntity
  8
0
100
AcDbLine
 62
7
  6
CONTINUOUS
 10
409.1394767029
 20
990.1938571429
 11
409.1394767029
 21
999.1938571429
  0
LINE
  5
45A
100
AcDbEntity
  8
0
100
AcDbLine
 62
7
  6
CONTINUOUS
 10
409.1394767029
 20
1016.5938571429
 11
409.1394767029
 21
1025.5938571429
  0
LINE
  5
45B
100
AcDbEntity
  8
0
100
AcDbLine
 62
7
  6
CONTINUOUS
 10
409.1394767029
 20
1034.1938571429
 11
409.1394767029
 21
1043.1938571429
  0
LINE
  5
45C
100
AcDbEntity
  8
0
100
AcDbLine
 62
7
  6
CONTINUOUS
 10
409.1394767029
 20
1051.7938571429
 11
409.1394767029
 21
1060.7938571429
  0
LINE
  5
45D
100
AcDbEntity
  8
0
100
AcDbLine
 62
7
  6
CONTINUOUS
 10
399.3315238095
 20
548.3938571429
 11
397.5315238095
 21
548.3938571429
  0
LINE
  5
45E
100
AcDbEntity
  8
0
100
AcDbLine
 62
7
  6
CONTINUOUS
 10
397.5315238095
 20
550.3938571429
 11
409.1394767029
 21
550.3938571429
  0
LINE
  5
45F
100
AcDbEntity
  8
0
100
AcDbLine
 62
7
  6
CONTINUOUS
 10
412.5315238095
 20
550.7938571429
 11
397.5315238095
 21
550.7938571429
  0
LINE
  5
460
100
AcDbEntity
  8
0
100
AcDbLine
 62
7
  6
CONTINUOUS
 10
397.5315238095
 20
551.2938571429
 11
414.0315238095
 21
551.2938571429
  0
LINE
  5
461
100
AcDbEntity
  8
0
100
AcDbLine
 62
7
  6
CONTINUOUS
 10
397.5315238095
 20
551.8938571429
 11
415.0318520286
 21
551.8939078016
  0
LINE
  5
462
100
AcDbEntity
  8
0
100
AcDbLine
 62
7
  6
CONTINUOUS
 10
397.5315238095
 20
552.3938571429
 11
415.5315238095
 21
552.3938571429
  0
LINE
  5
463
100
AcDbEntity
  8
0
100
AcDbLine
 62
7
  6
CONTINUOUS
 10
415.5315238095
 20
556.9938571429
 11
397.5315238095
 21
556.9938571429
  0
LINE
  5
464
100
AcDbEntity
  8
0
100
AcDbLine
 62
7
  6
CONTINUOUS
 10
397.5315238095
 20
557.4938571429
 11
415.0318520286
 21
557.4938064842
  0
LINE
  5
465
100
AcDbEntity
  8
0
100
AcDbLine
 62
7
  6
CONTINUOUS
 10
397.5315238095
 20
558.0938571429
 11
414.0315238095
 21
558.0938571429
  0
LINE
  5
466
100
AcDbEntity
  8
0
100
AcDbLine
 62
7
  6
CONTINUOUS
 10
397.5315238095
 20
558.5938571429
 11
412.5315238095
 21
558.5938571429
  0
LINE
  5
467
100
AcDbEntity
  8
0
100
AcDbLine
 62
7
  6
CONTINUOUS
 10
397.5315238095
 20
558.9938571429
 11
409.1394767029
 21
558.9938571429
  0
LINE
  5
468
100
AcDbEntity
  8
0
100
AcDbLine
 62
7
  6
CONTINUOUS
 10
397.5315238095
 20
560.9938571429
 11
402.7807184738
 21
560.9938571429
  0
LINE
  5
469
100
AcDbEntity
  8
0
100
AcDbLine
 62
7
  6
CONTINUOUS
 10
399.3315238095
 20
561.4938571429
 11
397.5315238095
 21
561.4938571429
  0
LINE
  5
46A
100
AcDbEntity
  8
0
100
AcDbLine
 62
7
  6
CONTINUOUS
 10
399.3315238095
 20
565.4938571429
 11
397.5315238095
 21
565.4938571429
  0
LINE
  5
46B
100
AcDbEntity
  8
0
100
AcDbLine
 62
7
  6
CONTINUOUS
 10
397.5315238095
 20
565.9938571429
 11
402.9771694738
 21
565.9938571429
  0
LINE
  5
46C
100
AcDbEntity
  8
0
100
AcDbLine
 62
7
  6
CONTINUOUS
 10
397.5315238095
 20
567.9938571429
 11
409.1394767029
 21
567.9938571429
  0
LINE
  5
46D
100
AcDbEntity
  8
0
100
AcDbLine
 62
7
  6
CONTINUOUS
 10
412.5315238095
 20
568.3938571429
 11
397.5315238095
 21
568.3938571429
  0
LINE
  5
46E
100
AcDbEntity
  8
0
100
AcDbLine
 62
7
  6
CONTINUOUS
 10
397.5315238095
 20
568.8938571429
 11
414.0315238095
 21
568.8938571429
  0
LINE
  5
46F
100
AcDbEntity
  8
0
100
AcDbLine
 62
7
  6
CONTINUOUS
 10
397.5315238095
 20
569.4938571429
 11
415.0318520286
 21
569.4939078016
  0
LINE
  5
470
100
AcDbEntity
  8
0
100
AcDbLine
 62
7
  6
CONTINUOUS
 10
397.5315238095
 20
569.9938571429
 11
415.5315238095
 21
569.9938571429
  0
LINE
  5
471
100
AcDbEntity
  8
0
100
AcDbLine
 62
7
  6
CONTINUOUS
 10
402.7807184738
 20
548.389338286
 11
399.3315238095
 21
548.3904215466
  0
LINE
  5
472
100
AcDbEntity
  8
0
100
AcDbLine
 62
7
  6
CONTINUOUS
 10
412.5315238095
 20
92.1938571429
 11
412.5315238095
 21
101.9938571429
  0
LINE
  5
473
100
AcDbEntity
  8
0
100
AcDbLine
 62
7
  6
CONTINUOUS
 10
412.5315238095
 20
109.7938571429
 11
412.5315238095
 21
119.5938571429
  0
LINE
  5
474
100
AcDbEntity
  8
0
100
AcDbLine
 62
7
  6
CONTINUOUS
 10
412.5315238095
 20
127.3938571429
 11
412.5315238095
 21
137.1938571429
  0
LINE
  5
475
100
AcDbEntity
  8
0
100
AcDbLine
 62
7
  6
CONTINUOUS
 10
412.5315238095
 20
153.7938571429
 11
412.5315238095
 21
163.5938571429
  0
LINE
  5
476
100
AcDbEntity
  8
0
100
AcDbLine
 62
7
  6
CONTINUOUS
 10
412.5315238095
 20
171.3938571429
 11
412.5315238095
 21
181.1938571429
  0
LINE
  5
477
100
AcDbEntity
  8
0
100
AcDbLine
 62
7
  6
CONTINUOUS
 10
412.5315238095
 20
188.9938571429
 11
412.5315238095
 21
198.7938571429
  0
LINE
  5
478
100
AcDbEntity
  8
0
100
AcDbLine
 62
7
  6
CONTINUOUS
 10
412.5315238095
 20
215.3938571429
 11
412.5315238095
 21
225.1938571429
  0
LINE
  5
479
100
AcDbEntity
  8
0
100
AcDbLine
 62
7
  6
CONTINUOUS
 10
412.5315238095
 20
232.9938571429
 11
412.5315238095
 21
242.7938571429
  0
LINE
  5
47A
100
AcDbEntity
  8
0
100
AcDbLine
 62
7
  6
CONTINUOUS
 10
412.5315238095
 20
250.5938571429
 11
412.5315238095
 21
260.3938571429
  0
LINE
  5
47B
100
AcDbEntity
  8
0
100
AcDbLine
 62
7
  6
CONTINUOUS
 10
412.5315238095
 20
276.9938571429
 11
412.5315238095
 21
286.7938571429
  0
LINE
  5
47C
100
AcDbEntity
  8
0
100
AcDbLine
 62
7
  6
CONTINUOUS
 10
412.5315238095
 20
294.5938571429
 11
412.5315238095
 21
304.3938571429
  0
LINE
  5
47D
100
AcDbEntity
  8
0
100
AcDbLine
 62
7
  6
CONTINUOUS
 10
412.5315238095
 20
312.1938571429
 11
412.5315238095
 21
321.9938571429
  0
LINE
  5
47E
100
AcDbEntity
  8
0
100
AcDbLine
 62
7
  6
CONTINUOUS
 10
412.5315238095
 20
338.5938571429
 11
412.5315238095
 21
348.3938571429
  0
LINE
  5
47F
100
AcDbEntity
  8
0
100
AcDbLine
 62
7
  6
CONTINUOUS
 10
412.5315238095
 20
356.1938571429
 11
412.5315238095
 21
365.9938571429
  0
LINE
  5
480
100
AcDbEntity
  8
0
100
AcDbLine
 62
7
  6
CONTINUOUS
 10
412.5315238095
 20
373.7938571429
 11
412.5315238095
 21
383.5938571429
  0
LINE
  5
481
100
AcDbEntity
  8
0
100
AcDbLine
 62
7
  6
CONTINUOUS
 10
412.5315238095
 20
400.1938571429
 11
412.5315238095
 21
409.9938571429
  0
LINE
  5
482
100
AcDbEntity
  8
0
100
AcDbLine
 62
7
  6
CONTINUOUS
 10
412.5315238095
 20
417.7938571429
 11
412.5315238095
 21
427.5938571429
  0
LINE
  5
483
100
AcDbEntity
  8
0
100
AcDbLine
 62
7
  6
CONTINUOUS
 10
412.5315238095
 20
435.3938571429
 11
412.5315238095
 21
445.1938571429
  0
LINE
  5
484
100
AcDbEntity
  8
0
100
AcDbLine
 62
7
  6
CONTINUOUS
 10
412.5315238095
 20
461.7938571429
 11
412.5315238095
 21
471.5938571429
  0
LINE
  5
485
100
AcDbEntity
  8
0
100
AcDbLine
 62
7
  6
CONTINUOUS
 10
412.5315238095
 20
479.3938571429
 11
412.5315238095
 21
489.1938571429
  0
LINE
  5
486
100
AcDbEntity
  8
0
100
AcDbLine
 62
7
  6
CONTINUOUS
 10
412.5315238095
 20
496.9938571429
 11
412.5315238095
 21
506.7938571429
  0
LINE
  5
487
100
AcDbEntity
  8
0
100
AcDbLine
 62
7
  6
CONTINUOUS
 10
412.5315238095
 20
523.3938571429
 11
412.5315238095
 21
533.1938571429
  0
LINE
  5
488
100
AcDbEntity
  8
0
100
AcDbLine
 62
7
  6
CONTINUOUS
 10
412.5315238095
 20
540.9938571429
 11
412.5315238095
 21
550.7938571429
  0
LINE
  5
489
100
AcDbEntity
  8
0
100
AcDbLine
 62
7
  6
CONTINUOUS
 10
412.5315238095
 20
558.5938571429
 11
412.5315238095
 21
568.3938571429
  0
LINE
  5
48A
100
AcDbEntity
  8
0
100
AcDbLine
 62
7
  6
CONTINUOUS
 10
412.5315238095
 20
584.9938571429
 11
412.5315238095
 21
594.7938571429
  0
LINE
  5
48B
100
AcDbEntity
  8
0
100
AcDbLine
 62
7
  6
CONTINUOUS
 10
412.5315238095
 20
602.5938571429
 11
412.5315238095
 21
612.3938571429
  0
LINE
  5
48C
100
AcDbEntity
  8
0
100
AcDbLine
 62
7
  6
CONTINUOUS
 10
412.5315238095
 20
620.1938571429
 11
412.5315238095
 21
629.9938571429
  0
LINE
  5
48D
100
AcDbEntity
  8
0
100
AcDbLine
 62
7
  6
CONTINUOUS
 10
412.5315238095
 20
646.5938571429
 11
412.5315238095
 21
656.3938571429
  0
LINE
  5
48E
100
AcDbEntity
  8
0
100
AcDbLine
 62
7
  6
CONTINUOUS
 10
412.5315238095
 20
664.1938571429
 11
412.5315238095
 21
673.9938571429
  0
LINE
  5
48F
100
AcDbEntity
  8
0
100
AcDbLine
 62
7
  6
CONTINUOUS
 10
412.5315238095
 20
681.7938571429
 11
412.5315238095
 21
691.5938571429
  0
LINE
  5
490
100
AcDbEntity
  8
0
100
AcDbLine
 62
7
  6
CONTINUOUS
 10
412.5315238095
 20
708.1938571429
 11
412.5315238095
 21
717.9938571429
  0
LINE
  5
491
100
AcDbEntity
  8
0
100
AcDbLine
 62
7
  6
CONTINUOUS
 10
412.5315238095
 20
725.7938571429
 11
412.5315238095
 21
735.5938571429
  0
LINE
  5
492
100
AcDbEntity
  8
0
100
AcDbLine
 62
7
  6
CONTINUOUS
 10
412.5315238095
 20
743.3938571429
 11
412.5315238095
 21
753.1938571429
  0
LINE
  5
493
100
AcDbEntity
  8
0
100
AcDbLine
 62
7
  6
CONTINUOUS
 10
412.5315238095
 20
769.7938571429
 11
412.5315238095
 21
779.5938571429
  0
LINE
  5
494
100
AcDbEntity
  8
0
100
AcDbLine
 62
7
  6
CONTINUOUS
 10
412.5315238095
 20
787.3938571429
 11
412.5315238095
 21
797.1938571429
  0
LINE
  5
495
100
AcDbEntity
  8
0
100
AcDbLine
 62
7
  6
CONTINUOUS
 10
412.5315238095
 20
804.9938571429
 11
412.5315238095
 21
814.7938571429
  0
LINE
  5
496
100
AcDbEntity
  8
0
100
AcDbLine
 62
7
  6
CONTINUOUS
 10
412.5315238095
 20
831.3938571429
 11
412.5315238095
 21
841.1938571429
  0
LINE
  5
497
100
AcDbEntity
  8
0
100
AcDbLine
 62
7
  6
CONTINUOUS
 10
412.5315238095
 20
848.9938571429
 11
412.5315238095
 21
858.7938571429
  0
LINE
  5
498
100
AcDbEntity
  8
0
100
AcDbLine
 62
7
  6
CONTINUOUS
 10
412.5315238095
 20
866.5938571429
 11
412.5315238095
 21
876.3938571429
  0
LINE
  5
499
100
AcDbEntity
  8
0
100
AcDbLine
 62
7
  6
CONTINUOUS
 10
412.5315238095
 20
892.9938571429
 11
412.5315238095
 21
902.7938571429
  0
LINE
  5
49A
100
AcDbEntity
  8
0
100
AcDbLine
 62
7
  6
CONTINUOUS
 10
412.5315238095
 20
910.5938571429
 11
412.5315238095
 21
920.3938571429
  0
LINE
  5
49B
100
AcDbEntity
  8
0
100
AcDbLine
 62
7
  6
CONTINUOUS
 10
412.5315238095
 20
928.1938571429
 11
412.5315238095
 21
937.9938571429
  0
LINE
  5
49C
100
AcDbEntity
  8
0
100
AcDbLine
 62
7
  6
CONTINUOUS
 10
412.5315238095
 20
954.5938571429
 11
412.5315238095
 21
964.3938571429
  0
LINE
  5
49D
100
AcDbEntity
  8
0
100
AcDbLine
 62
7
  6
CONTINUOUS
 10
412.5315238095
 20
972.1938571429
 11
412.5315238095
 21
981.9938571429
  0
LINE
  5
49E
100
AcDbEntity
  8
0
100
AcDbLine
 62
7
  6
CONTINUOUS
 10
412.5315238095
 20
989.7938571429
 11
412.5315238095
 21
999.5938571429
  0
LINE
  5
49F
100
AcDbEntity
  8
0
100
AcDbLine
 62
7
  6
CONTINUOUS
 10
412.5315238095
 20
1016.1938571429
 11
412.5315238095
 21
1025.9938571429
  0
LINE
  5
4A0
100
AcDbEntity
  8
0
100
AcDbLine
 62
7
  6
CONTINUOUS
 10
412.5315238095
 20
1033.7938571429
 11
412.5315238095
 21
1043.5938571429
  0
LINE
  5
4A1
100
AcDbEntity
  8
0
100
AcDbLine
 62
7
  6
CONTINUOUS
 10
412.5315238095
 20
1051.3938571429
 11
412.5315238095
 21
1061.1938571429
  0
LINE
  5
4A2
100
AcDbEntity
  8
0
100
AcDbLine
 62
7
  6
CONTINUOUS
 10
414.0315238095
 20
91.6938571429
 11
414.0315238095
 21
102.4938571429
  0
LINE
  5
4A3
100
AcDbEntity
  8
0
100
AcDbLine
 62
7
  6
CONTINUOUS
 10
414.0315238095
 20
109.2938571429
 11
414.0315238095
 21
120.0938571429
  0
LINE
  5
4A4
100
AcDbEntity
  8
0
100
AcDbLine
 62
7
  6
CONTINUOUS
 10
414.0315238095
 20
126.8938571429
 11
414.0315238095
 21
137.6938571429
  0
LINE
  5
4A5
100
AcDbEntity
  8
0
100
AcDbLine
 62
7
  6
CONTINUOUS
 10
414.0315238095
 20
153.2938571429
 11
414.0315238095
 21
164.0938571429
  0
LINE
  5
4A6
100
AcDbEntity
  8
0
100
AcDbLine
 62
7
  6
CONTINUOUS
 10
414.0315238095
 20
170.8938571429
 11
414.0315238095
 21
181.6938571429
  0
LINE
  5
4A7
100
AcDbEntity
  8
0
100
AcDbLine
 62
7
  6
CONTINUOUS
 10
414.0315238095
 20
188.4938571429
 11
414.0315238095
 21
199.2938571429
  0
LINE
  5
4A8
100
AcDbEntity
  8
0
100
AcDbLine
 62
7
  6
CONTINUOUS
 10
414.0315238095
 20
214.8938571429
 11
414.0315238095
 21
225.6938571429
  0
LINE
  5
4A9
100
AcDbEntity
  8
0
100
AcDbLine
 62
7
  6
CONTINUOUS
 10
414.0315238095
 20
232.4938571429
 11
414.0315238095
 21
243.2938571429
  0
LINE
  5
4AA
100
AcDbEntity
  8
0
100
AcDbLine
 62
7
  6
CONTINUOUS
 10
414.0315238095
 20
250.0938571429
 11
414.0315238095
 21
260.8938571429
  0
LINE
  5
4AB
100
AcDbEntity
  8
0
100
AcDbLine
 62
7
  6
CONTINUOUS
 10
414.0315238095
 20
276.4938571429
 11
414.0315238095
 21
287.2938571429
  0
LINE
  5
4AC
100
AcDbEntity
  8
0
100
AcDbLine
 62
7
  6
CONTINUOUS
 10
414.0315238095
 20
294.0938571429
 11
414.0315238095
 21
304.8938571429
  0
LINE
  5
4AD
100
AcDbEntity
  8
0
100
AcDbLine
 62
7
  6
CONTINUOUS
 10
414.0315238095
 20
311.6938571429
 11
414.0315238095
 21
322.4938571429
  0
LINE
  5
4AE
100
AcDbEntity
  8
0
100
AcDbLine
 62
7
  6
CONTINUOUS
 10
414.0315238095
 20
338.0938571429
 11
414.0315238095
 21
348.8938571429
  0
LINE
  5
4AF
100
AcDbEntity
  8
0
100
AcDbLine
 62
7
  6
CONTINUOUS
 10
414.0315238095
 20
355.6938571429
 11
414.0315238095
 21
366.4938571429
  0
LINE
  5
4B0
100
AcDbEntity
  8
0
100
AcDbLine
 62
7
  6
CONTINUOUS
 10
414.0315238095
 20
373.2938571429
 11
414.0315238095
 21
384.0938571429
  0
LINE
  5
4B1
100
AcDbEntity
  8
0
100
AcDbLine
 62
7
  6
CONTINUOUS
 10
414.0315238095
 20
399.6938571429
 11
414.0315238095
 21
410.4938571429
  0
LINE
  5
4B2
100
AcDbEntity
  8
0
100
AcDbLine
 62
7
  6
CONTINUOUS
 10
414.0315238095
 20
417.2938571429
 11
414.0315238095
 21
428.0938571429
  0
LINE
  5
4B3
100
AcDbEntity
  8
0
100
AcDbLine
 62
7
  6
CONTINUOUS
 10
414.0315238095
 20
434.8938571429
 11
414.0315238095
 21
445.6938571429
  0
LINE
  5
4B4
100
AcDbEntity
  8
0
100
AcDbLine
 62
7
  6
CONTINUOUS
 10
414.0315238095
 20
461.2938571429
 11
414.0315238095
 21
472.0938571429
  0
LINE
  5
4B5
100
AcDbEntity
  8
0
100
AcDbLine
 62
7
  6
CONTINUOUS
 10
414.0315238095
 20
478.8938571429
 11
414.0315238095
 21
489.6938571429
  0
LINE
  5
4B6
100
AcDbEntity
  8
0
100
AcDbLine
 62
7
  6
CONTINUOUS
 10
414.0315238095
 20
496.4938571429
 11
414.0315238095
 21
507.2938571429
  0
LINE
  5
4B7
100
AcDbEntity
  8
0
100
AcDbLine
 62
7
  6
CONTINUOUS
 10
414.0315238095
 20
522.8938571429
 11
414.0315238095
 21
533.6938571429
  0
LINE
  5
4B8
100
AcDbEntity
  8
0
100
AcDbLine
 62
7
  6
CONTINUOUS
 10
414.0315238095
 20
540.4938571429
 11
414.0315238095
 21
551.2938571429
  0
LINE
  5
4B9
100
AcDbEntity
  8
0
100
AcDbLine
 62
7
  6
CONTINUOUS
 10
414.0315238095
 20
558.0938571429
 11
414.0315238095
 21
568.8938571429
  0
LINE
  5
4BA
100
AcDbEntity
  8
0
100
AcDbLine
 62
7
  6
CONTINUOUS
 10
414.0315238095
 20
584.4938571429
 11
414.0315238095
 21
595.2938571429
  0
LINE
  5
4BB
100
AcDbEntity
  8
0
100
AcDbLine
 62
7
  6
CONTINUOUS
 10
414.0315238095
 20
602.0938571429
 11
414.0315238095
 21
612.8938571429
  0
LINE
  5
4BC
100
AcDbEntity
  8
0
100
AcDbLine
 62
7
  6
CONTINUOUS
 10
414.0315238095
 20
619.6938571429
 11
414.0315238095
 21
630.4938571429
  0
LINE
  5
4BD
100
AcDbEntity
  8
0
100
AcDbLine
 62
7
  6
CONTINUOUS
 10
414.0315238095
 20
646.0938571429
 11
414.0315238095
 21
656.8938571429
  0
LINE
  5
4BE
100
AcDbEntity
  8
0
100
AcDbLine
 62
7
  6
CONTINUOUS
 10
414.0315238095
 20
663.6938571429
 11
414.0315238095
 21
674.4938571429
  0
LINE
  5
4BF
100
AcDbEntity
  8
0
100
AcDbLine
 62
7
  6
CONTINUOUS
 10
414.0315238095
 20
681.2938571429
 11
414.0315238095
 21
692.0938571429
  0
LINE
  5
4C0
100
AcDbEntity
  8
0
100
AcDbLine
 62
7
  6
CONTINUOUS
 10
414.0315238095
 20
707.6938571429
 11
414.0315238095
 21
718.4938571429
  0
LINE
  5
4C1
100
AcDbEntity
  8
0
100
AcDbLine
 62
7
  6
CONTINUOUS
 10
414.0315238095
 20
725.2938571429
 11
414.0315238095
 21
736.0938571429
  0
LINE
  5
4C2
100
AcDbEntity
  8
0
100
AcDbLine
 62
7
  6
CONTINUOUS
 10
414.0315238095
 20
742.8938571429
 11
414.0315238095
 21
753.6938571429
  0
LINE
  5
4C3
100
AcDbEntity
  8
0
100
AcDbLine
 62
7
  6
CONTINUOUS
 10
414.0315238095
 20
769.2938571429
 11
414.0315238095
 21
780.0938571429
  0
LINE
  5
4C4
100
AcDbEntity
  8
0
100
AcDbLine
 62
7
  6
CONTINUOUS
 10
414.0315238095
 20
786.8938571429
 11
414.0315238095
 21
797.6938571429
  0
LINE
  5
4C5
100
AcDbEntity
  8
0
100
AcDbLine
 62
7
  6
CONTINUOUS
 10
414.0315238095
 20
804.4938571429
 11
414.0315238095
 21
815.2938571429
  0
LINE
  5
4C6
100
AcDbEntity
  8
0
100
AcDbLine
 62
7
  6
CONTINUOUS
 10
414.0315238095
 20
830.8938571429
 11
414.0315238095
 21
841.6938571429
  0
LINE
  5
4C7
100
AcDbEntity
  8
0
100
AcDbLine
 62
7
  6
CONTINUOUS
 10
414.0315238095
 20
848.4938571429
 11
414.0315238095
 21
859.2938571429
  0
LINE
  5
4C8
100
AcDbEntity
  8
0
100
AcDbLine
 62
7
  6
CONTINUOUS
 10
414.0315238095
 20
866.0938571429
 11
414.0315238095
 21
876.8938571429
  0
LINE
  5
4C9
100
AcDbEntity
  8
0
100
AcDbLine
 62
7
  6
CONTINUOUS
 10
414.0315238095
 20
892.4938571429
 11
414.0315238095
 21
903.2938571429
  0
LINE
  5
4CA
100
AcDbEntity
  8
0
100
AcDbLine
 62
7
  6
CONTINUOUS
 10
414.0315238095
 20
910.0938571429
 11
414.0315238095
 21
920.8938571429
  0
LINE
  5
4CB
100
AcDbEntity
  8
0
100
AcDbLine
 62
7
  6
CONTINUOUS
 10
414.0315238095
 20
927.6938571429
 11
414.0315238095
 21
938.4938571429
  0
LINE
  5
4CC
100
AcDbEntity
  8
0
100
AcDbLine
 62
7
  6
CONTINUOUS
 10
414.0315238095
 20
954.0938571429
 11
414.0315238095
 21
964.8938571429
  0
LINE
  5
4CD
100
AcDbEntity
  8
0
100
AcDbLine
 62
7
  6
CONTINUOUS
 10
414.0315238095
 20
971.6938571429
 11
414.0315238095
 21
982.4938571429
  0
LINE
  5
4CE
100
AcDbEntity
  8
0
100
AcDbLine
 62
7
  6
CONTINUOUS
 10
414.0315238095
 20
989.2938571429
 11
414.0315238095
 21
1000.0938571429
  0
LINE
  5
4CF
100
AcDbEntity
  8
0
100
AcDbLine
 62
7
  6
CONTINUOUS
 10
414.0315238095
 20
1015.6938571429
 11
414.0315238095
 21
1026.4938571429
  0
LINE
  5
4D0
100
AcDbEntity
  8
0
100
AcDbLine
 62
7
  6
CONTINUOUS
 10
414.0315238095
 20
1033.2938571429
 11
414.0315238095
 21
1044.0938571429
  0
LINE
  5
4D1
100
AcDbEntity
  8
0
100
AcDbLine
 62
7
  6
CONTINUOUS
 10
414.0315238095
 20
1050.8938571429
 11
414.0315238095
 21
1061.6938571429
  0
LINE
  5
4D2
100
AcDbEntity
  8
0
100
AcDbLine
 62
7
  6
CONTINUOUS
 10
415.0318520286
 20
91.0938064842
 11
415.0318520286
 21
103.0938571429
  0
LINE
  5
4D3
100
AcDbEntity
  8
0
100
AcDbLine
 62
7
  6
CONTINUOUS
 10
415.0318520286
 20
108.6938571429
 11
415.0318520286
 21
120.6939078016
  0
LINE
  5
4D4
100
AcDbEntity
  8
0
100
AcDbLine
 62
7
  6
CONTINUOUS
 10
415.0318520286
 20
126.2938064842
 11
415.0318520286
 21
138.2939078016
  0
LINE
  5
4D5
100
AcDbEntity
  8
0
100
AcDbLine
 62
7
  6
CONTINUOUS
 10
415.0318520286
 20
152.6938064842
 11
415.0318520286
 21
164.6938571429
  0
LINE
  5
4D6
100
AcDbEntity
  8
0
100
AcDbLine
 62
7
  6
CONTINUOUS
 10
415.0318520286
 20
170.2938571429
 11
415.0318520286
 21
182.2939078016
  0
LINE
  5
4D7
100
AcDbEntity
  8
0
100
AcDbLine
 62
7
  6
CONTINUOUS
 10
415.0318520286
 20
187.8938064842
 11
415.0318520286
 21
199.8939078016
  0
LINE
  5
4D8
100
AcDbEntity
  8
0
100
AcDbLine
 62
7
  6
CONTINUOUS
 10
415.0318520286
 20
214.2938064842
 11
415.0318520286
 21
226.2938571429
  0
LINE
  5
4D9
100
AcDbEntity
  8
0
100
AcDbLine
 62
7
  6
CONTINUOUS
 10
415.0318520286
 20
231.8938571429
 11
415.0318520286
 21
243.8939078016
  0
LINE
  5
4DA
100
AcDbEntity
  8
0
100
AcDbLine
 62
7
  6
CONTINUOUS
 10
415.0318520286
 20
249.4938064842
 11
415.0318520286
 21
261.4939078016
  0
LINE
  5
4DB
100
AcDbEntity
  8
0
100
AcDbLine
 62
7
  6
CONTINUOUS
 10
415.0318520286
 20
275.8938064842
 11
415.0318520286
 21
287.8938571429
  0
LINE
  5
4DC
100
AcDbEntity
  8
0
100
AcDbLine
 62
7
  6
CONTINUOUS
 10
415.0318520286
 20
293.4938571429
 11
415.0318520286
 21
305.4939078016
  0
LINE
  5
4DD
100
AcDbEntity
  8
0
100
AcDbLine
 62
7
  6
CONTINUOUS
 10
415.0318520286
 20
311.0938064842
 11
415.0318520286
 21
323.0939078016
  0
LINE
  5
4DE
100
AcDbEntity
  8
0
100
AcDbLine
 62
7
  6
CONTINUOUS
 10
415.0318520286
 20
337.4938064842
 11
415.0318520286
 21
349.4938571429
  0
LINE
  5
4DF
100
AcDbEntity
  8
0
100
AcDbLine
 62
7
  6
CONTINUOUS
 10
415.0318520286
 20
355.0938571429
 11
415.0318520286
 21
367.0939078016
  0
LINE
  5
4E0
100
AcDbEntity
  8
0
100
AcDbLine
 62
7
  6
CONTINUOUS
 10
415.0318520286
 20
372.6938064842
 11
415.0318520286
 21
384.6939078016
  0
LINE
  5
4E1
100
AcDbEntity
  8
0
100
AcDbLine
 62
7
  6
CONTINUOUS
 10
415.0318520286
 20
399.0938064842
 11
415.0318520286
 21
411.0938571429
  0
LINE
  5
4E2
100
AcDbEntity
  8
0
100
AcDbLine
 62
7
  6
CONTINUOUS
 10
415.0318520286
 20
416.6938571429
 11
415.0318520286
 21
428.6939078016
  0
LINE
  5
4E3
100
AcDbEntity
  8
0
100
AcDbLine
 62
7
  6
CONTINUOUS
 10
415.0318520286
 20
434.2938064842
 11
415.0318520286
 21
446.2939078016
  0
LINE
  5
4E4
100
AcDbEntity
  8
0
100
AcDbLine
 62
7
  6
CONTINUOUS
 10
415.0318520286
 20
460.6938064842
 11
415.0318520286
 21
472.6938571429
  0
LINE
  5
4E5
100
AcDbEntity
  8
0
100
AcDbLine
 62
7
  6
CONTINUOUS
 10
415.0318520286
 20
478.2938571429
 11
415.0318520286
 21
490.2939078016
  0
LINE
  5
4E6
100
AcDbEntity
  8
0
100
AcDbLine
 62
7
  6
CONTINUOUS
 10
415.0318520286
 20
495.8938064842
 11
415.0318520286
 21
507.8939078016
  0
LINE
  5
4E7
100
AcDbEntity
  8
0
100
AcDbLine
 62
7
  6
CONTINUOUS
 10
415.0318520286
 20
522.2938064842
 11
415.0318520286
 21
534.2938571429
  0
LINE
  5
4E8
100
AcDbEntity
  8
0
100
AcDbLine
 62
7
  6
CONTINUOUS
 10
415.0318520286
 20
539.8938571429
 11
415.0318520286
 21
551.8939078016
  0
LINE
  5
4E9
100
AcDbEntity
  8
0
100
AcDbLine
 62
7
  6
CONTINUOUS
 10
415.0318520286
 20
557.4938064842
 11
415.0318520286
 21
569.4939078016
  0
LINE
  5
4EA
100
AcDbEntity
  8
0
100
AcDbLine
 62
7
  6
CONTINUOUS
 10
415.0318520286
 20
583.8938064842
 11
415.0318520286
 21
595.8938571429
  0
LINE
  5
4EB
100
AcDbEntity
  8
0
100
AcDbLine
 62
7
  6
CONTINUOUS
 10
415.0318520286
 20
601.4938571429
 11
415.0318520286
 21
613.4939078016
  0
LINE
  5
4EC
100
AcDbEntity
  8
0
100
AcDbLine
 62
7
  6
CONTINUOUS
 10
415.0318520286
 20
619.0938064842
 11
415.0318520286
 21
631.0939078016
  0
LINE
  5
4ED
100
AcDbEntity
  8
0
100
AcDbLine
 62
7
  6
CONTINUOUS
 10
415.0318520286
 20
645.4938064842
 11
415.0318520286
 21
657.4938571429
  0
LINE
  5
4EE
100
AcDbEntity
  8
0
100
AcDbLine
 62
7
  6
CONTINUOUS
 10
415.0318520286
 20
663.0938571429
 11
415.0318520286
 21
675.0939078016
  0
LINE
  5
4EF
100
AcDbEntity
  8
0
100
AcDbLine
 62
7
  6
CONTINUOUS
 10
415.0318520286
 20
680.6938064842
 11
415.0318520286
 21
692.6939078016
  0
LINE
  5
4F0
100
AcDbEntity
  8
0
100
AcDbLine
 62
7
  6
CONTINUOUS
 10
415.0318520286
 20
707.0938064842
 11
415.0318520286
 21
719.0938571429
  0
LINE
  5
4F1
100
AcDbEntity
  8
0
100
AcDbLine
 62
7
  6
CONTINUOUS
 10
415.0318520286
 20
724.6938571429
 11
415.0318520286
 21
736.6939078016
  0
LINE
  5
4F2
100
AcDbEntity
  8
0
100
AcDbLine
 62
7
  6
CONTINUOUS
 10
415.0318520286
 20
742.2938064842
 11
415.0318520286
 21
754.2939078016
  0
LINE
  5
4F3
100
AcDbEntity
  8
0
100
AcDbLine
 62
7
  6
CONTINUOUS
 10
415.0318520286
 20
768.6938064842
 11
415.0318520286
 21
780.6938571429
  0
LINE
  5
4F4
100
AcDbEntity
  8
0
100
AcDbLine
 62
7
  6
CONTINUOUS
 10
415.0318520286
 20
786.2938571429
 11
415.0318520286
 21
798.2939078016
  0
LINE
  5
4F5
100
AcDbEntity
  8
0
100
AcDbLine
 62
7
  6
CONTINUOUS
 10
415.0318520286
 20
803.8938064842
 11
415.0318520286
 21
815.8939078016
  0
LINE
  5
4F6
100
AcDbEntity
  8
0
100
AcDbLine
 62
7
  6
CONTINUOUS
 10
415.0318520286
 20
830.2938064842
 11
415.0318520286
 21
842.2938571429
  0
LINE
  5
4F7
100
AcDbEntity
  8
0
100
AcDbLine
 62
7
  6
CONTINUOUS
 10
415.0318520286
 20
847.8938571429
 11
415.0318520286
 21
859.8939078016
  0
LINE
  5
4F8
100
AcDbEntity
  8
0
100
AcDbLine
 62
7
  6
CONTINUOUS
 10
415.0318520286
 20
865.4938064842
 11
415.0318520286
 21
877.4939078016
  0
LINE
  5
4F9
100
AcDbEntity
  8
0
100
AcDbLine
 62
7
  6
CONTINUOUS
 10
415.0318520286
 20
891.8938064842
 11
415.0318520286
 21
903.8938571429
  0
LINE
  5
4FA
100
AcDbEntity
  8
0
100
AcDbLine
 62
7
  6
CONTINUOUS
 10
415.0318520286
 20
909.4938571429
 11
415.0318520286
 21
921.4939078016
  0
LINE
  5
4FB
100
AcDbEntity
  8
0
100
AcDbLine
 62
7
  6
CONTINUOUS
 10
415.0318520286
 20
927.0938064842
 11
415.0318520286
 21
939.0939078016
  0
LINE
  5
4FC
100
AcDbEntity
  8
0
100
AcDbLine
 62
7
  6
CONTINUOUS
 10
415.0318520286
 20
953.4938064842
 11
415.0318520286
 21
965.4938571429
  0
LINE
  5
4FD
100
AcDbEntity
  8
0
100
AcDbLine
 62
7
  6
CONTINUOUS
 10
415.0318520286
 20
971.0938571429
 11
415.0318520286
 21
983.0939078016
  0
LINE
  5
4FE
100
AcDbEntity
  8
0
100
AcDbLine
 62
7
  6
CONTINUOUS
 10
415.0318520286
 20
988.6938064842
 11
415.0318520286
 21
1000.6939078016
  0
LINE
  5
4FF
100
AcDbEntity
  8
0
100
AcDbLine
 62
7
  6
CONTINUOUS
 10
415.0318520286
 20
1015.0938064842
 11
415.0318520286
 21
1027.0938571429
  0
LINE
  5
500
100
AcDbEntity
  8
0
100
AcDbLine
 62
7
  6
CONTINUOUS
 10
415.0318520286
 20
1032.6938571429
 11
415.0318520286
 21
1044.6939078016
  0
LINE
  5
501
100
AcDbEntity
  8
0
100
AcDbLine
 62
7
  6
CONTINUOUS
 10
415.0318520286
 20
1050.2938064842
 11
415.0318520286
 21
1062.2939078016
  0
LINE
  5
502
100
AcDbEntity
  8
0
100
AcDbLine
 62
7
  6
CONTINUOUS
 10
415.5315238095
 20
90.5938571429
 11
415.5315238095
 21
103.5938571429
  0
LINE
  5
503
100
AcDbEntity
  8
0
100
AcDbLine
 62
7
  6
CONTINUOUS
 10
415.5315238095
 20
108.1938571429
 11
415.5315238095
 21
121.1938571429
  0
LINE
  5
504
100
AcDbEntity
  8
0
100
AcDbLine
 62
7
  6
CONTINUOUS
 10
415.5315238095
 20
125.7938571429
 11
415.5315238095
 21
138.7938571429
  0
LINE
  5
505
100
AcDbEntity
  8
0
100
AcDbLine
 62
7
  6
CONTINUOUS
 10
415.5315238095
 20
152.1938571429
 11
415.5315238095
 21
165.1938571429
  0
LINE
  5
506
100
AcDbEntity
  8
0
100
AcDbLine
 62
7
  6
CONTINUOUS
 10
415.5315238095
 20
169.7938571429
 11
415.5315238095
 21
182.7938571429
  0
LINE
  5
507
100
AcDbEntity
  8
0
100
AcDbLine
 62
7
  6
CONTINUOUS
 10
415.5315238095
 20
187.3938571429
 11
415.5315238095
 21
200.3938571429
  0
LINE
  5
508
100
AcDbEntity
  8
0
100
AcDbLine
 62
7
  6
CONTINUOUS
 10
415.5315238095
 20
213.7938571429
 11
415.5315238095
 21
226.7938571429
  0
LINE
  5
509
100
AcDbEntity
  8
0
100
AcDbLine
 62
7
  6
CONTINUOUS
 10
415.5315238095
 20
231.3938571429
 11
415.5315238095
 21
244.3938571429
  0
LINE
  5
50A
100
AcDbEntity
  8
0
100
AcDbLine
 62
7
  6
CONTINUOUS
 10
415.5315238095
 20
248.9938571429
 11
415.5315238095
 21
261.9938571429
  0
LINE
  5
50B
100
AcDbEntity
  8
0
100
AcDbLine
 62
7
  6
CONTINUOUS
 10
415.5315238095
 20
275.3938571429
 11
415.5315238095
 21
288.3938571429
  0
LINE
  5
50C
100
AcDbEntity
  8
0
100
AcDbLine
 62
7
  6
CONTINUOUS
 10
415.5315238095
 20
292.9938571429
 11
415.5315238095
 21
305.9938571429
  0
LINE
  5
50D
100
AcDbEntity
  8
0
100
AcDbLine
 62
7
  6
CONTINUOUS
 10
415.5315238095
 20
310.5938571429
 11
415.5315238095
 21
323.5938571429
  0
LINE
  5
50E
100
AcDbEntity
  8
0
100
AcDbLine
 62
7
  6
CONTINUOUS
 10
415.5315238095
 20
336.9938571429
 11
415.5315238095
 21
349.9938571429
  0
LINE
  5
50F
100
AcDbEntity
  8
0
100
AcDbLine
 62
7
  6
CONTINUOUS
 10
415.5315238095
 20
354.5938571429
 11
415.5315238095
 21
367.5938571429
  0
LINE
  5
510
100
AcDbEntity
  8
0
100
AcDbLine
 62
7
  6
CONTINUOUS
 10
415.5315238095
 20
372.1938571429
 11
415.5315238095
 21
385.1938571429
  0
LINE
  5
511
100
AcDbEntity
  8
0
100
AcDbLine
 62
7
  6
CONTINUOUS
 10
415.5315238095
 20
398.5938571429
 11
415.5315238095
 21
411.5938571429
  0
LINE
  5
512
100
AcDbEntity
  8
0
100
AcDbLine
 62
7
  6
CONTINUOUS
 10
415.5315238095
 20
416.1938571429
 11
415.5315238095
 21
429.1938571429
  0
LINE
  5
513
100
AcDbEntity
  8
0
100
AcDbLine
 62
7
  6
CONTINUOUS
 10
415.5315238095
 20
433.7938571429
 11
415.5315238095
 21
446.7938571429
  0
LINE
  5
514
100
AcDbEntity
  8
0
100
AcDbLine
 62
7
  6
CONTINUOUS
 10
415.5315238095
 20
460.1938571429
 11
415.5315238095
 21
473.1938571429
  0
LINE
  5
515
100
AcDbEntity
  8
0
100
AcDbLine
 62
7
  6
CONTINUOUS
 10
415.5315238095
 20
477.7938571429
 11
415.5315238095
 21
490.7938571429
  0
LINE
  5
516
100
AcDbEntity
  8
0
100
AcDbLine
 62
7
  6
CONTINUOUS
 10
415.5315238095
 20
495.3938571429
 11
415.5315238095
 21
508.3938571429
  0
LINE
  5
517
100
AcDbEntity
  8
0
100
AcDbLine
 62
7
  6
CONTINUOUS
 10
415.5315238095
 20
521.7938571429
 11
415.5315238095
 21
534.7938571429
  0
LINE
  5
518
100
AcDbEntity
  8
0
100
AcDbLine
 62
7
  6
CONTINUOUS
 10
415.5315238095
 20
539.3938571429
 11
415.5315238095
 21
552.3938571429
  0
LINE
  5
519
100
AcDbEntity
  8
0
100
AcDbLine
 62
7
  6
CONTINUOUS
 10
415.5315238095
 20
556.9938571429
 11
415.5315238095
 21
569.9938571429
  0
LINE
  5
51A
100
AcDbEntity
  8
0
100
AcDbLine
 62
7
  6
CONTINUOUS
 10
415.5315238095
 20
583.3938571429
 11
415.5315238095
 21
596.3938571429
  0
LINE
  5
51B
100
AcDbEntity
  8
0
100
AcDbLine
 62
7
  6
CONTINUOUS
 10
415.5315238095
 20
600.9938571429
 11
415.5315238095
 21
613.9938571429
  0
LINE
  5
51C
100
AcDbEntity
  8
0
100
AcDbLine
 62
7
  6
CONTINUOUS
 10
415.5315238095
 20
618.5938571429
 11
415.5315238095
 21
631.5938571429
  0
LINE
  5
51D
100
AcDbEntity
  8
0
100
AcDbLine
 62
7
  6
CONTINUOUS
 10
415.5315238095
 20
644.9938571429
 11
415.5315238095
 21
657.9938571429
  0
LINE
  5
51E
100
AcDbEntity
  8
0
100
AcDbLine
 62
7
  6
CONTINUOUS
 10
415.5315238095
 20
662.5938571429
 11
415.5315238095
 21
675.5938571429
  0
LINE
  5
51F
100
AcDbEntity
  8
0
100
AcDbLine
 62
7
  6
CONTINUOUS
 10
415.5315238095
 20
680.1938571429
 11
415.5315238095
 21
693.1938571429
  0
LINE
  5
520
100
AcDbEntity
  8
0
100
AcDbLine
 62
7
  6
CONTINUOUS
 10
415.5315238095
 20
706.5938571429
 11
415.5315238095
 21
719.5938571429
  0
LINE
  5
521
100
AcDbEntity
  8
0
100
AcDbLine
 62
7
  6
CONTINUOUS
 10
415.5315238095
 20
724.1938571429
 11
415.5315238095
 21
737.1938571429
  0
LINE
  5
522
100
AcDbEntity
  8
0
100
AcDbLine
 62
7
  6
CONTINUOUS
 10
415.5315238095
 20
741.7938571429
 11
415.5315238095
 21
754.7938571429
  0
LINE
  5
523
100
AcDbEntity
  8
0
100
AcDbLine
 62
7
  6
CONTINUOUS
 10
415.5315238095
 20
768.1938571429
 11
415.5315238095
 21
781.1938571429
  0
LINE
  5
524
100
AcDbEntity
  8
0
100
AcDbLine
 62
7
  6
CONTINUOUS
 10
415.5315238095
 20
785.7938571429
 11
415.5315238095
 21
798.7938571429
  0
LINE
  5
525
100
AcDbEntity
  8
0
100
AcDbLine
 62
7
  6
CONTINUOUS
 10
415.5315238095
 20
803.3938571429
 11
415.5315238095
 21
816.3938571429
  0
LINE
  5
526
100
AcDbEntity
  8
0
100
AcDbLine
 62
7
  6
CONTINUOUS
 10
415.5315238095
 20
829.7938571429
 11
415.5315238095
 21
842.7938571429
  0
LINE
  5
527
100
AcDbEntity
  8
0
100
AcDbLine
 62
7
  6
CONTINUOUS
 10
415.5315238095
 20
847.3938571429
 11
415.5315238095
 21
860.3938571429
  0
LINE
  5
528
100
AcDbEntity
  8
0
100
AcDbLine
 62
7
  6
CONTINUOUS
 10
415.5315238095
 20
864.9938571429
 11
415.5315238095
 21
877.9938571429
  0
LINE
  5
529
100
AcDbEntity
  8
0
100
AcDbLine
 62
7
  6
CONTINUOUS
 10
415.5315238095
 20
891.3938571429
 11
415.5315238095
 21
904.3938571429
  0
LINE
  5
52A
100
AcDbEntity
  8
0
100
AcDbLine
 62
7
  6
CONTINUOUS
 10
415.5315238095
 20
908.9938571429
 11
415.5315238095
 21
921.9938571429
  0
LINE
  5
52B
100
AcDbEntity
  8
0
100
AcDbLine
 62
7
  6
CONTINUOUS
 10
415.5315238095
 20
926.5938571429
 11
415.5315238095
 21
939.5938571429
  0
LINE
  5
52C
100
AcDbEntity
  8
0
100
AcDbLine
 62
7
  6
CONTINUOUS
 10
415.5315238095
 20
952.9938571429
 11
415.5315238095
 21
965.9938571429
  0
LINE
  5
52D
100
AcDbEntity
  8
0
100
AcDbLine
 62
7
  6
CONTINUOUS
 10
415.5315238095
 20
970.5938571429
 11
415.5315238095
 21
983.5938571429
  0
LINE
  5
52E
100
AcDbEntity
  8
0
100
AcDbLine
 62
7
  6
CONTINUOUS
 10
415.5315238095
 20
988.1938571429
 11
415.5315238095
 21
1001.1938571429
  0
LINE
  5
52F
100
AcDbEntity
  8
0
100
AcDbLine
 62
7
  6
CONTINUOUS
 10
415.5315238095
 20
1014.5938571429
 11
415.5315238095
 21
1027.5938571429
  0
LINE
  5
530
100
AcDbEntity
  8
0
100
AcDbLine
 62
7
  6
CONTINUOUS
 10
415.5315238095
 20
1032.1938571429
 11
415.5315238095
 21
1045.1938571429
  0
LINE
  5
531
100
AcDbEntity
  8
0
100
AcDbLine
 62
7
  6
CONTINUOUS
 10
415.5315238095
 20
1049.7938571429
 11
415.5315238095
 21
1062.7938571429
  0
LINE
  5
532
100
AcDbEntity
  8
0
100
AcDbLine
 62
7
  6
CONTINUOUS
 10
416.5315238095
 20
84.9938571429
 11
416.5315238095
 21
1068.3938571429
  0
LINE
  5
533
100
AcDbEntity
  8
0
100
AcDbLine
 62
7
  6
CONTINUOUS
 10
416.8315238095
 20
1068.3938571429
 11
416.8315238095
 21
84.9938571429
  0
LINE
  5
534
100
AcDbEntity
  8
0
100
AcDbLine
 62
7
  6
CONTINUOUS
 10
415.5315238095
 20
583.3938571429
 11
397.5315238095
 21
583.3938571429
  0
LINE
  5
535
100
AcDbEntity
  8
0
100
AcDbLine
 62
7
  6
CONTINUOUS
 10
397.5315238095
 20
583.8938571429
 11
415.0318520286
 21
583.8938064842
  0
LINE
  5
536
100
AcDbEntity
  8
0
100
AcDbLine
 62
7
  6
CONTINUOUS
 10
397.5315238095
 20
584.4938571429
 11
414.0315238095
 21
584.4938571429
  0
LINE
  5
537
100
AcDbEntity
  8
0
100
AcDbLine
 62
7
  6
CONTINUOUS
 10
397.5315238095
 20
584.9938571429
 11
412.5315238095
 21
584.9938571429
  0
LINE
  5
538
100
AcDbEntity
  8
0
100
AcDbLine
 62
7
  6
CONTINUOUS
 10
397.5315238095
 20
585.3938571429
 11
409.1394767029
 21
585.3938571429
  0
LINE
  5
539
100
AcDbEntity
  8
0
100
AcDbLine
 62
7
  6
CONTINUOUS
 10
397.5315238095
 20
587.3938571429
 11
402.9771694738
 21
587.3938571429
  0
LINE
  5
53A
100
AcDbEntity
  8
0
100
AcDbLine
 62
7
  6
CONTINUOUS
 10
399.3315238095
 20
587.8938571429
 11
397.5315238095
 21
587.8938571429
  0
LINE
  5
53B
100
AcDbEntity
  8
0
100
AcDbLine
 62
7
  6
CONTINUOUS
 10
399.3315238095
 20
591.8938571429
 11
397.5315238095
 21
591.8938571429
  0
LINE
  5
53C
100
AcDbEntity
  8
0
100
AcDbLine
 62
7
  6
CONTINUOUS
 10
402.7807184738
 20
592.3938571429
 11
397.5315238095
 21
592.3938571429
  0
LINE
  5
53D
100
AcDbEntity
  8
0
100
AcDbLine
 62
7
  6
CONTINUOUS
 10
397.5315238095
 20
594.3938571429
 11
409.1394767029
 21
594.3938571429
  0
LINE
  5
53E
100
AcDbEntity
  8
0
100
AcDbLine
 62
7
  6
CONTINUOUS
 10
412.5315238095
 20
594.7938571429
 11
397.5315238095
 21
594.7938571429
  0
LINE
  5
53F
100
AcDbEntity
  8
0
100
AcDbLine
 62
7
  6
CONTINUOUS
 10
397.5315238095
 20
595.2938571429
 11
414.0315238095
 21
595.2938571429
  0
LINE
  5
540
100
AcDbEntity
  8
0
100
AcDbLine
 62
7
  6
CONTINUOUS
 10
415.0318520286
 20
595.8938571429
 11
397.5315238095
 21
595.8938571429
  0
LINE
  5
541
100
AcDbEntity
  8
0
100
AcDbLine
 62
7
  6
CONTINUOUS
 10
397.5315238095
 20
596.3938571429
 11
415.5315238095
 21
596.3938571429
  0
LINE
  5
542
100
AcDbEntity
  8
0
100
AcDbLine
 62
7
  6
CONTINUOUS
 10
415.5315238095
 20
600.9938571429
 11
397.5315238095
 21
600.9938571429
  0
LINE
  5
543
100
AcDbEntity
  8
0
100
AcDbLine
 62
7
  6
CONTINUOUS
 10
397.5315238095
 20
601.4938571429
 11
415.0318520286
 21
601.4938571429
  0
LINE
  5
544
100
AcDbEntity
  8
0
100
AcDbLine
 62
7
  6
CONTINUOUS
 10
397.5315238095
 20
602.0938571429
 11
414.0315238095
 21
602.0938571429
  0
LINE
  5
545
100
AcDbEntity
  8
0
100
AcDbLine
 62
7
  6
CONTINUOUS
 10
397.5315238095
 20
602.5938571429
 11
412.5315238095
 21
602.5938571429
  0
LINE
  5
546
100
AcDbEntity
  8
0
100
AcDbLine
 62
7
  6
CONTINUOUS
 10
397.5315238095
 20
602.9938571429
 11
409.1394767029
 21
602.9938571429
  0
LINE
  5
547
100
AcDbEntity
  8
0
100
AcDbLine
 62
7
  6
CONTINUOUS
 10
397.5315238095
 20
604.9938571429
 11
402.7807184738
 21
604.9938571429
  0
LINE
  5
548
100
AcDbEntity
  8
0
100
AcDbLine
 62
7
  6
CONTINUOUS
 10
399.3315238095
 20
605.4938571429
 11
397.5315238095
 21
605.4938571429
  0
LINE
  5
549
100
AcDbEntity
  8
0
100
AcDbLine
 62
7
  6
CONTINUOUS
 10
399.3315238095
 20
609.4938571429
 11
397.5315238095
 21
609.4938571429
  0
LINE
  5
54A
100
AcDbEntity
  8
0
100
AcDbLine
 62
7
  6
CONTINUOUS
 10
399.3315238095
 20
609.9938571429
 11
397.5315238095
 21
609.9938571429
  0
LINE
  5
54B
100
AcDbEntity
  8
0
100
AcDbLine
 62
7
  6
CONTINUOUS
 10
397.5315238095
 20
611.9938571429
 11
409.1394767029
 21
611.9938571429
  0
LINE
  5
54C
100
AcDbEntity
  8
0
100
AcDbLine
 62
7
  6
CONTINUOUS
 10
412.5315238095
 20
612.3938571429
 11
397.5315238095
 21
612.3938571429
  0
LINE
  5
54D
100
AcDbEntity
  8
0
100
AcDbLine
 62
7
  6
CONTINUOUS
 10
397.5315238095
 20
612.8938571429
 11
414.0315238095
 21
612.8938571429
  0
LINE
  5
54E
100
AcDbEntity
  8
0
100
AcDbLine
 62
7
  6
CONTINUOUS
 10
397.5315238095
 20
613.4938571429
 11
415.0318520286
 21
613.4939078016
  0
LINE
  5
54F
100
AcDbEntity
  8
0
100
AcDbLine
 62
7
  6
CONTINUOUS
 10
402.7807184738
 20
609.989338286
 11
399.3315238095
 21
609.9904215466
  0
LINE
  5
550
100
AcDbEntity
  8
0
100
AcDbLine
 62
7
  6
CONTINUOUS
 10
397.5315238095
 20
613.9938571429
 11
415.5315238095
 21
613.9938571429
  0
LINE
  5
551
100
AcDbEntity
  8
0
100
AcDbLine
 62
7
  6
CONTINUOUS
 10
415.5315238095
 20
618.5938571429
 11
397.5315238095
 21
618.5938571429
  0
LINE
  5
552
100
AcDbEntity
  8
0
100
AcDbLine
 62
7
  6
CONTINUOUS
 10
397.5315238095
 20
619.0938571429
 11
415.0318520286
 21
619.0938064842
  0
LINE
  5
553
100
AcDbEntity
  8
0
100
AcDbLine
 62
7
  6
CONTINUOUS
 10
397.5315238095
 20
619.6938571429
 11
414.0315238095
 21
619.6938571429
  0
LINE
  5
554
100
AcDbEntity
  8
0
100
AcDbLine
 62
7
  6
CONTINUOUS
 10
397.5315238095
 20
620.1938571429
 11
412.5315238095
 21
620.1938571429
  0
LINE
  5
555
100
AcDbEntity
  8
0
100
AcDbLine
 62
7
  6
CONTINUOUS
 10
397.5315238095
 20
620.5938571429
 11
409.1394767029
 21
620.5938571429
  0
LINE
  5
556
100
AcDbEntity
  8
0
100
AcDbLine
 62
7
  6
CONTINUOUS
 10
397.5315238095
 20
622.5938571429
 11
402.7807184738
 21
622.5938571429
  0
LINE
  5
557
100
AcDbEntity
  8
0
100
AcDbLine
 62
7
  6
CONTINUOUS
 10
399.3315238095
 20
623.0938571429
 11
397.5315238095
 21
623.0938571429
  0
LINE
  5
558
100
AcDbEntity
  8
0
100
AcDbLine
 62
7
  6
CONTINUOUS
 10
399.3315238095
 20
627.0938571429
 11
397.5315238095
 21
627.0938571429
  0
LINE
  5
559
100
AcDbEntity
  8
0
100
AcDbLine
 62
7
  6
CONTINUOUS
 10
397.5315238095
 20
627.5938571429
 11
402.9771694738
 21
627.5938571429
  0
LINE
  5
55A
100
AcDbEntity
  8
0
100
AcDbLine
 62
7
  6
CONTINUOUS
 10
397.5315238095
 20
629.5938571429
 11
409.1394767029
 21
629.5938571429
  0
LINE
  5
55B
100
AcDbEntity
  8
0
100
AcDbLine
 62
7
  6
CONTINUOUS
 10
412.5315238095
 20
629.9938571429
 11
397.5315238095
 21
629.9938571429
  0
LINE
  5
55C
100
AcDbEntity
  8
0
100
AcDbLine
 62
7
  6
CONTINUOUS
 10
397.5315238095
 20
630.4938571429
 11
414.0315238095
 21
630.4938571429
  0
LINE
  5
55D
100
AcDbEntity
  8
0
100
AcDbLine
 62
7
  6
CONTINUOUS
 10
397.5315238095
 20
631.0938571429
 11
415.0318520286
 21
631.0939078016
  0
LINE
  5
55E
100
AcDbEntity
  8
0
100
AcDbLine
 62
7
  6
CONTINUOUS
 10
397.5315238095
 20
631.5938571429
 11
415.5315238095
 21
631.5938571429
  0
LINE
  5
55F
100
AcDbEntity
  8
0
100
AcDbLine
 62
7
  6
CONTINUOUS
 10
415.5315238095
 20
644.9938571429
 11
397.5315238095
 21
644.9938571429
  0
LINE
  5
560
100
AcDbEntity
  8
0
100
AcDbLine
 62
7
  6
CONTINUOUS
 10
397.5315238095
 20
645.4938571429
 11
415.0318520286
 21
645.4938064842
  0
LINE
  5
561
100
AcDbEntity
  8
0
100
AcDbLine
 62
7
  6
CONTINUOUS
 10
397.5315238095
 20
646.0938571429
 11
414.0315238095
 21
646.0938571429
  0
LINE
  5
562
100
AcDbEntity
  8
0
100
AcDbLine
 62
7
  6
CONTINUOUS
 10
397.5315238095
 20
646.5938571429
 11
412.5315238095
 21
646.5938571429
  0
LINE
  5
563
100
AcDbEntity
  8
0
100
AcDbLine
 62
7
  6
CONTINUOUS
 10
397.5315238095
 20
646.9938571429
 11
409.1394767029
 21
646.9938571429
  0
LINE
  5
564
100
AcDbEntity
  8
0
100
AcDbLine
 62
7
  6
CONTINUOUS
 10
397.5315238095
 20
648.9938571429
 11
402.9771694738
 21
648.9938571429
  0
LINE
  5
565
100
AcDbEntity
  8
0
100
AcDbLine
 62
7
  6
CONTINUOUS
 10
399.3315238095
 20
649.4938571429
 11
397.5315238095
 21
649.4938571429
  0
LINE
  5
566
100
AcDbEntity
  8
0
100
AcDbLine
 62
7
  6
CONTINUOUS
 10
399.3315238095
 20
653.4938571429
 11
397.5315238095
 21
653.4938571429
  0
LINE
  5
567
100
AcDbEntity
  8
0
100
AcDbLine
 62
7
  6
CONTINUOUS
 10
402.7807184738
 20
653.9938571429
 11
397.5315238095
 21
653.9938571429
  0
LINE
  5
568
100
AcDbEntity
  8
0
100
AcDbLine
 62
7
  6
CONTINUOUS
 10
397.5315238095
 20
655.9938571429
 11
409.1394767029
 21
655.9938571429
  0
LINE
  5
569
100
AcDbEntity
  8
0
100
AcDbLine
 62
7
  6
CONTINUOUS
 10
412.5315238095
 20
656.3938571429
 11
397.5315238095
 21
656.3938571429
  0
LINE
  5
56A
100
AcDbEntity
  8
0
100
AcDbLine
 62
7
  6
CONTINUOUS
 10
397.5315238095
 20
656.8938571429
 11
414.0315238095
 21
656.8938571429
  0
LINE
  5
56B
100
AcDbEntity
  8
0
100
AcDbLine
 62
7
  6
CONTINUOUS
 10
415.0318520286
 20
657.4938571429
 11
397.5315238095
 21
657.4938571429
  0
LINE
  5
56C
100
AcDbEntity
  8
0
100
AcDbLine
 62
7
  6
CONTINUOUS
 10
397.5315238095
 20
657.9938571429
 11
415.5315238095
 21
657.9938571429
  0
LINE
  5
56D
100
AcDbEntity
  8
0
100
AcDbLine
 62
7
  6
CONTINUOUS
 10
415.5315238095
 20
662.5938571429
 11
397.5315238095
 21
662.5938571429
  0
LINE
  5
56E
100
AcDbEntity
  8
0
100
AcDbLine
 62
7
  6
CONTINUOUS
 10
397.5315238095
 20
663.0938571429
 11
415.0318520286
 21
663.0938571429
  0
LINE
  5
56F
100
AcDbEntity
  8
0
100
AcDbLine
 62
7
  6
CONTINUOUS
 10
397.5315238095
 20
663.6938571429
 11
414.0315238095
 21
663.6938571429
  0
LINE
  5
570
100
AcDbEntity
  8
0
100
AcDbLine
 62
7
  6
CONTINUOUS
 10
397.5315238095
 20
664.1938571429
 11
412.5315238095
 21
664.1938571429
  0
LINE
  5
571
100
AcDbEntity
  8
0
100
AcDbLine
 62
7
  6
CONTINUOUS
 10
397.5315238095
 20
664.5938571429
 11
409.1394767029
 21
664.5938571429
  0
LINE
  5
572
100
AcDbEntity
  8
0
100
AcDbLine
 62
7
  6
CONTINUOUS
 10
397.5315238095
 20
666.5938571429
 11
402.7807184738
 21
666.5938571429
  0
LINE
  5
573
100
AcDbEntity
  8
0
100
AcDbLine
 62
7
  6
CONTINUOUS
 10
399.3315238095
 20
667.0938571429
 11
397.5315238095
 21
667.0938571429
  0
LINE
  5
574
100
AcDbEntity
  8
0
100
AcDbLine
 62
7
  6
CONTINUOUS
 10
399.3315238095
 20
671.0938571429
 11
397.5315238095
 21
671.0938571429
  0
LINE
  5
575
100
AcDbEntity
  8
0
100
AcDbLine
 62
7
  6
CONTINUOUS
 10
399.3315238095
 20
671.5938571429
 11
397.5315238095
 21
671.5938571429
  0
LINE
  5
576
100
AcDbEntity
  8
0
100
AcDbLine
 62
7
  6
CONTINUOUS
 10
397.5315238095
 20
673.5938571429
 11
409.1394767029
 21
673.5938571429
  0
LINE
  5
577
100
AcDbEntity
  8
0
100
AcDbLine
 62
7
  6
CONTINUOUS
 10
412.5315238095
 20
673.9938571429
 11
397.5315238095
 21
673.9938571429
  0
LINE
  5
578
100
AcDbEntity
  8
0
100
AcDbLine
 62
7
  6
CONTINUOUS
 10
397.5315238095
 20
674.4938571429
 11
414.0315238095
 21
674.4938571429
  0
LINE
  5
579
100
AcDbEntity
  8
0
100
AcDbLine
 62
7
  6
CONTINUOUS
 10
397.5315238095
 20
675.0938571429
 11
415.0318520286
 21
675.0939078016
  0
LINE
  5
57A
100
AcDbEntity
  8
0
100
AcDbLine
 62
7
  6
CONTINUOUS
 10
397.5315238095
 20
675.5938571429
 11
415.5315238095
 21
675.5938571429
  0
LINE
  5
57B
100
AcDbEntity
  8
0
100
AcDbLine
 62
7
  6
CONTINUOUS
 10
402.7807184738
 20
671.589338286
 11
399.3315238095
 21
671.5904215466
  0
LINE
  5
57C
100
AcDbEntity
  8
0
100
AcDbLine
 62
7
  6
CONTINUOUS
 10
415.5315238095
 20
680.1938571429
 11
397.5315238095
 21
680.1938571429
  0
LINE
  5
57D
100
AcDbEntity
  8
0
100
AcDbLine
 62
7
  6
CONTINUOUS
 10
397.5315238095
 20
680.6938571429
 11
415.0318520286
 21
680.6938064842
  0
LINE
  5
57E
100
AcDbEntity
  8
0
100
AcDbLine
 62
7
  6
CONTINUOUS
 10
397.5315238095
 20
681.2938571429
 11
414.0315238095
 21
681.2938571429
  0
LINE
  5
57F
100
AcDbEntity
  8
0
100
AcDbLine
 62
7
  6
CONTINUOUS
 10
397.5315238095
 20
681.7938571429
 11
412.5315238095
 21
681.7938571429
  0
LINE
  5
580
100
AcDbEntity
  8
0
100
AcDbLine
 62
7
  6
CONTINUOUS
 10
397.5315238095
 20
682.1938571429
 11
409.1394767029
 21
682.1938571429
  0
LINE
  5
581
100
AcDbEntity
  8
0
100
AcDbLine
 62
7
  6
CONTINUOUS
 10
397.5315238095
 20
684.1938571429
 11
402.7807184738
 21
684.1938571429
  0
LINE
  5
582
100
AcDbEntity
  8
0
100
AcDbLine
 62
7
  6
CONTINUOUS
 10
399.3315238095
 20
684.6938571429
 11
397.5315238095
 21
684.6938571429
  0
LINE
  5
583
100
AcDbEntity
  8
0
100
AcDbLine
 62
7
  6
CONTINUOUS
 10
399.3315238095
 20
688.6938571429
 11
397.5315238095
 21
688.6938571429
  0
LINE
  5
584
100
AcDbEntity
  8
0
100
AcDbLine
 62
7
  6
CONTINUOUS
 10
397.5315238095
 20
689.1938571429
 11
402.9771694738
 21
689.1938571429
  0
LINE
  5
585
100
AcDbEntity
  8
0
100
AcDbLine
 62
7
  6
CONTINUOUS
 10
397.5315238095
 20
691.1938571429
 11
409.1394767029
 21
691.1938571429
  0
LINE
  5
586
100
AcDbEntity
  8
0
100
AcDbLine
 62
7
  6
CONTINUOUS
 10
412.5315238095
 20
691.5938571429
 11
397.5315238095
 21
691.5938571429
  0
LINE
  5
587
100
AcDbEntity
  8
0
100
AcDbLine
 62
7
  6
CONTINUOUS
 10
397.5315238095
 20
692.0938571429
 11
414.0315238095
 21
692.0938571429
  0
LINE
  5
588
100
AcDbEntity
  8
0
100
AcDbLine
 62
7
  6
CONTINUOUS
 10
397.5315238095
 20
692.6938571429
 11
415.0318520286
 21
692.6939078016
  0
LINE
  5
589
100
AcDbEntity
  8
0
100
AcDbLine
 62
7
  6
CONTINUOUS
 10
397.5315238095
 20
693.1938571429
 11
415.5315238095
 21
693.1938571429
  0
LINE
  5
58A
100
AcDbEntity
  8
0
100
AcDbLine
 62
7
  6
CONTINUOUS
 10
415.5315238095
 20
706.5938571429
 11
397.5315238095
 21
706.5938571429
  0
LINE
  5
58B
100
AcDbEntity
  8
0
100
AcDbLine
 62
7
  6
CONTINUOUS
 10
397.5315238095
 20
707.0938571429
 11
415.0318520286
 21
707.0938064842
  0
LINE
  5
58C
100
AcDbEntity
  8
0
100
AcDbLine
 62
7
  6
CONTINUOUS
 10
397.5315238095
 20
707.6938571429
 11
414.0315238095
 21
707.6938571429
  0
LINE
  5
58D
100
AcDbEntity
  8
0
100
AcDbLine
 62
7
  6
CONTINUOUS
 10
397.5315238095
 20
708.1938571429
 11
412.5315238095
 21
708.1938571429
  0
LINE
  5
58E
100
AcDbEntity
  8
0
100
AcDbLine
 62
7
  6
CONTINUOUS
 10
397.5315238095
 20
708.5938571429
 11
409.1394767029
 21
708.5938571429
  0
LINE
  5
58F
100
AcDbEntity
  8
0
100
AcDbLine
 62
7
  6
CONTINUOUS
 10
397.5315238095
 20
710.5938571429
 11
402.9771694738
 21
710.5938571429
  0
LINE
  5
590
100
AcDbEntity
  8
0
100
AcDbLine
 62
7
  6
CONTINUOUS
 10
399.3315238095
 20
711.0938571429
 11
397.5315238095
 21
711.0938571429
  0
LINE
  5
591
100
AcDbEntity
  8
0
100
AcDbLine
 62
7
  6
CONTINUOUS
 10
399.3315238095
 20
715.0938571429
 11
397.5315238095
 21
715.0938571429
  0
LINE
  5
592
100
AcDbEntity
  8
0
100
AcDbLine
 62
7
  6
CONTINUOUS
 10
402.7807184738
 20
715.5938571429
 11
397.5315238095
 21
715.5938571429
  0
LINE
  5
593
100
AcDbEntity
  8
0
100
AcDbLine
 62
7
  6
CONTINUOUS
 10
397.5315238095
 20
717.5938571429
 11
409.1394767029
 21
717.5938571429
  0
LINE
  5
594
100
AcDbEntity
  8
0
100
AcDbLine
 62
7
  6
CONTINUOUS
 10
412.5315238095
 20
717.9938571429
 11
397.5315238095
 21
717.9938571429
  0
LINE
  5
595
100
AcDbEntity
  8
0
100
AcDbLine
 62
7
  6
CONTINUOUS
 10
397.5315238095
 20
718.4938571429
 11
414.0315238095
 21
718.4938571429
  0
LINE
  5
596
100
AcDbEntity
  8
0
100
AcDbLine
 62
7
  6
CONTINUOUS
 10
415.0318520286
 20
719.0938571429
 11
397.5315238095
 21
719.0938571429
  0
LINE
  5
597
100
AcDbEntity
  8
0
100
AcDbLine
 62
7
  6
CONTINUOUS
 10
397.5315238095
 20
719.5938571429
 11
415.5315238095
 21
719.5938571429
  0
LINE
  5
598
100
AcDbEntity
  8
0
100
AcDbLine
 62
7
  6
CONTINUOUS
 10
415.5315238095
 20
724.1938571429
 11
397.5315238095
 21
724.1938571429
  0
LINE
  5
599
100
AcDbEntity
  8
0
100
AcDbLine
 62
7
  6
CONTINUOUS
 10
397.5315238095
 20
724.6938571429
 11
415.0318520286
 21
724.6938571429
  0
LINE
  5
59A
100
AcDbEntity
  8
0
100
AcDbLine
 62
7
  6
CONTINUOUS
 10
397.5315238095
 20
725.2938571429
 11
414.0315238095
 21
725.2938571429
  0
LINE
  5
59B
100
AcDbEntity
  8
0
100
AcDbLine
 62
7
  6
CONTINUOUS
 10
397.5315238095
 20
725.7938571429
 11
412.5315238095
 21
725.7938571429
  0
LINE
  5
59C
100
AcDbEntity
  8
0
100
AcDbLine
 62
7
  6
CONTINUOUS
 10
397.5315238095
 20
726.1938571429
 11
409.1394767029
 21
726.1938571429
  0
LINE
  5
59D
100
AcDbEntity
  8
0
100
AcDbLine
 62
7
  6
CONTINUOUS
 10
397.5315238095
 20
728.1938571429
 11
402.7807184738
 21
728.1938571429
  0
LINE
  5
59E
100
AcDbEntity
  8
0
100
AcDbLine
 62
7
  6
CONTINUOUS
 10
399.3315238095
 20
728.6938571429
 11
397.5315238095
 21
728.6938571429
  0
LINE
  5
59F
100
AcDbEntity
  8
0
100
AcDbLine
 62
7
  6
CONTINUOUS
 10
399.3315238095
 20
732.6938571429
 11
397.5315238095
 21
732.6938571429
  0
LINE
  5
5A0
100
AcDbEntity
  8
0
100
AcDbLine
 62
7
  6
CONTINUOUS
 10
399.3315238095
 20
733.1938571429
 11
397.5315238095
 21
733.1938571429
  0
LINE
  5
5A1
100
AcDbEntity
  8
0
100
AcDbLine
 62
7
  6
CONTINUOUS
 10
397.5315238095
 20
735.1938571429
 11
409.1394767029
 21
735.1938571429
  0
LINE
  5
5A2
100
AcDbEntity
  8
0
100
AcDbLine
 62
7
  6
CONTINUOUS
 10
412.5315238095
 20
735.5938571429
 11
397.5315238095
 21
735.5938571429
  0
LINE
  5
5A3
100
AcDbEntity
  8
0
100
AcDbLine
 62
7
  6
CONTINUOUS
 10
397.5315238095
 20
736.0938571429
 11
414.0315238095
 21
736.0938571429
  0
LINE
  5
5A4
100
AcDbEntity
  8
0
100
AcDbLine
 62
7
  6
CONTINUOUS
 10
397.5315238095
 20
736.6938571429
 11
415.0318520286
 21
736.6939078016
  0
LINE
  5
5A5
100
AcDbEntity
  8
0
100
AcDbLine
 62
7
  6
CONTINUOUS
 10
397.5315238095
 20
737.1938571429
 11
415.5315238095
 21
737.1938571429
  0
LINE
  5
5A6
100
AcDbEntity
  8
0
100
AcDbLine
 62
7
  6
CONTINUOUS
 10
415.5315238095
 20
741.7938571429
 11
397.5315238095
 21
741.7938571429
  0
LINE
  5
5A7
100
AcDbEntity
  8
0
100
AcDbLine
 62
7
  6
CONTINUOUS
 10
397.5315238095
 20
742.2938571429
 11
415.0318520286
 21
742.2938064842
  0
LINE
  5
5A8
100
AcDbEntity
  8
0
100
AcDbLine
 62
7
  6
CONTINUOUS
 10
397.5315238095
 20
742.8938571429
 11
414.0315238095
 21
742.8938571429
  0
LINE
  5
5A9
100
AcDbEntity
  8
0
100
AcDbLine
 62
7
  6
CONTINUOUS
 10
397.5315238095
 20
743.3938571429
 11
412.5315238095
 21
743.3938571429
  0
LINE
  5
5AA
100
AcDbEntity
  8
0
100
AcDbLine
 62
7
  6
CONTINUOUS
 10
397.5315238095
 20
743.7938571429
 11
409.1394767029
 21
743.7938571429
  0
LINE
  5
5AB
100
AcDbEntity
  8
0
100
AcDbLine
 62
7
  6
CONTINUOUS
 10
402.7807184738
 20
733.189338286
 11
399.3315238095
 21
733.1904215466
  0
LINE
  5
5AC
100
AcDbEntity
  8
0
100
AcDbLine
 62
7
  6
CONTINUOUS
 10
397.5315238095
 20
745.7938571429
 11
402.7807184738
 21
745.7938571429
  0
LINE
  5
5AD
100
AcDbEntity
  8
0
100
AcDbLine
 62
7
  6
CONTINUOUS
 10
399.3315238095
 20
746.2938571429
 11
397.5315238095
 21
746.2938571429
  0
LINE
  5
5AE
100
AcDbEntity
  8
0
100
AcDbLine
 62
7
  6
CONTINUOUS
 10
399.3315238095
 20
750.2938571429
 11
397.5315238095
 21
750.2938571429
  0
LINE
  5
5AF
100
AcDbEntity
  8
0
100
AcDbLine
 62
7
  6
CONTINUOUS
 10
397.5315238095
 20
750.7938571429
 11
402.9771694738
 21
750.7938571429
  0
LINE
  5
5B0
100
AcDbEntity
  8
0
100
AcDbLine
 62
7
  6
CONTINUOUS
 10
397.5315238095
 20
752.7938571429
 11
409.1394767029
 21
752.7938571429
  0
LINE
  5
5B1
100
AcDbEntity
  8
0
100
AcDbLine
 62
7
  6
CONTINUOUS
 10
412.5315238095
 20
753.1938571429
 11
397.5315238095
 21
753.1938571429
  0
LINE
  5
5B2
100
AcDbEntity
  8
0
100
AcDbLine
 62
7
  6
CONTINUOUS
 10
397.5315238095
 20
753.6938571429
 11
414.0315238095
 21
753.6938571429
  0
LINE
  5
5B3
100
AcDbEntity
  8
0
100
AcDbLine
 62
7
  6
CONTINUOUS
 10
397.5315238095
 20
754.2938571429
 11
415.0318520286
 21
754.2939078016
  0
LINE
  5
5B4
100
AcDbEntity
  8
0
100
AcDbLine
 62
7
  6
CONTINUOUS
 10
397.5315238095
 20
754.7938571429
 11
415.5315238095
 21
754.7938571429
  0
LINE
  5
5B5
100
AcDbEntity
  8
0
100
AcDbLine
 62
7
  6
CONTINUOUS
 10
415.5315238095
 20
768.1938571429
 11
397.5315238095
 21
768.1938571429
  0
LINE
  5
5B6
100
AcDbEntity
  8
0
100
AcDbLine
 62
7
  6
CONTINUOUS
 10
397.5315238095
 20
768.6938571429
 11
415.0318520286
 21
768.6938064842
  0
LINE
  5
5B7
100
AcDbEntity
  8
0
100
AcDbLine
 62
7
  6
CONTINUOUS
 10
397.5315238095
 20
769.2938571429
 11
414.0315238095
 21
769.2938571429
  0
LINE
  5
5B8
100
AcDbEntity
  8
0
100
AcDbLine
 62
7
  6
CONTINUOUS
 10
397.5315238095
 20
769.7938571429
 11
412.5315238095
 21
769.7938571429
  0
LINE
  5
5B9
100
AcDbEntity
  8
0
100
AcDbLine
 62
7
  6
CONTINUOUS
 10
397.5315238095
 20
770.1938571429
 11
409.1394767029
 21
770.1938571429
  0
LINE
  5
5BA
100
AcDbEntity
  8
0
100
AcDbLine
 62
7
  6
CONTINUOUS
 10
397.5315238095
 20
772.1938571429
 11
402.9771694738
 21
772.1938571429
  0
LINE
  5
5BB
100
AcDbEntity
  8
0
100
AcDbLine
 62
7
  6
CONTINUOUS
 10
399.3315238095
 20
772.6938571429
 11
397.5315238095
 21
772.6938571429
  0
LINE
  5
5BC
100
AcDbEntity
  8
0
100
AcDbLine
 62
7
  6
CONTINUOUS
 10
399.3315238095
 20
776.6938571429
 11
397.5315238095
 21
776.6938571429
  0
LINE
  5
5BD
100
AcDbEntity
  8
0
100
AcDbLine
 62
7
  6
CONTINUOUS
 10
402.7807184738
 20
777.1938571429
 11
397.5315238095
 21
777.1938571429
  0
LINE
  5
5BE
100
AcDbEntity
  8
0
100
AcDbLine
 62
7
  6
CONTINUOUS
 10
397.5315238095
 20
779.1938571429
 11
409.1394767029
 21
779.1938571429
  0
LINE
  5
5BF
100
AcDbEntity
  8
0
100
AcDbLine
 62
7
  6
CONTINUOUS
 10
412.5315238095
 20
779.5938571429
 11
397.5315238095
 21
779.5938571429
  0
LINE
  5
5C0
100
AcDbEntity
  8
0
100
AcDbLine
 62
7
  6
CONTINUOUS
 10
397.5315238095
 20
780.0938571429
 11
414.0315238095
 21
780.0938571429
  0
LINE
  5
5C1
100
AcDbEntity
  8
0
100
AcDbLine
 62
7
  6
CONTINUOUS
 10
415.0318520286
 20
780.6938571429
 11
397.5315238095
 21
780.6938571429
  0
LINE
  5
5C2
100
AcDbEntity
  8
0
100
AcDbLine
 62
7
  6
CONTINUOUS
 10
397.5315238095
 20
781.1938571429
 11
415.5315238095
 21
781.1938571429
  0
LINE
  5
5C3
100
AcDbEntity
  8
0
100
AcDbLine
 62
7
  6
CONTINUOUS
 10
415.5315238095
 20
785.7938571429
 11
397.5315238095
 21
785.7938571429
  0
LINE
  5
5C4
100
AcDbEntity
  8
0
100
AcDbLine
 62
7
  6
CONTINUOUS
 10
397.5315238095
 20
786.2938571429
 11
415.0318520286
 21
786.2938571429
  0
LINE
  5
5C5
100
AcDbEntity
  8
0
100
AcDbLine
 62
7
  6
CONTINUOUS
 10
397.5315238095
 20
786.8938571429
 11
414.0315238095
 21
786.8938571429
  0
LINE
  5
5C6
100
AcDbEntity
  8
0
100
AcDbLine
 62
7
  6
CONTINUOUS
 10
397.5315238095
 20
787.3938571429
 11
412.5315238095
 21
787.3938571429
  0
LINE
  5
5C7
100
AcDbEntity
  8
0
100
AcDbLine
 62
7
  6
CONTINUOUS
 10
397.5315238095
 20
787.7938571429
 11
409.1394767029
 21
787.7938571429
  0
LINE
  5
5C8
100
AcDbEntity
  8
0
100
AcDbLine
 62
7
  6
CONTINUOUS
 10
397.5315238095
 20
789.7938571429
 11
402.7807184738
 21
789.7938571429
  0
LINE
  5
5C9
100
AcDbEntity
  8
0
100
AcDbLine
 62
7
  6
CONTINUOUS
 10
399.3315238095
 20
790.2938571429
 11
397.5315238095
 21
790.2938571429
  0
LINE
  5
5CA
100
AcDbEntity
  8
0
100
AcDbLine
 62
7
  6
CONTINUOUS
 10
399.3315238095
 20
794.2938571429
 11
397.5315238095
 21
794.2938571429
  0
LINE
  5
5CB
100
AcDbEntity
  8
0
100
AcDbLine
 62
7
  6
CONTINUOUS
 10
399.3315238095
 20
794.7938571429
 11
397.5315238095
 21
794.7938571429
  0
LINE
  5
5CC
100
AcDbEntity
  8
0
100
AcDbLine
 62
7
  6
CONTINUOUS
 10
397.5315238095
 20
796.7938571429
 11
409.1394767029
 21
796.7938571429
  0
LINE
  5
5CD
100
AcDbEntity
  8
0
100
AcDbLine
 62
7
  6
CONTINUOUS
 10
412.5315238095
 20
797.1938571429
 11
397.5315238095
 21
797.1938571429
  0
LINE
  5
5CE
100
AcDbEntity
  8
0
100
AcDbLine
 62
7
  6
CONTINUOUS
 10
397.5315238095
 20
797.6938571429
 11
414.0315238095
 21
797.6938571429
  0
LINE
  5
5CF
100
AcDbEntity
  8
0
100
AcDbLine
 62
7
  6
CONTINUOUS
 10
397.5315238095
 20
798.2938571429
 11
415.0318520286
 21
798.2939078016
  0
LINE
  5
5D0
100
AcDbEntity
  8
0
100
AcDbLine
 62
7
  6
CONTINUOUS
 10
397.5315238095
 20
798.7938571429
 11
415.5315238095
 21
798.7938571429
  0
LINE
  5
5D1
100
AcDbEntity
  8
0
100
AcDbLine
 62
7
  6
CONTINUOUS
 10
415.5315238095
 20
803.3938571429
 11
397.5315238095
 21
803.3938571429
  0
LINE
  5
5D2
100
AcDbEntity
  8
0
100
AcDbLine
 62
7
  6
CONTINUOUS
 10
397.5315238095
 20
803.8938571429
 11
415.0318520286
 21
803.8938064842
  0
LINE
  5
5D3
100
AcDbEntity
  8
0
100
AcDbLine
 62
7
  6
CONTINUOUS
 10
397.5315238095
 20
804.4938571429
 11
414.0315238095
 21
804.4938571429
  0
LINE
  5
5D4
100
AcDbEntity
  8
0
100
AcDbLine
 62
7
  6
CONTINUOUS
 10
397.5315238095
 20
804.9938571429
 11
412.5315238095
 21
804.9938571429
  0
LINE
  5
5D5
100
AcDbEntity
  8
0
100
AcDbLine
 62
7
  6
CONTINUOUS
 10
397.5315238095
 20
805.3938571429
 11
409.1394767029
 21
805.3938571429
  0
LINE
  5
5D6
100
AcDbEntity
  8
0
100
AcDbLine
 62
7
  6
CONTINUOUS
 10
397.5315238095
 20
807.3938571429
 11
402.7807184738
 21
807.3938571429
  0
LINE
  5
5D7
100
AcDbEntity
  8
0
100
AcDbLine
 62
7
  6
CONTINUOUS
 10
399.3315238095
 20
807.8938571429
 11
397.5315238095
 21
807.8938571429
  0
LINE
  5
5D8
100
AcDbEntity
  8
0
100
AcDbLine
 62
7
  6
CONTINUOUS
 10
402.7807184738
 20
794.789338286
 11
399.3315238095
 21
794.7904215466
  0
LINE
  5
5D9
100
AcDbEntity
  8
0
100
AcDbLine
 62
7
  6
CONTINUOUS
 10
399.3315238095
 20
811.8938571429
 11
397.5315238095
 21
811.8938571429
  0
LINE
  5
5DA
100
AcDbEntity
  8
0
100
AcDbLine
 62
7
  6
CONTINUOUS
 10
397.5315238095
 20
812.3938571429
 11
402.9771694738
 21
812.3938571429
  0
LINE
  5
5DB
100
AcDbEntity
  8
0
100
AcDbLine
 62
7
  6
CONTINUOUS
 10
397.5315238095
 20
814.3938571429
 11
409.1394767029
 21
814.3938571429
  0
LINE
  5
5DC
100
AcDbEntity
  8
0
100
AcDbLine
 62
7
  6
CONTINUOUS
 10
412.5315238095
 20
814.7938571429
 11
397.5315238095
 21
814.7938571429
  0
LINE
  5
5DD
100
AcDbEntity
  8
0
100
AcDbLine
 62
7
  6
CONTINUOUS
 10
397.5315238095
 20
815.2938571429
 11
414.0315238095
 21
815.2938571429
  0
LINE
  5
5DE
100
AcDbEntity
  8
0
100
AcDbLine
 62
7
  6
CONTINUOUS
 10
397.5315238095
 20
815.8938571429
 11
415.0318520286
 21
815.8939078016
  0
LINE
  5
5DF
100
AcDbEntity
  8
0
100
AcDbLine
 62
7
  6
CONTINUOUS
 10
397.5315238095
 20
816.3938571429
 11
415.5315238095
 21
816.3938571429
  0
LINE
  5
5E0
100
AcDbEntity
  8
0
100
AcDbLine
 62
7
  6
CONTINUOUS
 10
415.5315238095
 20
829.7938571429
 11
397.5315238095
 21
829.7938571429
  0
LINE
  5
5E1
100
AcDbEntity
  8
0
100
AcDbLine
 62
7
  6
CONTINUOUS
 10
397.5315238095
 20
830.2938571429
 11
415.0318520286
 21
830.2938064842
  0
LINE
  5
5E2
100
AcDbEntity
  8
0
100
AcDbLine
 62
7
  6
CONTINUOUS
 10
397.5315238095
 20
830.8938571429
 11
414.0315238095
 21
830.8938571429
  0
LINE
  5
5E3
100
AcDbEntity
  8
0
100
AcDbLine
 62
7
  6
CONTINUOUS
 10
397.5315238095
 20
831.3938571429
 11
412.5315238095
 21
831.3938571429
  0
LINE
  5
5E4
100
AcDbEntity
  8
0
100
AcDbLine
 62
7
  6
CONTINUOUS
 10
397.5315238095
 20
831.7938571429
 11
409.1394767029
 21
831.7938571429
  0
LINE
  5
5E5
100
AcDbEntity
  8
0
100
AcDbLine
 62
7
  6
CONTINUOUS
 10
397.5315238095
 20
833.7938571429
 11
402.9771694738
 21
833.7938571429
  0
LINE
  5
5E6
100
AcDbEntity
  8
0
100
AcDbLine
 62
7
  6
CONTINUOUS
 10
399.3315238095
 20
834.2938571429
 11
397.5315238095
 21
834.2938571429
  0
LINE
  5
5E7
100
AcDbEntity
  8
0
100
AcDbLine
 62
7
  6
CONTINUOUS
 10
399.3315238095
 20
838.2938571429
 11
397.5315238095
 21
838.2938571429
  0
LINE
  5
5E8
100
AcDbEntity
  8
0
100
AcDbLine
 62
7
  6
CONTINUOUS
 10
402.7807184738
 20
838.7938571429
 11
397.5315238095
 21
838.7938571429
  0
LINE
  5
5E9
100
AcDbEntity
  8
0
100
AcDbLine
 62
7
  6
CONTINUOUS
 10
397.5315238095
 20
840.7938571429
 11
409.1394767029
 21
840.7938571429
  0
LINE
  5
5EA
100
AcDbEntity
  8
0
100
AcDbLine
 62
7
  6
CONTINUOUS
 10
412.5315238095
 20
841.1938571429
 11
397.5315238095
 21
841.1938571429
  0
LINE
  5
5EB
100
AcDbEntity
  8
0
100
AcDbLine
 62
7
  6
CONTINUOUS
 10
397.5315238095
 20
841.6938571429
 11
414.0315238095
 21
841.6938571429
  0
LINE
  5
5EC
100
AcDbEntity
  8
0
100
AcDbLine
 62
7
  6
CONTINUOUS
 10
415.0318520286
 20
842.2938571429
 11
397.5315238095
 21
842.2938571429
  0
LINE
  5
5ED
100
AcDbEntity
  8
0
100
AcDbLine
 62
7
  6
CONTINUOUS
 10
397.5315238095
 20
842.7938571429
 11
415.5315238095
 21
842.7938571429
  0
LINE
  5
5EE
100
AcDbEntity
  8
0
100
AcDbLine
 62
7
  6
CONTINUOUS
 10
415.5315238095
 20
847.3938571429
 11
397.5315238095
 21
847.3938571429
  0
LINE
  5
5EF
100
AcDbEntity
  8
0
100
AcDbLine
 62
7
  6
CONTINUOUS
 10
397.5315238095
 20
847.8938571429
 11
415.0318520286
 21
847.8938571429
  0
LINE
  5
5F0
100
AcDbEntity
  8
0
100
AcDbLine
 62
7
  6
CONTINUOUS
 10
397.5315238095
 20
848.4938571429
 11
414.0315238095
 21
848.4938571429
  0
LINE
  5
5F1
100
AcDbEntity
  8
0
100
AcDbLine
 62
7
  6
CONTINUOUS
 10
397.5315238095
 20
848.9938571429
 11
412.5315238095
 21
848.9938571429
  0
LINE
  5
5F2
100
AcDbEntity
  8
0
100
AcDbLine
 62
7
  6
CONTINUOUS
 10
397.5315238095
 20
849.3938571429
 11
409.1394767029
 21
849.3938571429
  0
LINE
  5
5F3
100
AcDbEntity
  8
0
100
AcDbLine
 62
7
  6
CONTINUOUS
 10
397.5315238095
 20
851.3938571429
 11
402.7807184738
 21
851.3938571429
  0
LINE
  5
5F4
100
AcDbEntity
  8
0
100
AcDbLine
 62
7
  6
CONTINUOUS
 10
399.3315238095
 20
851.8938571429
 11
397.5315238095
 21
851.8938571429
  0
LINE
  5
5F5
100
AcDbEntity
  8
0
100
AcDbLine
 62
7
  6
CONTINUOUS
 10
399.3315238095
 20
855.8938571429
 11
397.5315238095
 21
855.8938571429
  0
LINE
  5
5F6
100
AcDbEntity
  8
0
100
AcDbLine
 62
7
  6
CONTINUOUS
 10
399.3315238095
 20
856.3938571429
 11
397.5315238095
 21
856.3938571429
  0
LINE
  5
5F7
100
AcDbEntity
  8
0
100
AcDbLine
 62
7
  6
CONTINUOUS
 10
397.5315238095
 20
858.3938571429
 11
409.1394767029
 21
858.3938571429
  0
LINE
  5
5F8
100
AcDbEntity
  8
0
100
AcDbLine
 62
7
  6
CONTINUOUS
 10
412.5315238095
 20
858.7938571429
 11
397.5315238095
 21
858.7938571429
  0
LINE
  5
5F9
100
AcDbEntity
  8
0
100
AcDbLine
 62
7
  6
CONTINUOUS
 10
397.5315238095
 20
859.2938571429
 11
414.0315238095
 21
859.2938571429
  0
LINE
  5
5FA
100
AcDbEntity
  8
0
100
AcDbLine
 62
7
  6
CONTINUOUS
 10
397.5315238095
 20
859.8938571429
 11
415.0318520286
 21
859.8939078016
  0
LINE
  5
5FB
100
AcDbEntity
  8
0
100
AcDbLine
 62
7
  6
CONTINUOUS
 10
397.5315238095
 20
860.3938571429
 11
415.5315238095
 21
860.3938571429
  0
LINE
  5
5FC
100
AcDbEntity
  8
0
100
AcDbLine
 62
7
  6
CONTINUOUS
 10
415.5315238095
 20
864.9938571429
 11
397.5315238095
 21
864.9938571429
  0
LINE
  5
5FD
100
AcDbEntity
  8
0
100
AcDbLine
 62
7
  6
CONTINUOUS
 10
397.5315238095
 20
865.4938571429
 11
415.0318520286
 21
865.4938064842
  0
LINE
  5
5FE
100
AcDbEntity
  8
0
100
AcDbLine
 62
7
  6
CONTINUOUS
 10
397.5315238095
 20
866.0938571429
 11
414.0315238095
 21
866.0938571429
  0
LINE
  5
5FF
100
AcDbEntity
  8
0
100
AcDbLine
 62
7
  6
CONTINUOUS
 10
397.5315238095
 20
866.5938571429
 11
412.5315238095
 21
866.5938571429
  0
LINE
  5
600
100
AcDbEntity
  8
0
100
AcDbLine
 62
7
  6
CONTINUOUS
 10
397.5315238095
 20
866.9938571429
 11
409.1394767029
 21
866.9938571429
  0
LINE
  5
601
100
AcDbEntity
  8
0
100
AcDbLine
 62
7
  6
CONTINUOUS
 10
397.5315238095
 20
868.9938571429
 11
402.7807184738
 21
868.9938571429
  0
LINE
  5
602
100
AcDbEntity
  8
0
100
AcDbLine
 62
7
  6
CONTINUOUS
 10
399.3315238095
 20
869.4938571429
 11
397.5315238095
 21
869.4938571429
  0
LINE
  5
603
100
AcDbEntity
  8
0
100
AcDbLine
 62
7
  6
CONTINUOUS
 10
399.3315238095
 20
873.4938571429
 11
397.5315238095
 21
873.4938571429
  0
LINE
  5
604
100
AcDbEntity
  8
0
100
AcDbLine
 62
7
  6
CONTINUOUS
 10
397.5315238095
 20
873.9938571429
 11
402.9771694738
 21
873.9938571429
  0
LINE
  5
605
100
AcDbEntity
  8
0
100
AcDbLine
 62
7
  6
CONTINUOUS
 10
397.5315238095
 20
875.9938571429
 11
409.1394767029
 21
875.9938571429
  0
LINE
  5
606
100
AcDbEntity
  8
0
100
AcDbLine
 62
7
  6
CONTINUOUS
 10
402.7807184738
 20
856.389338286
 11
399.3315238095
 21
856.3904215466
  0
LINE
  5
607
100
AcDbEntity
  8
0
100
AcDbLine
 62
7
  6
CONTINUOUS
 10
412.5315238095
 20
876.3938571429
 11
397.5315238095
 21
876.3938571429
  0
LINE
  5
608
100
AcDbEntity
  8
0
100
AcDbLine
 62
7
  6
CONTINUOUS
 10
397.5315238095
 20
876.8938571429
 11
414.0315238095
 21
876.8938571429
  0
LINE
  5
609
100
AcDbEntity
  8
0
100
AcDbLine
 62
7
  6
CONTINUOUS
 10
397.5315238095
 20
877.4938571429
 11
415.0318520286
 21
877.4939078016
  0
LINE
  5
60A
100
AcDbEntity
  8
0
100
AcDbLine
 62
7
  6
CONTINUOUS
 10
397.5315238095
 20
877.9938571429
 11
415.5315238095
 21
877.9938571429
  0
LINE
  5
60B
100
AcDbEntity
  8
0
100
AcDbLine
 62
7
  6
CONTINUOUS
 10
415.5315238095
 20
891.3938571429
 11
397.5315238095
 21
891.3938571429
  0
LINE
  5
60C
100
AcDbEntity
  8
0
100
AcDbLine
 62
7
  6
CONTINUOUS
 10
397.5315238095
 20
891.8938571429
 11
415.0318520286
 21
891.8938064842
  0
LINE
  5
60D
100
AcDbEntity
  8
0
100
AcDbLine
 62
7
  6
CONTINUOUS
 10
397.5315238095
 20
892.4938571429
 11
414.0315238095
 21
892.4938571429
  0
LINE
  5
60E
100
AcDbEntity
  8
0
100
AcDbLine
 62
7
  6
CONTINUOUS
 10
397.5315238095
 20
892.9938571429
 11
412.5315238095
 21
892.9938571429
  0
LINE
  5
60F
100
AcDbEntity
  8
0
100
AcDbLine
 62
7
  6
CONTINUOUS
 10
397.5315238095
 20
893.3938571429
 11
409.1394767029
 21
893.3938571429
  0
LINE
  5
610
100
AcDbEntity
  8
0
100
AcDbLine
 62
7
  6
CONTINUOUS
 10
397.5315238095
 20
895.3938571429
 11
402.9771694738
 21
895.3938571429
  0
LINE
  5
611
100
AcDbEntity
  8
0
100
AcDbLine
 62
7
  6
CONTINUOUS
 10
399.3315238095
 20
895.8938571429
 11
397.5315238095
 21
895.8938571429
  0
LINE
  5
612
100
AcDbEntity
  8
0
100
AcDbLine
 62
7
  6
CONTINUOUS
 10
399.3315238095
 20
899.8938571429
 11
397.5315238095
 21
899.8938571429
  0
LINE
  5
613
100
AcDbEntity
  8
0
100
AcDbLine
 62
7
  6
CONTINUOUS
 10
402.7807184738
 20
900.3938571429
 11
397.5315238095
 21
900.3938571429
  0
LINE
  5
614
100
AcDbEntity
  8
0
100
AcDbLine
 62
7
  6
CONTINUOUS
 10
397.5315238095
 20
902.3938571429
 11
409.1394767029
 21
902.3938571429
  0
LINE
  5
615
100
AcDbEntity
  8
0
100
AcDbLine
 62
7
  6
CONTINUOUS
 10
412.5315238095
 20
902.7938571429
 11
397.5315238095
 21
902.7938571429
  0
LINE
  5
616
100
AcDbEntity
  8
0
100
AcDbLine
 62
7
  6
CONTINUOUS
 10
397.5315238095
 20
903.2938571429
 11
414.0315238095
 21
903.2938571429
  0
LINE
  5
617
100
AcDbEntity
  8
0
100
AcDbLine
 62
7
  6
CONTINUOUS
 10
415.0318520286
 20
903.8938571429
 11
397.5315238095
 21
903.8938571429
  0
LINE
  5
618
100
AcDbEntity
  8
0
100
AcDbLine
 62
7
  6
CONTINUOUS
 10
397.5315238095
 20
904.3938571429
 11
415.5315238095
 21
904.3938571429
  0
LINE
  5
619
100
AcDbEntity
  8
0
100
AcDbLine
 62
7
  6
CONTINUOUS
 10
415.5315238095
 20
908.9938571429
 11
397.5315238095
 21
908.9938571429
  0
LINE
  5
61A
100
AcDbEntity
  8
0
100
AcDbLine
 62
7
  6
CONTINUOUS
 10
397.5315238095
 20
909.4938571429
 11
415.0318520286
 21
909.4938571429
  0
LINE
  5
61B
100
AcDbEntity
  8
0
100
AcDbLine
 62
7
  6
CONTINUOUS
 10
397.5315238095
 20
910.0938571429
 11
414.0315238095
 21
910.0938571429
  0
LINE
  5
61C
100
AcDbEntity
  8
0
100
AcDbLine
 62
7
  6
CONTINUOUS
 10
397.5315238095
 20
910.5938571429
 11
412.5315238095
 21
910.5938571429
  0
LINE
  5
61D
100
AcDbEntity
  8
0
100
AcDbLine
 62
7
  6
CONTINUOUS
 10
397.5315238095
 20
910.9938571429
 11
409.1394767029
 21
910.9938571429
  0
LINE
  5
61E
100
AcDbEntity
  8
0
100
AcDbLine
 62
7
  6
CONTINUOUS
 10
397.5315238095
 20
912.9938571429
 11
402.7807184738
 21
912.9938571429
  0
LINE
  5
61F
100
AcDbEntity
  8
0
100
AcDbLine
 62
7
  6
CONTINUOUS
 10
399.3315238095
 20
913.4938571429
 11
397.5315238095
 21
913.4938571429
  0
LINE
  5
620
100
AcDbEntity
  8
0
100
AcDbLine
 62
7
  6
CONTINUOUS
 10
399.3315238095
 20
917.4938571429
 11
397.5315238095
 21
917.4938571429
  0
LINE
  5
621
100
AcDbEntity
  8
0
100
AcDbLine
 62
7
  6
CONTINUOUS
 10
399.3315238095
 20
917.9938571429
 11
397.5315238095
 21
917.9938571429
  0
LINE
  5
622
100
AcDbEntity
  8
0
100
AcDbLine
 62
7
  6
CONTINUOUS
 10
397.5315238095
 20
919.9938571429
 11
409.1394767029
 21
919.9938571429
  0
LINE
  5
623
100
AcDbEntity
  8
0
100
AcDbLine
 62
7
  6
CONTINUOUS
 10
412.5315238095
 20
920.3938571429
 11
397.5315238095
 21
920.3938571429
  0
LINE
  5
624
100
AcDbEntity
  8
0
100
AcDbLine
 62
7
  6
CONTINUOUS
 10
397.5315238095
 20
920.8938571429
 11
414.0315238095
 21
920.8938571429
  0
LINE
  5
625
100
AcDbEntity
  8
0
100
AcDbLine
 62
7
  6
CONTINUOUS
 10
397.5315238095
 20
921.4938571429
 11
415.0318520286
 21
921.4939078016
  0
LINE
  5
626
100
AcDbEntity
  8
0
100
AcDbLine
 62
7
  6
CONTINUOUS
 10
397.5315238095
 20
921.9938571429
 11
415.5315238095
 21
921.9938571429
  0
LINE
  5
627
100
AcDbEntity
  8
0
100
AcDbLine
 62
7
  6
CONTINUOUS
 10
415.5315238095
 20
926.5938571429
 11
397.5315238095
 21
926.5938571429
  0
LINE
  5
628
100
AcDbEntity
  8
0
100
AcDbLine
 62
7
  6
CONTINUOUS
 10
397.5315238095
 20
927.0938571429
 11
415.0318520286
 21
927.0938064842
  0
LINE
  5
629
100
AcDbEntity
  8
0
100
AcDbLine
 62
7
  6
CONTINUOUS
 10
397.5315238095
 20
927.6938571429
 11
414.0315238095
 21
927.6938571429
  0
LINE
  5
62A
100
AcDbEntity
  8
0
100
AcDbLine
 62
7
  6
CONTINUOUS
 10
397.5315238095
 20
928.1938571429
 11
412.5315238095
 21
928.1938571429
  0
LINE
  5
62B
100
AcDbEntity
  8
0
100
AcDbLine
 62
7
  6
CONTINUOUS
 10
397.5315238095
 20
928.5938571429
 11
409.1394767029
 21
928.5938571429
  0
LINE
  5
62C
100
AcDbEntity
  8
0
100
AcDbLine
 62
7
  6
CONTINUOUS
 10
397.5315238095
 20
930.5938571429
 11
402.7807184738
 21
930.5938571429
  0
LINE
  5
62D
100
AcDbEntity
  8
0
100
AcDbLine
 62
7
  6
CONTINUOUS
 10
399.3315238095
 20
931.0938571429
 11
397.5315238095
 21
931.0938571429
  0
LINE
  5
62E
100
AcDbEntity
  8
0
100
AcDbLine
 62
7
  6
CONTINUOUS
 10
399.3315238095
 20
935.0938571429
 11
397.5315238095
 21
935.0938571429
  0
LINE
  5
62F
100
AcDbEntity
  8
0
100
AcDbLine
 62
7
  6
CONTINUOUS
 10
397.5315238095
 20
935.5938571429
 11
402.9771694738
 21
935.5938571429
  0
LINE
  5
630
100
AcDbEntity
  8
0
100
AcDbLine
 62
7
  6
CONTINUOUS
 10
397.5315238095
 20
937.5938571429
 11
409.1394767029
 21
937.5938571429
  0
LINE
  5
631
100
AcDbEntity
  8
0
100
AcDbLine
 62
7
  6
CONTINUOUS
 10
412.5315238095
 20
937.9938571429
 11
397.5315238095
 21
937.9938571429
  0
LINE
  5
632
100
AcDbEntity
  8
0
100
AcDbLine
 62
7
  6
CONTINUOUS
 10
397.5315238095
 20
938.4938571429
 11
414.0315238095
 21
938.4938571429
  0
LINE
  5
633
100
AcDbEntity
  8
0
100
AcDbLine
 62
7
  6
CONTINUOUS
 10
397.5315238095
 20
939.0938571429
 11
415.0318520286
 21
939.0939078016
  0
LINE
  5
634
100
AcDbEntity
  8
0
100
AcDbLine
 62
7
  6
CONTINUOUS
 10
397.5315238095
 20
939.5938571429
 11
415.5315238095
 21
939.5938571429
  0
LINE
  5
635
100
AcDbEntity
  8
0
100
AcDbLine
 62
7
  6
CONTINUOUS
 10
402.7807184738
 20
917.989338286
 11
399.3315238095
 21
917.9904215466
  0
LINE
  5
636
100
AcDbEntity
  8
0
100
AcDbLine
 62
7
  6
CONTINUOUS
 10
415.5315238095
 20
952.9938571429
 11
397.5315238095
 21
952.9938571429
  0
LINE
  5
637
100
AcDbEntity
  8
0
100
AcDbLine
 62
7
  6
CONTINUOUS
 10
397.5315238095
 20
953.4938571429
 11
415.0318520286
 21
953.4938064842
  0
LINE
  5
638
100
AcDbEntity
  8
0
100
AcDbLine
 62
7
  6
CONTINUOUS
 10
397.5315238095
 20
954.0938571429
 11
414.0315238095
 21
954.0938571429
  0
LINE
  5
639
100
AcDbEntity
  8
0
100
AcDbLine
 62
7
  6
CONTINUOUS
 10
397.5315238095
 20
954.5938571429
 11
412.5315238095
 21
954.5938571429
  0
LINE
  5
63A
100
AcDbEntity
  8
0
100
AcDbLine
 62
7
  6
CONTINUOUS
 10
397.5315238095
 20
954.9938571429
 11
409.1394767029
 21
954.9938571429
  0
LINE
  5
63B
100
AcDbEntity
  8
0
100
AcDbLine
 62
7
  6
CONTINUOUS
 10
397.5315238095
 20
956.9938571429
 11
402.9771694738
 21
956.9938571429
  0
LINE
  5
63C
100
AcDbEntity
  8
0
100
AcDbLine
 62
7
  6
CONTINUOUS
 10
399.3315238095
 20
957.4938571429
 11
397.5315238095
 21
957.4938571429
  0
LINE
  5
63D
100
AcDbEntity
  8
0
100
AcDbLine
 62
7
  6
CONTINUOUS
 10
399.3315238095
 20
961.4938571429
 11
397.5315238095
 21
961.4938571429
  0
LINE
  5
63E
100
AcDbEntity
  8
0
100
AcDbLine
 62
7
  6
CONTINUOUS
 10
402.7807184738
 20
961.9938571429
 11
397.5315238095
 21
961.9938571429
  0
LINE
  5
63F
100
AcDbEntity
  8
0
100
AcDbLine
 62
7
  6
CONTINUOUS
 10
397.5315238095
 20
963.9938571429
 11
409.1394767029
 21
963.9938571429
  0
LINE
  5
640
100
AcDbEntity
  8
0
100
AcDbLine
 62
7
  6
CONTINUOUS
 10
412.5315238095
 20
964.3938571429
 11
397.5315238095
 21
964.3938571429
  0
LINE
  5
641
100
AcDbEntity
  8
0
100
AcDbLine
 62
7
  6
CONTINUOUS
 10
397.5315238095
 20
964.8938571429
 11
414.0315238095
 21
964.8938571429
  0
LINE
  5
642
100
AcDbEntity
  8
0
100
AcDbLine
 62
7
  6
CONTINUOUS
 10
415.0318520286
 20
965.4938571429
 11
397.5315238095
 21
965.4938571429
  0
LINE
  5
643
100
AcDbEntity
  8
0
100
AcDbLine
 62
7
  6
CONTINUOUS
 10
397.5315238095
 20
965.9938571429
 11
415.5315238095
 21
965.9938571429
  0
LINE
  5
644
100
AcDbEntity
  8
0
100
AcDbLine
 62
7
  6
CONTINUOUS
 10
415.5315238095
 20
970.5938571429
 11
397.5315238095
 21
970.5938571429
  0
LINE
  5
645
100
AcDbEntity
  8
0
100
AcDbLine
 62
7
  6
CONTINUOUS
 10
397.5315238095
 20
971.0938571429
 11
415.0318520286
 21
971.0938571429
  0
LINE
  5
646
100
AcDbEntity
  8
0
100
AcDbLine
 62
7
  6
CONTINUOUS
 10
397.5315238095
 20
971.6938571429
 11
414.0315238095
 21
971.6938571429
  0
LINE
  5
647
100
AcDbEntity
  8
0
100
AcDbLine
 62
7
  6
CONTINUOUS
 10
397.5315238095
 20
972.1938571429
 11
412.5315238095
 21
972.1938571429
  0
LINE
  5
648
100
AcDbEntity
  8
0
100
AcDbLine
 62
7
  6
CONTINUOUS
 10
397.5315238095
 20
972.5938571429
 11
409.1394767029
 21
972.5938571429
  0
LINE
  5
649
100
AcDbEntity
  8
0
100
AcDbLine
 62
7
  6
CONTINUOUS
 10
397.5315238095
 20
974.5938571429
 11
402.7807184738
 21
974.5938571429
  0
LINE
  5
64A
100
AcDbEntity
  8
0
100
AcDbLine
 62
7
  6
CONTINUOUS
 10
399.3315238095
 20
975.0938571429
 11
397.5315238095
 21
975.0938571429
  0
LINE
  5
64B
100
AcDbEntity
  8
0
100
AcDbLine
 62
7
  6
CONTINUOUS
 10
399.3315238095
 20
979.0938571429
 11
397.5315238095
 21
979.0938571429
  0
LINE
  5
64C
100
AcDbEntity
  8
0
100
AcDbLine
 62
7
  6
CONTINUOUS
 10
399.3315238095
 20
979.5938571429
 11
397.5315238095
 21
979.5938571429
  0
LINE
  5
64D
100
AcDbEntity
  8
0
100
AcDbLine
 62
7
  6
CONTINUOUS
 10
397.5315238095
 20
981.5938571429
 11
409.1394767029
 21
981.5938571429
  0
LINE
  5
64E
100
AcDbEntity
  8
0
100
AcDbLine
 62
7
  6
CONTINUOUS
 10
412.5315238095
 20
981.9938571429
 11
397.5315238095
 21
981.9938571429
  0
LINE
  5
64F
100
AcDbEntity
  8
0
100
AcDbLine
 62
7
  6
CONTINUOUS
 10
397.5315238095
 20
982.4938571429
 11
414.0315238095
 21
982.4938571429
  0
LINE
  5
650
100
AcDbEntity
  8
0
100
AcDbLine
 62
7
  6
CONTINUOUS
 10
397.5315238095
 20
983.0938571429
 11
415.0318520286
 21
983.0939078016
  0
LINE
  5
651
100
AcDbEntity
  8
0
100
AcDbLine
 62
7
  6
CONTINUOUS
 10
397.5315238095
 20
983.5938571429
 11
415.5315238095
 21
983.5938571429
  0
LINE
  5
652
100
AcDbEntity
  8
0
100
AcDbLine
 62
7
  6
CONTINUOUS
 10
415.5315238095
 20
988.1938571429
 11
397.5315238095
 21
988.1938571429
  0
LINE
  5
653
100
AcDbEntity
  8
0
100
AcDbLine
 62
7
  6
CONTINUOUS
 10
397.5315238095
 20
988.6938571429
 11
415.0318520286
 21
988.6938064842
  0
LINE
  5
654
100
AcDbEntity
  8
0
100
AcDbLine
 62
7
  6
CONTINUOUS
 10
397.5315238095
 20
989.2938571429
 11
414.0315238095
 21
989.2938571429
  0
LINE
  5
655
100
AcDbEntity
  8
0
100
AcDbLine
 62
7
  6
CONTINUOUS
 10
397.5315238095
 20
989.7938571429
 11
412.5315238095
 21
989.7938571429
  0
LINE
  5
656
100
AcDbEntity
  8
0
100
AcDbLine
 62
7
  6
CONTINUOUS
 10
397.5315238095
 20
990.1938571429
 11
409.1394767029
 21
990.1938571429
  0
LINE
  5
657
100
AcDbEntity
  8
0
100
AcDbLine
 62
7
  6
CONTINUOUS
 10
397.5315238095
 20
992.1938571429
 11
402.7807184738
 21
992.1938571429
  0
LINE
  5
658
100
AcDbEntity
  8
0
100
AcDbLine
 62
7
  6
CONTINUOUS
 10
399.3315238095
 20
992.6938571429
 11
397.5315238095
 21
992.6938571429
  0
LINE
  5
659
100
AcDbEntity
  8
0
100
AcDbLine
 62
7
  6
CONTINUOUS
 10
399.3315238095
 20
996.6938571429
 11
397.5315238095
 21
996.6938571429
  0
LINE
  5
65A
100
AcDbEntity
  8
0
100
AcDbLine
 62
7
  6
CONTINUOUS
 10
397.5315238095
 20
997.1938571429
 11
402.9771694738
 21
997.1938571429
  0
LINE
  5
65B
100
AcDbEntity
  8
0
100
AcDbLine
 62
7
  6
CONTINUOUS
 10
397.5315238095
 20
999.1938571429
 11
409.1394767029
 21
999.1938571429
  0
LINE
  5
65C
100
AcDbEntity
  8
0
100
AcDbLine
 62
7
  6
CONTINUOUS
 10
412.5315238095
 20
999.5938571429
 11
397.5315238095
 21
999.5938571429
  0
LINE
  5
65D
100
AcDbEntity
  8
0
100
AcDbLine
 62
7
  6
CONTINUOUS
 10
397.5315238095
 20
1000.0938571429
 11
414.0315238095
 21
1000.0938571429
  0
LINE
  5
65E
100
AcDbEntity
  8
0
100
AcDbLine
 62
7
  6
CONTINUOUS
 10
397.5315238095
 20
1000.6938571429
 11
415.0318520286
 21
1000.6939078016
  0
LINE
  5
65F
100
AcDbEntity
  8
0
100
AcDbLine
 62
7
  6
CONTINUOUS
 10
397.5315238095
 20
1001.1938571429
 11
415.5315238095
 21
1001.1938571429
  0
LINE
  5
660
100
AcDbEntity
  8
0
100
AcDbLine
 62
7
  6
CONTINUOUS
 10
402.7807184738
 20
979.589338286
 11
399.3315238095
 21
979.5904215466
  0
LINE
  5
661
100
AcDbEntity
  8
0
100
AcDbLine
 62
7
  6
CONTINUOUS
 10
415.5315238095
 20
1014.5938571429
 11
397.5315238095
 21
1014.5938571429
  0
LINE
  5
662
100
AcDbEntity
  8
0
100
AcDbLine
 62
7
  6
CONTINUOUS
 10
397.5315238095
 20
1015.0938571429
 11
415.0318520286
 21
1015.0938064842
  0
LINE
  5
663
100
AcDbEntity
  8
0
100
AcDbLine
 62
7
  6
CONTINUOUS
 10
397.5315238095
 20
1015.6938571429
 11
414.0315238095
 21
1015.6938571429
  0
LINE
  5
664
100
AcDbEntity
  8
0
100
AcDbLine
 62
7
  6
CONTINUOUS
 10
397.5315238095
 20
1016.1938571429
 11
412.5315238095
 21
1016.1938571429
  0
LINE
  5
665
100
AcDbEntity
  8
0
100
AcDbLine
 62
7
  6
CONTINUOUS
 10
397.5315238095
 20
1016.5938571429
 11
409.1394767029
 21
1016.5938571429
  0
LINE
  5
666
100
AcDbEntity
  8
0
100
AcDbLine
 62
7
  6
CONTINUOUS
 10
397.5315238095
 20
1018.5938571429
 11
402.9771694738
 21
1018.5938571429
  0
LINE
  5
667
100
AcDbEntity
  8
0
100
AcDbLine
 62
7
  6
CONTINUOUS
 10
399.3315238095
 20
1019.0938571429
 11
397.5315238095
 21
1019.0938571429
  0
LINE
  5
668
100
AcDbEntity
  8
0
100
AcDbLine
 62
7
  6
CONTINUOUS
 10
399.3315238095
 20
1023.0938571429
 11
397.5315238095
 21
1023.0938571429
  0
LINE
  5
669
100
AcDbEntity
  8
0
100
AcDbLine
 62
7
  6
CONTINUOUS
 10
402.7807184738
 20
1023.5938571429
 11
397.5315238095
 21
1023.5938571429
  0
LINE
  5
66A
100
AcDbEntity
  8
0
100
AcDbLine
 62
7
  6
CONTINUOUS
 10
397.5315238095
 20
1025.5938571429
 11
409.1394767029
 21
1025.5938571429
  0
LINE
  5
66B
100
AcDbEntity
  8
0
100
AcDbLine
 62
7
  6
CONTINUOUS
 10
412.5315238095
 20
1025.9938571429
 11
397.5315238095
 21
1025.9938571429
  0
LINE
  5
66C
100
AcDbEntity
  8
0
100
AcDbLine
 62
7
  6
CONTINUOUS
 10
397.5315238095
 20
1026.4938571429
 11
414.0315238095
 21
1026.4938571429
  0
LINE
  5
66D
100
AcDbEntity
  8
0
100
AcDbLine
 62
7
  6
CONTINUOUS
 10
415.0318520286
 20
1027.0938571429
 11
397.5315238095
 21
1027.0938571429
  0
LINE
  5
66E
100
AcDbEntity
  8
0
100
AcDbLine
 62
7
  6
CONTINUOUS
 10
397.5315238095
 20
1027.5938571429
 11
415.5315238095
 21
1027.5938571429
  0
LINE
  5
66F
100
AcDbEntity
  8
0
100
AcDbLine
 62
7
  6
CONTINUOUS
 10
415.5315238095
 20
1032.1938571429
 11
397.5315238095
 21
1032.1938571429
  0
LINE
  5
670
100
AcDbEntity
  8
0
100
AcDbLine
 62
7
  6
CONTINUOUS
 10
397.5315238095
 20
1032.6938571429
 11
415.0318520286
 21
1032.6938571429
  0
LINE
  5
671
100
AcDbEntity
  8
0
100
AcDbLine
 62
7
  6
CONTINUOUS
 10
397.5315238095
 20
1033.2938571429
 11
414.0315238095
 21
1033.2938571429
  0
LINE
  5
672
100
AcDbEntity
  8
0
100
AcDbLine
 62
7
  6
CONTINUOUS
 10
397.5315238095
 20
1033.7938571429
 11
412.5315238095
 21
1033.7938571429
  0
LINE
  5
673
100
AcDbEntity
  8
0
100
AcDbLine
 62
7
  6
CONTINUOUS
 10
397.5315238095
 20
1034.1938571429
 11
409.1394767029
 21
1034.1938571429
  0
LINE
  5
674
100
AcDbEntity
  8
0
100
AcDbLine
 62
7
  6
CONTINUOUS
 10
397.5315238095
 20
1036.1938571429
 11
402.7807184738
 21
1036.1938571429
  0
LINE
  5
675
100
AcDbEntity
  8
0
100
AcDbLine
 62
7
  6
CONTINUOUS
 10
399.3315238095
 20
1036.6938571429
 11
397.5315238095
 21
1036.6938571429
  0
LINE
  5
676
100
AcDbEntity
  8
0
100
AcDbLine
 62
7
  6
CONTINUOUS
 10
399.3315238095
 20
1040.6938571429
 11
397.5315238095
 21
1040.6938571429
  0
LINE
  5
677
100
AcDbEntity
  8
0
100
AcDbLine
 62
7
  6
CONTINUOUS
 10
399.3315238095
 20
1041.1938571429
 11
397.5315238095
 21
1041.1938571429
  0
LINE
  5
678
100
AcDbEntity
  8
0
100
AcDbLine
 62
7
  6
CONTINUOUS
 10
397.5315238095
 20
1043.1938571429
 11
409.1394767029
 21
1043.1938571429
  0
LINE
  5
679
100
AcDbEntity
  8
0
100
AcDbLine
 62
7
  6
CONTINUOUS
 10
412.5315238095
 20
1043.5938571429
 11
397.5315238095
 21
1043.5938571429
  0
LINE
  5
67A
100
AcDbEntity
  8
0
100
AcDbLine
 62
7
  6
CONTINUOUS
 10
397.5315238095
 20
1044.0938571429
 11
414.0315238095
 21
1044.0938571429
  0
LINE
  5
67B
100
AcDbEntity
  8
0
100
AcDbLine
 62
7
  6
CONTINUOUS
 10
397.5315238095
 20
1044.6938571429
 11
415.0318520286
 21
1044.6939078016
  0
LINE
  5
67C
100
AcDbEntity
  8
0
100
AcDbLine
 62
7
  6
CONTINUOUS
 10
397.5315238095
 20
1045.1938571429
 11
415.5315238095
 21
1045.1938571429
  0
LINE
  5
67D
100
AcDbEntity
  8
0
100
AcDbLine
 62
7
  6
CONTINUOUS
 10
415.5315238095
 20
1049.7938571429
 11
397.5315238095
 21
1049.7938571429
  0
LINE
  5
67E
100
AcDbEntity
  8
0
100
AcDbLine
 62
7
  6
CONTINUOUS
 10
397.5315238095
 20
1050.2938571429
 11
415.0318520286
 21
1050.2938064842
  0
LINE
  5
67F
100
AcDbEntity
  8
0
100
AcDbLine
 62
7
  6
CONTINUOUS
 10
397.5315238095
 20
1050.8938571429
 11
414.0315238095
 21
1050.8938571429
  0
LINE
  5
680
100
AcDbEntity
  8
0
100
AcDbLine
 62
7
  6
CONTINUOUS
 10
397.5315238095
 20
1051.3938571429
 11
412.5315238095
 21
1051.3938571429
  0
LINE
  5
681
100
AcDbEntity
  8
0
100
AcDbLine
 62
7
  6
CONTINUOUS
 10
397.5315238095
 20
1051.7938571429
 11
409.1394767029
 21
1051.7938571429
  0
LINE
  5
682
100
AcDbEntity
  8
0
100
AcDbLine
 62
7
  6
CONTINUOUS
 10
397.5315238095
 20
1053.7938571429
 11
402.7807184738
 21
1053.7938571429
  0
LINE
  5
683
100
AcDbEntity
  8
0
100
AcDbLine
 62
7
  6
CONTINUOUS
 10
399.3315238095
 20
1054.2938571429
 11
397.5315238095
 21
1054.2938571429
  0
LINE
  5
684
100
AcDbEntity
  8
0
100
AcDbLine
 62
7
  6
CONTINUOUS
 10
399.3315238095
 20
1058.2938571429
 11
397.5315238095
 21
1058.2938571429
  0
LINE
  5
685
100
AcDbEntity
  8
0
100
AcDbLine
 62
7
  6
CONTINUOUS
 10
397.5315238095
 20
1058.7938571429
 11
402.9771694738
 21
1058.7938571429
  0
LINE
  5
686
100
AcDbEntity
  8
0
100
AcDbLine
 62
7
  6
CONTINUOUS
 10
397.5315238095
 20
1060.7938571429
 11
409.1394767029
 21
1060.7938571429
  0
LINE
  5
687
100
AcDbEntity
  8
0
100
AcDbLine
 62
7
  6
CONTINUOUS
 10
412.5315238095
 20
1061.1938571429
 11
397.5315238095
 21
1061.1938571429
  0
LINE
  5
688
100
AcDbEntity
  8
0
100
AcDbLine
 62
7
  6
CONTINUOUS
 10
397.5315238095
 20
1061.6938571429
 11
414.0315238095
 21
1061.6938571429
  0
LINE
  5
689
100
AcDbEntity
  8
0
100
AcDbLine
 62
7
  6
CONTINUOUS
 10
397.5315238095
 20
1062.2938571429
 11
415.0318520286
 21
1062.2939078016
  0
LINE
  5
68A
100
AcDbEntity
  8
0
100
AcDbLine
 62
7
  6
CONTINUOUS
 10
397.5315238095
 20
1062.7938571429
 11
415.5315238095
 21
1062.7938571429
  0
LINE
  5
68B
100
AcDbEntity
  8
0
100
AcDbLine
 62
7
  6
CONTINUOUS
 10
416.8315238095
 20
1068.3938571429
 11
397.5315238095
 21
1068.3938571429
  0
LINE
  5
68C
100
AcDbEntity
  8
0
100
AcDbLine
 62
7
  6
CONTINUOUS
 10
402.7807184738
 20
1041.189338286
 11
399.3315238095
 21
1041.1904215466
  0
SPLINE
  5
68D
100
AcDbEntity
  8
0
100
AcDbSpline
 62
7
  6
CONTINUOUS
 70
0
 71
3
 72
10
 73
6
 74
0
 42
0.0000001
 43
0.0000001
 44
0.0000000001
 40
0.0
 40
0.0
 40
0.0
 40
0.0
 40
0.5880755607
 40
0.8361548559
 40
1.0
 40
1.0
 40
1.0
 40
1.0
 10
415.0318520286
 20
293.4938571429
 30
0.0
 10
415.1293482927
 20
293.3978399738
 30
0.0
 10
415.2678017985
 20
293.261125376
 30
0.0
 10
415.434502021
 20
293.0988186821
 30
0.0
 10
415.5031806877
 20
293.0319081168
 30
0.0
 10
415.5315238095
 20
293.0064095084
 30
0.0
  0
SPLINE
  5
68E
100
AcDbEntity
  8
0
100
AcDbSpline
 62
7
  6
CONTINUOUS
 70
0
 71
3
 72
10
 73
6
 74
0
 42
0.0000001
 43
0.0000001
 44
0.0000000001
 40
0.0
 40
0.0
 40
0.0
 40
0.0
 40
0.1638412749
 40
0.4119240522
 40
1.0
 40
1.0
 40
1.0
 40
1.0
 10
415.5315238095
 20
305.9813150442
 30
0.0
 10
415.5031777799
 20
305.955823311
 30
0.0
 10
415.4345007977
 20
305.8889162915
 30
0.0
 10
415.2677948874
 20
305.7266291544
 30
0.0
 10
415.1293468616
 20
305.5899186973
 30
0.0
 10
415.0318520286
 20
305.4939078016
 30
0.0
  0
SPLINE
  5
68F
100
AcDbEntity
  8
0
100
AcDbSpline
 62
7
  6
CONTINUOUS
 70
0
 71
3
 72
10
 73
6
 74
0
 42
0.0000001
 43
0.0000001
 44
0.0000000001
 40
0.0
 40
0.0
 40
0.0
 40
0.0
 40
0.5880755607
 40
0.8361548559
 40
1.0
 40
1.0
 40
1.0
 40
1.0
 10
415.0318520286
 20
1032.6938571429
 30
0.0
 10
415.1293482927
 20
1032.5978399738
 30
0.0
 10
415.2678017985
 20
1032.461125376
 30
0.0
 10
415.434502021
 20
1032.2988186821
 30
0.0
 10
415.5031806877
 20
1032.2319081168
 30
0.0
 10
415.5315238095
 20
1032.2064095084
 30
0.0
  0
SPLINE
  5
690
100
AcDbEntity
  8
0
100
AcDbSpline
 62
7
  6
CONTINUOUS
 70
0
 71
3
 72
10
 73
6
 74
0
 42
0.0000001
 43
0.0000001
 44
0.0000000001
 40
0.0
 40
0.0
 40
0.0
 40
0.0
 40
0.1638412749
 40
0.4119240522
 40
1.0
 40
1.0
 40
1.0
 40
1.0
 10
415.5315238095
 20
1045.1813150442
 30
0.0
 10
415.5031777799
 20
1045.155823311
 30
0.0
 10
415.4345007977
 20
1045.0889162915
 30
0.0
 10
415.2677948874
 20
1044.9266291544
 30
0.0
 10
415.1293468616
 20
1044.7899186973
 30
0.0
 10
415.0318520286
 20
1044.6939078016
 30
0.0
  0
SPLINE
  5
691
100
AcDbEntity
  8
0
100
AcDbSpline
 62
7
  6
CONTINUOUS
 70
0
 71
3
 72
10
 73
6
 74
0
 42
0.0000001
 43
0.0000001
 44
0.0000000001
 40
0.0
 40
0.0
 40
0.0
 40
0.0
 40
0.5880755607
 40
0.8361548559
 40
1.0
 40
1.0
 40
1.0
 40
1.0
 10
415.0318520286
 20
971.0938571429
 30
0.0
 10
415.1293482927
 20
970.9978399738
 30
0.0
 10
415.2678017985
 20
970.861125376
 30
0.0
 10
415.434502021
 20
970.6988186821
 30
0.0
 10
415.5031806877
 20
970.6319081168
 30
0.0
 10
415.5315238095
 20
970.6064095084
 30
0.0
  0
SPLINE
  5
692
100
AcDbEntity
  8
0
100
AcDbSpline
 62
7
  6
CONTINUOUS
 70
0
 71
3
 72
10
 73
6
 74
0
 42
0.0000001
 43
0.0000001
 44
0.0000000001
 40
0.0
 40
0.0
 40
0.0
 40
0.0
 40
0.1638412749
 40
0.4119240522
 40
1.0
 40
1.0
 40
1.0
 40
1.0
 10
415.5315238095
 20
983.5813150442
 30
0.0
 10
415.5031777799
 20
983.555823311
 30
0.0
 10
415.4345007977
 20
983.4889162915
 30
0.0
 10
415.2677948874
 20
983.3266291544
 30
0.0
 10
415.1293468616
 20
983.1899186973
 30
0.0
 10
415.0318520286
 20
983.0939078016
 30
0.0
  0
SPLINE
  5
693
100
AcDbEntity
  8
0
100
AcDbSpline
 62
7
  6
CONTINUOUS
 70
0
 71
3
 72
10
 73
6
 74
0
 42
0.0000001
 43
0.0000001
 44
0.0000000001
 40
0.0
 40
0.0
 40
0.0
 40
0.0
 40
0.5880755607
 40
0.8361548559
 40
1.0
 40
1.0
 40
1.0
 40
1.0
 10
415.0318520286
 20
909.4938571429
 30
0.0
 10
415.1293482927
 20
909.3978399738
 30
0.0
 10
415.2678017985
 20
909.261125376
 30
0.0
 10
415.434502021
 20
909.0988186821
 30
0.0
 10
415.5031806877
 20
909.0319081168
 30
0.0
 10
415.5315238095
 20
909.0064095084
 30
0.0
  0
SPLINE
  5
694
100
AcDbEntity
  8
0
100
AcDbSpline
 62
7
  6
CONTINUOUS
 70
0
 71
3
 72
10
 73
6
 74
0
 42
0.0000001
 43
0.0000001
 44
0.0000000001
 40
0.0
 40
0.0
 40
0.0
 40
0.0
 40
0.1638412749
 40
0.4119240522
 40
1.0
 40
1.0
 40
1.0
 40
1.0
 10
415.5315238095
 20
921.9813150442
 30
0.0
 10
415.5031777799
 20
921.955823311
 30
0.0
 10
415.4345007977
 20
921.8889162915
 30
0.0
 10
415.2677948874
 20
921.7266291544
 30
0.0
 10
415.1293468616
 20
921.5899186973
 30
0.0
 10
415.0318520286
 20
921.4939078016
 30
0.0
  0
SPLINE
  5
695
100
AcDbEntity
  8
0
100
AcDbSpline
 62
7
  6
CONTINUOUS
 70
0
 71
3
 72
10
 73
6
 74
0
 42
0.0000001
 43
0.0000001
 44
0.0000000001
 40
0.0
 40
0.0
 40
0.0
 40
0.0
 40
0.5880755607
 40
0.8361548559
 40
1.0
 40
1.0
 40
1.0
 40
1.0
 10
415.0318520286
 20
231.8938571429
 30
0.0
 10
415.1293482927
 20
231.7978399738
 30
0.0
 10
415.2678017985
 20
231.661125376
 30
0.0
 10
415.434502021
 20
231.4988186821
 30
0.0
 10
415.5031806877
 20
231.4319081168
 30
0.0
 10
415.5315238095
 20
231.4064095084
 30
0.0
  0
SPLINE
  5
696
100
AcDbEntity
  8
0
100
AcDbSpline
 62
7
  6
CONTINUOUS
 70
0
 71
3
 72
10
 73
6
 74
0
 42
0.0000001
 43
0.0000001
 44
0.0000000001
 40
0.0
 40
0.0
 40
0.0
 40
0.0
 40
0.1638412749
 40
0.4119240522
 40
1.0
 40
1.0
 40
1.0
 40
1.0
 10
415.5315238095
 20
244.3813150442
 30
0.0
 10
415.5031777799
 20
244.355823311
 30
0.0
 10
415.4345007977
 20
244.2889162915
 30
0.0
 10
415.2677948874
 20
244.1266291544
 30
0.0
 10
415.1293468616
 20
243.9899186973
 30
0.0
 10
415.0318520286
 20
243.8939078016
 30
0.0
  0
SPLINE
  5
697
100
AcDbEntity
  8
0
100
AcDbSpline
 62
7
  6
CONTINUOUS
 70
0
 71
3
 72
10
 73
6
 74
0
 42
0.0000001
 43
0.0000001
 44
0.0000000001
 40
0.0
 40
0.0
 40
0.0
 40
0.0
 40
0.5880755607
 40
0.8361548559
 40
1.0
 40
1.0
 40
1.0
 40
1.0
 10
415.0318520286
 20
847.8938571429
 30
0.0
 10
415.1293482927
 20
847.7978399738
 30
0.0
 10
415.2678017985
 20
847.661125376
 30
0.0
 10
415.434502021
 20
847.4988186821
 30
0.0
 10
415.5031806877
 20
847.4319081168
 30
0.0
 10
415.5315238095
 20
847.4064095084
 30
0.0
  0
SPLINE
  5
698
100
AcDbEntity
  8
0
100
AcDbSpline
 62
7
  6
CONTINUOUS
 70
0
 71
3
 72
10
 73
6
 74
0
 42
0.0000001
 43
0.0000001
 44
0.0000000001
 40
0.0
 40
0.0
 40
0.0
 40
0.0
 40
0.1638412749
 40
0.4119240522
 40
1.0
 40
1.0
 40
1.0
 40
1.0
 10
415.5315238095
 20
860.3813150442
 30
0.0
 10
415.5031777799
 20
860.355823311
 30
0.0
 10
415.4345007977
 20
860.2889162915
 30
0.0
 10
415.2677948874
 20
860.1266291544
 30
0.0
 10
415.1293468616
 20
859.9899186973
 30
0.0
 10
415.0318520286
 20
859.8939078016
 30
0.0
  0
SPLINE
  5
699
100
AcDbEntity
  8
0
100
AcDbSpline
 62
7
  6
CONTINUOUS
 70
0
 71
3
 72
10
 73
6
 74
0
 42
0.0000001
 43
0.0000001
 44
0.0000000001
 40
0.0
 40
0.0
 40
0.0
 40
0.0
 40
0.5880755607
 40
0.8361548559
 40
1.0
 40
1.0
 40
1.0
 40
1.0
 10
415.0318520286
 20
355.0938571429
 30
0.0
 10
415.1293482927
 20
354.9978399738
 30
0.0
 10
415.2678017985
 20
354.861125376
 30
0.0
 10
415.434502021
 20
354.6988186821
 30
0.0
 10
415.5031806877
 20
354.6319081168
 30
0.0
 10
415.5315238095
 20
354.6064095084
 30
0.0
  0
SPLINE
  5
69A
100
AcDbEntity
  8
0
100
AcDbSpline
 62
7
  6
CONTINUOUS
 70
0
 71
3
 72
10
 73
6
 74
0
 42
0.0000001
 43
0.0000001
 44
0.0000000001
 40
0.0
 40
0.0
 40
0.0
 40
0.0
 40
0.1638412749
 40
0.4119240522
 40
1.0
 40
1.0
 40
1.0
 40
1.0
 10
415.5315238095
 20
367.5813150442
 30
0.0
 10
415.5031777799
 20
367.555823311
 30
0.0
 10
415.4345007977
 20
367.4889162915
 30
0.0
 10
415.2677948874
 20
367.3266291544
 30
0.0
 10
415.1293468616
 20
367.1899186973
 30
0.0
 10
415.0318520286
 20
367.0939078016
 30
0.0
  0
SPLINE
  5
69B
100
AcDbEntity
  8
0
100
AcDbSpline
 62
7
  6
CONTINUOUS
 70
0
 71
3
 72
10
 73
6
 74
0
 42
0.0000001
 43
0.0000001
 44
0.0000000001
 40
0.0
 40
0.0
 40
0.0
 40
0.0
 40
0.5880755607
 40
0.8361548559
 40
1.0
 40
1.0
 40
1.0
 40
1.0
 10
415.0318520286
 20
786.2938571429
 30
0.0
 10
415.1293482927
 20
786.1978399738
 30
0.0
 10
415.2678017985
 20
786.061125376
 30
0.0
 10
415.434502021
 20
785.8988186821
 30
0.0
 10
415.5031806877
 20
785.8319081168
 30
0.0
 10
415.5315238095
 20
785.8064095084
 30
0.0
  0
SPLINE
  5
69C
100
AcDbEntity
  8
0
100
AcDbSpline
 62
7
  6
CONTINUOUS
 70
0
 71
3
 72
10
 73
6
 74
0
 42
0.0000001
 43
0.0000001
 44
0.0000000001
 40
0.0
 40
0.0
 40
0.0
 40
0.0
 40
0.1638412749
 40
0.4119240522
 40
1.0
 40
1.0
 40
1.0
 40
1.0
 10
415.5315238095
 20
798.7813150442
 30
0.0
 10
415.5031777799
 20
798.755823311
 30
0.0
 10
415.4345007977
 20
798.6889162915
 30
0.0
 10
415.2677948874
 20
798.5266291544
 30
0.0
 10
415.1293468616
 20
798.3899186973
 30
0.0
 10
415.0318520286
 20
798.2939078016
 30
0.0
  0
SPLINE
  5
69D
100
AcDbEntity
  8
0
100
AcDbSpline
 62
7
  6
CONTINUOUS
 70
0
 71
3
 72
10
 73
6
 74
0
 42
0.0000001
 43
0.0000001
 44
0.0000000001
 40
0.0
 40
0.0
 40
0.0
 40
0.0
 40
0.5880755607
 40
0.8361548559
 40
1.0
 40
1.0
 40
1.0
 40
1.0
 10
415.0318520286
 20
724.6938571429
 30
0.0
 10
415.1293482927
 20
724.5978399738
 30
0.0
 10
415.2678017985
 20
724.461125376
 30
0.0
 10
415.434502021
 20
724.2988186821
 30
0.0
 10
415.5031806877
 20
724.2319081168
 30
0.0
 10
415.5315238095
 20
724.2064095084
 30
0.0
  0
SPLINE
  5
69E
100
AcDbEntity
  8
0
100
AcDbSpline
 62
7
  6
CONTINUOUS
 70
0
 71
3
 72
10
 73
6
 74
0
 42
0.0000001
 43
0.0000001
 44
0.0000000001
 40
0.0
 40
0.0
 40
0.0
 40
0.0
 40
0.1638412749
 40
0.4119240522
 40
1.0
 40
1.0
 40
1.0
 40
1.0
 10
415.5315238095
 20
737.1813150442
 30
0.0
 10
415.5031777799
 20
737.155823311
 30
0.0
 10
415.4345007977
 20
737.0889162915
 30
0.0
 10
415.2677948874
 20
736.9266291544
 30
0.0
 10
415.1293468616
 20
736.7899186973
 30
0.0
 10
415.0318520286
 20
736.6939078016
 30
0.0
  0
SPLINE
  5
69F
100
AcDbEntity
  8
0
100
AcDbSpline
 62
7
  6
CONTINUOUS
 70
0
 71
3
 72
10
 73
6
 74
0
 42
0.0000001
 43
0.0000001
 44
0.0000000001
 40
0.0
 40
0.0
 40
0.0
 40
0.0
 40
0.5880755607
 40
0.8361548559
 40
1.0
 40
1.0
 40
1.0
 40
1.0
 10
415.0318520286
 20
416.6938571429
 30
0.0
 10
415.1293482927
 20
416.5978399738
 30
0.0
 10
415.2678017985
 20
416.461125376
 30
0.0
 10
415.434502021
 20
416.2988186821
 30
0.0
 10
415.5031806877
 20
416.2319081168
 30
0.0
 10
415.5315238095
 20
416.2064095084
 30
0.0
  0
SPLINE
  5
6A0
100
AcDbEntity
  8
0
100
AcDbSpline
 62
7
  6
CONTINUOUS
 70
0
 71
3
 72
10
 73
6
 74
0
 42
0.0000001
 43
0.0000001
 44
0.0000000001
 40
0.0
 40
0.0
 40
0.0
 40
0.0
 40
0.1638412749
 40
0.4119240522
 40
1.0
 40
1.0
 40
1.0
 40
1.0
 10
415.5315238095
 20
429.1813150442
 30
0.0
 10
415.5031777799
 20
429.155823311
 30
0.0
 10
415.4345007977
 20
429.0889162915
 30
0.0
 10
415.2677948874
 20
428.9266291544
 30
0.0
 10
415.1293468616
 20
428.7899186973
 30
0.0
 10
415.0318520286
 20
428.6939078016
 30
0.0
  0
SPLINE
  5
6A1
100
AcDbEntity
  8
0
100
AcDbSpline
 62
7
  6
CONTINUOUS
 70
0
 71
3
 72
10
 73
6
 74
0
 42
0.0000001
 43
0.0000001
 44
0.0000000001
 40
0.0
 40
0.0
 40
0.0
 40
0.0
 40
0.5880755607
 40
0.8361548559
 40
1.0
 40
1.0
 40
1.0
 40
1.0
 10
415.0318520286
 20
663.0938571429
 30
0.0
 10
415.1293482927
 20
662.9978399738
 30
0.0
 10
415.2678017985
 20
662.861125376
 30
0.0
 10
415.434502021
 20
662.6988186821
 30
0.0
 10
415.5031806877
 20
662.6319081168
 30
0.0
 10
415.5315238095
 20
662.6064095084
 30
0.0
  0
SPLINE
  5
6A2
100
AcDbEntity
  8
0
100
AcDbSpline
 62
7
  6
CONTINUOUS
 70
0
 71
3
 72
10
 73
6
 74
0
 42
0.0000001
 43
0.0000001
 44
0.0000000001
 40
0.0
 40
0.0
 40
0.0
 40
0.0
 40
0.1638412749
 40
0.4119240522
 40
1.0
 40
1.0
 40
1.0
 40
1.0
 10
415.5315238095
 20
675.5813150442
 30
0.0
 10
415.5031777799
 20
675.555823311
 30
0.0
 10
415.4345007977
 20
675.4889162915
 30
0.0
 10
415.2677948874
 20
675.3266291544
 30
0.0
 10
415.1293468616
 20
675.1899186973
 30
0.0
 10
415.0318520286
 20
675.0939078016
 30
0.0
  0
SPLINE
  5
6A3
100
AcDbEntity
  8
0
100
AcDbSpline
 62
7
  6
CONTINUOUS
 70
0
 71
3
 72
10
 73
6
 74
0
 42
0.0000001
 43
0.0000001
 44
0.0000000001
 40
0.0
 40
0.0
 40
0.0
 40
0.0
 40
0.5880755607
 40
0.8361548559
 40
1.0
 40
1.0
 40
1.0
 40
1.0
 10
415.0318520286
 20
170.2938571429
 30
0.0
 10
415.1293482927
 20
170.1978399738
 30
0.0
 10
415.2678017985
 20
170.061125376
 30
0.0
 10
415.434502021
 20
169.8988186821
 30
0.0
 10
415.5031806877
 20
169.8319081168
 30
0.0
 10
415.5315238095
 20
169.8064095084
 30
0.0
  0
SPLINE
  5
6A4
100
AcDbEntity
  8
0
100
AcDbSpline
 62
7
  6
CONTINUOUS
 70
0
 71
3
 72
10
 73
6
 74
0
 42
0.0000001
 43
0.0000001
 44
0.0000000001
 40
0.0
 40
0.0
 40
0.0
 40
0.0
 40
0.1638412749
 40
0.4119240522
 40
1.0
 40
1.0
 40
1.0
 40
1.0
 10
415.5315238095
 20
182.7813150442
 30
0.0
 10
415.5031777799
 20
182.755823311
 30
0.0
 10
415.4345007977
 20
182.6889162915
 30
0.0
 10
415.2677948874
 20
182.5266291544
 30
0.0
 10
415.1293468616
 20
182.3899186973
 30
0.0
 10
415.0318520286
 20
182.2939078016
 30
0.0
  0
SPLINE
  5
6A5
100
AcDbEntity
  8
0
100
AcDbSpline
 62
7
  6
CONTINUOUS
 70
0
 71
3
 72
10
 73
6
 74
0
 42
0.0000001
 43
0.0000001
 44
0.0000000001
 40
0.0
 40
0.0
 40
0.0
 40
0.0
 40
0.5880755607
 40
0.8361548559
 40
1.0
 40
1.0
 40
1.0
 40
1.0
 10
415.0318520286
 20
601.4938571429
 30
0.0
 10
415.1293482927
 20
601.3978399738
 30
0.0
 10
415.2678017985
 20
601.261125376
 30
0.0
 10
415.434502021
 20
601.0988186821
 30
0.0
 10
415.5031806877
 20
601.0319081168
 30
0.0
 10
415.5315238095
 20
601.0064095084
 30
0.0
  0
SPLINE
  5
6A6
100
AcDbEntity
  8
0
100
AcDbSpline
 62
7
  6
CONTINUOUS
 70
0
 71
3
 72
10
 73
6
 74
0
 42
0.0000001
 43
0.0000001
 44
0.0000000001
 40
0.0
 40
0.0
 40
0.0
 40
0.0
 40
0.1638412749
 40
0.4119240522
 40
1.0
 40
1.0
 40
1.0
 40
1.0
 10
415.5315238095
 20
613.9813150442
 30
0.0
 10
415.5031777799
 20
613.955823311
 30
0.0
 10
415.4345007977
 20
613.8889162915
 30
0.0
 10
415.2677948874
 20
613.7266291544
 30
0.0
 10
415.1293468616
 20
613.5899186973
 30
0.0
 10
415.0318520286
 20
613.4939078016
 30
0.0
  0
SPLINE
  5
6A7
100
AcDbEntity
  8
0
100
AcDbSpline
 62
7
  6
CONTINUOUS
 70
0
 71
3
 72
10
 73
6
 74
0
 42
0.0000001
 43
0.0000001
 44
0.0000000001
 40
0.0
 40
0.0
 40
0.0
 40
0.0
 40
0.5880755607
 40
0.8361548559
 40
1.0
 40
1.0
 40
1.0
 40
1.0
 10
415.0318520286
 20
539.8938571429
 30
0.0
 10
415.1293482927
 20
539.7978399738
 30
0.0
 10
415.2678017985
 20
539.661125376
 30
0.0
 10
415.434502021
 20
539.4988186821
 30
0.0
 10
415.5031806877
 20
539.4319081168
 30
0.0
 10
415.5315238095
 20
539.4064095084
 30
0.0
  0
SPLINE
  5
6A8
100
AcDbEntity
  8
0
100
AcDbSpline
 62
7
  6
CONTINUOUS
 70
0
 71
3
 72
10
 73
6
 74
0
 42
0.0000001
 43
0.0000001
 44
0.0000000001
 40
0.0
 40
0.0
 40
0.0
 40
0.0
 40
0.1638412749
 40
0.4119240522
 40
1.0
 40
1.0
 40
1.0
 40
1.0
 10
415.5315238095
 20
552.3813150442
 30
0.0
 10
415.5031777799
 20
552.355823311
 30
0.0
 10
415.4345007977
 20
552.2889162915
 30
0.0
 10
415.2677948874
 20
552.1266291544
 30
0.0
 10
415.1293468616
 20
551.9899186973
 30
0.0
 10
415.0318520286
 20
551.8939078016
 30
0.0
  0
SPLINE
  5
6A9
100
AcDbEntity
  8
0
100
AcDbSpline
 62
7
  6
CONTINUOUS
 70
0
 71
3
 72
10
 73
6
 74
0
 42
0.0000001
 43
0.0000001
 44
0.0000000001
 40
0.0
 40
0.0
 40
0.0
 40
0.0
 40
0.5880755607
 40
0.8361548559
 40
1.0
 40
1.0
 40
1.0
 40
1.0
 10
415.0318520286
 20
108.6938571429
 30
0.0
 10
415.1293482927
 20
108.5978399738
 30
0.0
 10
415.2678017985
 20
108.461125376
 30
0.0
 10
415.434502021
 20
108.2988186821
 30
0.0
 10
415.5031806877
 20
108.2319081168
 30
0.0
 10
415.5315238095
 20
108.2064095084
 30
0.0
  0
SPLINE
  5
6AA
100
AcDbEntity
  8
0
100
AcDbSpline
 62
7
  6
CONTINUOUS
 70
0
 71
3
 72
10
 73
6
 74
0
 42
0.0000001
 43
0.0000001
 44
0.0000000001
 40
0.0
 40
0.0
 40
0.0
 40
0.0
 40
0.1638412749
 40
0.4119240522
 40
1.0
 40
1.0
 40
1.0
 40
1.0
 10
415.5315238095
 20
121.1813150442
 30
0.0
 10
415.5031777799
 20
121.155823311
 30
0.0
 10
415.4345007977
 20
121.0889162915
 30
0.0
 10
415.2677948874
 20
120.9266291544
 30
0.0
 10
415.1293468616
 20
120.7899186973
 30
0.0
 10
415.0318520286
 20
120.6939078016
 30
0.0
  0
SPLINE
  5
6AB
100
AcDbEntity
  8
0
100
AcDbSpline
 62
7
  6
CONTINUOUS
 70
0
 71
3
 72
10
 73
6
 74
0
 42
0.0000001
 43
0.0000001
 44
0.0000000001
 40
0.0
 40
0.0
 40
0.0
 40
0.0
 40
0.5880755607
 40
0.8361548559
 40
1.0
 40
1.0
 40
1.0
 40
1.0
 10
415.0318520286
 20
478.2938571429
 30
0.0
 10
415.1293482927
 20
478.1978399738
 30
0.0
 10
415.2678017985
 20
478.061125376
 30
0.0
 10
415.434502021
 20
477.8988186821
 30
0.0
 10
415.5031806877
 20
477.8319081168
 30
0.0
 10
415.5315238095
 20
477.8064095084
 30
0.0
  0
SPLINE
  5
6AC
100
AcDbEntity
  8
0
100
AcDbSpline
 62
7
  6
CONTINUOUS
 70
0
 71
3
 72
10
 73
6
 74
0
 42
0.0000001
 43
0.0000001
 44
0.0000000001
 40
0.0
 40
0.0
 40
0.0
 40
0.0
 40
0.1638412749
 40
0.4119240522
 40
1.0
 40
1.0
 40
1.0
 40
1.0
 10
415.5315238095
 20
490.7813150442
 30
0.0
 10
415.5031777799
 20
490.755823311
 30
0.0
 10
415.4345007977
 20
490.6889162915
 30
0.0
 10
415.2677948874
 20
490.5266291544
 30
0.0
 10
415.1293468616
 20
490.3899186973
 30
0.0
 10
415.0318520286
 20
490.2939078016
 30
0.0
  0
SPLINE
  5
6AD
100
AcDbEntity
  8
0
100
AcDbSpline
 62
7
  6
CONTINUOUS
 70
0
 71
3
 72
10
 73
6
 74
0
 42
0.0000001
 43
0.0000001
 44
0.0000000001
 40
0.0
 40
0.0
 40
0.0
 40
0.0
 40
0.1638412749
 40
0.4119240522
 40
1.0
 40
1.0
 40
1.0
 40
1.0
 10
415.5315238095
 20
508.3813150442
 30
0.0
 10
415.5031777799
 20
508.355823311
 30
0.0
 10
415.4345007977
 20
508.2889162915
 30
0.0
 10
415.2677948874
 20
508.1266291544
 30
0.0
 10
415.1293468616
 20
507.9899186973
 30
0.0
 10
415.0318520286
 20
507.8939078016
 30
0.0
  0
SPLINE
  5
6AE
100
AcDbEntity
  8
0
100
AcDbSpline
 62
7
  6
CONTINUOUS
 70
0
 71
3
 72
10
 73
6
 74
0
 42
0.0000001
 43
0.0000001
 44
0.0000000001
 40
0.0
 40
0.0
 40
0.0
 40
0.0
 40
0.588083073
 40
0.8361625003
 40
1.0
 40
1.0
 40
1.0
 40
1.0
 10
415.0318520286
 20
495.8938064842
 30
0.0
 10
415.1293480442
 20
495.7977944238
 30
0.0
 10
415.2678000375
 20
495.6610867766
 30
0.0
 10
415.4345008792
 20
495.4987944092
 30
0.0
 10
415.5031784326
 20
495.4318903877
 30
0.0
 10
415.5315238095
 20
495.4063992416
 30
0.0
  0
SPLINE
  5
6AF
100
AcDbEntity
  8
0
100
AcDbSpline
 62
7
  6
CONTINUOUS
 70
0
 71
3
 72
10
 73
6
 74
0
 42
0.0000001
 43
0.0000001
 44
0.0000000001
 40
0.0
 40
0.0
 40
0.0
 40
0.0
 40
0.1638412749
 40
0.4119240522
 40
1.0
 40
1.0
 40
1.0
 40
1.0
 10
415.5315238095
 20
569.9813150442
 30
0.0
 10
415.5031777799
 20
569.955823311
 30
0.0
 10
415.4345007977
 20
569.8889162915
 30
0.0
 10
415.2677948874
 20
569.7266291544
 30
0.0
 10
415.1293468616
 20
569.5899186973
 30
0.0
 10
415.0318520286
 20
569.4939078016
 30
0.0
  0
SPLINE
  5
6B0
100
AcDbEntity
  8
0
100
AcDbSpline
 62
7
  6
CONTINUOUS
 70
0
 71
3
 72
10
 73
6
 74
0
 42
0.0000001
 43
0.0000001
 44
0.0000000001
 40
0.0
 40
0.0
 40
0.0
 40
0.0
 40
0.588083073
 40
0.8361625003
 40
1.0
 40
1.0
 40
1.0
 40
1.0
 10
415.0318520286
 20
557.4938064842
 30
0.0
 10
415.1293480442
 20
557.3977944238
 30
0.0
 10
415.2678000375
 20
557.2610867766
 30
0.0
 10
415.4345008792
 20
557.0987944092
 30
0.0
 10
415.5031784326
 20
557.0318903877
 30
0.0
 10
415.5315238095
 20
557.0063992416
 30
0.0
  0
SPLINE
  5
6B1
100
AcDbEntity
  8
0
100
AcDbSpline
 62
7
  6
CONTINUOUS
 70
0
 71
3
 72
10
 73
6
 74
0
 42
0.0000001
 43
0.0000001
 44
0.0000000001
 40
0.0
 40
0.0
 40
0.0
 40
0.0
 40
0.1638412749
 40
0.4119240522
 40
1.0
 40
1.0
 40
1.0
 40
1.0
 10
415.5315238095
 20
631.5813150442
 30
0.0
 10
415.5031777799
 20
631.555823311
 30
0.0
 10
415.4345007977
 20
631.4889162915
 30
0.0
 10
415.2677948874
 20
631.3266291544
 30
0.0
 10
415.1293468616
 20
631.1899186973
 30
0.0
 10
415.0318520286
 20
631.0939078016
 30
0.0
  0
SPLINE
  5
6B2
100
AcDbEntity
  8
0
100
AcDbSpline
 62
7
  6
CONTINUOUS
 70
0
 71
3
 72
10
 73
6
 74
0
 42
0.0000001
 43
0.0000001
 44
0.0000000001
 40
0.0
 40
0.0
 40
0.0
 40
0.0
 40
0.588083073
 40
0.8361625003
 40
1.0
 40
1.0
 40
1.0
 40
1.0
 10
415.0318520286
 20
619.0938064842
 30
0.0
 10
415.1293480442
 20
618.9977944238
 30
0.0
 10
415.2678000375
 20
618.8610867766
 30
0.0
 10
415.4345008792
 20
618.6987944092
 30
0.0
 10
415.5031784326
 20
618.6318903877
 30
0.0
 10
415.5315238095
 20
618.6063992416
 30
0.0
  0
SPLINE
  5
6B3
100
AcDbEntity
  8
0
100
AcDbSpline
 62
7
  6
CONTINUOUS
 70
0
 71
3
 72
10
 73
6
 74
0
 42
0.0000001
 43
0.0000001
 44
0.0000000001
 40
0.0
 40
0.0
 40
0.0
 40
0.0
 40
0.1638412749
 40
0.4119240522
 40
1.0
 40
1.0
 40
1.0
 40
1.0
 10
415.5315238095
 20
693.1813150442
 30
0.0
 10
415.5031777799
 20
693.155823311
 30
0.0
 10
415.4345007977
 20
693.0889162915
 30
0.0
 10
415.2677948874
 20
692.9266291544
 30
0.0
 10
415.1293468616
 20
692.7899186973
 30
0.0
 10
415.0318520286
 20
692.6939078016
 30
0.0
  0
SPLINE
  5
6B4
100
AcDbEntity
  8
0
100
AcDbSpline
 62
7
  6
CONTINUOUS
 70
0
 71
3
 72
10
 73
6
 74
0
 42
0.0000001
 43
0.0000001
 44
0.0000000001
 40
0.0
 40
0.0
 40
0.0
 40
0.0
 40
0.588083073
 40
0.8361625003
 40
1.0
 40
1.0
 40
1.0
 40
1.0
 10
415.0318520286
 20
680.6938064842
 30
0.0
 10
415.1293480442
 20
680.5977944238
 30
0.0
 10
415.2678000375
 20
680.4610867766
 30
0.0
 10
415.4345008792
 20
680.2987944092
 30
0.0
 10
415.5031784326
 20
680.2318903877
 30
0.0
 10
415.5315238095
 20
680.2063992416
 30
0.0
  0
SPLINE
  5
6B5
100
AcDbEntity
  8
0
100
AcDbSpline
 62
7
  6
CONTINUOUS
 70
0
 71
3
 72
10
 73
6
 74
0
 42
0.0000001
 43
0.0000001
 44
0.0000000001
 40
0.0
 40
0.0
 40
0.0
 40
0.0
 40
0.1638412749
 40
0.4119240522
 40
1.0
 40
1.0
 40
1.0
 40
1.0
 10
415.5315238095
 20
754.7813150442
 30
0.0
 10
415.5031777799
 20
754.755823311
 30
0.0
 10
415.4345007977
 20
754.6889162915
 30
0.0
 10
415.2677948874
 20
754.5266291544
 30
0.0
 10
415.1293468616
 20
754.3899186973
 30
0.0
 10
415.0318520286
 20
754.2939078016
 30
0.0
  0
SPLINE
  5
6B6
100
AcDbEntity
  8
0
100
AcDbSpline
 62
7
  6
CONTINUOUS
 70
0
 71
3
 72
10
 73
6
 74
0
 42
0.0000001
 43
0.0000001
 44
0.0000000001
 40
0.0
 40
0.0
 40
0.0
 40
0.0
 40
0.588083073
 40
0.8361625003
 40
1.0
 40
1.0
 40
1.0
 40
1.0
 10
415.0318520286
 20
742.2938064842
 30
0.0
 10
415.1293480442
 20
742.1977944238
 30
0.0
 10
415.2678000375
 20
742.0610867766
 30
0.0
 10
415.4345008792
 20
741.8987944092
 30
0.0
 10
415.5031784326
 20
741.8318903877
 30
0.0
 10
415.5315238095
 20
741.8063992416
 30
0.0
  0
SPLINE
  5
6B7
100
AcDbEntity
  8
0
100
AcDbSpline
 62
7
  6
CONTINUOUS
 70
0
 71
3
 72
10
 73
6
 74
0
 42
0.0000001
 43
0.0000001
 44
0.0000000001
 40
0.0
 40
0.0
 40
0.0
 40
0.0
 40
0.1638412749
 40
0.4119240522
 40
1.0
 40
1.0
 40
1.0
 40
1.0
 10
415.5315238095
 20
816.3813150442
 30
0.0
 10
415.5031777799
 20
816.355823311
 30
0.0
 10
415.4345007977
 20
816.2889162915
 30
0.0
 10
415.2677948874
 20
816.1266291544
 30
0.0
 10
415.1293468616
 20
815.9899186973
 30
0.0
 10
415.0318520286
 20
815.8939078016
 30
0.0
  0
SPLINE
  5
6B8
100
AcDbEntity
  8
0
100
AcDbSpline
 62
7
  6
CONTINUOUS
 70
0
 71
3
 72
10
 73
6
 74
0
 42
0.0000001
 43
0.0000001
 44
0.0000000001
 40
0.0
 40
0.0
 40
0.0
 40
0.0
 40
0.588083073
 40
0.8361625003
 40
1.0
 40
1.0
 40
1.0
 40
1.0
 10
415.0318520286
 20
803.8938064842
 30
0.0
 10
415.1293480442
 20
803.7977944238
 30
0.0
 10
415.2678000375
 20
803.6610867766
 30
0.0
 10
415.4345008792
 20
803.4987944092
 30
0.0
 10
415.5031784326
 20
803.4318903877
 30
0.0
 10
415.5315238095
 20
803.4063992416
 30
0.0
  0
SPLINE
  5
6B9
100
AcDbEntity
  8
0
100
AcDbSpline
 62
7
  6
CONTINUOUS
 70
0
 71
3
 72
10
 73
6
 74
0
 42
0.0000001
 43
0.0000001
 44
0.0000000001
 40
0.0
 40
0.0
 40
0.0
 40
0.0
 40
0.1638412749
 40
0.4119240522
 40
1.0
 40
1.0
 40
1.0
 40
1.0
 10
415.5315238095
 20
877.9813150442
 30
0.0
 10
415.5031777799
 20
877.955823311
 30
0.0
 10
415.4345007977
 20
877.8889162915
 30
0.0
 10
415.2677948874
 20
877.7266291544
 30
0.0
 10
415.1293468616
 20
877.5899186973
 30
0.0
 10
415.0318520286
 20
877.4939078016
 30
0.0
  0
SPLINE
  5
6BA
100
AcDbEntity
  8
0
100
AcDbSpline
 62
7
  6
CONTINUOUS
 70
0
 71
3
 72
10
 73
6
 74
0
 42
0.0000001
 43
0.0000001
 44
0.0000000001
 40
0.0
 40
0.0
 40
0.0
 40
0.0
 40
0.588083073
 40
0.8361625003
 40
1.0
 40
1.0
 40
1.0
 40
1.0
 10
415.0318520286
 20
865.4938064842
 30
0.0
 10
415.1293480442
 20
865.3977944238
 30
0.0
 10
415.2678000375
 20
865.2610867766
 30
0.0
 10
415.4345008792
 20
865.0987944092
 30
0.0
 10
415.5031784326
 20
865.0318903877
 30
0.0
 10
415.5315238095
 20
865.0063992416
 30
0.0
  0
SPLINE
  5
6BB
100
AcDbEntity
  8
0
100
AcDbSpline
 62
7
  6
CONTINUOUS
 70
0
 71
3
 72
10
 73
6
 74
0
 42
0.0000001
 43
0.0000001
 44
0.0000000001
 40
0.0
 40
0.0
 40
0.0
 40
0.0
 40
0.1638412749
 40
0.4119240522
 40
1.0
 40
1.0
 40
1.0
 40
1.0
 10
415.5315238095
 20
939.5813150442
 30
0.0
 10
415.5031777799
 20
939.555823311
 30
0.0
 10
415.4345007977
 20
939.4889162915
 30
0.0
 10
415.2677948874
 20
939.3266291544
 30
0.0
 10
415.1293468616
 20
939.1899186973
 30
0.0
 10
415.0318520286
 20
939.0939078016
 30
0.0
  0
SPLINE
  5
6BC
100
AcDbEntity
  8
0
100
AcDbSpline
 62
7
  6
CONTINUOUS
 70
0
 71
3
 72
10
 73
6
 74
0
 42
0.0000001
 43
0.0000001
 44
0.0000000001
 40
0.0
 40
0.0
 40
0.0
 40
0.0
 40
0.588083073
 40
0.8361625003
 40
1.0
 40
1.0
 40
1.0
 40
1.0
 10
415.0318520286
 20
927.0938064842
 30
0.0
 10
415.1293480442
 20
926.9977944238
 30
0.0
 10
415.2678000375
 20
926.8610867766
 30
0.0
 10
415.4345008792
 20
926.6987944092
 30
0.0
 10
415.5031784326
 20
926.6318903877
 30
0.0
 10
415.5315238095
 20
926.6063992416
 30
0.0
  0
SPLINE
  5
6BD
100
AcDbEntity
  8
0
100
AcDbSpline
 62
7
  6
CONTINUOUS
 70
0
 71
3
 72
10
 73
6
 74
0
 42
0.0000001
 43
0.0000001
 44
0.0000000001
 40
0.0
 40
0.0
 40
0.0
 40
0.0
 40
0.1638412749
 40
0.4119240522
 40
1.0
 40
1.0
 40
1.0
 40
1.0
 10
415.5315238095
 20
1001.1813150442
 30
0.0
 10
415.5031777799
 20
1001.155823311
 30
0.0
 10
415.4345007977
 20
1001.0889162915
 30
0.0
 10
415.2677948874
 20
1000.9266291544
 30
0.0
 10
415.1293468616
 20
1000.7899186973
 30
0.0
 10
415.0318520286
 20
1000.6939078016
 30
0.0
  0
SPLINE
  5
6BE
100
AcDbEntity
  8
0
100
AcDbSpline
 62
7
  6
CONTINUOUS
 70
0
 71
3
 72
10
 73
6
 74
0
 42
0.0000001
 43
0.0000001
 44
0.0000000001
 40
0.0
 40
0.0
 40
0.0
 40
0.0
 40
0.588083073
 40
0.8361625003
 40
1.0
 40
1.0
 40
1.0
 40
1.0
 10
415.0318520286
 20
988.6938064842
 30
0.0
 10
415.1293480442
 20
988.5977944238
 30
0.0
 10
415.2678000375
 20
988.4610867766
 30
0.0
 10
415.4345008792
 20
988.2987944092
 30
0.0
 10
415.5031784326
 20
988.2318903877
 30
0.0
 10
415.5315238095
 20
988.2063992416
 30
0.0
  0
SPLINE
  5
6BF
100
AcDbEntity
  8
0
100
AcDbSpline
 62
7
  6
CONTINUOUS
 70
0
 71
3
 72
10
 73
6
 74
0
 42
0.0000001
 43
0.0000001
 44
0.0000000001
 40
0.0
 40
0.0
 40
0.0
 40
0.0
 40
0.1638412749
 40
0.4119240522
 40
1.0
 40
1.0
 40
1.0
 40
1.0
 10
415.5315238095
 20
1062.7813150442
 30
0.0
 10
415.5031777799
 20
1062.755823311
 30
0.0
 10
415.4345007977
 20
1062.6889162915
 30
0.0
 10
415.2677948874
 20
1062.5266291544
 30
0.0
 10
415.1293468616
 20
1062.3899186973
 30
0.0
 10
415.0318520286
 20
1062.2939078016
 30
0.0
  0
SPLINE
  5
6C0
100
AcDbEntity
  8
0
100
AcDbSpline
 62
7
  6
CONTINUOUS
 70
0
 71
3
 72
10
 73
6
 74
0
 42
0.0000001
 43
0.0000001
 44
0.0000000001
 40
0.0
 40
0.0
 40
0.0
 40
0.0
 40
0.588083073
 40
0.8361625003
 40
1.0
 40
1.0
 40
1.0
 40
1.0
 10
415.0318520286
 20
1050.2938064842
 30
0.0
 10
415.1293480442
 20
1050.1977944238
 30
0.0
 10
415.2678000375
 20
1050.0610867766
 30
0.0
 10
415.4345008792
 20
1049.8987944092
 30
0.0
 10
415.5031784326
 20
1049.8318903877
 30
0.0
 10
415.5315238095
 20
1049.8063992416
 30
0.0
  0
SPLINE
  5
6C1
100
AcDbEntity
  8
0
100
AcDbSpline
 62
7
  6
CONTINUOUS
 70
0
 71
3
 72
10
 73
6
 74
0
 42
0.0000001
 43
0.0000001
 44
0.0000000001
 40
0.0
 40
0.0
 40
0.0
 40
0.0
 40
0.1638412749
 40
0.4119240522
 40
1.0
 40
1.0
 40
1.0
 40
1.0
 10
415.5315238095
 20
446.7813150442
 30
0.0
 10
415.5031777799
 20
446.755823311
 30
0.0
 10
415.4345007977
 20
446.6889162915
 30
0.0
 10
415.2677948874
 20
446.5266291544
 30
0.0
 10
415.1293468616
 20
446.3899186973
 30
0.0
 10
415.0318520286
 20
446.2939078016
 30
0.0
  0
SPLINE
  5
6C2
100
AcDbEntity
  8
0
100
AcDbSpline
 62
7
  6
CONTINUOUS
 70
0
 71
3
 72
10
 73
6
 74
0
 42
0.0000001
 43
0.0000001
 44
0.0000000001
 40
0.0
 40
0.0
 40
0.0
 40
0.0
 40
0.588083073
 40
0.8361625003
 40
1.0
 40
1.0
 40
1.0
 40
1.0
 10
415.0318520286
 20
434.2938064842
 30
0.0
 10
415.1293480442
 20
434.1977944238
 30
0.0
 10
415.2678000375
 20
434.0610867766
 30
0.0
 10
415.4345008792
 20
433.8987944092
 30
0.0
 10
415.5031784326
 20
433.8318903877
 30
0.0
 10
415.5315238095
 20
433.8063992416
 30
0.0
  0
SPLINE
  5
6C3
100
AcDbEntity
  8
0
100
AcDbSpline
 62
7
  6
CONTINUOUS
 70
0
 71
3
 72
10
 73
6
 74
0
 42
0.0000001
 43
0.0000001
 44
0.0000000001
 40
0.0
 40
0.0
 40
0.0
 40
0.0
 40
0.1638412749
 40
0.4119240522
 40
1.0
 40
1.0
 40
1.0
 40
1.0
 10
415.5315238095
 20
261.9813150442
 30
0.0
 10
415.5031777799
 20
261.955823311
 30
0.0
 10
415.4345007977
 20
261.8889162915
 30
0.0
 10
415.2677948874
 20
261.7266291544
 30
0.0
 10
415.1293468616
 20
261.5899186973
 30
0.0
 10
415.0318520286
 20
261.4939078016
 30
0.0
  0
SPLINE
  5
6C4
100
AcDbEntity
  8
0
100
AcDbSpline
 62
7
  6
CONTINUOUS
 70
0
 71
3
 72
10
 73
6
 74
0
 42
0.0000001
 43
0.0000001
 44
0.0000000001
 40
0.0
 40
0.0
 40
0.0
 40
0.0
 40
0.588083073
 40
0.8361625003
 40
1.0
 40
1.0
 40
1.0
 40
1.0
 10
415.0318520286
 20
249.4938064842
 30
0.0
 10
415.1293480442
 20
249.3977944238
 30
0.0
 10
415.2678000375
 20
249.2610867766
 30
0.0
 10
415.4345008792
 20
249.0987944092
 30
0.0
 10
415.5031784326
 20
249.0318903877
 30
0.0
 10
415.5315238095
 20
249.0063992416
 30
0.0
  0
SPLINE
  5
6C5
100
AcDbEntity
  8
0
100
AcDbSpline
 62
7
  6
CONTINUOUS
 70
0
 71
3
 72
10
 73
6
 74
0
 42
0.0000001
 43
0.0000001
 44
0.0000000001
 40
0.0
 40
0.0
 40
0.0
 40
0.0
 40
0.1638412749
 40
0.4119240522
 40
1.0
 40
1.0
 40
1.0
 40
1.0
 10
415.5315238095
 20
138.7813150442
 30
0.0
 10
415.5031777799
 20
138.755823311
 30
0.0
 10
415.4345007977
 20
138.6889162915
 30
0.0
 10
415.2677948874
 20
138.5266291544
 30
0.0
 10
415.1293468616
 20
138.3899186973
 30
0.0
 10
415.0318520286
 20
138.2939078016
 30
0.0
  0
SPLINE
  5
6C6
100
AcDbEntity
  8
0
100
AcDbSpline
 62
7
  6
CONTINUOUS
 70
0
 71
3
 72
10
 73
6
 74
0
 42
0.0000001
 43
0.0000001
 44
0.0000000001
 40
0.0
 40
0.0
 40
0.0
 40
0.0
 40
0.588083073
 40
0.8361625003
 40
1.0
 40
1.0
 40
1.0
 40
1.0
 10
415.0318520286
 20
126.2938064842
 30
0.0
 10
415.1293480442
 20
126.1977944238
 30
0.0
 10
415.2678000375
 20
126.0610867766
 30
0.0
 10
415.4345008792
 20
125.8987944092
 30
0.0
 10
415.5031784326
 20
125.8318903877
 30
0.0
 10
415.5315238095
 20
125.8063992416
 30
0.0
  0
SPLINE
  5
6C7
100
AcDbEntity
  8
0
100
AcDbSpline
 62
7
  6
CONTINUOUS
 70
0
 71
3
 72
10
 73
6
 74
0
 42
0.0000001
 43
0.0000001
 44
0.0000000001
 40
0.0
 40
0.0
 40
0.0
 40
0.0
 40
0.1638412749
 40
0.4119240522
 40
1.0
 40
1.0
 40
1.0
 40
1.0
 10
415.5315238095
 20
385.1813150442
 30
0.0
 10
415.5031777799
 20
385.155823311
 30
0.0
 10
415.4345007977
 20
385.0889162915
 30
0.0
 10
415.2677948874
 20
384.9266291544
 30
0.0
 10
415.1293468616
 20
384.7899186973
 30
0.0
 10
415.0318520286
 20
384.6939078016
 30
0.0
  0
SPLINE
  5
6C8
100
AcDbEntity
  8
0
100
AcDbSpline
 62
7
  6
CONTINUOUS
 70
0
 71
3
 72
10
 73
6
 74
0
 42
0.0000001
 43
0.0000001
 44
0.0000000001
 40
0.0
 40
0.0
 40
0.0
 40
0.0
 40
0.588083073
 40
0.8361625003
 40
1.0
 40
1.0
 40
1.0
 40
1.0
 10
415.0318520286
 20
372.6938064842
 30
0.0
 10
415.1293480442
 20
372.5977944238
 30
0.0
 10
415.2678000375
 20
372.4610867766
 30
0.0
 10
415.4345008792
 20
372.2987944092
 30
0.0
 10
415.5031784326
 20
372.2318903877
 30
0.0
 10
415.5315238095
 20
372.2063992416
 30
0.0
  0
SPLINE
  5
6C9
100
AcDbEntity
  8
0
100
AcDbSpline
 62
7
  6
CONTINUOUS
 70
0
 71
3
 72
10
 73
6
 74
0
 42
0.0000001
 43
0.0000001
 44
0.0000000001
 40
0.0
 40
0.0
 40
0.0
 40
0.0
 40
0.1638412749
 40
0.4119240522
 40
1.0
 40
1.0
 40
1.0
 40
1.0
 10
415.5315238095
 20
200.3813150442
 30
0.0
 10
415.5031777799
 20
200.355823311
 30
0.0
 10
415.4345007977
 20
200.2889162915
 30
0.0
 10
415.2677948874
 20
200.1266291544
 30
0.0
 10
415.1293468616
 20
199.9899186973
 30
0.0
 10
415.0318520286
 20
199.8939078016
 30
0.0
  0
SPLINE
  5
6CA
100
AcDbEntity
  8
0
100
AcDbSpline
 62
7
  6
CONTINUOUS
 70
0
 71
3
 72
10
 73
6
 74
0
 42
0.0000001
 43
0.0000001
 44
0.0000000001
 40
0.0
 40
0.0
 40
0.0
 40
0.0
 40
0.588083073
 40
0.8361625003
 40
1.0
 40
1.0
 40
1.0
 40
1.0
 10
415.0318520286
 20
187.8938064842
 30
0.0
 10
415.1293480442
 20
187.7977944238
 30
0.0
 10
415.2678000375
 20
187.6610867766
 30
0.0
 10
415.4345008792
 20
187.4987944092
 30
0.0
 10
415.5031784326
 20
187.4318903877
 30
0.0
 10
415.5315238095
 20
187.4063992416
 30
0.0
  0
SPLINE
  5
6CB
100
AcDbEntity
  8
0
100
AcDbSpline
 62
7
  6
CONTINUOUS
 70
0
 71
3
 72
10
 73
6
 74
0
 42
0.0000001
 43
0.0000001
 44
0.0000000001
 40
0.0
 40
0.0
 40
0.0
 40
0.0
 40
0.1638412749
 40
0.4119240522
 40
1.0
 40
1.0
 40
1.0
 40
1.0
 10
415.5315238095
 20
323.5813150442
 30
0.0
 10
415.5031777799
 20
323.555823311
 30
0.0
 10
415.4345007977
 20
323.4889162915
 30
0.0
 10
415.2677948874
 20
323.3266291544
 30
0.0
 10
415.1293468616
 20
323.1899186973
 30
0.0
 10
415.0318520286
 20
323.0939078016
 30
0.0
  0
SPLINE
  5
6CC
100
AcDbEntity
  8
0
100
AcDbSpline
 62
7
  6
CONTINUOUS
 70
0
 71
3
 72
10
 73
6
 74
0
 42
0.0000001
 43
0.0000001
 44
0.0000000001
 40
0.0
 40
0.0
 40
0.0
 40
0.0
 40
0.588083073
 40
0.8361625003
 40
1.0
 40
1.0
 40
1.0
 40
1.0
 10
415.0318520286
 20
311.0938064842
 30
0.0
 10
415.1293480442
 20
310.9977944238
 30
0.0
 10
415.2678000375
 20
310.8610867766
 30
0.0
 10
415.4345008792
 20
310.6987944092
 30
0.0
 10
415.5031784326
 20
310.6318903877
 30
0.0
 10
415.5315238095
 20
310.6063992416
 30
0.0
  0
SPLINE
  5
6CD
100
AcDbEntity
  8
0
100
AcDbSpline
 62
7
  6
CONTINUOUS
 70
0
 71
3
 72
10
 73
6
 74
0
 42
0.0000001
 43
0.0000001
 44
0.0000000001
 40
0.0
 40
0.0
 40
0.0
 40
0.0
 40
0.1638489211
 40
0.411931565
 40
1.0
 40
1.0
 40
1.0
 40
1.0
 10
415.5315238095
 20
781.1813047774
 30
0.0
 10
415.5031800347
 20
781.1558055815
 30
0.0
 10
415.4345019366
 20
781.088892021
 30
0.0
 10
415.2677966519
 20
780.9265905503
 30
0.0
 10
415.12934711
 20
780.7898731472
 30
0.0
 10
415.0318520286
 20
780.6938571429
 30
0.0
  0
SPLINE
  5
6CE
100
AcDbEntity
  8
0
100
AcDbSpline
 62
7
  6
CONTINUOUS
 70
0
 71
3
 72
10
 73
6
 74
0
 42
0.0000001
 43
0.0000001
 44
0.0000000001
 40
0.0
 40
0.0
 40
0.0
 40
0.0
 40
0.5880830588
 40
0.8361624914
 40
1.0
 40
1.0
 40
1.0
 40
1.0
 10
415.0318520286
 20
768.6938064842
 30
0.0
 10
415.1293480418
 20
768.5977944262
 30
0.0
 10
415.2678000322
 20
768.4610867789
 30
0.0
 10
415.4345008756
 20
768.2987944133
 30
0.0
 10
415.5031784311
 20
768.2318903891
 30
0.0
 10
415.5315238095
 20
768.2063992416
 30
0.0
  0
SPLINE
  5
6CF
100
AcDbEntity
  8
0
100
AcDbSpline
 62
7
  6
CONTINUOUS
 70
0
 71
3
 72
10
 73
6
 74
0
 42
0.0000001
 43
0.0000001
 44
0.0000000001
 40
0.0
 40
0.0
 40
0.0
 40
0.0
 40
0.1638489211
 40
0.411931565
 40
1.0
 40
1.0
 40
1.0
 40
1.0
 10
415.5315238095
 20
165.1813047774
 30
0.0
 10
415.5031800347
 20
165.1558055815
 30
0.0
 10
415.4345019366
 20
165.088892021
 30
0.0
 10
415.2677966519
 20
164.9265905503
 30
0.0
 10
415.12934711
 20
164.7898731472
 30
0.0
 10
415.0318520286
 20
164.6938571429
 30
0.0
  0
SPLINE
  5
6D0
100
AcDbEntity
  8
0
100
AcDbSpline
 62
7
  6
CONTINUOUS
 70
0
 71
3
 72
10
 73
6
 74
0
 42
0.0000001
 43
0.0000001
 44
0.0000000001
 40
0.0
 40
0.0
 40
0.0
 40
0.0
 40
0.5880830588
 40
0.8361624914
 40
1.0
 40
1.0
 40
1.0
 40
1.0
 10
415.0318520286
 20
152.6938064842
 30
0.0
 10
415.1293480418
 20
152.5977944262
 30
0.0
 10
415.2678000322
 20
152.4610867789
 30
0.0
 10
415.4345008756
 20
152.2987944133
 30
0.0
 10
415.5031784311
 20
152.2318903891
 30
0.0
 10
415.5315238095
 20
152.2063992416
 30
0.0
  0
SPLINE
  5
6D1
100
AcDbEntity
  8
0
100
AcDbSpline
 62
7
  6
CONTINUOUS
 70
0
 71
3
 72
10
 73
6
 74
0
 42
0.0000001
 43
0.0000001
 44
0.0000000001
 40
0.0
 40
0.0
 40
0.0
 40
0.0
 40
0.1638489211
 40
0.411931565
 40
1.0
 40
1.0
 40
1.0
 40
1.0
 10
415.5315238095
 20
842.7813047774
 30
0.0
 10
415.5031800347
 20
842.7558055815
 30
0.0
 10
415.4345019366
 20
842.688892021
 30
0.0
 10
415.2677966519
 20
842.5265905503
 30
0.0
 10
415.12934711
 20
842.3898731472
 30
0.0
 10
415.0318520286
 20
842.2938571429
 30
0.0
  0
SPLINE
  5
6D2
100
AcDbEntity
  8
0
100
AcDbSpline
 62
7
  6
CONTINUOUS
 70
0
 71
3
 72
10
 73
6
 74
0
 42
0.0000001
 43
0.0000001
 44
0.0000000001
 40
0.0
 40
0.0
 40
0.0
 40
0.0
 40
0.5880830588
 40
0.8361624914
 40
1.0
 40
1.0
 40
1.0
 40
1.0
 10
415.0318520286
 20
830.2938064842
 30
0.0
 10
415.1293480418
 20
830.1977944262
 30
0.0
 10
415.2678000322
 20
830.0610867789
 30
0.0
 10
415.4345008756
 20
829.8987944133
 30
0.0
 10
415.5031784311
 20
829.8318903891
 30
0.0
 10
415.5315238095
 20
829.8063992416
 30
0.0
  0
SPLINE
  5
6D3
100
AcDbEntity
  8
0
100
AcDbSpline
 62
7
  6
CONTINUOUS
 70
0
 71
3
 72
10
 73
6
 74
0
 42
0.0000001
 43
0.0000001
 44
0.0000000001
 40
0.0
 40
0.0
 40
0.0
 40
0.0
 40
0.1638489211
 40
0.411931565
 40
1.0
 40
1.0
 40
1.0
 40
1.0
 10
415.5315238095
 20
904.3813047774
 30
0.0
 10
415.5031800347
 20
904.3558055815
 30
0.0
 10
415.4345019366
 20
904.288892021
 30
0.0
 10
415.2677966519
 20
904.1265905503
 30
0.0
 10
415.12934711
 20
903.9898731472
 30
0.0
 10
415.0318520286
 20
903.8938571429
 30
0.0
  0
SPLINE
  5
6D4
100
AcDbEntity
  8
0
100
AcDbSpline
 62
7
  6
CONTINUOUS
 70
0
 71
3
 72
10
 73
6
 74
0
 42
0.0000001
 43
0.0000001
 44
0.0000000001
 40
0.0
 40
0.0
 40
0.0
 40
0.0
 40
0.5880830588
 40
0.8361624914
 40
1.0
 40
1.0
 40
1.0
 40
1.0
 10
415.0318520286
 20
891.8938064842
 30
0.0
 10
415.1293480418
 20
891.7977944262
 30
0.0
 10
415.2678000322
 20
891.6610867789
 30
0.0
 10
415.4345008756
 20
891.4987944133
 30
0.0
 10
415.5031784311
 20
891.4318903891
 30
0.0
 10
415.5315238095
 20
891.4063992416
 30
0.0
  0
SPLINE
  5
6D5
100
AcDbEntity
  8
0
100
AcDbSpline
 62
7
  6
CONTINUOUS
 70
0
 71
3
 72
10
 73
6
 74
0
 42
0.0000001
 43
0.0000001
 44
0.0000000001
 40
0.0
 40
0.0
 40
0.0
 40
0.0
 40
0.1638489211
 40
0.411931565
 40
1.0
 40
1.0
 40
1.0
 40
1.0
 10
415.5315238095
 20
103.5813047774
 30
0.0
 10
415.5031800347
 20
103.5558055815
 30
0.0
 10
415.4345019366
 20
103.488892021
 30
0.0
 10
415.2677966519
 20
103.3265905503
 30
0.0
 10
415.12934711
 20
103.1898731472
 30
0.0
 10
415.0318520286
 20
103.0938571429
 30
0.0
  0
SPLINE
  5
6D6
100
AcDbEntity
  8
0
100
AcDbSpline
 62
7
  6
CONTINUOUS
 70
0
 71
3
 72
10
 73
6
 74
0
 42
0.0000001
 43
0.0000001
 44
0.0000000001
 40
0.0
 40
0.0
 40
0.0
 40
0.0
 40
0.5880830588
 40
0.8361624914
 40
1.0
 40
1.0
 40
1.0
 40
1.0
 10
415.0318520286
 20
91.0938064842
 30
0.0
 10
415.1293480418
 20
90.9977944262
 30
0.0
 10
415.2678000322
 20
90.8610867789
 30
0.0
 10
415.4345008756
 20
90.6987944133
 30
0.0
 10
415.5031784311
 20
90.6318903891
 30
0.0
 10
415.5315238095
 20
90.6063992416
 30
0.0
  0
SPLINE
  5
6D7
100
AcDbEntity
  8
0
100
AcDbSpline
 62
7
  6
CONTINUOUS
 70
0
 71
3
 72
10
 73
6
 74
0
 42
0.0000001
 43
0.0000001
 44
0.0000000001
 40
0.0
 40
0.0
 40
0.0
 40
0.0
 40
0.1638489211
 40
0.411931565
 40
1.0
 40
1.0
 40
1.0
 40
1.0
 10
415.5315238095
 20
965.9813047774
 30
0.0
 10
415.5031800347
 20
965.9558055815
 30
0.0
 10
415.4345019366
 20
965.888892021
 30
0.0
 10
415.2677966519
 20
965.7265905503
 30
0.0
 10
415.12934711
 20
965.5898731472
 30
0.0
 10
415.0318520286
 20
965.4938571429
 30
0.0
  0
SPLINE
  5
6D8
100
AcDbEntity
  8
0
100
AcDbSpline
 62
7
  6
CONTINUOUS
 70
0
 71
3
 72
10
 73
6
 74
0
 42
0.0000001
 43
0.0000001
 44
0.0000000001
 40
0.0
 40
0.0
 40
0.0
 40
0.0
 40
0.5880830588
 40
0.8361624914
 40
1.0
 40
1.0
 40
1.0
 40
1.0
 10
415.0318520286
 20
953.4938064842
 30
0.0
 10
415.1293480418
 20
953.3977944262
 30
0.0
 10
415.2678000322
 20
953.2610867789
 30
0.0
 10
415.4345008756
 20
953.0987944133
 30
0.0
 10
415.5031784311
 20
953.0318903891
 30
0.0
 10
415.5315238095
 20
953.0063992416
 30
0.0
  0
SPLINE
  5
6D9
100
AcDbEntity
  8
0
100
AcDbSpline
 62
7
  6
CONTINUOUS
 70
0
 71
3
 72
10
 73
6
 74
0
 42
0.0000001
 43
0.0000001
 44
0.0000000001
 40
0.0
 40
0.0
 40
0.0
 40
0.0
 40
0.1638489211
 40
0.411931565
 40
1.0
 40
1.0
 40
1.0
 40
1.0
 10
415.5315238095
 20
1027.5813047774
 30
0.0
 10
415.5031800347
 20
1027.5558055815
 30
0.0
 10
415.4345019366
 20
1027.488892021
 30
0.0
 10
415.2677966519
 20
1027.3265905503
 30
0.0
 10
415.12934711
 20
1027.1898731472
 30
0.0
 10
415.0318520286
 20
1027.0938571429
 30
0.0
  0
SPLINE
  5
6DA
100
AcDbEntity
  8
0
100
AcDbSpline
 62
7
  6
CONTINUOUS
 70
0
 71
3
 72
10
 73
6
 74
0
 42
0.0000001
 43
0.0000001
 44
0.0000000001
 40
0.0
 40
0.0
 40
0.0
 40
0.0
 40
0.5880830588
 40
0.8361624914
 40
1.0
 40
1.0
 40
1.0
 40
1.0
 10
415.0318520286
 20
1015.0938064842
 30
0.0
 10
415.1293480418
 20
1014.9977944262
 30
0.0
 10
415.2678000322
 20
1014.8610867789
 30
0.0
 10
415.4345008756
 20
1014.6987944133
 30
0.0
 10
415.5031784311
 20
1014.6318903891
 30
0.0
 10
415.5315238095
 20
1014.6063992416
 30
0.0
  0
SPLINE
  5
6DB
100
AcDbEntity
  8
0
100
AcDbSpline
 62
7
  6
CONTINUOUS
 70
0
 71
3
 72
10
 73
6
 74
0
 42
0.0000001
 43
0.0000001
 44
0.0000000001
 40
0.0
 40
0.0
 40
0.0
 40
0.0
 40
0.1638489211
 40
0.411931565
 40
1.0
 40
1.0
 40
1.0
 40
1.0
 10
415.5315238095
 20
411.5813047774
 30
0.0
 10
415.5031800347
 20
411.5558055815
 30
0.0
 10
415.4345019366
 20
411.488892021
 30
0.0
 10
415.2677966519
 20
411.3265905503
 30
0.0
 10
415.12934711
 20
411.1898731472
 30
0.0
 10
415.0318520286
 20
411.0938571429
 30
0.0
  0
SPLINE
  5
6DC
100
AcDbEntity
  8
0
100
AcDbSpline
 62
7
  6
CONTINUOUS
 70
0
 71
3
 72
10
 73
6
 74
0
 42
0.0000001
 43
0.0000001
 44
0.0000000001
 40
0.0
 40
0.0
 40
0.0
 40
0.0
 40
0.5880830588
 40
0.8361624914
 40
1.0
 40
1.0
 40
1.0
 40
1.0
 10
415.0318520286
 20
399.0938064842
 30
0.0
 10
415.1293480418
 20
398.9977944262
 30
0.0
 10
415.2678000322
 20
398.8610867789
 30
0.0
 10
415.4345008756
 20
398.6987944133
 30
0.0
 10
415.5031784311
 20
398.6318903891
 30
0.0
 10
415.5315238095
 20
398.6063992416
 30
0.0
  0
SPLINE
  5
6DD
100
AcDbEntity
  8
0
100
AcDbSpline
 62
7
  6
CONTINUOUS
 70
0
 71
3
 72
10
 73
6
 74
0
 42
0.0000001
 43
0.0000001
 44
0.0000000001
 40
0.0
 40
0.0
 40
0.0
 40
0.0
 40
0.1638489211
 40
0.411931565
 40
1.0
 40
1.0
 40
1.0
 40
1.0
 10
415.5315238095
 20
349.9813047774
 30
0.0
 10
415.5031800347
 20
349.9558055815
 30
0.0
 10
415.4345019366
 20
349.888892021
 30
0.0
 10
415.2677966519
 20
349.7265905503
 30
0.0
 10
415.12934711
 20
349.5898731472
 30
0.0
 10
415.0318520286
 20
349.4938571429
 30
0.0
  0
SPLINE
  5
6DE
100
AcDbEntity
  8
0
100
AcDbSpline
 62
7
  6
CONTINUOUS
 70
0
 71
3
 72
10
 73
6
 74
0
 42
0.0000001
 43
0.0000001
 44
0.0000000001
 40
0.0
 40
0.0
 40
0.0
 40
0.0
 40
0.5880830588
 40
0.8361624914
 40
1.0
 40
1.0
 40
1.0
 40
1.0
 10
415.0318520286
 20
337.4938064842
 30
0.0
 10
415.1293480418
 20
337.3977944262
 30
0.0
 10
415.2678000322
 20
337.2610867789
 30
0.0
 10
415.4345008756
 20
337.0987944133
 30
0.0
 10
415.5031784311
 20
337.0318903891
 30
0.0
 10
415.5315238095
 20
337.0063992416
 30
0.0
  0
SPLINE
  5
6DF
100
AcDbEntity
  8
0
100
AcDbSpline
 62
7
  6
CONTINUOUS
 70
0
 71
3
 72
10
 73
6
 74
0
 42
0.0000001
 43
0.0000001
 44
0.0000000001
 40
0.0
 40
0.0
 40
0.0
 40
0.0
 40
0.1638489211
 40
0.411931565
 40
1.0
 40
1.0
 40
1.0
 40
1.0
 10
415.5315238095
 20
473.1813047774
 30
0.0
 10
415.5031800347
 20
473.1558055815
 30
0.0
 10
415.4345019366
 20
473.088892021
 30
0.0
 10
415.2677966519
 20
472.9265905503
 30
0.0
 10
415.12934711
 20
472.7898731472
 30
0.0
 10
415.0318520286
 20
472.6938571429
 30
0.0
  0
SPLINE
  5
6E0
100
AcDbEntity
  8
0
100
AcDbSpline
 62
7
  6
CONTINUOUS
 70
0
 71
3
 72
10
 73
6
 74
0
 42
0.0000001
 43
0.0000001
 44
0.0000000001
 40
0.0
 40
0.0
 40
0.0
 40
0.0
 40
0.5880830588
 40
0.8361624914
 40
1.0
 40
1.0
 40
1.0
 40
1.0
 10
415.0318520286
 20
460.6938064842
 30
0.0
 10
415.1293480418
 20
460.5977944262
 30
0.0
 10
415.2678000322
 20
460.4610867789
 30
0.0
 10
415.4345008756
 20
460.2987944133
 30
0.0
 10
415.5031784311
 20
460.2318903891
 30
0.0
 10
415.5315238095
 20
460.2063992416
 30
0.0
  0
SPLINE
  5
6E1
100
AcDbEntity
  8
0
100
AcDbSpline
 62
7
  6
CONTINUOUS
 70
0
 71
3
 72
10
 73
6
 74
0
 42
0.0000001
 43
0.0000001
 44
0.0000000001
 40
0.0
 40
0.0
 40
0.0
 40
0.0
 40
0.1638489211
 40
0.411931565
 40
1.0
 40
1.0
 40
1.0
 40
1.0
 10
415.5315238095
 20
534.7813047774
 30
0.0
 10
415.5031800347
 20
534.7558055815
 30
0.0
 10
415.4345019366
 20
534.688892021
 30
0.0
 10
415.2677966519
 20
534.5265905503
 30
0.0
 10
415.12934711
 20
534.3898731472
 30
0.0
 10
415.0318520286
 20
534.2938571429
 30
0.0
  0
SPLINE
  5
6E2
100
AcDbEntity
  8
0
100
AcDbSpline
 62
7
  6
CONTINUOUS
 70
0
 71
3
 72
10
 73
6
 74
0
 42
0.0000001
 43
0.0000001
 44
0.0000000001
 40
0.0
 40
0.0
 40
0.0
 40
0.0
 40
0.5880830588
 40
0.8361624914
 40
1.0
 40
1.0
 40
1.0
 40
1.0
 10
415.0318520286
 20
522.2938064842
 30
0.0
 10
415.1293480418
 20
522.1977944262
 30
0.0
 10
415.2678000322
 20
522.0610867789
 30
0.0
 10
415.4345008756
 20
521.8987944133
 30
0.0
 10
415.5031784311
 20
521.8318903891
 30
0.0
 10
415.5315238095
 20
521.8063992416
 30
0.0
  0
SPLINE
  5
6E3
100
AcDbEntity
  8
0
100
AcDbSpline
 62
7
  6
CONTINUOUS
 70
0
 71
3
 72
10
 73
6
 74
0
 42
0.0000001
 43
0.0000001
 44
0.0000000001
 40
0.0
 40
0.0
 40
0.0
 40
0.0
 40
0.1638489211
 40
0.411931565
 40
1.0
 40
1.0
 40
1.0
 40
1.0
 10
415.5315238095
 20
288.3813047774
 30
0.0
 10
415.5031800347
 20
288.3558055815
 30
0.0
 10
415.4345019366
 20
288.288892021
 30
0.0
 10
415.2677966519
 20
288.1265905503
 30
0.0
 10
415.12934711
 20
287.9898731472
 30
0.0
 10
415.0318520286
 20
287.8938571429
 30
0.0
  0
SPLINE
  5
6E4
100
AcDbEntity
  8
0
100
AcDbSpline
 62
7
  6
CONTINUOUS
 70
0
 71
3
 72
10
 73
6
 74
0
 42
0.0000001
 43
0.0000001
 44
0.0000000001
 40
0.0
 40
0.0
 40
0.0
 40
0.0
 40
0.5880830588
 40
0.8361624914
 40
1.0
 40
1.0
 40
1.0
 40
1.0
 10
415.0318520286
 20
275.8938064842
 30
0.0
 10
415.1293480418
 20
275.7977944262
 30
0.0
 10
415.2678000322
 20
275.6610867789
 30
0.0
 10
415.4345008756
 20
275.4987944133
 30
0.0
 10
415.5031784311
 20
275.4318903891
 30
0.0
 10
415.5315238095
 20
275.4063992416
 30
0.0
  0
SPLINE
  5
6E5
100
AcDbEntity
  8
0
100
AcDbSpline
 62
7
  6
CONTINUOUS
 70
0
 71
3
 72
10
 73
6
 74
0
 42
0.0000001
 43
0.0000001
 44
0.0000000001
 40
0.0
 40
0.0
 40
0.0
 40
0.0
 40
0.1638489211
 40
0.411931565
 40
1.0
 40
1.0
 40
1.0
 40
1.0
 10
415.5315238095
 20
596.3813047774
 30
0.0
 10
415.5031800347
 20
596.3558055815
 30
0.0
 10
415.4345019366
 20
596.288892021
 30
0.0
 10
415.2677966519
 20
596.1265905503
 30
0.0
 10
415.12934711
 20
595.9898731472
 30
0.0
 10
415.0318520286
 20
595.8938571429
 30
0.0
  0
SPLINE
  5
6E6
100
AcDbEntity
  8
0
100
AcDbSpline
 62
7
  6
CONTINUOUS
 70
0
 71
3
 72
10
 73
6
 74
0
 42
0.0000001
 43
0.0000001
 44
0.0000000001
 40
0.0
 40
0.0
 40
0.0
 40
0.0
 40
0.5880830588
 40
0.8361624915
 40
1.0
 40
1.0
 40
1.0
 40
1.0
 10
415.0318520286
 20
583.8938064842
 30
0.0
 10
415.1293480418
 20
583.7977944262
 30
0.0
 10
415.2678000322
 20
583.6610867789
 30
0.0
 10
415.4345008756
 20
583.4987944133
 30
0.0
 10
415.5031784311
 20
583.4318903891
 30
0.0
 10
415.5315238095
 20
583.4063992416
 30
0.0
  0
SPLINE
  5
6E7
100
AcDbEntity
  8
0
100
AcDbSpline
 62
7
  6
CONTINUOUS
 70
0
 71
3
 72
10
 73
6
 74
0
 42
0.0000001
 43
0.0000001
 44
0.0000000001
 40
0.0
 40
0.0
 40
0.0
 40
0.0
 40
0.1638489211
 40
0.411931565
 40
1.0
 40
1.0
 40
1.0
 40
1.0
 10
415.5315238095
 20
657.9813047774
 30
0.0
 10
415.5031800347
 20
657.9558055815
 30
0.0
 10
415.4345019366
 20
657.888892021
 30
0.0
 10
415.2677966519
 20
657.7265905503
 30
0.0
 10
415.12934711
 20
657.5898731472
 30
0.0
 10
415.0318520286
 20
657.4938571429
 30
0.0
  0
SPLINE
  5
6E8
100
AcDbEntity
  8
0
100
AcDbSpline
 62
7
  6
CONTINUOUS
 70
0
 71
3
 72
10
 73
6
 74
0
 42
0.0000001
 43
0.0000001
 44
0.0000000001
 40
0.0
 40
0.0
 40
0.0
 40
0.0
 40
0.5880830588
 40
0.8361624915
 40
1.0
 40
1.0
 40
1.0
 40
1.0
 10
415.0318520286
 20
645.4938064842
 30
0.0
 10
415.1293480418
 20
645.3977944262
 30
0.0
 10
415.2678000322
 20
645.2610867789
 30
0.0
 10
415.4345008756
 20
645.0987944133
 30
0.0
 10
415.5031784311
 20
645.0318903891
 30
0.0
 10
415.5315238095
 20
645.0063992416
 30
0.0
  0
SPLINE
  5
6E9
100
AcDbEntity
  8
0
100
AcDbSpline
 62
7
  6
CONTINUOUS
 70
0
 71
3
 72
10
 73
6
 74
0
 42
0.0000001
 43
0.0000001
 44
0.0000000001
 40
0.0
 40
0.0
 40
0.0
 40
0.0
 40
0.1638489211
 40
0.411931565
 40
1.0
 40
1.0
 40
1.0
 40
1.0
 10
415.5315238095
 20
226.7813047774
 30
0.0
 10
415.5031800347
 20
226.7558055815
 30
0.0
 10
415.4345019366
 20
226.688892021
 30
0.0
 10
415.2677966519
 20
226.5265905503
 30
0.0
 10
415.12934711
 20
226.3898731472
 30
0.0
 10
415.0318520286
 20
226.2938571429
 30
0.0
  0
SPLINE
  5
6EA
100
AcDbEntity
  8
0
100
AcDbSpline
 62
7
  6
CONTINUOUS
 70
0
 71
3
 72
10
 73
6
 74
0
 42
0.0000001
 43
0.0000001
 44
0.0000000001
 40
0.0
 40
0.0
 40
0.0
 40
0.0
 40
0.5880830588
 40
0.8361624914
 40
1.0
 40
1.0
 40
1.0
 40
1.0
 10
415.0318520286
 20
214.2938064842
 30
0.0
 10
415.1293480418
 20
214.1977944262
 30
0.0
 10
415.2678000322
 20
214.0610867789
 30
0.0
 10
415.4345008756
 20
213.8987944133
 30
0.0
 10
415.5031784311
 20
213.8318903891
 30
0.0
 10
415.5315238095
 20
213.8063992416
 30
0.0
  0
SPLINE
  5
6EB
100
AcDbEntity
  8
0
100
AcDbSpline
 62
7
  6
CONTINUOUS
 70
0
 71
3
 72
10
 73
6
 74
0
 42
0.0000001
 43
0.0000001
 44
0.0000000001
 40
0.0
 40
0.0
 40
0.0
 40
0.0
 40
0.1638489211
 40
0.411931565
 40
1.0
 40
1.0
 40
1.0
 40
1.0
 10
415.5315238095
 20
719.5813047774
 30
0.0
 10
415.5031800347
 20
719.5558055815
 30
0.0
 10
415.4345019366
 20
719.488892021
 30
0.0
 10
415.2677966519
 20
719.3265905503
 30
0.0
 10
415.12934711
 20
719.1898731472
 30
0.0
 10
415.0318520286
 20
719.0938571429
 30
0.0
  0
SPLINE
  5
6EC
100
AcDbEntity
  8
0
100
AcDbSpline
 62
7
  6
CONTINUOUS
 70
0
 71
3
 72
10
 73
6
 74
0
 42
0.0000001
 43
0.0000001
 44
0.0000000001
 40
0.0
 40
0.0
 40
0.0
 40
0.0
 40
0.5880830588
 40
0.8361624914
 40
1.0
 40
1.0
 40
1.0
 40
1.0
 10
415.0318520286
 20
707.0938064842
 30
0.0
 10
415.1293480418
 20
706.9977944262
 30
0.0
 10
415.2678000322
 20
706.8610867789
 30
0.0
 10
415.4345008756
 20
706.6987944133
 30
0.0
 10
415.5031784311
 20
706.6318903891
 30
0.0
 10
415.5315238095
 20
706.6063992416
 30
0.0
  0
ELLIPSE
  5
6ED
100
AcDbEntity
  8
0
100
AcDbEllipse
 62
7
  6
CONTINUOUS
 10
413.4315238095
 20
294.9938571429
 30
0.0
 11
-0.0
 21
0.9848857802
 31
0.0
 40
1.0
 41
-4.2941646508
 42
-3.5598169832
  0
ELLIPSE
  5
6EE
100
AcDbEntity
  8
0
100
AcDbEllipse
 62
7
  6
CONTINUOUS
 10
413.0315238095
 20
304.3938571429
 30
0.0
 11
0.0
 21
0.5
 31
0.0
 40
1.0
 41
0.0
 42
1.5707963268
  0
ELLIPSE
  5
6EF
100
AcDbEntity
  8
0
100
AcDbEllipse
 62
7
  6
CONTINUOUS
 10
413.4315238095
 20
1034.1938571429
 30
0.0
 11
-0.0
 21
0.9848857802
 31
0.0
 40
1.0
 41
-4.2941646508
 42
-3.5598169832
  0
ELLIPSE
  5
6F0
100
AcDbEntity
  8
0
100
AcDbEllipse
 62
7
  6
CONTINUOUS
 10
413.0315238095
 20
1043.5938571429
 30
0.0
 11
0.0
 21
0.5
 31
0.0
 40
1.0
 41
0.0
 42
1.5707963268
  0
ELLIPSE
  5
6F1
100
AcDbEntity
  8
0
100
AcDbEllipse
 62
7
  6
CONTINUOUS
 10
413.4315238095
 20
972.5938571429
 30
0.0
 11
0.0
 21
0.9848857802
 31
0.0
 40
1.0
 41
-4.2941646508
 42
-3.5598169832
  0
ELLIPSE
  5
6F2
100
AcDbEntity
  8
0
100
AcDbEllipse
 62
7
  6
CONTINUOUS
 10
413.0315238095
 20
981.9938571429
 30
0.0
 11
0.0
 21
0.5
 31
0.0
 40
1.0
 41
0.0
 42
1.5707963268
  0
ELLIPSE
  5
6F3
100
AcDbEntity
  8
0
100
AcDbEllipse
 62
7
  6
CONTINUOUS
 10
413.4315238095
 20
910.9938571429
 30
0.0
 11
-0.0
 21
0.9848857802
 31
0.0
 40
1.0
 41
-4.2941646508
 42
-3.5598169832
  0
ELLIPSE
  5
6F4
100
AcDbEntity
  8
0
100
AcDbEllipse
 62
7
  6
CONTINUOUS
 10
413.0315238095
 20
920.3938571429
 30
0.0
 11
0.0
 21
0.5
 31
0.0
 40
1.0
 41
0.0
 42
1.5707963268
  0
ELLIPSE
  5
6F5
100
AcDbEntity
  8
0
100
AcDbEllipse
 62
7
  6
CONTINUOUS
 10
413.4315238095
 20
233.3938571429
 30
0.0
 11
-0.0
 21
0.9848857802
 31
0.0
 40
1.0
 41
-4.2941646508
 42
-3.5598169832
  0
ELLIPSE
  5
6F6
100
AcDbEntity
  8
0
100
AcDbEllipse
 62
7
  6
CONTINUOUS
 10
413.0315238095
 20
242.7938571429
 30
0.0
 11
0.0
 21
0.5
 31
0.0
 40
1.0
 41
0.0
 42
1.5707963268
  0
ELLIPSE
  5
6F7
100
AcDbEntity
  8
0
100
AcDbEllipse
 62
7
  6
CONTINUOUS
 10
413.4315238095
 20
849.3938571429
 30
0.0
 11
0.0
 21
0.9848857802
 31
0.0
 40
1.0
 41
-4.2941646508
 42
-3.5598169832
  0
ELLIPSE
  5
6F8
100
AcDbEntity
  8
0
100
AcDbEllipse
 62
7
  6
CONTINUOUS
 10
413.0315238095
 20
858.7938571429
 30
0.0
 11
0.0
 21
0.5
 31
0.0
 40
1.0
 41
0.0
 42
1.5707963268
  0
ELLIPSE
  5
6F9
100
AcDbEntity
  8
0
100
AcDbEllipse
 62
7
  6
CONTINUOUS
 10
413.4315238095
 20
356.5938571429
 30
0.0
 11
0.0
 21
0.9848857802
 31
0.0
 40
1.0
 41
-4.2941646508
 42
-3.5598169832
  0
ELLIPSE
  5
6FA
100
AcDbEntity
  8
0
100
AcDbEllipse
 62
7
  6
CONTINUOUS
 10
413.0315238095
 20
365.9938571429
 30
0.0
 11
0.0
 21
0.5
 31
0.0
 40
1.0
 41
0.0
 42
1.5707963268
  0
ELLIPSE
  5
6FB
100
AcDbEntity
  8
0
100
AcDbEllipse
 62
7
  6
CONTINUOUS
 10
413.4315238095
 20
787.7938571429
 30
0.0
 11
0.0
 21
0.9848857802
 31
0.0
 40
1.0
 41
-4.2941646508
 42
-3.5598169832
  0
ELLIPSE
  5
6FC
100
AcDbEntity
  8
0
100
AcDbEllipse
 62
7
  6
CONTINUOUS
 10
413.0315238095
 20
797.1938571429
 30
0.0
 11
-0.0
 21
0.5
 31
0.0
 40
1.0
 41
0.0
 42
1.5707963268
  0
ELLIPSE
  5
6FD
100
AcDbEntity
  8
0
100
AcDbEllipse
 62
7
  6
CONTINUOUS
 10
413.4315238095
 20
726.1938571429
 30
0.0
 11
0.0
 21
0.9848857802
 31
0.0
 40
1.0
 41
-4.2941646508
 42
-3.5598169832
  0
ELLIPSE
  5
6FE
100
AcDbEntity
  8
0
100
AcDbEllipse
 62
7
  6
CONTINUOUS
 10
413.0315238095
 20
735.5938571429
 30
0.0
 11
-0.0
 21
0.5
 31
0.0
 40
1.0
 41
0.0
 42
1.5707963268
  0
ELLIPSE
  5
6FF
100
AcDbEntity
  8
0
100
AcDbEllipse
 62
7
  6
CONTINUOUS
 10
413.4315238095
 20
418.1938571429
 30
0.0
 11
0.0
 21
0.9848857802
 31
0.0
 40
1.0
 41
-4.2941646508
 42
-3.5598169832
  0
ELLIPSE
  5
700
100
AcDbEntity
  8
0
100
AcDbEllipse
 62
7
  6
CONTINUOUS
 10
413.0315238095
 20
427.5938571429
 30
0.0
 11
0.0
 21
0.5
 31
0.0
 40
1.0
 41
0.0
 42
1.5707963268
  0
ELLIPSE
  5
701
100
AcDbEntity
  8
0
100
AcDbEllipse
 62
7
  6
CONTINUOUS
 10
413.4315238095
 20
664.5938571429
 30
0.0
 11
-0.0
 21
0.9848857802
 31
0.0
 40
1.0
 41
-4.2941646508
 42
-3.5598169832
  0
ELLIPSE
  5
702
100
AcDbEntity
  8
0
100
AcDbEllipse
 62
7
  6
CONTINUOUS
 10
413.0315238095
 20
673.9938571429
 30
0.0
 11
-0.0
 21
0.5
 31
0.0
 40
1.0
 41
0.0
 42
1.5707963268
  0
ELLIPSE
  5
703
100
AcDbEntity
  8
0
100
AcDbEllipse
 62
7
  6
CONTINUOUS
 10
413.4315238095
 20
171.7938571429
 30
0.0
 11
0.0
 21
0.9848857802
 31
0.0
 40
1.0
 41
-4.2941646508
 42
-3.5598169832
  0
ELLIPSE
  5
704
100
AcDbEntity
  8
0
100
AcDbEllipse
 62
7
  6
CONTINUOUS
 10
413.0315238095
 20
181.1938571429
 30
0.0
 11
0.0
 21
0.5
 31
0.0
 40
1.0
 41
0.0
 42
1.5707963268
  0
ELLIPSE
  5
705
100
AcDbEntity
  8
0
100
AcDbEllipse
 62
7
  6
CONTINUOUS
 10
413.4315238095
 20
602.9938571429
 30
0.0
 11
-0.0
 21
0.9848857802
 31
0.0
 40
1.0
 41
-4.2941646508
 42
-3.5598169832
  0
ELLIPSE
  5
706
100
AcDbEntity
  8
0
100
AcDbEllipse
 62
7
  6
CONTINUOUS
 10
413.0315238095
 20
612.3938571429
 30
0.0
 11
-0.0
 21
0.5
 31
0.0
 40
1.0
 41
0.0
 42
1.5707963268
  0
ELLIPSE
  5
707
100
AcDbEntity
  8
0
100
AcDbEllipse
 62
7
  6
CONTINUOUS
 10
413.4315238095
 20
541.3938571429
 30
0.0
 11
-0.0
 21
0.9848857802
 31
0.0
 40
1.0
 41
-4.2941646508
 42
-3.5598169832
  0
ELLIPSE
  5
708
100
AcDbEntity
  8
0
100
AcDbEllipse
 62
7
  6
CONTINUOUS
 10
413.0315238095
 20
550.7938571429
 30
0.0
 11
-0.0
 21
0.5
 31
0.0
 40
1.0
 41
0.0
 42
1.5707963268
  0
ELLIPSE
  5
709
100
AcDbEntity
  8
0
100
AcDbEllipse
 62
7
  6
CONTINUOUS
 10
413.4315238095
 20
110.1938571429
 30
0.0
 11
0.0
 21
0.9848857802
 31
0.0
 40
1.0
 41
-4.2941646508
 42
-3.5598169832
  0
ELLIPSE
  5
70A
100
AcDbEntity
  8
0
100
AcDbEllipse
 62
7
  6
CONTINUOUS
 10
413.0315238095
 20
119.5938571429
 30
0.0
 11
0.0
 21
0.5
 31
0.0
 40
1.0
 41
0.0
 42
1.5707963268
  0
ELLIPSE
  5
70B
100
AcDbEntity
  8
0
100
AcDbEllipse
 62
7
  6
CONTINUOUS
 10
413.4315238095
 20
479.7938571429
 30
0.0
 11
0.0
 21
0.9848857802
 31
0.0
 40
1.0
 41
-4.2941646508
 42
-3.5598169832
  0
ELLIPSE
  5
70C
100
AcDbEntity
  8
0
100
AcDbEllipse
 62
7
  6
CONTINUOUS
 10
413.0315238095
 20
489.1938571429
 30
0.0
 11
-0.0
 21
0.5
 31
0.0
 40
1.0
 41
0.0
 42
1.5707963268
  0
ELLIPSE
  5
70D
100
AcDbEntity
  8
0
100
AcDbEllipse
 62
7
  6
CONTINUOUS
 10
413.0315238095
 20
496.9938571429
 30
0.0
 11
0.0
 21
0.5
 31
0.0
 40
1.0
 41
1.5707963268
 42
3.1415926536
  0
ELLIPSE
  5
70E
100
AcDbEntity
  8
0
100
AcDbEllipse
 62
7
  6
CONTINUOUS
 10
413.0315238095
 20
506.7938571429
 30
0.0
 11
0.0
 21
0.5
 31
0.0
 40
1.0
 41
0.0
 42
1.5707963268
  0
ELLIPSE
  5
70F
100
AcDbEntity
  8
0
100
AcDbEllipse
 62
7
  6
CONTINUOUS
 10
413.0315238095
 20
558.5938571429
 30
0.0
 11
0.0
 21
0.5
 31
0.0
 40
1.0
 41
1.5707963268
 42
3.1415926536
  0
ELLIPSE
  5
710
100
AcDbEntity
  8
0
100
AcDbEllipse
 62
7
  6
CONTINUOUS
 10
413.0315238095
 20
568.3938571429
 30
0.0
 11
0.0
 21
0.5
 31
0.0
 40
1.0
 41
0.0
 42
1.5707963268
  0
ELLIPSE
  5
711
100
AcDbEntity
  8
0
100
AcDbEllipse
 62
7
  6
CONTINUOUS
 10
413.0315238095
 20
620.1938571429
 30
0.0
 11
0.0
 21
0.5
 31
0.0
 40
1.0
 41
1.5707963268
 42
3.1415926536
  0
ELLIPSE
  5
712
100
AcDbEntity
  8
0
100
AcDbEllipse
 62
7
  6
CONTINUOUS
 10
413.0315238095
 20
629.9938571429
 30
0.0
 11
0.0
 21
0.5
 31
0.0
 40
1.0
 41
0.0
 42
1.5707963268
  0
ELLIPSE
  5
713
100
AcDbEntity
  8
0
100
AcDbEllipse
 62
7
  6
CONTINUOUS
 10
413.0315238095
 20
681.7938571429
 30
0.0
 11
0.0
 21
0.5
 31
0.0
 40
1.0
 41
1.5707963268
 42
3.1415926536
  0
ELLIPSE
  5
714
100
AcDbEntity
  8
0
100
AcDbEllipse
 62
7
  6
CONTINUOUS
 10
413.0315238095
 20
691.5938571429
 30
0.0
 11
0.0
 21
0.5
 31
0.0
 40
1.0
 41
0.0
 42
1.5707963268
  0
ELLIPSE
  5
715
100
AcDbEntity
  8
0
100
AcDbEllipse
 62
7
  6
CONTINUOUS
 10
413.0315238095
 20
743.3938571429
 30
0.0
 11
-0.0
 21
0.5
 31
0.0
 40
1.0
 41
1.5707963268
 42
3.1415926536
  0
ELLIPSE
  5
716
100
AcDbEntity
  8
0
100
AcDbEllipse
 62
7
  6
CONTINUOUS
 10
413.0315238095
 20
753.1938571429
 30
0.0
 11
-0.0
 21
0.5
 31
0.0
 40
1.0
 41
0.0
 42
1.5707963268
  0
ELLIPSE
  5
717
100
AcDbEntity
  8
0
100
AcDbEllipse
 62
7
  6
CONTINUOUS
 10
413.0315238095
 20
804.9938571429
 30
0.0
 11
-0.0
 21
0.5
 31
0.0
 40
1.0
 41
1.5707963268
 42
3.1415926536
  0
ELLIPSE
  5
718
100
AcDbEntity
  8
0
100
AcDbEllipse
 62
7
  6
CONTINUOUS
 10
413.0315238095
 20
814.7938571429
 30
0.0
 11
-0.0
 21
0.5
 31
0.0
 40
1.0
 41
0.0
 42
1.5707963268
  0
ELLIPSE
  5
719
100
AcDbEntity
  8
0
100
AcDbEllipse
 62
7
  6
CONTINUOUS
 10
413.0315238095
 20
866.5938571429
 30
0.0
 11
0.0
 21
0.5
 31
0.0
 40
1.0
 41
1.5707963268
 42
3.1415926536
  0
ELLIPSE
  5
71A
100
AcDbEntity
  8
0
100
AcDbEllipse
 62
7
  6
CONTINUOUS
 10
413.0315238095
 20
876.3938571429
 30
0.0
 11
-0.0
 21
0.5
 31
0.0
 40
1.0
 41
0.0
 42
1.5707963268
  0
ELLIPSE
  5
71B
100
AcDbEntity
  8
0
100
AcDbEllipse
 62
7
  6
CONTINUOUS
 10
413.0315238095
 20
928.1938571429
 30
0.0
 11
0.0
 21
0.5
 31
0.0
 40
1.0
 41
1.5707963268
 42
3.1415926536
  0
ELLIPSE
  5
71C
100
AcDbEntity
  8
0
100
AcDbEllipse
 62
7
  6
CONTINUOUS
 10
413.0315238095
 20
937.9938571429
 30
0.0
 11
-0.0
 21
0.5
 31
0.0
 40
1.0
 41
0.0
 42
1.5707963268
  0
ELLIPSE
  5
71D
100
AcDbEntity
  8
0
100
AcDbEllipse
 62
7
  6
CONTINUOUS
 10
413.0315238095
 20
989.7938571429
 30
0.0
 11
-0.0
 21
0.5
 31
0.0
 40
1.0
 41
1.5707963268
 42
3.1415926536
  0
ELLIPSE
  5
71E
100
AcDbEntity
  8
0
100
AcDbEllipse
 62
7
  6
CONTINUOUS
 10
413.0315238095
 20
999.5938571429
 30
0.0
 11
-0.0
 21
0.5
 31
0.0
 40
1.0
 41
0.0
 42
1.5707963268
  0
ELLIPSE
  5
71F
100
AcDbEntity
  8
0
100
AcDbEllipse
 62
7
  6
CONTINUOUS
 10
413.0315238095
 20
1051.3938571429
 30
0.0
 11
0.0
 21
0.5
 31
0.0
 40
1.0
 41
1.5707963268
 42
3.1415926536
  0
ELLIPSE
  5
720
100
AcDbEntity
  8
0
100
AcDbEllipse
 62
7
  6
CONTINUOUS
 10
413.0315238095
 20
1061.1938571429
 30
0.0
 11
-0.0
 21
0.5
 31
0.0
 40
1.0
 41
0.0
 42
1.5707963268
  0
ELLIPSE
  5
721
100
AcDbEntity
  8
0
100
AcDbEllipse
 62
7
  6
CONTINUOUS
 10
413.0315238095
 20
435.3938571429
 30
0.0
 11
0.0
 21
0.5
 31
0.0
 40
1.0
 41
1.5707963268
 42
3.1415926536
  0
ELLIPSE
  5
722
100
AcDbEntity
  8
0
100
AcDbEllipse
 62
7
  6
CONTINUOUS
 10
413.0315238095
 20
445.1938571429
 30
0.0
 11
0.0
 21
0.5
 31
0.0
 40
1.0
 41
0.0
 42
1.5707963268
  0
ELLIPSE
  5
723
100
AcDbEntity
  8
0
100
AcDbEllipse
 62
7
  6
CONTINUOUS
 10
413.0315238095
 20
250.5938571429
 30
0.0
 11
0.0
 21
0.5
 31
0.0
 40
1.0
 41
1.5707963268
 42
3.1415926536
  0
ELLIPSE
  5
724
100
AcDbEntity
  8
0
100
AcDbEllipse
 62
7
  6
CONTINUOUS
 10
413.0315238095
 20
260.3938571429
 30
0.0
 11
-0.0
 21
0.5
 31
0.0
 40
1.0
 41
0.0
 42
1.5707963268
  0
ELLIPSE
  5
725
100
AcDbEntity
  8
0
100
AcDbEllipse
 62
7
  6
CONTINUOUS
 10
413.0315238095
 20
127.3938571429
 30
0.0
 11
-0.0
 21
0.5
 31
0.0
 40
1.0
 41
1.5707963268
 42
3.1415926536
  0
ELLIPSE
  5
726
100
AcDbEntity
  8
0
100
AcDbEllipse
 62
7
  6
CONTINUOUS
 10
413.0315238095
 20
137.1938571429
 30
0.0
 11
0.0
 21
0.5
 31
0.0
 40
1.0
 41
0.0
 42
1.5707963268
  0
ELLIPSE
  5
727
100
AcDbEntity
  8
0
100
AcDbEllipse
 62
7
  6
CONTINUOUS
 10
413.0315238095
 20
373.7938571429
 30
0.0
 11
0.0
 21
0.5
 31
0.0
 40
1.0
 41
1.5707963268
 42
3.1415926536
  0
ELLIPSE
  5
728
100
AcDbEntity
  8
0
100
AcDbEllipse
 62
7
  6
CONTINUOUS
 10
413.0315238095
 20
383.5938571429
 30
0.0
 11
0.0
 21
0.5
 31
0.0
 40
1.0
 41
0.0
 42
1.5707963268
  0
ELLIPSE
  5
729
100
AcDbEntity
  8
0
100
AcDbEllipse
 62
7
  6
CONTINUOUS
 10
413.0315238095
 20
188.9938571429
 30
0.0
 11
0.0
 21
0.5
 31
0.0
 40
1.0
 41
1.5707963268
 42
3.1415926536
  0
ELLIPSE
  5
72A
100
AcDbEntity
  8
0
100
AcDbEllipse
 62
7
  6
CONTINUOUS
 10
413.0315238095
 20
198.7938571429
 30
0.0
 11
0.0
 21
0.5
 31
0.0
 40
1.0
 41
0.0
 42
1.5707963268
  0
ELLIPSE
  5
72B
100
AcDbEntity
  8
0
100
AcDbEllipse
 62
7
  6
CONTINUOUS
 10
413.0315238095
 20
312.1938571429
 30
0.0
 11
0.0
 21
0.5
 31
0.0
 40
1.0
 41
1.5707963268
 42
3.1415926536
  0
ELLIPSE
  5
72C
100
AcDbEntity
  8
0
100
AcDbEllipse
 62
7
  6
CONTINUOUS
 10
413.0315238095
 20
321.9938571429
 30
0.0
 11
-0.0
 21
0.5
 31
0.0
 40
1.0
 41
0.0
 42
1.5707963268
  0
ELLIPSE
  5
72D
100
AcDbEntity
  8
0
100
AcDbEllipse
 62
7
  6
CONTINUOUS
 10
413.0315238095
 20
769.7938571429
 30
0.0
 11
0.0
 21
0.5
 31
0.0
 40
1.0
 41
1.5707963268
 42
3.1415926536
  0
ELLIPSE
  5
72E
100
AcDbEntity
  8
0
100
AcDbEllipse
 62
7
  6
CONTINUOUS
 10
413.0315238095
 20
779.5938571429
 30
0.0
 11
0.5
 21
0.0
 31
0.0
 40
1.0
 41
1.5707963268
 42
3.1415926536
  0
ELLIPSE
  5
72F
100
AcDbEntity
  8
0
100
AcDbEllipse
 62
7
  6
CONTINUOUS
 10
413.0315238095
 20
153.7938571429
 30
0.0
 11
-0.0
 21
0.5
 31
0.0
 40
1.0
 41
1.5707963268
 42
3.1415926536
  0
ELLIPSE
  5
730
100
AcDbEntity
  8
0
100
AcDbEllipse
 62
7
  6
CONTINUOUS
 10
413.0315238095
 20
163.5938571429
 30
0.0
 11
0.0
 21
0.5
 31
0.0
 40
1.0
 41
0.0
 42
1.5707963268
  0
ELLIPSE
  5
731
100
AcDbEntity
  8
0
100
AcDbEllipse
 62
7
  6
CONTINUOUS
 10
413.0315238095
 20
831.3938571429
 30
0.0
 11
-0.0
 21
0.5
 31
0.0
 40
1.0
 41
1.5707963268
 42
3.1415926536
  0
ELLIPSE
  5
732
100
AcDbEntity
  8
0
100
AcDbEllipse
 62
7
  6
CONTINUOUS
 10
413.0315238095
 20
841.1938571429
 30
0.0
 11
0.5
 21
0.0
 31
0.0
 40
1.0
 41
1.5707963268
 42
3.1415926536
  0
ELLIPSE
  5
733
100
AcDbEntity
  8
0
100
AcDbEllipse
 62
7
  6
CONTINUOUS
 10
413.0315238095
 20
892.9938571429
 30
0.0
 11
-0.0
 21
0.5
 31
0.0
 40
1.0
 41
1.5707963268
 42
3.1415926536
  0
ELLIPSE
  5
734
100
AcDbEntity
  8
0
100
AcDbEllipse
 62
7
  6
CONTINUOUS
 10
413.0315238095
 20
902.7938571429
 30
0.0
 11
0.5
 21
-0.0
 31
0.0
 40
1.0
 41
1.5707963268
 42
3.1415926536
  0
ELLIPSE
  5
735
100
AcDbEntity
  8
0
100
AcDbEllipse
 62
7
  6
CONTINUOUS
 10
413.0315238095
 20
92.1938571429
 30
0.0
 11
-0.0
 21
0.5
 31
0.0
 40
1.0
 41
1.5707963268
 42
3.1415926536
  0
ELLIPSE
  5
736
100
AcDbEntity
  8
0
100
AcDbEllipse
 62
7
  6
CONTINUOUS
 10
413.0315238095
 20
101.9938571429
 30
0.0
 11
0.0
 21
0.5
 31
0.0
 40
1.0
 41
0.0
 42
1.5707963268
  0
ELLIPSE
  5
737
100
AcDbEntity
  8
0
100
AcDbEllipse
 62
7
  6
CONTINUOUS
 10
413.0315238095
 20
954.5938571429
 30
0.0
 11
0.0
 21
0.5
 31
0.0
 40
1.0
 41
1.5707963268
 42
3.1415926536
  0
ELLIPSE
  5
738
100
AcDbEntity
  8
0
100
AcDbEllipse
 62
7
  6
CONTINUOUS
 10
413.0315238095
 20
964.3938571429
 30
0.0
 11
0.5
 21
0.0
 31
0.0
 40
1.0
 41
1.5707963268
 42
3.1415926536
  0
ELLIPSE
  5
739
100
AcDbEntity
  8
0
100
AcDbEllipse
 62
7
  6
CONTINUOUS
 10
413.0315238095
 20
1016.1938571429
 30
0.0
 11
0.5
 21
0.0
 31
0.0
 40
1.0
 41
3.1415926536
 42
4.7123889804
  0
ELLIPSE
  5
73A
100
AcDbEntity
  8
0
100
AcDbEllipse
 62
7
  6
CONTINUOUS
 10
413.0315238095
 20
1025.9938571429
 30
0.0
 11
0.0
 21
0.5
 31
0.0
 40
1.0
 41
0.0
 42
1.5707963268
  0
ELLIPSE
  5
73B
100
AcDbEntity
  8
0
100
AcDbEllipse
 62
7
  6
CONTINUOUS
 10
413.0315238095
 20
400.1938571429
 30
0.0
 11
0.0
 21
0.5
 31
0.0
 40
1.0
 41
1.5707963268
 42
3.1415926536
  0
ELLIPSE
  5
73C
100
AcDbEntity
  8
0
100
AcDbEllipse
 62
7
  6
CONTINUOUS
 10
413.0315238095
 20
409.9938571429
 30
0.0
 11
0.0
 21
0.5
 31
0.0
 40
1.0
 41
0.0
 42
1.5707963268
  0
ELLIPSE
  5
73D
100
AcDbEntity
  8
0
100
AcDbEllipse
 62
7
  6
CONTINUOUS
 10
413.0315238095
 20
338.5938571429
 30
0.0
 11
-0.0
 21
0.5
 31
0.0
 40
1.0
 41
1.5707963268
 42
3.1415926536
  0
ELLIPSE
  5
73E
100
AcDbEntity
  8
0
100
AcDbEllipse
 62
7
  6
CONTINUOUS
 10
413.0315238095
 20
348.3938571429
 30
0.0
 11
-0.0
 21
0.5
 31
0.0
 40
1.0
 41
0.0
 42
1.5707963268
  0
ELLIPSE
  5
73F
100
AcDbEntity
  8
0
100
AcDbEllipse
 62
7
  6
CONTINUOUS
 10
413.0315238095
 20
461.7938571429
 30
0.0
 11
-0.0
 21
0.5
 31
0.0
 40
1.0
 41
1.5707963268
 42
3.1415926536
  0
ELLIPSE
  5
740
100
AcDbEntity
  8
0
100
AcDbEllipse
 62
7
  6
CONTINUOUS
 10
413.0315238095
 20
471.5938571429
 30
0.0
 11
-0.0
 21
0.5
 31
0.0
 40
1.0
 41
0.0
 42
1.5707963268
  0
ELLIPSE
  5
741
100
AcDbEntity
  8
0
100
AcDbEllipse
 62
7
  6
CONTINUOUS
 10
413.0315238095
 20
523.3938571429
 30
0.0
 11
-0.0
 21
0.5
 31
0.0
 40
1.0
 41
1.5707963268
 42
3.1415926536
  0
ELLIPSE
  5
742
100
AcDbEntity
  8
0
100
AcDbEllipse
 62
7
  6
CONTINUOUS
 10
413.0315238095
 20
533.1938571429
 30
0.0
 11
0.0
 21
0.5
 31
0.0
 40
1.0
 41
0.0
 42
1.5707963268
  0
ELLIPSE
  5
743
100
AcDbEntity
  8
0
100
AcDbEllipse
 62
7
  6
CONTINUOUS
 10
413.0315238095
 20
276.9938571429
 30
0.0
 11
0.0
 21
0.5
 31
0.0
 40
1.0
 41
1.5707963268
 42
3.1415926536
  0
ELLIPSE
  5
744
100
AcDbEntity
  8
0
100
AcDbEllipse
 62
7
  6
CONTINUOUS
 10
413.0315238095
 20
286.7938571429
 30
0.0
 11
0.0
 21
0.5
 31
0.0
 40
1.0
 41
0.0
 42
1.5707963268
  0
ELLIPSE
  5
745
100
AcDbEntity
  8
0
100
AcDbEllipse
 62
7
  6
CONTINUOUS
 10
413.0315238095
 20
584.9938571429
 30
0.0
 11
0.0
 21
0.5
 31
0.0
 40
1.0
 41
1.5707963268
 42
3.1415926536
  0
ELLIPSE
  5
746
100
AcDbEntity
  8
0
100
AcDbEllipse
 62
7
  6
CONTINUOUS
 10
413.0315238095
 20
594.7938571429
 30
0.0
 11
-0.0
 21
0.5
 31
0.0
 40
1.0
 41
0.0
 42
1.5707963268
  0
ELLIPSE
  5
747
100
AcDbEntity
  8
0
100
AcDbEllipse
 62
7
  6
CONTINUOUS
 10
413.0315238095
 20
646.5938571429
 30
0.0
 11
-0.0
 21
0.5
 31
0.0
 40
1.0
 41
1.5707963268
 42
3.1415926536
  0
ELLIPSE
  5
748
100
AcDbEntity
  8
0
100
AcDbEllipse
 62
7
  6
CONTINUOUS
 10
413.0315238095
 20
656.3938571429
 30
0.0
 11
0.0
 21
0.5
 31
0.0
 40
1.0
 41
0.0
 42
1.5707963268
  0
ELLIPSE
  5
749
100
AcDbEntity
  8
0
100
AcDbEllipse
 62
7
  6
CONTINUOUS
 10
413.0315238095
 20
215.3938571429
 30
0.0
 11
-0.0
 21
0.5
 31
0.0
 40
1.0
 41
1.5707963268
 42
3.1415926536
  0
ELLIPSE
  5
74A
100
AcDbEntity
  8
0
100
AcDbEllipse
 62
7
  6
CONTINUOUS
 10
413.0315238095
 20
225.1938571429
 30
0.0
 11
0.0
 21
0.5
 31
0.0
 40
1.0
 41
0.0
 42
1.5707963268
  0
ELLIPSE
  5
74B
100
AcDbEntity
  8
0
100
AcDbEllipse
 62
7
  6
CONTINUOUS
 10
413.0315238095
 20
708.1938571429
 30
0.0
 11
0.0
 21
0.5
 31
0.0
 40
1.0
 41
1.5707963268
 42
3.1415926536
  0
ELLIPSE
  5
74C
100
AcDbEntity
  8
0
100
AcDbEllipse
 62
7
  6
CONTINUOUS
 10
413.0315238095
 20
717.9938571429
 30
0.0
 11
0.5
 21
0.0
 31
0.0
 40
1.0
 41
1.5707963268
 42
3.1415926536
  0
ENDSEC
  0
SECTION
  2
OBJECTS
  0
DICTIONARY
  5
C
100
AcDbDictionary
280
0
281
1
  3
ACAD_GROUP
350
D
  3
ACAD_MLINESTYLE
350
17
  3
ACAD_LAYOUT
350
1A
  3
ACAD_PLOTSETTINGS
350
19
  3
ACAD_PLOTSTYLENAME
350
E
  0
DICTIONARY
  5
D
102
{ACAD_REACTORS
330
C
102
}
100
AcDbDictionary
280
0
281
1
  0
ACDBDICTIONARYWDFLT
  5
E
102
{ACAD_REACTORS
330
C
102
}
100
AcDbDictionary
281
1
  3
Normal
350
F
100
AcDbDictionaryWithDefault
340
F
  0
DICTIONARY
  5
17
102
{ACAD_REACTORS
330
C
102
}
100
AcDbDictionary
280
0
281
1
  3
Standard
350
18
  0
DICTIONARY
  5
19
102
{ACAD_REACTORS
330
C
102
}
100
AcDbDictionary
281
1
  0
DICTIONARY
  5
1A
102
{ACAD_REACTORS
330
C
102
}
100
AcDbDictionary
281
1
  3
Model
350
74D
  3
Layout1
350
74E
  0
ACDBPLACEHOLDER
  5
F
102
{ACAD_REACTORS
330
E
102
}
  0
MLINESTYLE
  5
18
102
{ACAD_REACTORS
330
17
102
}
100
AcDbMlineStyle
  2
STANDARD
 70
0
  3

 62
256
 51
90.0
 52
90.0
 71
2
 49
0.5
 62
256
  6
BYLAYER
 49
-0.5
 62
256
  6
BYLAYER
  0
LAYOUT
  5
74D
102
{ACAD_REACTORS
330
1A
102
}
100
AcDbPlotSettings
  1

  2
none_device
  4

  6

 40
0.0
 41
0.0
 42
0.0
 43
0.0
 44
210.0
 45
297.0
 46
0.0
 47
0.0
 48
0.0
 49
0.0
140
0.0
141
0.0
142
1.0
143
1.0
 70
1024
 72
1
 73
0
 74
0
  7

 75
0
147
1.0
148
0.0
149
0.0
100
AcDbLayout
  1
Model
 70
0
 71
0
 10
0.0
 20
0.0
 11
210.0
 21
297.0
 12
0.0
 22
0.0
 32
0.0
 14
0.0
 24
0.0
 34
0.0
 15
0.0
 25
0.0
 35
0.0
146
0.0
 13
0.0
 23
0.0
 33
0.0
 16
1.0
 26
0.0
 36
0.0
 17
0.0
 27
1.0
 37
0.0
 76
0
330
210
345
0
346
0
  0
LAYOUT
  5
74E
102
{ACAD_REACTORS
330
1A
102
}
100
AcDbPlotSettings
  1

  2
none_device
  4

  6

 40
0.0
 41
0.0
 42
0.0
 43
0.0
 44
210.0
 45
297.0
 46
0.0
 47
0.0
 48
0.0
 49
0.0
140
0.0
141
0.0
142
1.0
143
1.0
 70
0
 72
1
 73
0
 74
0
  7

 75
0
147
1.0
148
0.0
149
0.0
100
AcDbLayout
  1
Layout1
 70
0
 71
1
 10
0.0
 20
0.0
 11
210.0
 21
297.0
 12
0.0
 22
0.0
 32
0.0
 14
0.0
 24
0.0
 34
0.0
 15
0.0
 25
0.0
 35
0.0
146
0.0
 13
0.0
 23
0.0
 33
0.0
 16
1.0
 26
0.0
 36
0.0
 17
0.0
 27
1.0
 37
0.0
 76
0
330
211
345
0
346
0
  0
ENDSEC
  0
EOF
