999
DXF file: C:\Gen2D\CAD\LC2D25B7_3D-CAD\drw0001_6.dxf
999
Pro/ENGINEER 2019471 by Parametric Technology Corporation
  0
SECTION
  2
HEADER
  9
$ACADVER
  1
AC1024
  9
$DWGCODEPAGE
  3
ANSI_1252
  9
$EXTMAX
 10
117.8668785858
 20
166.6974425713
 30
0.0
  9
$EXTMIN
 10
0.0
 20
0.0
 30
0.0
  9
$LIMMIN
 10
0.0
 20
0.0
  9
$LIMMAX
 10
117.8668785858
 20
166.6974425713
  9
$VIEWCTR
 10
58.9334392929
 20
83.3487212857
  9
$VIEWSIZE
 40
166.6974425713
  9
$CLAYER
  8
0
  9
$LTSCALE
 40
10.8662036639
  9
$CELTYPE
  6
BYLAYER
  9
$DIMSCALE
 40
1.0
  9
$DIMASZ
 40
1.403177126
  9
$DIMEXO
 40
1.0
  9
$DIMDLI
 40
7.5075588951
  9
$DIMEXE
 40
1.0
  9
$DIMCEN
 40
1.7781060541
  9
$DIMLFAC
 40
1.0
  9
$DIMBLK
  1
_FILLED
  9
$DIMALT
 70
0
  9
$DIMALTF
 40
0.0393700787
  9
$DIMTXT
 40
1.9644479764
  9
$DIMTOL
 70
1
  9
$DIMLIM
 70
0
  9
$DIMTFAC
 40
1.0
  9
$DIMTP
 40
0.01
  9
$DIMTM
 40
0.01
  9
$DIMGAP
 40
0.625
  9
$DIMDSEP
 70
46
  9
$AUNITS
 70
0
  9
$PDMODE
 70
3
  9
$PDSIZE
 40
0.3125
  9
$HANDSEED
  5
2CF
  9
$TILEMODE
 70
1
  9
$MEASUREMENT
 70
1
  9
$INSUNITS
 70
4
  0
ENDSEC
  0
SECTION
  2
CLASSES
  0
CLASS
  1
ACDBDICTIONARYWDFLT
  2
AcDbDictionaryWithDefault
  3
AutoCAD 2000
 90
0
 91
1
280
0
281
0
  0
CLASS
  1
ACDBPLACEHOLDER
  2
AcDbPlaceHolder
  3
AutoCAD 2000
 90
0
 91
1
280
0
281
0
  0
CLASS
  1
LAYOUT
  2
AcDbLayout
  3
AutoCAD 2000
 90
0
 91
0
280
0
281
0
  0
ENDSEC
  0
SECTION
  2
TABLES
  0
TABLE
  2
VPORT
  5
8
100
AcDbSymbolTable
 70
2
  0
VPORT
  5
1F4
100
AcDbSymbolTableRecord
100
AcDbViewportTableRecord
  2
*ACTIVE
 70
0
 10
0.0
 20
0.0
 11
1.0
 21
1.0
 12
58.9334392929
 22
83.3487212857
 13
0.0
 23
0.0
 14
1.0
 24
1.0
 15
0.0
 25
0.0
 16
0.0
 26
0.0
 36
1.0
 17
0.0
 27
0.0
 37
0.0
 40
166.6974425713
 41
0.7070707071
 42
50.0
 43
0.0
 44
0.0
 50
0.0
 51
0.0
 71
0
 72
100
 73
1
 74
1
 75
0
 76
0
 77
0
 78
0
  0
ENDTAB
  0
TABLE
  2
LTYPE
  5
5
100
AcDbSymbolTable
 70
6
  0
LTYPE
  5
14
100
AcDbSymbolTableRecord
100
AcDbLinetypeTableRecord
  2
BYBLOCK
 70
0
  3

 72
65
 73
0
 40
0.0
  0
LTYPE
  5
15
100
AcDbSymbolTableRecord
100
AcDbLinetypeTableRecord
  2
BYLAYER
 70
0
  3

 72
65
 73
0
 40
0.0
  0
LTYPE
  5
16
100
AcDbSymbolTableRecord
100
AcDbLinetypeTableRecord
  2
CONTINUOUS
 70
64
  3
Solid line
 72
65
 73
0
 40
0.0
  0
LTYPE
  5
1F5
100
AcDbSymbolTableRecord
100
AcDbLinetypeTableRecord
  2
CENTER
 70
64
  3
____ _ ____ _ ____ _ ____ _ ____ _ ____ _ ____
 72
65
 73
4
 40
0.6
 49
0.375
 74
0
 49
-0.075
 74
0
 49
0.075
 74
0
 49
-0.075
 74
0
  0
LTYPE
  5
1F6
100
AcDbSymbolTableRecord
100
AcDbLinetypeTableRecord
  2
HIDDEN
 70
64
  3
- - - - - - - - - - - - - - - - - - - -
 72
65
 73
2
 40
0.2
 49
0.1
 74
0
 49
-0.1
 74
0
  0
LTYPE
  5
1F7
100
AcDbSymbolTableRecord
100
AcDbLinetypeTableRecord
  2
PHANTOM
 70
64
  3
_____ _ _ _____ _ _ _____ _ _ _____
 72
65
 73
6
 40
0.8
 49
0.45
 74
0
 49
-0.05
 74
0
 49
0.1
 74
0
 49
-0.05
 74
0
 49
0.1
 74
0
 49
-0.05
 74
0
  0
LTYPE
  5
1F8
100
AcDbSymbolTableRecord
100
AcDbLinetypeTableRecord
  2
DOT
 70
64
  3
. . . . . . . . . . . . . . . . . . . .
 72
65
 73
2
 40
0.2
 49
0.1
 74
0
 49
-0.1
 74
0
  0
LTYPE
  5
1F9
100
AcDbSymbolTableRecord
100
AcDbLinetypeTableRecord
  2
DASHED
 70
64
  3
- - - - - - - - - - - - - - - - - - - -
 72
65
 73
2
 40
0.2
 49
0.1
 74
0
 49
-0.1
 74
0
  0
ENDTAB
  0
TABLE
  2
LAYER
  5
2
100
AcDbSymbolTable
 70
36
  0
LAYER
  5
10
100
AcDbSymbolTableRecord
100
AcDbLayerTableRecord
  2
0
 70
0
 62
7
  6
CONTINUOUS
370
-3
390
F
  0
LAYER
  5
1FA
100
AcDbSymbolTableRecord
100
AcDbLayerTableRecord
  2
DEFAULT_1
 70
0
 62
7
  6
CENTER
370
-3
390
F
  0
LAYER
  5
1FB
100
AcDbSymbolTableRecord
100
AcDbLayerTableRecord
  2
DEFAULT_2
 70
0
 62
8
  6
HIDDEN
370
-3
390
F
  0
LAYER
  5
1FC
100
AcDbSymbolTableRecord
100
AcDbLayerTableRecord
  2
DEFAULT_3
 70
0
 62
7
  6
PHANTOM
370
-3
390
F
  0
LAYER
  5
1FD
100
AcDbSymbolTableRecord
100
AcDbLayerTableRecord
  2
00_COMPONENTS
 70
0
 62
7
  6
CONTINUOUS
370
-3
390
F
  0
LAYER
  5
1FE
100
AcDbSymbolTableRecord
100
AcDbLayerTableRecord
  2
01_1_DEFAULT_DATUMS
 70
0
 62
7
  6
CONTINUOUS
370
-3
390
F
  0
LAYER
  5
1FF
100
AcDbSymbolTableRecord
100
AcDbLayerTableRecord
  2
01_PLANES
 70
0
 62
7
  6
CONTINUOUS
370
-3
390
F
  0
LAYER
  5
200
100
AcDbSymbolTableRecord
100
AcDbLayerTableRecord
  2
02_COORD_SYS
 70
0
 62
7
  6
CONTINUOUS
370
-3
390
F
  0
LAYER
  5
201
100
AcDbSymbolTableRecord
100
AcDbLayerTableRecord
  2
03_AXES
 70
0
 62
7
  6
CONTINUOUS
370
-3
390
F
  0
LAYER
  5
202
100
AcDbSymbolTableRecord
100
AcDbLayerTableRecord
  2
04_POINTS
 70
0
 62
7
  6
CONTINUOUS
370
-3
390
F
  0
LAYER
  5
203
100
AcDbSymbolTableRecord
100
AcDbLayerTableRecord
  2
05_CURVES
 70
0
 62
7
  6
CONTINUOUS
370
-3
390
F
  0
LAYER
  5
204
100
AcDbSymbolTableRecord
100
AcDbLayerTableRecord
  2
06_SURFS
 70
0
 62
7
  6
CONTINUOUS
370
-3
390
F
  0
LAYER
  5
205
100
AcDbSymbolTableRecord
100
AcDbLayerTableRecord
  2
07_COSMETICS
 70
0
 62
7
  6
CONTINUOUS
370
-3
390
F
  0
LAYER
  5
206
100
AcDbSymbolTableRecord
100
AcDbLayerTableRecord
  2
10_NOTES
 70
0
 62
7
  6
CONTINUOUS
370
-3
390
F
  0
LAYER
  5
207
100
AcDbSymbolTableRecord
100
AcDbLayerTableRecord
  2
11_NOTES_PUB
 70
0
 62
7
  6
CONTINUOUS
370
-3
390
F
  0
LAYER
  5
208
100
AcDbSymbolTableRecord
100
AcDbLayerTableRecord
  2
13_REF_GTOL
 70
0
 62
7
  6
CONTINUOUS
370
-3
390
F
  0
LAYER
  5
209
100
AcDbSymbolTableRecord
100
AcDbLayerTableRecord
  2
16_MISC
 70
0
 62
7
  6
CONTINUOUS
370
-3
390
F
  0
LAYER
  5
20A
100
AcDbSymbolTableRecord
100
AcDbLayerTableRecord
  2
17_NO_PRINT
 70
0
 62
7
  6
CONTINUOUS
370
-3
390
F
  0
LAYER
  5
20B
100
AcDbSymbolTableRecord
100
AcDbLayerTableRecord
  2
18_DATUM_CAMS_JOINTS
 70
0
 62
7
  6
CONTINUOUS
370
-3
390
F
  0
LAYER
  5
20C
100
AcDbSymbolTableRecord
100
AcDbLayerTableRecord
  2
19_DATUM_FUNCTIONAL
 70
0
 62
7
  6
CONTINUOUS
370
-3
390
F
  0
LAYER
  5
20D
100
AcDbSymbolTableRecord
100
AcDbLayerTableRecord
  2
20_DATUM_KINEMATIC_SCHEME
 70
0
 62
7
  6
CONTINUOUS
370
-3
390
F
  0
LAYER
  5
20E
100
AcDbSymbolTableRecord
100
AcDbLayerTableRecord
  2
INTFCLR_65
 70
0
 62
7
  6
CONTINUOUS
370
-3
390
F
  0
LAYER
  5
20F
100
AcDbSymbolTableRecord
100
AcDbLayerTableRecord
  2
INTFCLR_74
 70
0
 62
7
  6
CONTINUOUS
370
-3
390
F
  0
LAYER
  5
210
100
AcDbSymbolTableRecord
100
AcDbLayerTableRecord
  2
INTFCLR_76
 70
0
 62
7
  6
CONTINUOUS
370
-3
390
F
  0
ENDTAB
  0
TABLE
  2
STYLE
  5
3
100
AcDbSymbolTable
 70
1
  0
STYLE
  5
11
100
AcDbSymbolTableRecord
100
AcDbTextStyleTableRecord
  2
STANDARD
 70
0
 40
0.0
 41
0.8
 50
0.0
 71
0
 42
0.2
  3
txt
  4

  0
STYLE
  5
211
100
AcDbSymbolTableRecord
100
AcDbTextStyleTableRecord
  2
TEXTSTYLE_1
 70
0
 40
0.0
 41
0.8
 50
0.0
 71
0
 42
0.2
  3
gdt
  4

  0
ENDTAB
  0
TABLE
  2
VIEW
  5
6
100
AcDbSymbolTable
 70
0
  0
ENDTAB
  0
TABLE
  2
UCS
  5
7
100
AcDbSymbolTable
 70
0
  0
ENDTAB
  0
TABLE
  2
APPID
  5
9
100
AcDbSymbolTable
 70
1
  0
APPID
  5
212
100
AcDbSymbolTableRecord
100
AcDbRegAppTableRecord
  2
ACAD
 70
0
  0
ENDTAB
  0
TABLE
  2
BLOCK_RECORD
  5
1
100
AcDbSymbolTable
 70
0
  0
BLOCK_RECORD
  5
213
100
AcDbSymbolTableRecord
100
AcDbBlockTableRecord
  2
*Model_Space
  0
BLOCK_RECORD
  5
214
100
AcDbSymbolTableRecord
100
AcDbBlockTableRecord
  2
*Paper_Space
  0
BLOCK_RECORD
  5
215
100
AcDbSymbolTableRecord
100
AcDbBlockTableRecord
  2
_FILLED
  0
ENDTAB
  0
TABLE
  2
DIMSTYLE
  5
A
100
AcDbSymbolTable
 70
1
100
AcDbDimStyleTable
 71
0
  0
DIMSTYLE
105
216
100
AcDbSymbolTableRecord
100
AcDbDimStyleTableRecord
  2
STANDARD
 70
0
  3

  4

 40
1.0
 41
1.403177126
 42
1.0
 43
0.38
 44
1.0
 45
0.0
 46
0.0
 47
0.01
 48
0.01
140
1.9644479764
141
0.09
142
0.0
143
25.4
144
1.0
145
0.0
146
1.0
147
0.625
 71
1
 72
0
 73
0
 74
0
 75
0
 76
0
 77
1
 78
8
 79
2
170
0
171
1
172
0
173
0
174
0
175
0
176
0
177
0
178
0
270
2
179
2
271
2
272
2
273
2
274
2
275
0
280
0
281
0
282
0
283
1
284
8
285
0
286
0
287
3
288
0
340
11
278
46
341
215
342
215
343
215
344
215
  0
ENDTAB
  0
ENDSEC
  0
SECTION
  2
BLOCKS
  0
BLOCK
  5
20
100
AcDbEntity
  8
0
100
AcDbBlockBegin
  2
*Model_Space
 70
0
 10
0.0
 20
0.0
 30
0.0
  3
*Model_Space
  1

  0
ENDBLK
  5
21
100
AcDbEntity
  8
0
100
AcDbBlockEnd
  0
BLOCK
  5
1C
100
AcDbEntity
  8
0
100
AcDbBlockBegin
  2
*Paper_Space
 70
0
 10
0.0
 20
0.0
 30
0.0
  3
*Paper_Space
  1

  0
ENDBLK
  5
1D
100
AcDbEntity
  8
0
100
AcDbBlockEnd
  0
BLOCK
  5
217
100
AcDbEntity
  8
0
100
AcDbBlockBegin
  2
_FILLED
 70
64
 10
0.0
 20
0.0
  3
_FILLED
  1

  0
SOLID
  5
218
100
AcDbEntity
  8
0
  6
BYBLOCK
 62
0
100
AcDbTrace
 10
0.0
 20
0.0
 11
-1.0
 21
0.25
 12
-1.0
 22
-0.25
 13
-1.0
 23
-0.25
  0
ENDBLK
  5
219
100
AcDbEntity
  8
0
  6
BYBLOCK
 62
0
100
AcDbBlockEnd
  0
ENDSEC
  0
SECTION
  2
ENTITIES
  0
LINE
  5
21A
100
AcDbEntity
  8
0
100
AcDbLine
 62
7
  6
CONTINUOUS
 10
13.3313849297
 20
97.8482295426
 11
13.3313849297
 21
68.5469358591
  0
LINE
  5
21B
100
AcDbEntity
  8
0
100
AcDbLine
 62
7
  6
CONTINUOUS
 10
71.2209840705
 20
39.5860527659
 11
57.8454954019
 21
36.0021013788
  0
LINE
  5
21C
100
AcDbEntity
  8
0
100
AcDbLine
 62
7
  6
CONTINUOUS
 10
51.5813849297
 20
39.0475827008
 11
63.0294611411
 21
39.0475827008
  0
LINE
  5
21D
100
AcDbEntity
  8
0
100
AcDbLine
 62
7
  6
CONTINUOUS
 10
69.2113864293
 20
39.0475827008
 11
87.4813849297
 21
39.0475827008
  0
LINE
  5
21E
100
AcDbEntity
  8
0
100
AcDbLine
 62
7
  6
CONTINUOUS
 10
19.9313849297
 20
68.5469358591
 11
19.9313849297
 21
97.8482295426
  0
LINE
  5
21F
100
AcDbEntity
  8
0
100
AcDbLine
 62
7
  6
CONTINUOUS
 10
20.0313849297
 20
97.9475827008
 11
20.0313849297
 21
68.3475827008
  0
LINE
  5
220
100
AcDbEntity
  8
INTFCLR_74
100
AcDbLine
 62
7
420
48875
  6
CONTINUOUS
 10
20.0313849297
 20
57.4475827008
 11
20.0313849297
 21
68.3475827008
  0
LINE
  5
221
100
AcDbEntity
  8
INTFCLR_74
100
AcDbLine
 62
7
420
48875
  6
CONTINUOUS
 10
20.0313849297
 20
97.9475827008
 11
20.0313849297
 21
109.0475827008
  0
LINE
  5
222
100
AcDbEntity
  8
0
100
AcDbLine
 62
7
  6
CONTINUOUS
 10
20.2313849297
 20
57.4475827008
 11
20.2313849297
 21
68.3475827008
  0
LINE
  5
223
100
AcDbEntity
  8
0
100
AcDbLine
 62
7
  6
CONTINUOUS
 10
20.2313849297
 20
97.9475827008
 11
20.2313849297
 21
109.0475827008
  0
LINE
  5
224
100
AcDbEntity
  8
0
100
AcDbLine
 62
7
  6
CONTINUOUS
 10
20.2416521243
 20
53.6475827008
 11
20.2416521243
 21
57.4475827008
  0
LINE
  5
225
100
AcDbEntity
  8
0
100
AcDbLine
 62
7
  6
CONTINUOUS
 10
20.2416521243
 20
109.0475827008
 11
20.2416521243
 21
112.6475827008
  0
LINE
  5
226
100
AcDbEntity
  8
0
100
AcDbLine
 62
7
  6
CONTINUOUS
 10
55.8859036077
 20
37.1334722287
 11
73.0793833156
 21
41.7404512315
  0
LINE
  5
227
100
AcDbEntity
  8
INTFCLR_74
100
AcDbLine
 62
7
420
48875
  6
CONTINUOUS
 10
34.631391669
 20
40.7475827008
 11
32.9813849297
 21
40.7475827008
  0
LINE
  5
228
100
AcDbEntity
  8
0
100
AcDbLine
 62
7
  6
CONTINUOUS
 10
34.631391669
 20
40.7475827008
 11
59.6630478018
 21
40.7475827008
  0
LINE
  5
229
100
AcDbEntity
  8
0
100
AcDbLine
 62
7
  6
CONTINUOUS
 10
68.0813849297
 20
42.9475827008
 11
88.6813849297
 21
42.9475827008
  0
LINE
  5
22A
100
AcDbEntity
  8
0
100
AcDbLine
 62
7
  6
CONTINUOUS
 10
21.848318762
 20
53.6475827008
 11
21.848318762
 21
57.4475827008
  0
LINE
  5
22B
100
AcDbEntity
  8
0
100
AcDbLine
 62
7
  6
CONTINUOUS
 10
21.848318762
 20
109.0475827008
 11
21.848318762
 21
112.6475827008
  0
LINE
  5
22C
100
AcDbEntity
  8
0
100
AcDbLine
 62
7
  6
CONTINUOUS
 10
22.0313849297
 20
109.0475827008
 11
22.0313849297
 21
97.9475827008
  0
LINE
  5
22D
100
AcDbEntity
  8
0
100
AcDbLine
 62
7
  6
CONTINUOUS
 10
22.0313849297
 20
68.3475827008
 11
22.0313849297
 21
57.4475827008
  0
LINE
  5
22E
100
AcDbEntity
  8
0
100
AcDbLine
 62
7
  6
CONTINUOUS
 10
22.9920138271
 20
112.6475827008
 11
22.9920138271
 21
109.0475827008
  0
LINE
  5
22F
100
AcDbEntity
  8
0
100
AcDbLine
 62
7
  6
CONTINUOUS
 10
22.9920138271
 20
57.4475827008
 11
22.9920138271
 21
53.6475827008
  0
LINE
  5
230
100
AcDbEntity
  8
0
100
AcDbLine
 62
7
  6
CONTINUOUS
 10
34.639809282
 20
109.4032831472
 11
34.0159766902
 21
109.0475827008
  0
LINE
  5
231
100
AcDbEntity
  8
0
100
AcDbLine
 62
7
  6
CONTINUOUS
 10
98.1813849297
 20
44.7475827008
 11
105.1813849297
 21
44.7475827008
  0
LINE
  5
232
100
AcDbEntity
  8
0
100
AcDbLine
 62
7
  6
CONTINUOUS
 10
98.1813849297
 20
44.9612444726
 11
105.1813849297
 21
44.9612444726
  0
LINE
  5
233
100
AcDbEntity
  8
0
100
AcDbLine
 62
7
  6
CONTINUOUS
 10
98.1813849297
 20
45.9185121182
 11
105.1813849297
 21
45.9185121182
  0
LINE
  5
234
100
AcDbEntity
  8
0
100
AcDbLine
 62
7
  6
CONTINUOUS
 10
98.1813849297
 20
46.2475827008
 11
105.1813849297
 21
46.2475827008
  0
LINE
  5
235
100
AcDbEntity
  8
INTFCLR_74
100
AcDbLine
 62
7
420
48875
  6
CONTINUOUS
 10
98.1813849297
 20
47.3275827008
 11
76.1813849297
 21
47.3275827008
  0
LINE
  5
236
100
AcDbEntity
  8
0
100
AcDbLine
 62
7
  6
CONTINUOUS
 10
68.0813849297
 20
47.3275827008
 11
76.1813849297
 21
47.3275827008
  0
LINE
  5
237
100
AcDbEntity
  8
0
100
AcDbLine
 62
7
  6
CONTINUOUS
 10
34.0159766902
 20
57.2475827008
 11
34.639809282
 21
56.8918822545
  0
LINE
  5
238
100
AcDbEntity
  8
0
100
AcDbLine
 62
7
  6
CONTINUOUS
 10
98.1813849297
 20
49.0321383126
 11
105.1813849297
 21
49.0321383126
  0
LINE
  5
239
100
AcDbEntity
  8
0
100
AcDbLine
 62
7
  6
CONTINUOUS
 10
98.1813849297
 20
50.0475827008
 11
76.1813849297
 21
50.0475827008
  0
LINE
  5
23A
100
AcDbEntity
  8
0
100
AcDbLine
 62
7
  6
CONTINUOUS
 10
98.1813849297
 20
50.9625244223
 11
105.1813849297
 21
50.9625244223
  0
LINE
  5
23B
100
AcDbEntity
  8
0
100
AcDbLine
 62
7
  6
CONTINUOUS
 10
76.1813849297
 20
51.5156661257
 11
98.1813849297
 21
51.5156661257
  0
LINE
  5
23C
100
AcDbEntity
  8
INTFCLR_74
100
AcDbLine
 62
7
420
48875
  6
CONTINUOUS
 10
32.9813849297
 20
40.7475827008
 11
32.9813849297
 21
54.6525157065
  0
LINE
  5
23D
100
AcDbEntity
  8
INTFCLR_74
100
AcDbLine
 62
7
420
48875
  6
CONTINUOUS
 10
32.9813849297
 20
111.6426496951
 11
32.9813849297
 21
125.5475827008
  0
LINE
  5
23E
100
AcDbEntity
  8
0
100
AcDbLine
 62
7
  6
CONTINUOUS
 10
20.2416521243
 20
53.6475827008
 11
28.9510279721
 21
53.6475827008
  0
LINE
  5
23F
100
AcDbEntity
  8
0
100
AcDbLine
 62
7
  6
CONTINUOUS
 10
34.0159766902
 20
57.2475827008
 11
36.5813849297
 21
57.2475827008
  0
LINE
  5
240
100
AcDbEntity
  8
0
100
AcDbLine
 62
7
  6
CONTINUOUS
 10
104.7813849297
 20
57.2975827008
 11
104.1813849297
 21
57.2975827008
  0
LINE
  5
241
100
AcDbEntity
  8
0
100
AcDbLine
 62
7
  6
CONTINUOUS
 10
34.6313849297
 20
40.7475827008
 11
34.6313849297
 21
46.7475827008
  0
LINE
  5
242
100
AcDbEntity
  8
0
100
AcDbLine
 62
7
  6
CONTINUOUS
 10
34.6313849297
 20
54.7475827008
 11
34.6313849297
 21
55.0638551256
  0
LINE
  5
243
100
AcDbEntity
  8
0
100
AcDbLine
 62
7
  6
CONTINUOUS
 10
34.6313849297
 20
56.8966854396
 11
34.6313849297
 21
57.2475827008
  0
LINE
  5
244
100
AcDbEntity
  8
0
100
AcDbLine
 62
7
  6
CONTINUOUS
 10
34.6313849297
 20
109.0475827008
 11
34.6313849297
 21
109.3984799621
  0
LINE
  5
245
100
AcDbEntity
  8
0
100
AcDbLine
 62
7
  6
CONTINUOUS
 10
34.6313849297
 20
111.231310276
 11
34.6313849297
 21
111.5475827008
  0
LINE
  5
246
100
AcDbEntity
  8
0
100
AcDbLine
 62
7
  6
CONTINUOUS
 10
34.6313849297
 20
119.5475827008
 11
34.6313849297
 21
125.5475827008
  0
LINE
  5
247
100
AcDbEntity
  8
0
100
AcDbLine
 62
7
  6
CONTINUOUS
 10
35.8253969378
 20
56.0928821624
 11
35.8253969378
 21
55.8321809051
  0
LINE
  5
248
100
AcDbEntity
  8
0
100
AcDbLine
 62
7
  6
CONTINUOUS
 10
35.8253969378
 20
110.2022832392
 11
35.8253969378
 21
110.4629844966
  0
LINE
  5
249
100
AcDbEntity
  8
0
100
AcDbLine
 62
7
  6
CONTINUOUS
 10
36.5813849297
 20
125.5475827008
 11
36.5813849297
 21
109.0475827008
  0
LINE
  5
24A
100
AcDbEntity
  8
0
100
AcDbLine
 62
7
  6
CONTINUOUS
 10
36.5813849297
 20
57.2475827008
 11
36.5813849297
 21
40.7475827008
  0
LINE
  5
24B
100
AcDbEntity
  8
INTFCLR_74
100
AcDbLine
 62
7
420
48875
  6
CONTINUOUS
 10
20.2313849297
 20
57.4475827008
 11
20.0313849297
 21
57.4475827008
  0
LINE
  5
24C
100
AcDbEntity
  8
0
100
AcDbLine
 62
7
  6
CONTINUOUS
 10
20.2416521243
 20
57.4475827008
 11
22.9920138271
 21
57.4475827008
  0
LINE
  5
24D
100
AcDbEntity
  8
0
100
AcDbLine
 62
7
  6
CONTINUOUS
 10
104.1813849297
 20
58.3975827008
 11
105.1813849297
 21
58.3975827008
  0
LINE
  5
24E
100
AcDbEntity
  8
0
100
AcDbLine
 62
7
  6
CONTINUOUS
 10
35.377332736
 20
55.2499235926
 11
28.9510279721
 21
53.6475827008
  0
LINE
  5
24F
100
AcDbEntity
  8
0
100
AcDbLine
 62
7
  6
CONTINUOUS
 10
100.3813849297
 20
64.3475827008
 11
100.2813849297
 21
64.3475827008
  0
LINE
  5
250
100
AcDbEntity
  8
0
100
AcDbLine
 62
7
  6
CONTINUOUS
 10
98.1813849297
 20
65.2475827008
 11
72.1813849297
 21
65.2475827008
  0
LINE
  5
251
100
AcDbEntity
  8
0
100
AcDbLine
 62
7
  6
CONTINUOUS
 10
100.9813849297
 20
65.7475827008
 11
99.6813849297
 21
65.7475827008
  0
LINE
  5
252
100
AcDbEntity
  8
0
100
AcDbLine
 62
7
  6
CONTINUOUS
 10
42.8813849297
 20
130.7475827008
 11
42.8813849297
 21
125.5475827008
  0
LINE
  5
253
100
AcDbEntity
  8
0
100
AcDbLine
 62
7
  6
CONTINUOUS
 10
44.1813849297
 20
128.2475827008
 11
44.1813849297
 21
125.5475827008
  0
LINE
  5
254
100
AcDbEntity
  8
0
100
AcDbLine
 62
7
  6
CONTINUOUS
 10
45.8813849297
 20
129.4475827008
 11
45.8813849297
 21
130.7475827008
  0
LINE
  5
255
100
AcDbEntity
  8
0
100
AcDbLine
 62
7
  6
CONTINUOUS
 10
46.3813849297
 20
130.7475827008
 11
46.3813849297
 21
129.4475827008
  0
LINE
  5
256
100
AcDbEntity
  8
0
100
AcDbLine
 62
7
  6
CONTINUOUS
 10
101.6824223132
 20
66.7475827008
 11
101.3824223132
 21
66.7475827008
  0
LINE
  5
257
100
AcDbEntity
  8
0
100
AcDbLine
 62
7
  6
CONTINUOUS
 10
98.1813849297
 20
66.7475827008
 11
72.1813849297
 21
66.7475827008
  0
LINE
  5
258
100
AcDbEntity
  8
0
100
AcDbLine
 62
7
  6
CONTINUOUS
 10
72.1813849297
 20
67.7475827008
 11
98.1813849297
 21
67.7475827008
  0
LINE
  5
259
100
AcDbEntity
  8
0
100
AcDbLine
 62
7
  6
CONTINUOUS
 10
22.0313849297
 20
68.3475827008
 11
20.0313849297
 21
68.3475827008
  0
LINE
  5
25A
100
AcDbEntity
  8
0
100
AcDbLine
 62
7
  6
CONTINUOUS
 10
19.9313849297
 20
68.5469358591
 11
13.3313849297
 21
68.5469358591
  0
LINE
  5
25B
100
AcDbEntity
  8
0
100
AcDbLine
 62
7
  6
CONTINUOUS
 10
51.5813849297
 20
39.0475827008
 11
51.5813849297
 21
40.7475827008
  0
LINE
  5
25C
100
AcDbEntity
  8
0
100
AcDbLine
 62
7
  6
CONTINUOUS
 10
13.3313849297
 20
72.4475827008
 11
19.9313849297
 21
72.4475827008
  0
LINE
  5
25D
100
AcDbEntity
  8
0
100
AcDbLine
 62
7
  6
CONTINUOUS
 10
52.3313849297
 20
40.7475827008
 11
52.3313849297
 21
39.0475827008
  0
LINE
  5
25E
100
AcDbEntity
  8
0
100
AcDbLine
 62
7
  6
CONTINUOUS
 10
62.3813849297
 20
40.9033535965
 11
62.3813849297
 21
39.0475827008
  0
LINE
  5
25F
100
AcDbEntity
  8
0
100
AcDbLine
 62
7
  6
CONTINUOUS
 10
73.0793833156
 20
41.7404512315
 11
73.3724189442
 21
40.6468273773
  0
LINE
  5
260
100
AcDbEntity
  8
0
100
AcDbLine
 62
7
  6
CONTINUOUS
 10
68.0813849297
 20
42.2075827008
 11
68.0813849297
 21
47.3275827008
  0
LINE
  5
261
100
AcDbEntity
  8
0
100
AcDbLine
 62
7
  6
CONTINUOUS
 10
68.0813849297
 20
119.1475827008
 11
68.0813849297
 21
124.0875827008
  0
LINE
  5
262
100
AcDbEntity
  8
0
100
AcDbLine
 62
7
  6
CONTINUOUS
 10
105.1813849297
 20
60.6352589345
 11
105.7966619355
 21
60.204437337
  0
LINE
  5
263
100
AcDbEntity
  8
0
100
AcDbLine
 62
7
  6
CONTINUOUS
 10
105.1813849297
 20
61.8560335233
 11
106.3702383719
 21
61.0235893813
  0
LINE
  5
264
100
AcDbEntity
  8
0
100
AcDbLine
 62
7
  6
CONTINUOUS
 10
71.7813849297
 20
129.4475827008
 11
71.7813849297
 21
130.7475827008
  0
LINE
  5
265
100
AcDbEntity
  8
0
100
AcDbLine
 62
7
  6
CONTINUOUS
 10
72.1813849297
 20
119.1475827008
 11
72.1813849297
 21
47.3275827008
  0
LINE
  5
266
100
AcDbEntity
  8
0
100
AcDbLine
 62
7
  6
CONTINUOUS
 10
72.2813849297
 20
130.7475827008
 11
72.2813849297
 21
129.4475827008
  0
LINE
  5
267
100
AcDbEntity
  8
0
100
AcDbLine
 62
7
  6
CONTINUOUS
 10
19.9313849297
 20
93.9475827008
 11
13.3313849297
 21
93.9475827008
  0
LINE
  5
268
100
AcDbEntity
  8
0
100
AcDbLine
 62
7
  6
CONTINUOUS
 10
101.6824223132
 20
66.7475827008
 11
105.1813849297
 21
64.2975827008
  0
LINE
  5
269
100
AcDbEntity
  8
0
100
AcDbLine
 62
7
  6
CONTINUOUS
 10
104.7813849297
 20
57.2975827008
 11
105.1813849297
 21
56.8975827008
  0
LINE
  5
26A
100
AcDbEntity
  8
0
100
AcDbLine
 62
7
  6
CONTINUOUS
 10
73.9813849297
 20
125.5475827008
 11
73.9813849297
 21
128.2475827008
  0
LINE
  5
26B
100
AcDbEntity
  8
0
100
AcDbLine
 62
7
  6
CONTINUOUS
 10
74.4313849297
 20
40.7862428941
 11
74.4313849297
 21
42.9475827008
  0
LINE
  5
26C
100
AcDbEntity
  8
0
100
AcDbLine
 62
7
  6
CONTINUOUS
 10
75.2813849297
 20
130.7475827008
 11
75.2813849297
 21
125.5475827008
  0
LINE
  5
26D
100
AcDbEntity
  8
0
100
AcDbLine
 62
7
  6
CONTINUOUS
 10
76.1813849297
 20
119.1475827008
 11
76.1813849297
 21
113.4993658314
  0
LINE
  5
26E
100
AcDbEntity
  8
0
100
AcDbLine
 62
7
  6
CONTINUOUS
 10
76.1813849297
 20
51.5156661257
 11
76.1813849297
 21
47.3275827008
  0
LINE
  5
26F
100
AcDbEntity
  8
0
100
AcDbLine
 62
7
  6
CONTINUOUS
 10
13.3313849297
 20
97.8482295426
 11
19.9313849297
 21
97.8482295426
  0
LINE
  5
270
100
AcDbEntity
  8
0
100
AcDbLine
 62
7
  6
CONTINUOUS
 10
22.0313849297
 20
97.9475827008
 11
20.0313849297
 21
97.9475827008
  0
LINE
  5
271
100
AcDbEntity
  8
0
100
AcDbLine
 62
7
  6
CONTINUOUS
 10
98.1813849297
 20
98.7475827008
 11
72.1813849297
 21
98.7475827008
  0
LINE
  5
272
100
AcDbEntity
  8
0
100
AcDbLine
 62
7
  6
CONTINUOUS
 10
101.3816523419
 20
99.0475827008
 11
103.9816523419
 21
99.0475827008
  0
LINE
  5
273
100
AcDbEntity
  8
0
100
AcDbLine
 62
7
  6
CONTINUOUS
 10
72.1813849297
 20
99.7475827008
 11
98.1813849297
 21
99.7475827008
  0
LINE
  5
274
100
AcDbEntity
  8
0
100
AcDbLine
 62
7
  6
CONTINUOUS
 10
99.5213849297
 20
99.9475827008
 11
98.9813849297
 21
99.9475827008
  0
LINE
  5
275
100
AcDbEntity
  8
0
100
AcDbLine
 62
7
  6
CONTINUOUS
 10
72.1813849297
 20
101.2475827008
 11
98.1813849297
 21
101.2475827008
  0
LINE
  5
276
100
AcDbEntity
  8
0
100
AcDbLine
 62
7
  6
CONTINUOUS
 10
105.1813849297
 20
100.2473152887
 11
103.9816523419
 21
99.0475827008
  0
LINE
  5
277
100
AcDbEntity
  8
0
100
AcDbLine
 62
7
  6
CONTINUOUS
 10
98.9813849297
 20
102.9475827008
 11
100.7813849297
 21
102.9475827008
  0
LINE
  5
278
100
AcDbEntity
  8
0
100
AcDbLine
 62
7
  6
CONTINUOUS
 10
99.6813849297
 20
103.9475826415
 11
105.1813849297
 21
103.9475826415
  0
LINE
  5
279
100
AcDbEntity
  8
0
100
AcDbLine
 62
7
  6
CONTINUOUS
 10
28.951027972
 20
112.6475827008
 11
35.3773327361
 21
111.045241809
  0
LINE
  5
27A
100
AcDbEntity
  8
INTFCLR_74
100
AcDbLine
 62
7
420
48875
  6
CONTINUOUS
 10
20.0313849297
 20
109.0475827008
 11
20.2416521243
 21
109.0475827008
  0
LINE
  5
27B
100
AcDbEntity
  8
0
100
AcDbLine
 62
7
  6
CONTINUOUS
 10
20.2416521243
 20
109.0475827008
 11
22.9920138271
 21
109.0475827008
  0
LINE
  5
27C
100
AcDbEntity
  8
0
100
AcDbLine
 62
7
  6
CONTINUOUS
 10
34.0159766902
 20
109.0475827008
 11
36.5813849297
 21
109.0475827008
  0
LINE
  5
27D
100
AcDbEntity
  8
0
100
AcDbLine
 62
7
  6
CONTINUOUS
 10
88.6813849297
 20
42.9475827008
 11
88.6813849297
 21
40.2475827008
  0
LINE
  5
27E
100
AcDbEntity
  8
0
100
AcDbLine
 62
7
  6
CONTINUOUS
 10
28.9510279721
 20
112.6475827008
 11
20.2416521243
 21
112.6475827008
  0
LINE
  5
27F
100
AcDbEntity
  8
0
100
AcDbLine
 62
7
  6
CONTINUOUS
 10
98.1813849297
 20
113.4993658314
 11
76.1813849297
 21
113.4993658314
  0
LINE
  5
280
100
AcDbEntity
  8
0
100
AcDbLine
 62
7
  6
CONTINUOUS
 10
76.1813849297
 20
114.4609961882
 11
98.1813849297
 21
114.4609961882
  0
LINE
  5
281
100
AcDbEntity
  8
0
100
AcDbLine
 62
7
  6
CONTINUOUS
 10
92.1813849297
 20
115.6267920866
 11
92.1813849297
 21
116.2475827008
  0
LINE
  5
282
100
AcDbEntity
  8
0
100
AcDbLine
 62
7
  6
CONTINUOUS
 10
94.1813849297
 20
115.5551863224
 11
94.1813849297
 21
118.2475827008
  0
LINE
  5
283
100
AcDbEntity
  8
0
100
AcDbLine
 62
7
  6
CONTINUOUS
 10
92.6723133903
 20
115.5551863208
 11
97.6813849297
 21
115.5551863208
  0
LINE
  5
284
100
AcDbEntity
  8
0
100
AcDbLine
 62
7
  6
CONTINUOUS
 10
94.1813849297
 20
115.9326409793
 11
92.1813849297
 21
115.9326409793
  0
LINE
  5
285
100
AcDbEntity
  8
0
100
AcDbLine
 62
7
  6
CONTINUOUS
 10
76.1813849297
 20
116.2475827008
 11
92.1813849297
 21
116.2475827008
  0
LINE
  5
286
100
AcDbEntity
  8
0
100
AcDbLine
 62
7
  6
CONTINUOUS
 10
94.1813849297
 20
117.8630274441
 11
76.1813849297
 21
117.8630274441
  0
LINE
  5
287
100
AcDbEntity
  8
0
100
AcDbLine
 62
7
  6
CONTINUOUS
 10
76.1813849297
 20
118.2475827008
 11
94.1813849297
 21
118.2475827008
  0
LINE
  5
288
100
AcDbEntity
  8
0
100
AcDbLine
 62
7
  6
CONTINUOUS
 10
68.0813849297
 20
119.1475827008
 11
76.1813849297
 21
119.1475827008
  0
LINE
  5
289
100
AcDbEntity
  8
INTFCLR_74
100
AcDbLine
 62
7
420
48875
  6
CONTINUOUS
 10
76.1813849297
 20
119.1475827008
 11
98.1813849297
 21
119.1475827008
  0
LINE
  5
28A
100
AcDbEntity
  8
0
100
AcDbLine
 62
7
  6
CONTINUOUS
 10
105.1362367338
 20
119.1637811879
 11
98.1813849297
 21
119.1637811879
  0
LINE
  5
28B
100
AcDbEntity
  8
0
100
AcDbLine
 62
7
  6
CONTINUOUS
 10
98.1813849297
 20
44.7476065433
 11
98.1813849297
 21
121.7475588583
  0
LINE
  5
28C
100
AcDbEntity
  8
0
100
AcDbLine
 62
7
  6
CONTINUOUS
 10
98.9813849297
 20
99.9475827008
 11
98.9813849297
 21
102.9475827008
  0
LINE
  5
28D
100
AcDbEntity
  8
0
100
AcDbLine
 62
7
  6
CONTINUOUS
 10
99.6813849297
 20
103.9475826415
 11
99.6813849297
 21
102.9475827008
  0
LINE
  5
28E
100
AcDbEntity
  8
0
100
AcDbLine
 62
7
  6
CONTINUOUS
 10
99.6813849297
 20
64.9475827008
 11
99.6813849297
 21
99.0565556207
  0
LINE
  5
28F
100
AcDbEntity
  8
0
100
AcDbLine
 62
7
  6
CONTINUOUS
 10
98.1813849297
 20
121.0178308097
 11
104.8098502792
 21
121.0178308097
  0
LINE
  5
290
100
AcDbEntity
  8
0
100
AcDbLine
 62
7
  6
CONTINUOUS
 10
98.1813849297
 20
121.7475827008
 11
104.6813849297
 21
121.7475827008
  0
LINE
  5
291
100
AcDbEntity
  8
0
100
AcDbLine
 62
7
  6
CONTINUOUS
 10
100.9813849297
 20
66.3465453173
 11
100.9813849297
 21
64.9475827008
  0
LINE
  5
292
100
AcDbEntity
  8
0
100
AcDbLine
 62
7
  6
CONTINUOUS
 10
103.6813849297
 20
57.7975827008
 11
103.6813849297
 21
57.8975827008
  0
LINE
  5
293
100
AcDbEntity
  8
0
100
AcDbLine
 62
7
  6
CONTINUOUS
 10
100.9813849297
 20
66.3465453173
 11
101.3824223132
 21
66.7475827008
  0
LINE
  5
294
100
AcDbEntity
  8
0
100
AcDbLine
 62
7
  6
CONTINUOUS
 10
75.2813849297
 20
125.5475827008
 11
59.6630478018
 21
125.5475827008
  0
LINE
  5
295
100
AcDbEntity
  8
0
100
AcDbLine
 62
7
  6
CONTINUOUS
 10
44.1813849297
 20
125.5475827008
 11
34.631391669
 21
125.5475827008
  0
LINE
  5
296
100
AcDbEntity
  8
INTFCLR_74
100
AcDbLine
 62
7
420
48875
  6
CONTINUOUS
 10
32.9813849297
 20
125.5475827008
 11
34.631391669
 21
125.5475827008
  0
LINE
  5
297
100
AcDbEntity
  8
0
100
AcDbLine
 62
7
  6
CONTINUOUS
 10
99.5213849297
 20
99.9475827008
 11
99.6813849297
 21
99.0565556207
  0
LINE
  5
298
100
AcDbEntity
  8
0
100
AcDbLine
 62
7
  6
CONTINUOUS
 10
101.3816523419
 20
99.0475827008
 11
100.7813849297
 21
102.9475827008
  0
LINE
  5
299
100
AcDbEntity
  8
0
100
AcDbLine
 62
7
  6
CONTINUOUS
 10
105.1813849297
 20
44.7476065433
 11
105.1813849297
 21
56.8975827008
  0
LINE
  5
29A
100
AcDbEntity
  8
0
100
AcDbLine
 62
7
  6
CONTINUOUS
 10
105.1813849297
 20
58.3975827008
 11
105.1813849297
 21
64.2975827008
  0
LINE
  5
29B
100
AcDbEntity
  8
0
100
AcDbLine
 62
7
  6
CONTINUOUS
 10
105.1813849297
 20
100.2473152887
 11
105.1813849297
 21
118.9073152887
  0
LINE
  5
29C
100
AcDbEntity
  8
0
100
AcDbLine
 62
7
  6
CONTINUOUS
 10
72.7813849297
 20
129.4475827008
 11
45.3813849297
 21
129.4475827008
  0
LINE
  5
29D
100
AcDbEntity
  8
0
100
AcDbLine
 62
7
  6
CONTINUOUS
 10
75.2813849297
 20
130.7475827008
 11
71.7813849297
 21
130.7475827008
  0
LINE
  5
29E
100
AcDbEntity
  8
0
100
AcDbLine
 62
7
  6
CONTINUOUS
 10
46.3813849297
 20
130.7475827008
 11
42.8813849297
 21
130.7475827008
  0
LINE
  5
29F
100
AcDbEntity
  8
0
100
AcDbLine
 62
7
  6
CONTINUOUS
 10
105.1813849297
 20
118.9073152887
 11
104.6813895112
 21
121.7475566755
  0
ARC
  5
2A0
100
AcDbEntity
  8
0
100
AcDbCircle
 62
7
  6
CONTINUOUS
 10
-95.1698782304
 20
50.7436224138
 40
129.8630032609
100
AcDbArc
 50
0.0017473193
 51
1.7668341458
  0
ARC
  5
2A1
100
AcDbEntity
  8
0
100
AcDbCircle
 62
7
  6
CONTINUOUS
 10
-95.1313468214
 20
115.5442119373
 40
129.8244719958
100
AcDbArc
 50
0.0014875934
 51
1.7670984001
  0
ARC
  5
2A2
100
AcDbEntity
  8
0
100
AcDbCircle
 62
7
  6
CONTINUOUS
 10
-95.0530324276
 20
115.5497446778
 40
129.7461575762
100
AcDbArc
 50
358.2323686988
 51
359.9990452384
  0
ARC
  5
2A3
100
AcDbEntity
  8
0
100
AcDbCircle
 62
7
  6
CONTINUOUS
 10
-94.9976798553
 20
50.748885104
 40
129.6908048319
100
AcDbArc
 50
358.2319939544
 51
359.9994246485
  0
ARC
  5
2A4
100
AcDbEntity
  8
0
100
AcDbCircle
 62
7
  6
CONTINUOUS
 10
59.6630478018
 20
100.5475827008
 40
25.0
100
AcDbArc
 50
70.3220151957
 51
90.0
  0
ARC
  5
2A5
100
AcDbEntity
  8
0
100
AcDbCircle
 62
7
  6
CONTINUOUS
 10
59.6630478018
 20
65.7475827008
 40
25.0
100
AcDbArc
 50
270.0
 51
289.6779848043
  0
ARC
  5
2A6
100
AcDbEntity
  8
0
100
AcDbCircle
 62
7
  6
CONTINUOUS
 10
57.4313849297
 20
37.5475827008
 40
1.6
100
AcDbArc
 50
194.9999999999
 51
284.9999999997
  0
ARC
  5
2A7
100
AcDbEntity
  8
0
100
AcDbCircle
 62
7
  6
CONTINUOUS
 10
71.5315669247
 20
38.4269417743
 40
1.2
100
AcDbArc
 50
31.1446714327
 51
105.0000000003
  0
ARC
  5
2A8
100
AcDbEntity
  8
0
100
AcDbCircle
 62
7
  6
CONTINUOUS
 10
87.4813849297
 20
40.2475827008
 40
1.2
100
AcDbArc
 50
270.0
 51
360.0
  0
ARC
  5
2A9
100
AcDbEntity
  8
0
100
AcDbCircle
 62
7
  6
CONTINUOUS
 10
45.3813849297
 20
128.2475827008
 40
1.2
100
AcDbArc
 50
90.0
 51
180.0
  0
ARC
  5
2AA
100
AcDbEntity
  8
0
100
AcDbCircle
 62
7
  6
CONTINUOUS
 10
72.7813849297
 20
128.2475827008
 40
1.2
100
AcDbArc
 50
0.0
 51
90.0
  0
ARC
  5
2AB
100
AcDbEntity
  8
0
100
AcDbCircle
 62
7
  6
CONTINUOUS
 10
100.3813849297
 20
64.9475827008
 40
0.6
100
AcDbArc
 50
270.0
 51
360.0
  0
ARC
  5
2AC
100
AcDbEntity
  8
0
100
AcDbCircle
 62
7
  6
CONTINUOUS
 10
100.2813849297
 20
64.9475827008
 40
0.6
100
AcDbArc
 50
180.0
 51
270.0
  0
ARC
  5
2AD
100
AcDbEntity
  8
0
100
AcDbCircle
 62
7
  6
CONTINUOUS
 10
73.8927247365
 20
40.7862428941
 40
0.5386601933
100
AcDbArc
 50
194.9999999979
 51
359.9999999988
  0
ARC
  5
2AE
100
AcDbEntity
  8
0
100
AcDbCircle
 62
7
  6
CONTINUOUS
 10
106.0834501537
 20
60.6140133591
 40
0.5
100
AcDbArc
 50
235.0
 51
55.0
  0
ARC
  5
2AF
100
AcDbEntity
  8
0
100
AcDbCircle
 62
7
  6
CONTINUOUS
 10
104.1813849297
 20
57.7975827008
 40
0.5
100
AcDbArc
 50
180.0
 51
270.0
  0
ARC
  5
2B0
100
AcDbEntity
  8
0
100
AcDbCircle
 62
7
  6
CONTINUOUS
 10
104.1813849297
 20
57.8975827008
 40
0.5
100
AcDbArc
 50
90.0
 51
180.0
  0
SPLINE
  5
2B1
100
AcDbEntity
  8
0
100
AcDbSpline
 62
7
  6
CONTINUOUS
 70
0
 71
3
 72
20
 73
16
 74
0
 42
0.0000001
 43
0.0000001
 44
0.0000000001
 40
0.0
 40
0.0
 40
0.0
 40
0.0
 40
0.0022292961
 40
0.0063145491
 40
0.0211940623
 40
0.0452877218
 40
0.0784794832
 40
0.1204569805
 40
0.1708672276
 40
0.2292272662
 40
0.2949781062
 40
0.4461237511
 40
0.6184486636
 40
0.8055570938
 40
1.0
 40
1.0
 40
1.0
 40
1.0
 10
20.3315434605
 20
60.4976219946
 30
0.0
 10
20.333967202
 20
60.4976210623
 30
0.0
 10
20.3397619512
 20
60.5030525587
 30
0.0
 10
20.3485725244
 20
60.5237556652
 30
0.0
 10
20.359875775
 20
60.5699738386
 30
0.0
 10
20.3723470125
 20
60.6470816727
 30
0.0
 10
20.3856568137
 20
60.754358019
 30
0.0
 10
20.3990820637
 20
60.8901764121
 30
0.0
 10
20.4124702097
 20
61.053552444
 30
0.0
 10
20.4255259048
 20
61.2428431602
 30
0.0
 10
20.4429949799
 20
61.5416052625
 30
0.0
 10
20.4618907626
 20
61.9643720396
 30
0.0
 10
20.478918171
 20
62.5192395031
 30
0.0
 10
20.4897226989
 20
63.1213443281
 30
0.0
 10
20.4921907424
 20
63.5361799349
 30
0.0
 10
20.4921907424
 20
63.7475827008
 30
0.0
  0
SPLINE
  5
2B2
100
AcDbEntity
  8
0
100
AcDbSpline
 62
7
  6
CONTINUOUS
 70
0
 71
3
 72
19
 73
15
 74
0
 42
0.0000001
 43
0.0000001
 44
0.0000000001
 40
0.0
 40
0.0
 40
0.0
 40
0.0
 40
0.011986007
 40
0.0200572072
 40
0.0299420075
 40
0.0556790189
 40
0.0897023335
 40
0.1319503999
 40
0.1822057078
 40
0.2400796729
 40
0.3050840338
 40
0.4541770183
 40
0.6239981743
 40
1.0
 40
1.0
 40
1.0
 40
1.0
 10
21.1354028521
 20
60.4976273443
 30
0.0
 10
21.1486667222
 20
60.4976264259
 30
0.0
 10
21.1702490036
 20
60.5092424148
 30
0.0
 10
21.1922306753
 20
60.5337287026
 30
0.0
 10
21.219231618
 20
60.5741608109
 30
0.0
 10
21.2508859724
 20
60.6447521381
 30
0.0
 10
21.2864790578
 20
60.7519606005
 30
0.0
 10
21.3214255776
 20
60.8876374688
 30
0.0
 10
21.3553382952
 20
61.0505930468
 30
0.0
 10
21.387710744
 20
61.2394644915
 30
0.0
 10
21.4301754592
 20
61.5374503734
 30
0.0
 10
21.4749478034
 20
61.9600735355
 30
0.0
 10
21.5293476272
 20
62.7272359474
 30
0.0
 10
21.544662067
 20
63.3314942262
 30
0.0
 10
21.544662067
 20
63.7475827008
 30
0.0
  0
SPLINE
  5
2B3
100
AcDbEntity
  8
0
100
AcDbSpline
 62
7
  6
CONTINUOUS
 70
0
 71
3
 72
19
 73
15
 74
0
 42
0.0000001
 43
0.0000001
 44
0.0000000001
 40
0.0
 40
0.0
 40
0.0
 40
0.0
 40
0.012015662
 40
0.0201452321
 40
0.0300952373
 40
0.0558939682
 40
0.0898391255
 40
0.1319717917
 40
0.1821983238
 40
0.2401407937
 40
0.3052064897
 40
0.45420651
 40
0.624001085
 40
1.0
 40
1.0
 40
1.0
 40
1.0
 10
21.1354027888
 20
99.2970711235
 30
0.0
 10
21.1487005423
 20
99.2970554752
 30
0.0
 10
21.1703075471
 20
99.3089911054
 30
0.0
 10
21.1922060495
 20
99.3337398786
 30
0.0
 10
21.2191501403
 20
99.3744673338
 30
0.0
 10
21.2508006367
 20
99.4450999318
 30
0.0
 10
21.2865017902
 20
99.5521347679
 30
0.0
 10
21.32150352
 20
99.6875550425
 30
0.0
 10
21.3553908788
 20
99.850446546
 30
0.0
 10
21.3876953281
 20
100.0394586846
 30
0.0
 10
21.4301012821
 20
100.337517525
 30
0.0
 10
21.4750241673
 20
100.7600934945
 30
0.0
 10
21.5293185476
 20
101.5271931574
 30
0.0
 10
21.544662067
 20
102.1314637756
 30
0.0
 10
21.544662067
 20
102.5475827008
 30
0.0
  0
SPLINE
  5
2B4
100
AcDbEntity
  8
0
100
AcDbSpline
 62
7
  6
CONTINUOUS
 70
0
 71
3
 72
21
 73
17
 74
0
 42
0.0000001
 43
0.0000001
 44
0.0000000001
 40
0.0
 40
0.0
 40
0.0
 40
0.0
 40
0.0022460745
 40
0.0063915761
 40
0.0214240291
 40
0.0455615467
 40
0.0786407989
 40
0.120488656
 40
0.1708871756
 40
0.229323792
 40
0.2951292538
 40
0.3676305381
 40
0.4461522098
 40
0.6184616189
 40
0.8056122662
 40
1.0
 40
1.0
 40
1.0
 40
1.0
 10
20.3315434363
 20
99.2970703931
 30
0.0
 10
20.3339857523
 20
99.2970783404
 30
0.0
 10
20.3397738579
 20
99.3026926482
 30
0.0
 10
20.3485256016
 20
99.3236266619
 30
0.0
 10
20.3598224512
 20
99.370186069
 30
0.0
 10
20.3723111083
 20
99.4473699591
 30
0.0
 10
20.3856689605
 20
99.5544476297
 30
0.0
 10
20.3991119729
 20
99.6900032621
 30
0.0
 10
20.4124805164
 20
99.8533349947
 30
0.0
 10
20.4255071296
 20
100.0427842582
 30
0.0
 10
20.4379855774
 20
100.2563597323
 30
0.0
 10
20.449674954
 20
100.4918458948
 30
0.0
 10
20.4643579992
 20
100.8431265143
 30
0.0
 10
20.4789111813
 20
101.3191718228
 30
0.0
 10
20.48970283
 20
101.9213296244
 30
0.0
 10
20.4921907424
 20
102.3362100225
 30
0.0
 10
20.4921907424
 20
102.5475827008
 30
0.0
  0
SPLINE
  5
2B5
100
AcDbEntity
  8
0
100
AcDbSpline
 62
7
  6
CONTINUOUS
 70
0
 71
3
 72
20
 73
16
 74
0
 42
0.0000001
 43
0.0000001
 44
0.0000000001
 40
0.0
 40
0.0
 40
0.0
 40
0.0
 40
0.0115518369
 40
0.0194992396
 40
0.0293018433
 40
0.0549426082
 40
0.0889118938
 40
0.1311438635
 40
0.1814286116
 40
0.2393632751
 40
0.3044317425
 40
0.4536216849
 40
0.6236089128
 40
0.8081941137
 40
1.0
 40
1.0
 40
1.0
 40
1.0
 10
35.3895919008
 20
46.7475827008
 30
0.0
 10
35.4053103867
 20
46.7475827009
 30
0.0
 10
35.4308606415
 20
46.7622929822
 30
0.0
 10
35.4566228371
 20
46.7922512135
 30
0.0
 10
35.4887804599
 20
46.8421792078
 30
0.0
 10
35.526605586
 20
46.929057093
 30
0.0
 10
35.5694465272
 20
47.0609487773
 30
0.0
 10
35.6117347624
 20
47.2278822568
 30
0.0
 10
35.6530006897
 20
47.4284430073
 30
0.0
 10
35.6925944668
 20
47.6609252788
 30
0.0
 10
35.7447852819
 20
48.0276355341
 30
0.0
 10
35.8002357654
 20
48.5476873921
 30
0.0
 10
35.8492686709
 20
49.2315024506
 30
0.0
 10
35.8801124685
 20
49.9744151843
 30
0.0
 10
35.8872240452
 20
50.4865941643
 30
0.0
 10
35.8872240448
 20
50.7475827961
 30
0.0
  0
SPLINE
  5
2B6
100
AcDbEntity
  8
0
100
AcDbSpline
 62
7
  6
CONTINUOUS
 70
0
 71
3
 72
20
 73
16
 74
0
 42
0.0000001
 43
0.0000001
 44
0.0000000001
 40
0.0
 40
0.0
 40
0.0
 40
0.0
 40
0.1918039056
 40
0.3763363002
 40
0.5463316076
 40
0.6956033256
 40
0.7606668786
 40
0.8185749318
 40
0.8688362214
 40
0.9110657666
 40
0.9450436258
 40
0.9706919685
 40
0.9804974152
 40
0.98844688
 40
1.0
 40
1.0
 40
1.0
 40
1.0
 10
35.8872240448
 20
50.7475827961
 30
0.0
 10
35.8872240443
 20
51.0085682801
 30
0.0
 10
35.8801669789
 20
51.5206725951
 30
0.0
 10
35.849255179
 20
52.2635194576
 30
0.0
 10
35.8001457002
 20
52.9473755836
 30
0.0
 10
35.7448348679
 20
53.4675576833
 30
0.0
 10
35.6926378739
 20
53.8343362743
 30
0.0
 10
35.6530245437
 20
54.0667391385
 30
0.0
 10
35.6117366189
 20
54.2672219439
 30
0.0
 10
35.5694472759
 20
54.4341299063
 30
0.0
 10
35.5266130355
 20
54.566043014
 30
0.0
 10
35.4887872325
 20
54.6529484348
 30
0.0
 10
35.4566268575
 20
54.7028950922
 30
0.0
 10
35.4308645919
 20
54.7328632504
 30
0.0
 10
35.4053121051
 20
54.7475827008
 30
0.0
 10
35.3895919007
 20
54.7475827008
 30
0.0
  0
SPLINE
  5
2B7
100
AcDbEntity
  8
0
100
AcDbSpline
 62
7
  6
CONTINUOUS
 70
0
 71
3
 72
21
 73
17
 74
0
 42
0.0000001
 43
0.0000001
 44
0.0000000001
 40
0.0
 40
0.0
 40
0.0
 40
0.0
 40
0.1943916954
 40
0.3815162386
 40
0.5537957012
 40
0.6323221671
 40
0.704832505
 40
0.7706404003
 40
0.8290669618
 40
0.8794431796
 40
0.9213037605
 40
0.9544193469
 40
0.9785855245
 40
0.9936218837
 40
0.9977610602
 40
1.0
 40
1.0
 40
1.0
 40
1.0
 10
20.4921907424
 20
63.7475827008
 30
0.0
 10
20.4921907424
 20
63.9589611737
 30
0.0
 10
20.4897035908
 20
64.3738204003
 30
0.0
 10
20.4789146383
 20
64.9759258863
 30
0.0
 10
20.4643555445
 20
65.4519185689
 30
0.0
 10
20.4496799853
 20
65.8031844265
 30
0.0
 10
20.4379971484
 20
66.0386903124
 30
0.0
 10
20.4255215075
 20
66.2522690042
 30
0.0
 10
20.4124965782
 20
66.4416872052
 30
0.0
 10
20.3991165183
 20
66.6049976077
 30
0.0
 10
20.3856707832
 20
66.7405833725
 30
0.0
 10
20.3723100439
 20
66.8477459618
 30
0.0
 10
20.3598384195
 20
66.9250097296
 30
0.0
 10
20.3485238342
 20
66.9715944634
 30
0.0
 10
20.3397883062
 20
66.9925235766
 30
0.0
 10
20.333978044
 20
66.998109584
 30
0.0
 10
20.3315434897
 20
66.9980967821
 30
0.0
  0
SPLINE
  5
2B8
100
AcDbEntity
  8
0
100
AcDbSpline
 62
7
  6
CONTINUOUS
 70
0
 71
3
 72
19
 73
15
 74
0
 42
0.0000001
 43
0.0000001
 44
0.0000000001
 40
0.0
 40
0.0
 40
0.0
 40
0.0
 40
0.3760121462
 40
0.5458226097
 40
0.6948118085
 40
0.7598767616
 40
0.8178287047
 40
0.8680762649
 40
0.9102052923
 40
0.9441267999
 40
0.9699031558
 40
0.9798484884
 40
0.9879778403
 40
1.0
 40
1.0
 40
1.0
 40
1.0
 10
21.544662067
 20
63.7475827008
 30
0.0
 10
21.544662067
 20
64.1637114803
 30
0.0
 10
21.5293071352
 20
64.768006536
 30
0.0
 10
21.4750344706
 20
65.535119509
 30
0.0
 10
21.4300890365
 20
65.9576931043
 30
0.0
 10
21.3876761759
 20
66.2557451435
 30
0.0
 10
21.355366527
 20
66.444787242
 30
0.0
 10
21.3215004477
 20
66.6077115807
 30
0.0
 10
21.2865048234
 20
66.7431249516
 30
0.0
 10
21.2507998053
 20
66.85010059
 30
0.0
 10
21.2191342174
 20
66.9206637767
 30
0.0
 10
21.192196316
 20
66.9613570593
 30
0.0
 10
21.1702916488
 20
66.9861041504
 30
0.0
 10
21.1487077236
 20
66.9980629662
 30
0.0
 10
21.135402944
 20
66.9980865934
 30
0.0
  0
SPLINE
  5
2B9
100
AcDbEntity
  8
0
100
AcDbSpline
 62
7
  6
CONTINUOUS
 70
0
 71
3
 72
20
 73
16
 74
0
 42
0.0000001
 43
0.0000001
 44
0.0000000001
 40
0.0
 40
0.0
 40
0.0
 40
0.0
 40
0.1944401347
 40
0.3815338343
 40
0.5538479314
 40
0.7049883728
 40
0.7707470382
 40
0.8291210447
 40
0.8795366594
 40
0.9215154381
 40
0.9547062414
 40
0.9787990852
 40
0.9936841712
 40
0.9977711618
 40
1.0
 40
1.0
 40
1.0
 40
1.0
 10
20.4921907424
 20
102.5475827008
 30
0.0
 10
20.4921907424
 20
102.758983069
 30
0.0
 10
20.4897231542
 20
103.1738008485
 30
0.0
 10
20.478922437
 20
103.7758766995
 30
0.0
 10
20.4618960332
 20
104.3307123893
 30
0.0
 10
20.4429974103
 20
104.7534713518
 30
0.0
 10
20.4255276159
 20
105.0522523384
 30
0.0
 10
20.412474228
 20
105.2415733511
 30
0.0
 10
20.3990858527
 20
105.4049723863
 30
0.0
 10
20.3856592118
 20
105.5407971726
 30
0.0
 10
20.3723475145
 20
105.6480733225
 30
0.0
 10
20.359875486
 20
105.7251847839
 30
0.0
 10
20.3485691124
 20
105.7714110659
 30
0.0
 10
20.3397643806
 20
105.7921219073
 30
0.0
 10
20.3339667673
 20
105.7975569485
 30
0.0
 10
20.3315435192
 20
105.7975533467
 30
0.0
  0
SPLINE
  5
2BA
100
AcDbEntity
  8
0
100
AcDbSpline
 62
7
  6
CONTINUOUS
 70
0
 71
3
 72
19
 73
15
 74
0
 42
0.0000001
 43
0.0000001
 44
0.0000000001
 40
0.0
 40
0.0
 40
0.0
 40
0.0
 40
0.375986289
 40
0.5457952758
 40
0.6948825869
 40
0.7598944017
 40
0.8177817147
 40
0.8680424106
 40
0.9102925819
 40
0.9443159679
 40
0.970052753
 40
0.9799397548
 40
0.9880131961
 40
1.0
 40
1.0
 40
1.0
 40
1.0
 10
21.544662067
 20
102.5475827008
 30
0.0
 10
21.544662067
 20
102.9636543818
 30
0.0
 10
21.5293557962
 20
103.567882654
 30
0.0
 10
21.4749605997
 20
104.3350093045
 30
0.0
 10
21.4301815997
 20
104.7576205987
 30
0.0
 10
21.3877163542
 20
105.0556234781
 30
0.0
 10
21.3553503875
 20
105.2445255923
 30
0.0
 10
21.3214359154
 20
105.4075047227
 30
0.0
 10
21.2864862185
 20
105.5431893497
 30
0.0
 10
21.250891346
 20
105.6504002596
 30
0.0
 10
21.2192306718
 20
105.7209903682
 30
0.0
 10
21.1922313785
 20
105.7614295006
 30
0.0
 10
21.1702528131
 20
105.7859244008
 30
0.0
 10
21.1486676413
 20
105.7975511473
 30
0.0
 10
21.1354028776
 20
105.7975460284
 30
0.0
  0
SPLINE
  5
2BB
100
AcDbEntity
  8
0
100
AcDbSpline
 62
7
  6
CONTINUOUS
 70
0
 71
3
 72
13
 73
9
 74
0
 42
0.0000001
 43
0.0000001
 44
0.0000000001
 40
0.0
 40
0.0
 40
0.0
 40
0.0
 40
0.3081742505
 40
0.5569677486
 40
0.7657275356
 40
0.9030360955
 40
0.9830246749
 40
1.0
 40
1.0
 40
1.0
 40
1.0
 10
34.639809282
 20
56.8918822545
 30
0.0
 10
34.7690805953
 20
56.8181776481
 30
0.0
 10
35.0022933471
 20
56.6837460562
 30
0.0
 10
35.3136821829
 20
56.4854003705
 30
0.0
 10
35.5640346691
 20
56.3411284411
 30
0.0
 10
35.7114519861
 20
56.1954898032
 30
0.0
 10
35.8318458189
 20
56.1662756762
 30
0.0
 10
35.8335937373
 20
56.0928821624
 30
0.0
 10
35.8253969378
 20
56.0928821624
 30
0.0
  0
SPLINE
  5
2BC
100
AcDbEntity
  8
0
100
AcDbSpline
 62
7
  6
CONTINUOUS
 70
0
 71
3
 72
10
 73
6
 74
0
 42
0.0000001
 43
0.0000001
 44
0.0000000001
 40
0.0
 40
0.0
 40
0.0
 40
0.0
 40
0.2471441928
 40
0.5050596324
 40
1.0
 40
1.0
 40
1.0
 40
1.0
 10
35.8253969378
 20
55.8321809051
 30
0.0
 10
35.8257609126
 20
55.7677190094
 30
0.0
 10
35.8030787318
 20
55.6352211748
 30
0.0
 10
35.6835239295
 20
55.3995372184
 30
0.0
 10
35.5025783362
 20
55.2812184315
 30
0.0
 10
35.3773230171
 20
55.2499625403
 30
0.0
  0
SPLINE
  5
2BD
100
AcDbEntity
  8
0
100
AcDbSpline
 62
7
  6
CONTINUOUS
 70
0
 71
3
 72
10
 73
6
 74
0
 42
0.0000001
 43
0.0000001
 44
0.0000000001
 40
0.0
 40
0.0
 40
0.0
 40
0.0
 40
0.4949403676
 40
0.7528558072
 40
1.0
 40
1.0
 40
1.0
 40
1.0
 10
35.3773230172
 20
111.0452028613
 30
0.0
 10
35.5025783363
 20
111.0139469701
 30
0.0
 10
35.6835239295
 20
110.8956281832
 30
0.0
 10
35.8030787318
 20
110.6599442269
 30
0.0
 10
35.8257609126
 20
110.5274463923
 30
0.0
 10
35.8253969378
 20
110.4629844966
 30
0.0
  0
SPLINE
  5
2BE
100
AcDbEntity
  8
0
100
AcDbSpline
 62
7
  6
CONTINUOUS
 70
0
 71
3
 72
13
 73
9
 74
0
 42
0.0000001
 43
0.0000001
 44
0.0000000001
 40
0.0
 40
0.0
 40
0.0
 40
0.0
 40
0.0169753251
 40
0.0969639045
 40
0.2342724644
 40
0.4430322514
 40
0.6918257495
 40
1.0
 40
1.0
 40
1.0
 40
1.0
 10
35.8253969378
 20
110.2022832392
 30
0.0
 10
35.8335937373
 20
110.2022832392
 30
0.0
 10
35.8318458189
 20
110.1288897255
 30
0.0
 10
35.7114519861
 20
110.0996755985
 30
0.0
 10
35.5640346691
 20
109.9540369606
 30
0.0
 10
35.3136821829
 20
109.8097650311
 30
0.0
 10
35.0022933471
 20
109.6114193454
 30
0.0
 10
34.7690805953
 20
109.4769877535
 30
0.0
 10
34.639809282
 20
109.4032831472
 30
0.0
  0
SPLINE
  5
2BF
100
AcDbEntity
  8
0
100
AcDbSpline
 62
7
  6
CONTINUOUS
 70
0
 71
3
 72
20
 73
16
 74
0
 42
0.0000001
 43
0.0000001
 44
0.0000000001
 40
0.0
 40
0.0
 40
0.0
 40
0.0
 40
0.0115511234
 40
0.0194976092
 40
0.0292997728
 40
0.0549439893
 40
0.0889200508
 40
0.1311501437
 40
0.1814129627
 40
0.2393182213
 40
0.3043796786
 40
0.4536433058
 40
0.6236388605
 40
0.8081881193
 40
1.0
 40
1.0
 40
1.0
 40
1.0
 10
35.3895919007
 20
111.5475827008
 30
0.0
 10
35.4053094314
 20
111.5475827008
 30
0.0
 10
35.4308601221
 20
111.562284462
 30
0.0
 10
35.4566241339
 20
111.5922387445
 30
0.0
 10
35.4887839889
 20
111.6421686954
 30
0.0
 10
35.526603462
 20
111.7290646157
 30
0.0
 10
35.5694332858
 20
111.8609713495
 30
0.0
 10
35.6117189148
 20
112.0278813302
 30
0.0
 10
35.6530046058
 20
112.2283640277
 30
0.0
 10
35.6926207305
 20
112.4607624471
 30
0.0
 10
35.7448153628
 20
112.8275245407
 30
0.0
 10
35.8001406835
 20
113.3476928056
 30
0.0
 10
35.8492564008
 20
114.0315629294
 30
0.0
 10
35.8801656612
 20
114.7744460766
 30
0.0
 10
35.8872246923
 20
115.2865855524
 30
0.0
 10
35.8872246927
 20
115.5475826028
 30
0.0
  0
SPLINE
  5
2C0
100
AcDbEntity
  8
0
100
AcDbSpline
 62
7
  6
CONTINUOUS
 70
0
 71
3
 72
20
 73
16
 74
0
 42
0.0000001
 43
0.0000001
 44
0.0000000001
 40
0.0
 40
0.0
 40
0.0
 40
0.0
 40
0.1918015712
 40
0.3763795908
 40
0.5463627143
 40
0.695552547
 40
0.7606248935
 40
0.8185642038
 40
0.8688483808
 40
0.9110787864
 40
0.9450481027
 40
0.9706916089
 40
0.9804967737
 40
0.9884465571
 40
1.0
 40
1.0
 40
1.0
 40
1.0
 10
35.8872246927
 20
115.5475826028
 30
0.0
 10
35.8872246932
 20
115.808564786
 30
0.0
 10
35.8801105917
 20
116.3207269428
 30
0.0
 10
35.8492714664
 20
117.063616913
 30
0.0
 10
35.8002422951
 20
117.7474152385
 30
0.0
 10
35.7447915361
 20
118.2674653954
 30
0.0
 10
35.692604091
 20
118.6341868114
 30
0.0
 10
35.6530155601
 20
118.8666804268
 30
0.0
 10
35.611749233
 20
119.0672442706
 30
0.0
 10
35.5694577141
 20
119.2341734626
 30
0.0
 10
35.5266123125
 20
119.366065531
 30
0.0
 10
35.4887824116
 20
119.4529480464
 30
0.0
 10
35.456624747
 20
119.5028886279
 30
0.0
 10
35.4308641179
 20
119.5328579387
 30
0.0
 10
35.4053125372
 20
119.5475827008
 30
0.0
 10
35.3895919008
 20
119.5475827008
 30
0.0
  0
SPLINE
  5
2C1
100
AcDbEntity
  8
0
100
AcDbSpline
 62
7
  6
CONTINUOUS
 70
0
 71
3
 72
12
 73
8
 74
0
 42
0.0000001
 43
0.0000001
 44
0.0000000001
 40
0.0
 40
0.0
 40
0.0
 40
0.0
 40
0.3721089009
 40
0.6875519805
 40
0.9021822016
 40
0.9642262418
 40
1.0
 40
1.0
 40
1.0
 40
1.0
 10
97.6813849297
 20
115.5551863208
 30
0.0
 10
97.7455960997
 20
115.5551863208
 30
0.0
 10
97.8644618995
 20
115.5590854781
 30
0.0
 10
98.0188358221
 20
115.575322271
 30
0.0
 10
98.1202382098
 20
115.5972373232
 30
0.0
 10
98.1688966871
 20
115.6186452393
 30
0.0
 10
98.1813849297
 20
115.6334132299
 30
0.0
 10
98.1813849297
 20
115.6395863551
 30
0.0
  0
SPLINE
  5
2C2
100
AcDbEntity
  8
0
100
AcDbSpline
 62
7
  6
CONTINUOUS
 70
0
 71
3
 72
13
 73
9
 74
0
 42
0.0000001
 43
0.0000001
 44
0.0000000001
 40
0.0
 40
0.0
 40
0.0
 40
0.0
 40
0.0504387878
 40
0.1261277577
 40
0.2270055925
 40
0.350793673
 40
0.6537092897
 40
1.0
 40
1.0
 40
1.0
 40
1.0
 10
92.1813849297
 20
115.6267920866
 30
0.0
 10
92.1871964907
 20
115.620694419
 30
0.0
 10
92.2059911059
 20
115.6100203907
 30
0.0
 10
92.2416041438
 20
115.5973496905
 30
0.0
 10
92.2905105657
 20
115.5855723835
 30
0.0
 10
92.3773479645
 20
115.5706585234
 30
0.0
 10
92.5060513726
 20
115.5584450234
 30
0.0
 10
92.6144811356
 20
115.5551863208
 30
0.0
 10
92.6723133903
 20
115.5551863208
 30
0.0
  0
SPLINE
  5
2C3
100
AcDbEntity
  8
0
100
AcDbSpline
 62
7
  6
CONTINUOUS
 70
0
 71
3
 72
20
 73
16
 74
0
 42
0.0000001
 43
0.0000001
 44
0.0000000001
 40
0.0
 40
0.0
 40
0.0
 40
0.0
 40
0.1946210251
 40
0.3818961523
 40
0.5543714058
 40
0.7056149771
 40
0.7713864316
 40
0.8297433422
 40
0.8801144479
 40
0.9220173311
 40
0.9551031901
 40
0.9790656823
 40
0.99380078
 40
0.9978150771
 40
1.0
 40
1.0
 40
1.0
 40
1.0
 10
20.2463649375
 20
63.7475827008
 30
0.0
 10
20.2463649375
 20
63.5362641595
 30
0.0
 10
20.2469422348
 20
63.1216029672
 30
0.0
 10
20.2496654402
 20
62.5196740862
 30
0.0
 10
20.2545928328
 20
61.9648590279
 30
0.0
 10
20.2610891155
 20
61.5419972954
 30
0.0
 10
20.2682959721
 20
61.2430818781
 30
0.0
 10
20.2742949067
 20
61.0537105007
 30
0.0
 10
20.2811855382
 20
60.8902771314
 30
0.0
 10
20.2889148675
 20
60.7544322235
 30
0.0
 10
20.2975473487
 20
60.6471718221
 30
0.0
 10
20.3065032063
 20
60.5700756599
 30
0.0
 10
20.3157573969
 20
60.5238874506
 30
0.0
 10
20.3235297936
 20
60.5030694619
 30
0.0
 10
20.3291710823
 20
60.4976229071
 30
0.0
 10
20.3315434605
 20
60.4976219946
 30
0.0
  0
SPLINE
  5
2C4
100
AcDbEntity
  8
0
100
AcDbSpline
 62
7
  6
CONTINUOUS
 70
0
 71
3
 72
19
 73
15
 74
0
 42
0.0000001
 43
0.0000001
 44
0.0000000001
 40
0.0
 40
0.0
 40
0.0
 40
0.0
 40
0.3769484844
 40
0.5471629521
 40
0.6964909875
 40
0.7615220543
 40
0.8193475862
 40
0.8694615749
 40
0.9114787861
 40
0.9451945203
 40
0.9705730333
 40
0.9802784119
 40
0.9881861829
 40
1.0
 40
1.0
 40
1.0
 40
1.0
 10
20.8029264893
 20
63.7475827008
 30
0.0
 10
20.8029264893
 20
63.3319474416
 30
0.0
 10
20.8127066585
 20
62.7285032457
 30
0.0
 10
20.8499958195
 20
61.9613894813
 30
0.0
 10
20.8821197314
 20
61.5384685267
 30
0.0
 10
20.9141801331
 20
61.2400432447
 30
0.0
 10
20.9393889842
 20
61.0509641998
 30
0.0
 10
20.9667129649
 20
60.8878578376
 30
0.0
 10
20.9958797779
 20
60.7521029141
 30
0.0
 10
21.0266969368
 20
60.6448868986
 30
0.0
 10
21.0551298453
 20
60.5742105024
 30
0.0
 10
21.0803019897
 20
60.5337302418
 30
0.0
 10
21.1011732673
 20
60.5091435148
 30
0.0
 10
21.1223765657
 20
60.4976282463
 30
0.0
 10
21.1354028521
 20
60.4976273443
 30
0.0
  0
SPLINE
  5
2C5
100
AcDbEntity
  8
0
100
AcDbSpline
 62
7
  6
CONTINUOUS
 70
0
 71
3
 72
21
 73
17
 74
0
 42
0.0000001
 43
0.0000001
 44
0.0000000001
 40
0.0
 40
0.0
 40
0.0
 40
0.0
 40
0.0022027748
 40
0.0062780482
 40
0.0211656627
 40
0.0451745986
 40
0.0781513662
 40
0.1199260473
 40
0.1702821567
 40
0.2287071347
 40
0.294527958
 40
0.3670673735
 40
0.4456454602
 40
0.618105418
 40
0.8054315202
 40
1.0
 40
1.0
 40
1.0
 40
1.0
 10
20.3315434897
 20
66.9980967821
 30
0.0
 10
20.3291514165
 20
66.9980842036
 30
0.0
 10
20.3235209367
 20
66.9924540114
 30
0.0
 10
20.3157978871
 20
66.9714157743
 30
0.0
 10
20.3065411301
 20
66.9248849107
 30
0.0
 10
20.2975720658
 20
66.847707183
 30
0.0
 10
20.2889079188
 20
66.7406316596
 30
0.0
 10
20.2811701979
 20
66.6050455485
 30
0.0
 10
20.274290294
 20
66.4416683318
 30
0.0
 10
20.2683035165
 20
66.252158525
 30
0.0
 10
20.2631531341
 20
66.0385176432
 30
0.0
 10
20.2588099635
 20
65.8029729533
 30
0.0
 10
20.2538690644
 20
65.4516171816
 30
0.0
 10
20.2496700192
 20
64.9755908145
 30
0.0
 10
20.2469471127
 20
64.3735938928
 30
0.0
 10
20.2463649375
 20
63.9588746146
 30
0.0
 10
20.2463649375
 20
63.7475827008
 30
0.0
  0
SPLINE
  5
2C6
100
AcDbEntity
  8
0
100
AcDbSpline
 62
7
  6
CONTINUOUS
 70
0
 71
3
 72
21
 73
17
 74
0
 42
0.0000001
 43
0.0000001
 44
0.0000000001
 40
0.0
 40
0.0
 40
0.0
 40
0.0
 40
0.1945757413
 40
0.3818965279
 40
0.5543449612
 40
0.6329238092
 40
0.7054643374
 40
0.7712820619
 40
0.8296977868
 40
0.8800395011
 40
0.9218214512
 40
0.9548205864
 40
0.9788476806
 40
0.9937358572
 40
0.9978044615
 40
1.0
 40
1.0
 40
1.0
 40
1.0
 10
20.2463649375
 20
102.5475827008
 30
0.0
 10
20.2463649375
 20
102.3362817029
 30
0.0
 10
20.2469470183
 20
101.9215579588
 30
0.0
 10
20.2496704829
 20
101.3195680263
 30
0.0
 10
20.253869681
 20
100.8435564236
 30
0.0
 10
20.2588094044
 20
100.4922091269
 30
0.0
 10
20.2631516477
 20
100.2566644061
 30
0.0
 10
20.2683012323
 20
100.0430345247
 30
0.0
 10
20.2742863277
 20
99.8535525767
 30
0.0
 10
20.2811715043
 20
99.6901926118
 30
0.0
 10
20.2889082187
 20
99.5545887447
 30
0.0
 10
20.2975748947
 20
99.4474616177
 30
0.0
 10
20.3065316855
 20
99.3702355633
 30
0.0
 10
20.3158044169
 20
99.3236959414
 30
0.0
 10
20.3235070772
 20
99.302665245
 30
0.0
 10
20.3291591874
 20
99.2970626347
 30
0.0
 10
20.3315434363
 20
99.2970703931
 30
0.0
  0
SPLINE
  5
2C7
100
AcDbEntity
  8
0
100
AcDbSpline
 62
7
  6
CONTINUOUS
 70
0
 71
3
 72
19
 73
15
 74
0
 42
0.0000001
 43
0.0000001
 44
0.0000000001
 40
0.0
 40
0.0
 40
0.0
 40
0.0
 40
0.3769733677
 40
0.547172621
 40
0.6963881671
 40
0.7614687098
 40
0.8193548355
 40
0.8694458256
 40
0.9113488571
 40
0.9449816275
 40
0.9704164218
 40
0.9801851832
 40
0.9881515366
 40
1.0
 40
1.0
 40
1.0
 40
1.0
 10
20.8029264893
 20
102.5475827008
 30
0.0
 10
20.8029264893
 20
102.1318873
 30
0.0
 10
20.8127372022
 20
101.5283873498
 30
0.0
 10
20.8499412114
 20
100.7613204717
 30
0.0
 10
20.8821815845
 20
100.3384621157
 30
0.0
 10
20.9141975572
 20
100.0400117096
 30
0.0
 10
20.9393578009
 20
99.8508145023
 30
0.0
 10
20.9666518568
 20
99.6877736563
 30
0.0
 10
20.9958586642
 20
99.552264736
 30
0.0
 10
21.0267696878
 20
99.4452213715
 30
0.0
 10
21.0552064503
 20
99.3745207173
 30
0.0
 10
21.0803271623
 20
99.3337674612
 30
0.0
 10
21.1011238711
 20
99.3089276457
 30
0.0
 10
21.1223372813
 20
99.2970864985
 30
0.0
 10
21.1354027888
 20
99.2970711235
 30
0.0
  0
SPLINE
  5
2C8
100
AcDbEntity
  8
0
100
AcDbSpline
 62
7
  6
CONTINUOUS
 70
0
 71
3
 72
19
 73
15
 74
0
 42
0.0000001
 43
0.0000001
 44
0.0000000001
 40
0.0
 40
0.0
 40
0.0
 40
0.0
 40
0.0118400388
 40
0.0198050004
 40
0.0295744186
 40
0.0550096568
 40
0.0886343684
 40
0.1305284321
 40
0.1806172721
 40
0.2385041012
 40
0.3035878505
 40
0.452815374
 40
0.6230254958
 40
1.0
 40
1.0
 40
1.0
 40
1.0
 10
21.135402944
 20
66.9980865934
 30
0.0
 10
21.1223466499
 20
66.9981097793
 30
0.0
 10
21.1011160559
 20
66.9862879503
 30
0.0
 10
21.0803329685
 20
66.9614522656
 30
0.0
 10
21.0552175991
 20
66.9206949597
 30
0.0
 10
21.0267887985
 20
66.8499999657
 30
0.0
 10
20.9958732573
 20
66.7429761234
 30
0.0
 10
20.9666664974
 20
66.6074877051
 30
0.0
 10
20.9393743333
 20
66.4444570706
 30
0.0
 10
20.914210828
 20
66.2552570604
 30
0.0
 10
20.8821899345
 20
65.9567874943
 30
0.0
 10
20.8499468323
 20
65.5338976688
 30
0.0
 10
20.812732812
 20
64.7667996058
 30
0.0
 10
20.8029264893
 20
64.163282159
 30
0.0
 10
20.8029264893
 20
63.7475827008
 30
0.0
  0
SPLINE
  5
2C9
100
AcDbEntity
  8
0
100
AcDbSpline
 62
7
  6
CONTINUOUS
 70
0
 71
3
 72
33
 73
29
 74
0
 42
0.0000001
 43
0.0000001
 44
0.0000000001
 40
0.0
 40
0.0
 40
0.0
 40
0.0
 40
0.005659535
 40
0.0095255371
 40
0.014310301
 40
0.0269041184
 40
0.0436981271
 40
0.0646711444
 40
0.0897222765
 40
0.1186500987
 40
0.1511935374
 40
0.2259359124
 40
0.3112083253
 40
0.4037475877
 40
0.4999826167
 40
0.5962250136
 40
0.6887414533
 40
0.7740175419
 40
0.8488149267
 40
0.8813601347
 40
0.9102778394
 40
0.9353204356
 40
0.956294833
 40
0.9730943082
 40
0.9856907099
 40
0.9904753442
 40
0.9943408684
 40
1.0
 40
1.0
 40
1.0
 40
1.0
 10
35.3895919008
 20
119.5475827008
 30
0.0
 10
35.3742611657
 20
119.5475827009
 30
0.0
 10
35.3493236368
 20
119.5330439283
 30
0.0
 10
35.325387554
 20
119.5029420472
 30
0.0
 10
35.2962248952
 20
119.4529368376
 30
0.0
 10
35.2636945274
 20
119.3659000474
 30
0.0
 10
35.2286741502
 20
119.2339688087
 30
0.0
 10
35.1958533208
 20
119.0668986828
 30
0.0
 10
35.1653728521
 20
118.8661316353
 30
0.0
 10
35.137492699
 20
118.6333893194
 30
0.0
 10
35.1023306474
 20
118.2660637107
 30
0.0
 10
35.0675886717
 20
117.7455162936
 30
0.0
 10
35.0388113463
 20
117.0619542525
 30
0.0
 10
35.0215175098
 20
116.3197708667
 30
0.0
 10
35.0156627548
 20
115.5477013845
 30
0.0
 10
35.0214795002
 20
114.7756932786
 30
0.0
 10
35.0388091068
 20
114.0335419519
 30
0.0
 10
35.0676410609
 20
113.3498862409
 30
0.0
 10
35.1022892184
 20
112.8291683428
 30
0.0
 10
35.1374613
 20
112.4617162913
 30
0.0
 10
35.1653570068
 20
112.2290217231
 30
0.0
 10
35.1958566828
 20
112.0283050583
 30
0.0
 10
35.2286793578
 20
111.8612402789
 30
0.0
 10
35.2636925277
 20
111.7292813278
 30
0.0
 10
35.2962199757
 20
111.6422195685
 30
0.0
 10
35.3253859084
 20
111.5922101713
 30
0.0
 10
35.349324151
 20
111.5621120947
 30
0.0
 10
35.3742622584
 20
111.5475827008
 30
0.0
 10
35.3895919007
 20
111.5475827008
 30
0.0
  0
SPLINE
  5
2CA
100
AcDbEntity
  8
0
100
AcDbSpline
 62
7
  6
CONTINUOUS
 70
0
 71
3
 72
20
 73
16
 74
0
 42
0.0000001
 43
0.0000001
 44
0.0000000001
 40
0.0
 40
0.0
 40
0.0
 40
0.0
 40
0.0021852759
 40
0.0061991322
 40
0.0209330399
 40
0.0448988236
 40
0.0779818456
 40
0.1198777778
 40
0.1702385025
 40
0.2285772392
 40
0.2943406507
 40
0.445589864
 40
0.6180861786
 40
0.8053811243
 40
1.0
 40
1.0
 40
1.0
 40
1.0
 10
20.3315435192
 20
105.7975533467
 30
0.0
 10
20.3291707543
 20
105.79754982
 30
0.0
 10
20.323532609
 20
105.7921034426
 30
0.0
 10
20.3157558348
 20
105.771287237
 30
0.0
 10
20.306503683
 20
105.7250970382
 30
0.0
 10
20.2975514135
 20
105.6480009433
 30
0.0
 10
20.2889172266
 20
105.54074764
 30
0.0
 10
20.2811878755
 20
105.4049242531
 30
0.0
 10
20.2742991483
 20
105.241529021
 30
0.0
 10
20.2682975731
 20
105.0521970149
 30
0.0
 10
20.2610911764
 20
104.7533031883
 30
0.0
 10
20.2545950708
 20
104.3304201571
 30
0.0
 10
20.2496658587
 20
103.7755532366
 30
0.0
 10
20.2469421172
 20
103.1735808236
 30
0.0
 10
20.2463649375
 20
102.7588994275
 30
0.0
 10
20.2463649375
 20
102.5475827008
 30
0.0
  0
SPLINE
  5
2CB
100
AcDbEntity
  8
0
100
AcDbSpline
 62
7
  6
CONTINUOUS
 70
0
 71
3
 72
33
 73
29
 74
0
 42
0.0000001
 43
0.0000001
 44
0.0000000001
 40
0.0
 40
0.0
 40
0.0
 40
0.0
 40
0.0056593964
 40
0.0095253256
 40
0.0143103856
 40
0.026907175
 40
0.0437065924
 40
0.0646806458
 40
0.0897227527
 40
0.1186402822
 40
0.1511853964
 40
0.2259824698
 40
0.3112563867
 40
0.4037674805
 40
0.5000000999
 40
0.5962243064
 40
0.6887578648
 40
0.7740280665
 40
0.8487801018
 40
0.8813301294
 40
0.9102650578
 40
0.9353191426
 40
0.9562947046
 40
0.9730914736
 40
0.9856874798
 40
0.9904732607
 40
0.9943400462
 40
1.0
 40
1.0
 40
1.0
 40
1.0
 10
35.3895919007
 20
54.7475827008
 30
0.0
 10
35.3742615602
 20
54.7475827008
 30
0.0
 10
35.3493231094
 20
54.7330482829
 30
0.0
 10
35.3253855958
 20
54.7029465594
 30
0.0
 10
35.2962197716
 20
54.6529332577
 30
0.0
 10
35.2636904062
 20
54.5658704632
 30
0.0
 10
35.2286773376
 20
54.4339115003
 30
0.0
 10
35.1958551165
 20
54.2668493912
 30
0.0
 10
35.1653555054
 20
54.0661357074
 30
0.0
 10
35.1374604954
 20
53.833443424
 30
0.0
 10
35.1022887832
 20
53.465993381
 30
0.0
 10
35.0676415413
 20
52.9452830745
 30
0.0
 10
35.0388099806
 20
52.2616494412
 30
0.0
 10
35.0214794352
 20
51.5195459401
 30
0.0
 10
35.0156627562
 20
50.7476090323
 30
0.0
 10
35.0215226379
 20
49.9756118999
 30
0.0
 10
35.03879786
 20
49.2334797759
 30
0.0
 10
35.0675761591
 20
48.549913873
 30
0.0
 10
35.1023139003
 20
48.0293287331
 30
0.0
 10
35.1374764967
 20
47.6619401532
 30
0.0
 10
35.1653513508
 20
47.4291520482
 30
0.0
 10
35.1958384264
 20
47.2283515832
 30
0.0
 10
35.228664463
 20
47.0612600818
 30
0.0
 10
35.2636877605
 20
46.9293085037
 30
0.0
 10
35.2962235074
 20
46.8422570989
 30
0.0
 10
35.3253870899
 20
46.7922398122
 30
0.0
 10
35.349321666
 20
46.7621301923
 30
0.0
 10
35.3742600503
 20
46.7475827008
 30
0.0
 10
35.3895919008
 20
46.7475827008
 30
0.0
  0
SPLINE
  5
2CC
100
AcDbEntity
  8
0
100
AcDbSpline
 62
7
  6
CONTINUOUS
 70
0
 71
3
 72
19
 73
15
 74
0
 42
0.0000001
 43
0.0000001
 44
0.0000000001
 40
0.0
 40
0.0
 40
0.0
 40
0.0
 40
0.0118137734
 40
0.0197211411
 40
0.0294264343
 40
0.0548078133
 40
0.0885229095
 40
0.1305367507
 40
0.180646007
 40
0.2384608785
 40
0.3034858343
 40
0.4528130104
 40
0.6230336029
 40
1.0
 40
1.0
 40
1.0
 40
1.0
 10
21.1354028776
 20
105.7975460284
 30
0.0
 10
21.122376623
 20
105.7975410016
 30
0.0
 10
21.1011756564
 20
105.7860275229
 30
0.0
 10
21.0803027706
 20
105.7614420493
 30
0.0
 10
21.0551295393
 20
105.7209592991
 30
0.0
 10
21.0267043776
 20
105.6502768204
 30
0.0
 10
20.9958844814
 20
105.5430633648
 30
0.0
 10
20.9667181005
 20
105.4073177249
 30
0.0
 10
20.9393973371
 20
105.2442317182
 30
0.0
 10
20.9141835568
 20
105.0551769879
 30
0.0
 10
20.88212441
 20
104.7567706441
 30
0.0
 10
20.8500023366
 20
104.3338499461
 30
0.0
 10
20.8127099505
 20
103.5667097613
 30
0.0
 10
20.8029264893
 20
102.9632382645
 30
0.0
 10
20.8029264893
 20
102.5475827008
 30
0.0
  0
ENDSEC
  0
SECTION
  2
OBJECTS
  0
DICTIONARY
  5
C
100
AcDbDictionary
280
0
281
1
  3
ACAD_GROUP
350
D
  3
ACAD_MLINESTYLE
350
17
  3
ACAD_LAYOUT
350
1A
  3
ACAD_PLOTSETTINGS
350
19
  3
ACAD_PLOTSTYLENAME
350
E
  0
DICTIONARY
  5
D
102
{ACAD_REACTORS
330
C
102
}
100
AcDbDictionary
280
0
281
1
  0
ACDBDICTIONARYWDFLT
  5
E
102
{ACAD_REACTORS
330
C
102
}
100
AcDbDictionary
281
1
  3
Normal
350
F
100
AcDbDictionaryWithDefault
340
F
  0
DICTIONARY
  5
17
102
{ACAD_REACTORS
330
C
102
}
100
AcDbDictionary
280
0
281
1
  3
Standard
350
18
  0
DICTIONARY
  5
19
102
{ACAD_REACTORS
330
C
102
}
100
AcDbDictionary
281
1
  0
DICTIONARY
  5
1A
102
{ACAD_REACTORS
330
C
102
}
100
AcDbDictionary
281
1
  3
Model
350
2CD
  3
Layout1
350
2CE
  0
ACDBPLACEHOLDER
  5
F
102
{ACAD_REACTORS
330
E
102
}
  0
MLINESTYLE
  5
18
102
{ACAD_REACTORS
330
17
102
}
100
AcDbMlineStyle
  2
STANDARD
 70
0
  3

 62
256
 51
90.0
 52
90.0
 71
2
 49
0.5
 62
256
  6
BYLAYER
 49
-0.5
 62
256
  6
BYLAYER
  0
LAYOUT
  5
2CD
102
{ACAD_REACTORS
330
1A
102
}
100
AcDbPlotSettings
  1

  2
none_device
  4

  6

 40
0.0
 41
0.0
 42
0.0
 43
0.0
 44
210.0
 45
297.0
 46
0.0
 47
0.0
 48
0.0
 49
0.0
140
0.0
141
0.0
142
1.0
143
1.0
 70
1024
 72
1
 73
0
 74
0
  7

 75
0
147
1.0
148
0.0
149
0.0
100
AcDbLayout
  1
Model
 70
0
 71
0
 10
0.0
 20
0.0
 11
210.0
 21
297.0
 12
0.0
 22
0.0
 32
0.0
 14
0.0
 24
0.0
 34
0.0
 15
0.0
 25
0.0
 35
0.0
146
0.0
 13
0.0
 23
0.0
 33
0.0
 16
1.0
 26
0.0
 36
0.0
 17
0.0
 27
1.0
 37
0.0
 76
0
330
213
345
0
346
0
  0
LAYOUT
  5
2CE
102
{ACAD_REACTORS
330
1A
102
}
100
AcDbPlotSettings
  1

  2
none_device
  4

  6

 40
0.0
 41
0.0
 42
0.0
 43
0.0
 44
210.0
 45
297.0
 46
0.0
 47
0.0
 48
0.0
 49
0.0
140
0.0
141
0.0
142
1.0
143
1.0
 70
0
 72
1
 73
0
 74
0
  7

 75
0
147
1.0
148
0.0
149
0.0
100
AcDbLayout
  1
Layout1
 70
0
 71
1
 10
0.0
 20
0.0
 11
210.0
 21
297.0
 12
0.0
 22
0.0
 32
0.0
 14
0.0
 24
0.0
 34
0.0
 15
0.0
 25
0.0
 35
0.0
146
0.0
 13
0.0
 23
0.0
 33
0.0
 16
1.0
 26
0.0
 36
0.0
 17
0.0
 27
1.0
 37
0.0
 76
0
330
214
345
0
346
0
  0
ENDSEC
  0
EOF
