999
DXF file: C:\Users\sesa63760\Dev\_Creo\CAD\MCADID0005260_3D-CAD\drw0001_2.dxf
999
Pro/ENGINEER 2019471 by Parametric Technology Corporation
  0
SECTION
  2
HEADER
  9
$ACADVER
  1
AC1024
  9
$DWGCODEPAGE
  3
ANSI_1252
  9
$EXTMAX
 10
192.5179525754
 20
272.2753900709
 30
0.0
  9
$EXTMIN
 10
0.0
 20
0.0
 30
0.0
  9
$LIMMIN
 10
0.0
 20
0.0
  9
$LIMMAX
 10
192.5179525754
 20
272.2753900709
  9
$VIEWCTR
 10
96.2589762877
 20
136.1376950355
  9
$VIEWSIZE
 40
272.2753900709
  9
$CLAYER
  8
0
  9
$LTSCALE
 40
17.7483217231
  9
$CELTYPE
  6
BYLAYER
  9
$DIMSCALE
 40
1.0
  9
$DIMASZ
 40
2.2918803878
  9
$DIMEXO
 40
1.0
  9
$DIMDLI
 40
12.2624768269
  9
$DIMEXE
 40
1.0
  9
$DIMCEN
 40
2.9042708274
  9
$DIMLFAC
 40
1.0
  9
$DIMBLK
  1
_FILLED
  9
$DIMALT
 70
0
  9
$DIMALTF
 40
0.0393700787
  9
$DIMTXT
 40
3.2086325429
  9
$DIMTOL
 70
1
  9
$DIMLIM
 70
0
  9
$DIMTFAC
 40
1.0
  9
$DIMTP
 40
0.01
  9
$DIMTM
 40
0.01
  9
$DIMGAP
 40
0.625
  9
$DIMDSEP
 70
46
  9
$AUNITS
 70
0
  9
$PDMODE
 70
3
  9
$PDSIZE
 40
0.3125
  9
$HANDSEED
  5
331
  9
$TILEMODE
 70
1
  9
$MEASUREMENT
 70
1
  9
$INSUNITS
 70
4
  0
ENDSEC
  0
SECTION
  2
CLASSES
  0
CLASS
  1
ACDBDICTIONARYWDFLT
  2
AcDbDictionaryWithDefault
  3
AutoCAD 2000
 90
0
 91
1
280
0
281
0
  0
CLASS
  1
ACDBPLACEHOLDER
  2
AcDbPlaceHolder
  3
AutoCAD 2000
 90
0
 91
1
280
0
281
0
  0
CLASS
  1
LAYOUT
  2
AcDbLayout
  3
AutoCAD 2000
 90
0
 91
0
280
0
281
0
  0
ENDSEC
  0
SECTION
  2
TABLES
  0
TABLE
  2
VPORT
  5
8
100
AcDbSymbolTable
 70
2
  0
VPORT
  5
1F4
100
AcDbSymbolTableRecord
100
AcDbViewportTableRecord
  2
*ACTIVE
 70
0
 10
0.0
 20
0.0
 11
1.0
 21
1.0
 12
96.2589762877
 22
136.1376950355
 13
0.0
 23
0.0
 14
1.0
 24
1.0
 15
0.0
 25
0.0
 16
0.0
 26
0.0
 36
1.0
 17
0.0
 27
0.0
 37
0.0
 40
272.2753900709
 41
0.7070707071
 42
50.0
 43
0.0
 44
0.0
 50
0.0
 51
0.0
 71
0
 72
100
 73
1
 74
1
 75
0
 76
0
 77
0
 78
0
  0
ENDTAB
  0
TABLE
  2
LTYPE
  5
5
100
AcDbSymbolTable
 70
6
  0
LTYPE
  5
14
100
AcDbSymbolTableRecord
100
AcDbLinetypeTableRecord
  2
BYBLOCK
 70
0
  3

 72
65
 73
0
 40
0.0
  0
LTYPE
  5
15
100
AcDbSymbolTableRecord
100
AcDbLinetypeTableRecord
  2
BYLAYER
 70
0
  3

 72
65
 73
0
 40
0.0
  0
LTYPE
  5
16
100
AcDbSymbolTableRecord
100
AcDbLinetypeTableRecord
  2
CONTINUOUS
 70
64
  3
Solid line
 72
65
 73
0
 40
0.0
  0
LTYPE
  5
1F5
100
AcDbSymbolTableRecord
100
AcDbLinetypeTableRecord
  2
CENTER
 70
64
  3
____ _ ____ _ ____ _ ____ _ ____ _ ____ _ ____
 72
65
 73
4
 40
0.6
 49
0.375
 74
0
 49
-0.075
 74
0
 49
0.075
 74
0
 49
-0.075
 74
0
  0
LTYPE
  5
1F6
100
AcDbSymbolTableRecord
100
AcDbLinetypeTableRecord
  2
HIDDEN
 70
64
  3
- - - - - - - - - - - - - - - - - - - -
 72
65
 73
2
 40
0.2
 49
0.1
 74
0
 49
-0.1
 74
0
  0
LTYPE
  5
1F7
100
AcDbSymbolTableRecord
100
AcDbLinetypeTableRecord
  2
PHANTOM
 70
64
  3
_____ _ _ _____ _ _ _____ _ _ _____
 72
65
 73
6
 40
0.8
 49
0.45
 74
0
 49
-0.05
 74
0
 49
0.1
 74
0
 49
-0.05
 74
0
 49
0.1
 74
0
 49
-0.05
 74
0
  0
LTYPE
  5
1F8
100
AcDbSymbolTableRecord
100
AcDbLinetypeTableRecord
  2
DOT
 70
64
  3
. . . . . . . . . . . . . . . . . . . .
 72
65
 73
2
 40
0.2
 49
0.1
 74
0
 49
-0.1
 74
0
  0
LTYPE
  5
1F9
100
AcDbSymbolTableRecord
100
AcDbLinetypeTableRecord
  2
DASHED
 70
64
  3
- - - - - - - - - - - - - - - - - - - -
 72
65
 73
2
 40
0.2
 49
0.1
 74
0
 49
-0.1
 74
0
  0
ENDTAB
  0
TABLE
  2
LAYER
  5
2
100
AcDbSymbolTable
 70
36
  0
LAYER
  5
10
100
AcDbSymbolTableRecord
100
AcDbLayerTableRecord
  2
0
 70
0
 62
7
  6
CONTINUOUS
370
-3
390
F
  0
LAYER
  5
1FA
100
AcDbSymbolTableRecord
100
AcDbLayerTableRecord
  2
DEFAULT_1
 70
0
 62
7
  6
CENTER
370
-3
390
F
  0
LAYER
  5
1FB
100
AcDbSymbolTableRecord
100
AcDbLayerTableRecord
  2
DEFAULT_2
 70
0
 62
7
  6
HIDDEN
370
-3
390
F
  0
LAYER
  5
1FC
100
AcDbSymbolTableRecord
100
AcDbLayerTableRecord
  2
DEFAULT_3
 70
0
 62
7
  6
PHANTOM
370
-3
390
F
  0
LAYER
  5
1FD
100
AcDbSymbolTableRecord
100
AcDbLayerTableRecord
  2
00_COMPONENTS
 70
0
 62
7
  6
CONTINUOUS
370
-3
390
F
  0
LAYER
  5
1FE
100
AcDbSymbolTableRecord
100
AcDbLayerTableRecord
  2
01_1_DEFAULT_DATUMS
 70
0
 62
7
  6
CONTINUOUS
370
-3
390
F
  0
LAYER
  5
1FF
100
AcDbSymbolTableRecord
100
AcDbLayerTableRecord
  2
01_PLANES
 70
0
 62
7
  6
CONTINUOUS
370
-3
390
F
  0
LAYER
  5
200
100
AcDbSymbolTableRecord
100
AcDbLayerTableRecord
  2
02_COORD_SYS
 70
0
 62
7
  6
CONTINUOUS
370
-3
390
F
  0
LAYER
  5
201
100
AcDbSymbolTableRecord
100
AcDbLayerTableRecord
  2
03_AXES
 70
0
 62
7
  6
CONTINUOUS
370
-3
390
F
  0
LAYER
  5
202
100
AcDbSymbolTableRecord
100
AcDbLayerTableRecord
  2
04_POINTS
 70
0
 62
7
  6
CONTINUOUS
370
-3
390
F
  0
LAYER
  5
203
100
AcDbSymbolTableRecord
100
AcDbLayerTableRecord
  2
05_CURVES
 70
0
 62
7
  6
CONTINUOUS
370
-3
390
F
  0
LAYER
  5
204
100
AcDbSymbolTableRecord
100
AcDbLayerTableRecord
  2
06_SURFS
 70
0
 62
7
  6
CONTINUOUS
370
-3
390
F
  0
LAYER
  5
205
100
AcDbSymbolTableRecord
100
AcDbLayerTableRecord
  2
07_COSMETICS
 70
0
 62
7
  6
CONTINUOUS
370
-3
390
F
  0
LAYER
  5
206
100
AcDbSymbolTableRecord
100
AcDbLayerTableRecord
  2
10_NOTES
 70
0
 62
7
  6
CONTINUOUS
370
-3
390
F
  0
LAYER
  5
207
100
AcDbSymbolTableRecord
100
AcDbLayerTableRecord
  2
11_NOTES_PUB
 70
0
 62
7
  6
CONTINUOUS
370
-3
390
F
  0
LAYER
  5
208
100
AcDbSymbolTableRecord
100
AcDbLayerTableRecord
  2
13_REF_GTOL
 70
0
 62
7
  6
CONTINUOUS
370
-3
390
F
  0
LAYER
  5
209
100
AcDbSymbolTableRecord
100
AcDbLayerTableRecord
  2
16_MISC
 70
0
 62
7
  6
CONTINUOUS
370
-3
390
F
  0
LAYER
  5
20A
100
AcDbSymbolTableRecord
100
AcDbLayerTableRecord
  2
17_NO_PRINT
 70
0
 62
7
  6
CONTINUOUS
370
-3
390
F
  0
LAYER
  5
20B
100
AcDbSymbolTableRecord
100
AcDbLayerTableRecord
  2
18_DATUM_CAMS_JOINTS
 70
0
 62
7
  6
CONTINUOUS
370
-3
390
F
  0
LAYER
  5
20C
100
AcDbSymbolTableRecord
100
AcDbLayerTableRecord
  2
19_DATUM_FUNCTIONAL
 70
0
 62
7
  6
CONTINUOUS
370
-3
390
F
  0
LAYER
  5
20D
100
AcDbSymbolTableRecord
100
AcDbLayerTableRecord
  2
20_DATUM_KINEMATIC_SCHEME
 70
0
 62
7
  6
CONTINUOUS
370
-3
390
F
  0
LAYER
  5
20E
100
AcDbSymbolTableRecord
100
AcDbLayerTableRecord
  2
3_ALL_AXES
 70
0
 62
7
  6
CONTINUOUS
370
-3
390
F
  0
LAYER
  5
20F
100
AcDbSymbolTableRecord
100
AcDbLayerTableRecord
  2
3_ALL_AXES_1
 70
0
 62
7
  6
CONTINUOUS
370
-3
390
F
  0
LAYER
  5
210
100
AcDbSymbolTableRecord
100
AcDbLayerTableRecord
  2
3_ALL_AXES_2
 70
0
 62
7
  6
CONTINUOUS
370
-3
390
F
  0
LAYER
  5
211
100
AcDbSymbolTableRecord
100
AcDbLayerTableRecord
  2
5_ALL_CURVES
 70
0
 62
7
  6
CONTINUOUS
370
-3
390
F
  0
LAYER
  5
212
100
AcDbSymbolTableRecord
100
AcDbLayerTableRecord
  2
INTF_BLUE
 70
0
 62
7
  6
CONTINUOUS
370
-3
390
F
  0
LAYER
  5
213
100
AcDbSymbolTableRecord
100
AcDbLayerTableRecord
  2
black
 70
0
 62
7
  6
CONTINUOUS
370
-3
390
F
  0
ENDTAB
  0
TABLE
  2
STYLE
  5
3
100
AcDbSymbolTable
 70
1
  0
STYLE
  5
11
100
AcDbSymbolTableRecord
100
AcDbTextStyleTableRecord
  2
STANDARD
 70
0
 40
0.0
 41
1.0
 50
0.0
 71
0
 42
0.2
  3
ARIAL.TTF
  4

  0
STYLE
  5
214
100
AcDbSymbolTableRecord
100
AcDbTextStyleTableRecord
  2
TEXTSTYLE_1
 70
0
 40
0.0
 41
0.8
 50
0.0
 71
0
 42
0.2
  3
gdt
  4

  0
ENDTAB
  0
TABLE
  2
VIEW
  5
6
100
AcDbSymbolTable
 70
0
  0
ENDTAB
  0
TABLE
  2
UCS
  5
7
100
AcDbSymbolTable
 70
0
  0
ENDTAB
  0
TABLE
  2
APPID
  5
9
100
AcDbSymbolTable
 70
1
  0
APPID
  5
215
100
AcDbSymbolTableRecord
100
AcDbRegAppTableRecord
  2
ACAD
 70
0
  0
ENDTAB
  0
TABLE
  2
BLOCK_RECORD
  5
1
100
AcDbSymbolTable
 70
0
  0
BLOCK_RECORD
  5
216
100
AcDbSymbolTableRecord
100
AcDbBlockTableRecord
  2
*Model_Space
  0
BLOCK_RECORD
  5
217
100
AcDbSymbolTableRecord
100
AcDbBlockTableRecord
  2
*Paper_Space
  0
BLOCK_RECORD
  5
218
100
AcDbSymbolTableRecord
100
AcDbBlockTableRecord
  2
_FILLED
  0
ENDTAB
  0
TABLE
  2
DIMSTYLE
  5
A
100
AcDbSymbolTable
 70
1
100
AcDbDimStyleTable
 71
0
  0
DIMSTYLE
105
219
100
AcDbSymbolTableRecord
100
AcDbDimStyleTableRecord
  2
STANDARD
 70
0
  3

  4

 40
1.0
 41
2.2918803878
 42
1.0
 43
0.38
 44
1.0
 45
0.0
 46
0.0
 47
0.01
 48
0.01
140
3.2086325429
141
0.09
142
0.0
143
25.4
144
1.0
145
0.0
146
1.0
147
0.625
 71
1
 72
0
 73
0
 74
0
 75
0
 76
0
 77
1
 78
8
 79
2
170
0
171
1
172
0
173
0
174
0
175
0
176
0
177
0
178
0
270
2
179
2
271
2
272
2
273
2
274
2
275
0
280
0
281
0
282
0
283
1
284
8
285
0
286
0
287
3
288
0
340
11
278
46
341
218
342
218
343
218
344
218
  0
ENDTAB
  0
ENDSEC
  0
SECTION
  2
BLOCKS
  0
BLOCK
  5
20
100
AcDbEntity
  8
0
100
AcDbBlockBegin
  2
*Model_Space
 70
0
 10
0.0
 20
0.0
 30
0.0
  3
*Model_Space
  1

  0
ENDBLK
  5
21
100
AcDbEntity
  8
0
100
AcDbBlockEnd
  0
BLOCK
  5
1C
100
AcDbEntity
  8
0
100
AcDbBlockBegin
  2
*Paper_Space
 70
0
 10
0.0
 20
0.0
 30
0.0
  3
*Paper_Space
  1

  0
ENDBLK
  5
1D
100
AcDbEntity
  8
0
100
AcDbBlockEnd
  0
BLOCK
  5
21A
100
AcDbEntity
  8
0
100
AcDbBlockBegin
  2
_FILLED
 70
64
 10
0.0
 20
0.0
  3
_FILLED
  1

  0
SOLID
  5
21B
100
AcDbEntity
  8
0
  6
BYBLOCK
 62
0
100
AcDbTrace
 10
0.0
 20
0.0
 11
-1.0
 21
0.25
 12
-1.0
 22
-0.25
 13
-1.0
 23
-0.25
  0
ENDBLK
  5
21C
100
AcDbEntity
  8
0
  6
BYBLOCK
 62
0
100
AcDbBlockEnd
  0
ENDSEC
  0
SECTION
  2
ENTITIES
  0
LINE
  5
21D
100
AcDbEntity
  8
00_COMPONENTS
100
AcDbLine
 62
7
  6
BYLAYER
 10
137.2795259331
 20
18.1628014184
 11
57.9045259331
 21
18.1628014184
  0
LINE
  5
21E
100
AcDbEntity
  8
00_COMPONENTS
100
AcDbLine
 62
7
  6
BYLAYER
 10
136.9145403014
 20
18.5287541856
 11
58.269511569
 21
18.52875419
  0
LINE
  5
21F
100
AcDbEntity
  8
00_COMPONENTS
100
AcDbLine
 62
7
  6
BYLAYER
 10
58.3715509468
 20
19.0554805449
 11
63.2385259327
 21
19.0554845257
  0
LINE
  5
220
100
AcDbEntity
  8
00_COMPONENTS
100
AcDbLine
 62
7
  6
BYLAYER
 10
136.8116309739
 20
19.0552837339
 11
131.9455259347
 21
19.0554885066
  0
LINE
  5
221
100
AcDbEntity
  8
00_COMPONENTS
100
AcDbLine
 62
7
  6
BYLAYER
 10
136.8115759446
 20
20.4774673457
 11
131.9455259335
 21
20.4773078166
  0
LINE
  5
222
100
AcDbEntity
  8
00_COMPONENTS
100
AcDbLine
 62
7
  6
BYLAYER
 10
58.3715489874
 20
20.4773112089
 11
63.2385259329
 21
20.4773078166
  0
LINE
  5
223
100
AcDbEntity
  8
00_COMPONENTS
100
AcDbLine
 62
7
  6
BYLAYER
 10
131.9455259331
 20
24.5128014122
 11
130.4215259331
 21
24.5128014122
  0
LINE
  5
224
100
AcDbEntity
  8
00_COMPONENTS
100
AcDbLine
 62
7
  6
BYLAYER
 10
64.7625259331
 20
24.5128014184
 11
63.2385259331
 21
24.5128014184
  0
LINE
  5
225
100
AcDbEntity
  8
00_COMPONENTS
100
AcDbLine
 62
7
  6
BYLAYER
 10
141.3150195349
 20
24.9798235732
 11
142.7368468078
 21
24.9798235732
  0
LINE
  5
226
100
AcDbEntity
  8
00_COMPONENTS
100
AcDbLine
 62
7
  6
BYLAYER
 10
53.8691120958
 20
24.9807401632
 11
52.4470333602
 21
24.9807401632
  0
LINE
  5
227
100
AcDbEntity
  8
00_COMPONENTS
100
AcDbLine
 62
7
  6
BYLAYER
 10
66.070956655
 20
26.401554944
 11
129.1131026434
 21
26.4015549448
  0
LINE
  5
228
100
AcDbEntity
  8
00_COMPONENTS
100
AcDbLine
 62
7
  6
BYLAYER
 10
142.7368468078
 20
29.8468093439
 11
137.2797017419
 21
29.8468014184
  0
LINE
  5
229
100
AcDbEntity
  8
00_COMPONENTS
100
AcDbLine
 62
7
  6
BYLAYER
 10
57.9043500875
 20
29.8468014184
 11
52.4472130215
 21
29.8468083433
  0
LINE
  5
22A
100
AcDbEntity
  8
00_COMPONENTS
100
AcDbLine
 62
7
  6
BYLAYER
 10
56.3478445073
 20
31.3708014184
 11
57.9045259334
 21
31.3708014184
  0
LINE
  5
22B
100
AcDbEntity
  8
00_COMPONENTS
100
AcDbLine
 62
7
  6
BYLAYER
 10
137.2795259329
 20
31.3708014184
 11
138.8362057167
 21
31.3708014184
  0
LINE
  5
22C
100
AcDbEntity
  8
00_COMPONENTS
100
AcDbLine
 62
7
  6
BYLAYER
 10
55.5209541535
 20
32.8948014184
 11
57.451225072
 21
32.8948014184
  0
LINE
  5
22D
100
AcDbEntity
  8
00_COMPONENTS
100
AcDbLine
 62
7
  6
BYLAYER
 10
137.7328268079
 20
32.8948014184
 11
139.6630977119
 21
32.8948014184
  0
LINE
  5
22E
100
AcDbEntity
  8
00_COMPONENTS
100
AcDbLine
 62
7
  6
BYLAYER
 10
143.2634975973
 20
24.8778714656
 11
142.7368402959
 21
24.9798026674
  0
LINE
  5
22F
100
AcDbEntity
  8
00_COMPONENTS
100
AcDbLine
 62
7
  6
BYLAYER
 10
64.586144743
 20
26.058160302
 11
66.0709582981
 21
26.4015474515
  0
LINE
  5
230
100
AcDbEntity
  8
00_COMPONENTS
100
AcDbLine
 62
7
  6
BYLAYER
 10
129.1131009589
 20
26.4015481084
 11
130.5979061957
 21
26.0581562918
  0
LINE
  5
231
100
AcDbEntity
  8
00_COMPONENTS
100
AcDbLine
 62
7
  6
BYLAYER
 10
115.1180259331
 20
66.4228014184
 11
112.7219000423
 21
66.4228014184
  0
LINE
  5
232
100
AcDbEntity
  8
00_COMPONENTS
100
AcDbLine
 62
7
  6
BYLAYER
 10
112.7219000423
 20
71.5028014184
 11
115.1180259331
 21
71.5028014184
  0
LINE
  5
233
100
AcDbEntity
  8
00_COMPONENTS
100
AcDbLine
 62
7
  6
BYLAYER
 10
137.2804930689
 20
253.1128014184
 11
136.9145402972
 21
252.7468486468
  0
LINE
  5
234
100
AcDbEntity
  8
00_COMPONENTS
100
AcDbLine
 62
7
  6
BYLAYER
 10
136.9145403014
 20
18.5287541856
 11
137.2804930689
 21
18.1628014184
  0
LINE
  5
235
100
AcDbEntity
  8
00_COMPONENTS
100
AcDbLine
 62
7
  6
BYLAYER
 10
51.5545259331
 20
24.5128014184
 11
51.5545259331
 21
246.7628014184
  0
LINE
  5
236
100
AcDbEntity
  8
00_COMPONENTS
100
AcDbLine
 62
7
  6
BYLAYER
 10
51.9204787002
 20
24.8777870501
 11
51.9204787047
 21
246.3978157826
  0
LINE
  5
237
100
AcDbEntity
  8
00_COMPONENTS
100
AcDbLine
 62
7
  6
BYLAYER
 10
52.4472050583
 20
241.428793493
 11
52.4472050583
 21
246.2957792637
  0
LINE
  5
238
100
AcDbEntity
  8
00_COMPONENTS
100
AcDbLine
 62
7
  6
BYLAYER
 10
52.4472130212
 20
140.9718014177
 11
52.4472130212
 21
130.3038014186
  0
LINE
  5
239
100
AcDbEntity
  8
00_COMPONENTS
100
AcDbLine
 62
7
  6
BYLAYER
 10
52.4471680917
 20
29.8468014178
 11
52.447123164
 21
24.9807378183
  0
LINE
  5
23A
100
AcDbEntity
  8
00_COMPONENTS
100
AcDbLine
 62
7
  6
BYLAYER
 10
53.8690323313
 20
29.8468014184
 11
53.8691918603
 21
24.9807514068
  0
LINE
  5
23B
100
AcDbEntity
  8
00_COMPONENTS
100
AcDbLine
 62
7
  6
BYLAYER
 10
53.8690323313
 20
241.4288014189
 11
53.8690357235
 21
246.2957783641
  0
LINE
  5
23C
100
AcDbEntity
  8
00_COMPONENTS
100
AcDbLine
 62
7
  6
BYLAYER
 10
53.8690323313
 20
140.9718014184
 11
53.8690323313
 21
130.3038014186
  0
LINE
  5
23D
100
AcDbEntity
  8
00_COMPONENTS
100
AcDbLine
 62
7
  6
BYLAYER
 10
143.263573166
 20
246.3978157868
 11
143.6295259331
 21
246.7637685542
  0
LINE
  5
23E
100
AcDbEntity
  8
00_COMPONENTS
100
AcDbLine
 62
7
  6
BYLAYER
 10
95.0520259331
 20
86.4888014184
 11
100.1320259331
 21
86.4888014184
  0
LINE
  5
23F
100
AcDbEntity
  8
00_COMPONENTS
100
AcDbLine
 62
7
  6
BYLAYER
 10
143.6295259331
 20
24.5118342827
 11
143.2635731615
 21
24.8777870543
  0
LINE
  5
240
100
AcDbEntity
  8
00_COMPONENTS
100
AcDbLine
 62
7
  6
BYLAYER
 10
57.90452593
 20
29.8468014184
 11
57.90452593
 21
31.3708014184
  0
LINE
  5
241
100
AcDbEntity
  8
00_COMPONENTS
100
AcDbLine
 62
7
  6
BYLAYER
 10
57.9045259331
 20
128.7798014184
 11
57.9045259331
 21
130.3038014184
  0
LINE
  5
242
100
AcDbEntity
  8
00_COMPONENTS
100
AcDbLine
 62
7
  6
BYLAYER
 10
57.9045259325
 20
140.9718014184
 11
57.9045259325
 21
142.4958014184
  0
LINE
  5
243
100
AcDbEntity
  8
00_COMPONENTS
100
AcDbLine
 62
7
  6
BYLAYER
 10
57.9045259331
 20
239.9048014184
 11
57.9045259331
 21
241.4288014184
  0
LINE
  5
244
100
AcDbEntity
  8
00_COMPONENTS
100
AcDbLine
 62
7
  6
BYLAYER
 10
58.3715476878
 20
20.4773095128
 11
58.3715476878
 21
19.0554885066
  0
LINE
  5
245
100
AcDbEntity
  8
00_COMPONENTS
100
AcDbLine
 62
7
  6
BYLAYER
 10
58.3724208923
 20
252.2203191029
 11
58.3724836118
 21
250.7982950203
  0
LINE
  5
246
100
AcDbEntity
  8
00_COMPONENTS
100
AcDbLine
 62
7
  6
BYLAYER
 10
59.7932794569
 20
238.5963775733
 11
59.7932794578
 21
143.8042223139
  0
LINE
  5
247
100
AcDbEntity
  8
00_COMPONENTS
100
AcDbLine
 62
7
  6
BYLAYER
 10
59.7932794574
 20
127.4713805227
 11
59.7932794563
 21
32.6792321411
  0
LINE
  5
248
100
AcDbEntity
  8
00_COMPONENTS
100
AcDbLine
 62
7
  6
BYLAYER
 10
63.238525932
 20
19.0554885066
 11
63.2385259331
 21
24.5126255862
  0
LINE
  5
249
100
AcDbEntity
  8
00_COMPONENTS
100
AcDbLine
 62
7
  6
BYLAYER
 10
63.2385259331
 20
246.7629772406
 11
63.2385259315
 21
252.2201143303
  0
LINE
  5
24A
100
AcDbEntity
  8
00_COMPONENTS
100
AcDbLine
 62
7
  6
BYLAYER
 10
64.7625259331
 20
248.3194817072
 11
64.7625259331
 21
246.7628014183
  0
LINE
  5
24B
100
AcDbEntity
  8
00_COMPONENTS
100
AcDbLine
 62
7
  6
BYLAYER
 10
64.7625259331
 20
24.512801419
 11
64.7625259331
 21
22.9561224165
  0
LINE
  5
24C
100
AcDbEntity
  8
00_COMPONENTS
100
AcDbLine
 62
7
  6
BYLAYER
 10
59.44986972
 20
142.31942372
 11
59.7932780939
 21
143.8042228107
  0
LINE
  5
24D
100
AcDbEntity
  8
00_COMPONENTS
100
AcDbLine
 62
7
  6
BYLAYER
 10
59.4498820329
 20
128.9561819647
 11
59.7932714966
 21
127.4713785004
  0
LINE
  5
24E
100
AcDbEntity
  8
00_COMPONENTS
100
AcDbLine
 62
7
  6
BYLAYER
 10
66.2865259331
 20
249.1463731958
 11
66.2865259331
 21
247.216102279
  0
LINE
  5
24F
100
AcDbEntity
  8
00_COMPONENTS
100
AcDbLine
 62
7
  6
BYLAYER
 10
66.2865259331
 20
24.0595005642
 11
66.2865259331
 21
22.1292296404
  0
LINE
  5
250
100
AcDbEntity
  8
00_COMPONENTS
100
AcDbLine
 62
7
  6
BYLAYER
 10
115.1180259331
 20
110.8728014184
 11
112.7219000423
 21
110.8728014184
  0
LINE
  5
251
100
AcDbEntity
  8
00_COMPONENTS
100
AcDbLine
 62
7
  6
BYLAYER
 10
58.2695959624
 20
18.5288297542
 11
58.3715271629
 21
19.0554870457
  0
LINE
  5
252
100
AcDbEntity
  8
00_COMPONENTS
100
AcDbLine
 62
7
  6
BYLAYER
 10
112.7219000423
 20
115.9528014184
 11
115.1180259331
 21
115.9528014184
  0
LINE
  5
253
100
AcDbEntity
  8
00_COMPONENTS
100
AcDbLine
 62
7
  6
BYLAYER
 10
59.4498697172
 20
31.1944237206
 11
59.7932801882
 21
32.6792318818
  0
LINE
  5
254
100
AcDbEntity
  8
00_COMPONENTS
100
AcDbLine
 62
7
  6
BYLAYER
 10
139.6630977126
 20
127.2558014184
 11
137.7328267848
 21
127.2558014184
  0
LINE
  5
255
100
AcDbEntity
  8
00_COMPONENTS
100
AcDbLine
 62
7
  6
BYLAYER
 10
57.4512250706
 20
127.2558014184
 11
55.5209541551
 21
127.2558014184
  0
LINE
  5
256
100
AcDbEntity
  8
00_COMPONENTS
100
AcDbLine
 62
7
  6
BYLAYER
 10
59.7932787242
 20
238.5963773152
 11
59.4498697225
 21
240.0811791175
  0
LINE
  5
257
100
AcDbEntity
  8
00_COMPONENTS
100
AcDbLine
 62
7
  6
BYLAYER
 10
95.0520259331
 20
84.0926755276
 11
95.0520259331
 21
86.4888014184
  0
LINE
  5
258
100
AcDbEntity
  8
00_COMPONENTS
100
AcDbLine
 62
7
  6
BYLAYER
 10
95.0520259331
 20
128.5426755276
 11
95.0520259331
 21
130.9388014184
  0
LINE
  5
259
100
AcDbEntity
  8
00_COMPONENTS
100
AcDbLine
 62
7
  6
BYLAYER
 10
95.0520259331
 20
172.9926755276
 11
95.0520259331
 21
175.3888014184
  0
LINE
  5
25A
100
AcDbEntity
  8
00_COMPONENTS
100
AcDbLine
 62
7
  6
BYLAYER
 10
95.0520259331
 20
217.4426755276
 11
95.0520259331
 21
219.8388014184
  0
LINE
  5
25B
100
AcDbEntity
  8
00_COMPONENTS
100
AcDbLine
 62
7
  6
BYLAYER
 10
138.8362049351
 20
128.7798014184
 11
137.279525932
 21
128.7798014184
  0
LINE
  5
25C
100
AcDbEntity
  8
00_COMPONENTS
100
AcDbLine
 62
7
  6
BYLAYER
 10
57.9045259332
 20
128.7798014184
 11
56.3478445074
 21
128.7798014184
  0
LINE
  5
25D
100
AcDbEntity
  8
00_COMPONENTS
100
AcDbLine
 62
7
  6
BYLAYER
 10
52.4472130212
 20
130.3038014195
 11
57.9045259331
 21
130.3038094301
  0
LINE
  5
25E
100
AcDbEntity
  8
00_COMPONENTS
100
AcDbLine
 62
7
  6
BYLAYER
 10
137.2796401233
 20
130.3038014184
 11
142.7368388449
 21
130.3037944936
  0
LINE
  5
25F
100
AcDbEntity
  8
00_COMPONENTS
100
AcDbLine
 62
7
  6
BYLAYER
 10
95.0520259331
 20
130.9388014184
 11
100.1320259331
 21
130.9388014184
  0
LINE
  5
260
100
AcDbEntity
  8
00_COMPONENTS
100
AcDbLine
 62
7
  6
BYLAYER
 10
100.1320259331
 20
219.8388014184
 11
100.1320259331
 21
217.4426755276
  0
LINE
  5
261
100
AcDbEntity
  8
00_COMPONENTS
100
AcDbLine
 62
7
  6
BYLAYER
 10
100.1320259331
 20
175.3888014184
 11
100.1320259331
 21
172.9926755276
  0
LINE
  5
262
100
AcDbEntity
  8
00_COMPONENTS
100
AcDbLine
 62
7
  6
BYLAYER
 10
100.1320259331
 20
130.9388014184
 11
100.1320259331
 21
128.5426755276
  0
LINE
  5
263
100
AcDbEntity
  8
00_COMPONENTS
100
AcDbLine
 62
7
  6
BYLAYER
 10
100.1320259331
 20
86.4888014184
 11
100.1320259331
 21
84.0926755276
  0
LINE
  5
264
100
AcDbEntity
  8
00_COMPONENTS
100
AcDbLine
 62
7
  6
BYLAYER
 10
57.9044117428
 20
140.9718014184
 11
52.4472130212
 21
140.9718083433
  0
LINE
  5
265
100
AcDbEntity
  8
00_COMPONENTS
100
AcDbLine
 62
7
  6
BYLAYER
 10
137.2795259331
 20
140.9717934068
 11
142.7368388449
 21
140.9718014174
  0
LINE
  5
266
100
AcDbEntity
  8
00_COMPONENTS
100
AcDbLine
 62
7
  6
BYLAYER
 10
56.347846931
 20
142.4958014184
 11
57.9045259342
 21
142.4958014184
  0
LINE
  5
267
100
AcDbEntity
  8
00_COMPONENTS
100
AcDbLine
 62
7
  6
BYLAYER
 10
137.2795259329
 20
142.4958014184
 11
138.8362073587
 21
142.4958014184
  0
LINE
  5
268
100
AcDbEntity
  8
00_COMPONENTS
100
AcDbLine
 62
7
  6
BYLAYER
 10
55.5209541535
 20
144.0198014184
 11
57.4512250814
 21
144.0198014184
  0
LINE
  5
269
100
AcDbEntity
  8
00_COMPONENTS
100
AcDbLine
 62
7
  6
BYLAYER
 10
137.7328267956
 20
144.0198014184
 11
139.6630977111
 21
144.0198014184
  0
LINE
  5
26A
100
AcDbEntity
  8
00_COMPONENTS
100
AcDbLine
 62
7
  6
BYLAYER
 10
115.1180259331
 20
204.8528014184
 11
115.1180259331
 21
199.7728014184
  0
LINE
  5
26B
100
AcDbEntity
  8
00_COMPONENTS
100
AcDbLine
 62
7
  6
BYLAYER
 10
115.1180259331
 20
160.4028014184
 11
115.1180259331
 21
155.3228014184
  0
LINE
  5
26C
100
AcDbEntity
  8
00_COMPONENTS
100
AcDbLine
 62
7
  6
BYLAYER
 10
115.1180259331
 20
115.9528014184
 11
115.1180259331
 21
110.8728014184
  0
LINE
  5
26D
100
AcDbEntity
  8
00_COMPONENTS
100
AcDbLine
 62
7
  6
BYLAYER
 10
115.1180259331
 20
71.5028014184
 11
115.1180259331
 21
66.4228014184
  0
LINE
  5
26E
100
AcDbEntity
  8
00_COMPONENTS
100
AcDbLine
 62
7
  6
BYLAYER
 10
136.9144656715
 20
252.7468486491
 11
136.8125004464
 21
252.2201222932
  0
LINE
  5
26F
100
AcDbEntity
  8
00_COMPONENTS
100
AcDbLine
 62
7
  6
BYLAYER
 10
135.3907779418
 20
238.5963694627
 11
135.7341705597
 21
240.0811817967
  0
LINE
  5
270
100
AcDbEntity
  8
00_COMPONENTS
100
AcDbLine
 62
7
  6
BYLAYER
 10
135.390773261
 20
32.6792250091
 11
135.734182144
 21
31.1944237195
  0
LINE
  5
271
100
AcDbEntity
  8
00_COMPONENTS
100
AcDbLine
 62
7
  6
BYLAYER
 10
115.1180259331
 20
155.3228014184
 11
112.7219000423
 21
155.3228014184
  0
LINE
  5
272
100
AcDbEntity
  8
00_COMPONENTS
100
AcDbLine
 62
7
  6
BYLAYER
 10
112.7219000423
 20
160.4028014184
 11
115.1180259331
 21
160.4028014184
  0
LINE
  5
273
100
AcDbEntity
  8
00_COMPONENTS
100
AcDbLine
 62
7
  6
BYLAYER
 10
128.8975259331
 20
22.129229641
 11
128.8975259331
 21
24.0595005578
  0
LINE
  5
274
100
AcDbEntity
  8
00_COMPONENTS
100
AcDbLine
 62
7
  6
BYLAYER
 10
128.8975259331
 20
247.216102294
 11
128.8975259331
 21
249.1463731973
  0
LINE
  5
275
100
AcDbEntity
  8
00_COMPONENTS
100
AcDbLine
 62
7
  6
BYLAYER
 10
130.4215259331
 20
22.9561211297
 11
130.4215259331
 21
24.5128014185
  0
LINE
  5
276
100
AcDbEntity
  8
00_COMPONENTS
100
AcDbLine
 62
7
  6
BYLAYER
 10
130.4215259331
 20
246.7628014183
 11
130.4215259331
 21
248.3194817071
  0
LINE
  5
277
100
AcDbEntity
  8
00_COMPONENTS
100
AcDbLine
 62
7
  6
BYLAYER
 10
131.9455259347
 20
19.0554885066
 11
131.9455259331
 21
24.5126255963
  0
LINE
  5
278
100
AcDbEntity
  8
00_COMPONENTS
100
AcDbLine
 62
7
  6
BYLAYER
 10
131.9455180077
 20
252.2201222932
 11
131.9455259331
 21
246.7629772507
  0
LINE
  5
279
100
AcDbEntity
  8
00_COMPONENTS
100
AcDbLine
 62
7
  6
BYLAYER
 10
135.3907724091
 20
32.679224709
 11
135.3907724086
 21
127.4713819178
  0
LINE
  5
27A
100
AcDbEntity
  8
00_COMPONENTS
100
AcDbLine
 62
7
  6
BYLAYER
 10
135.3907724089
 20
143.8042209193
 11
135.3907724058
 21
238.5963706524
  0
LINE
  5
27B
100
AcDbEntity
  8
00_COMPONENTS
100
AcDbLine
 62
7
  6
BYLAYER
 10
136.8116309739
 20
19.0552837339
 11
136.8115682544
 21
20.4773078166
  0
LINE
  5
27C
100
AcDbEntity
  8
00_COMPONENTS
100
AcDbLine
 62
7
  6
BYLAYER
 10
136.8125037783
 20
250.7982950203
 11
136.8125037783
 21
252.2201222932
  0
LINE
  5
27D
100
AcDbEntity
  8
00_COMPONENTS
100
AcDbLine
 62
7
  6
BYLAYER
 10
137.2795259361
 20
241.4288014184
 11
137.2795259361
 21
239.9048014184
  0
LINE
  5
27E
100
AcDbEntity
  8
00_COMPONENTS
100
AcDbLine
 62
7
  6
BYLAYER
 10
137.2795259331
 20
142.4958014184
 11
137.2795259331
 21
140.9718014184
  0
LINE
  5
27F
100
AcDbEntity
  8
00_COMPONENTS
100
AcDbLine
 62
7
  6
BYLAYER
 10
137.2795259336
 20
130.3038014184
 11
137.2795259336
 21
128.7798014184
  0
LINE
  5
280
100
AcDbEntity
  8
00_COMPONENTS
100
AcDbLine
 62
7
  6
BYLAYER
 10
137.2795259331
 20
31.3708014184
 11
137.2795259331
 21
29.8468014184
  0
LINE
  5
281
100
AcDbEntity
  8
00_COMPONENTS
100
AcDbLine
 62
7
  6
BYLAYER
 10
135.7341821468
 20
128.9561791168
 11
135.3907740706
 21
127.4713813123
  0
LINE
  5
282
100
AcDbEntity
  8
00_COMPONENTS
100
AcDbLine
 62
7
  6
BYLAYER
 10
95.0520259331
 20
175.3888014184
 11
100.1320259331
 21
175.3888014184
  0
LINE
  5
283
100
AcDbEntity
  8
00_COMPONENTS
100
AcDbLine
 62
7
  6
BYLAYER
 10
135.7341698336
 20
142.3194208723
 11
135.3907806675
 21
143.8042230503
  0
LINE
  5
284
100
AcDbEntity
  8
00_COMPONENTS
100
AcDbLine
 62
7
  6
BYLAYER
 10
141.3150195349
 20
130.3038014185
 11
141.3150195349
 21
140.9718014183
  0
LINE
  5
285
100
AcDbEntity
  8
00_COMPONENTS
100
AcDbLine
 62
7
  6
BYLAYER
 10
141.3150195349
 20
29.846801418
 11
141.3150161426
 21
24.9798244728
  0
LINE
  5
286
100
AcDbEntity
  8
00_COMPONENTS
100
AcDbLine
 62
7
  6
BYLAYER
 10
141.3148600059
 20
246.29485143
 11
141.3150195349
 21
241.4288014189
  0
LINE
  5
287
100
AcDbEntity
  8
00_COMPONENTS
100
AcDbLine
 62
7
  6
BYLAYER
 10
142.7370436176
 20
246.2949064592
 11
142.736838845
 21
241.42880142
  0
LINE
  5
288
100
AcDbEntity
  8
00_COMPONENTS
100
AcDbLine
 62
7
  6
BYLAYER
 10
142.7368388449
 20
130.3038014191
 11
142.7368388449
 21
140.9718014182
  0
LINE
  5
289
100
AcDbEntity
  8
00_COMPONENTS
100
AcDbLine
 62
7
  6
BYLAYER
 10
142.7368468078
 20
29.8468093439
 11
142.7368468078
 21
24.9798235732
  0
LINE
  5
28A
100
AcDbEntity
  8
00_COMPONENTS
100
AcDbLine
 62
7
  6
BYLAYER
 10
143.263573166
 20
246.3978157868
 11
143.2635731615
 21
24.8777870543
  0
LINE
  5
28B
100
AcDbEntity
  8
00_COMPONENTS
100
AcDbLine
 62
7
  6
BYLAYER
 10
143.6295259331
 20
246.7628014184
 11
143.6295259331
 21
24.5128014184
  0
LINE
  5
28C
100
AcDbEntity
  8
00_COMPONENTS
100
AcDbLine
 62
7
  6
BYLAYER
 10
51.9204787002
 20
24.8777870501
 11
51.5545259331
 21
24.5118342827
  0
LINE
  5
28D
100
AcDbEntity
  8
00_COMPONENTS
100
AcDbLine
 62
7
  6
BYLAYER
 10
51.5545259331
 20
246.7637685542
 11
51.9204787047
 21
246.3978157826
  0
LINE
  5
28E
100
AcDbEntity
  8
00_COMPONENTS
100
AcDbLine
 62
7
  6
BYLAYER
 10
57.9035587973
 20
18.1628014184
 11
58.269511569
 21
18.52875419
  0
LINE
  5
28F
100
AcDbEntity
  8
00_COMPONENTS
100
AcDbLine
 62
7
  6
BYLAYER
 10
58.2695115647
 20
252.7468486513
 11
57.9035587973
 21
253.1128014184
  0
LINE
  5
290
100
AcDbEntity
  8
00_COMPONENTS
100
AcDbLine
 62
7
  6
BYLAYER
 10
115.1180259331
 20
199.7728014184
 11
112.7219000423
 21
199.7728014184
  0
LINE
  5
291
100
AcDbEntity
  8
00_COMPONENTS
100
AcDbLine
 62
7
  6
BYLAYER
 10
112.7219000423
 20
204.8528014184
 11
115.1180259331
 21
204.8528014184
  0
LINE
  5
292
100
AcDbEntity
  8
00_COMPONENTS
100
AcDbLine
 62
7
  6
BYLAYER
 10
95.0520259331
 20
219.8388014184
 11
100.1320259331
 21
219.8388014184
  0
LINE
  5
293
100
AcDbEntity
  8
00_COMPONENTS
100
AcDbLine
 62
7
  6
BYLAYER
 10
129.1130954286
 20
244.8740471523
 11
130.5979036312
 21
245.2174576332
  0
LINE
  5
294
100
AcDbEntity
  8
00_COMPONENTS
100
AcDbLine
 62
7
  6
BYLAYER
 10
51.9204787025
 20
246.3977411518
 11
52.4472050583
 21
246.2957759365
  0
LINE
  5
295
100
AcDbEntity
  8
00_COMPONENTS
100
AcDbLine
 62
7
  6
BYLAYER
 10
66.0709514201
 20
244.8740546101
 11
64.5861456705
 21
245.2174465452
  0
LINE
  5
296
100
AcDbEntity
  8
00_COMPONENTS
100
AcDbLine
 62
7
  6
BYLAYER
 10
139.6630977105
 20
238.3808014184
 11
137.7328267938
 21
238.3808014184
  0
LINE
  5
297
100
AcDbEntity
  8
00_COMPONENTS
100
AcDbLine
 62
7
  6
BYLAYER
 10
57.4512250582
 20
238.3808014184
 11
55.5209541542
 21
238.3808014184
  0
LINE
  5
298
100
AcDbEntity
  8
00_COMPONENTS
100
AcDbLine
 62
7
  6
BYLAYER
 10
138.8362057168
 20
239.9048014184
 11
137.2795259329
 21
239.9048014184
  0
LINE
  5
299
100
AcDbEntity
  8
00_COMPONENTS
100
AcDbLine
 62
7
  6
BYLAYER
 10
57.9045259333
 20
239.9048014184
 11
56.3478461495
 21
239.9048014184
  0
LINE
  5
29A
100
AcDbEntity
  8
00_COMPONENTS
100
AcDbLine
 62
7
  6
BYLAYER
 10
137.2797017787
 20
241.4288014184
 11
142.736838845
 21
241.42880142
  0
LINE
  5
29B
100
AcDbEntity
  8
00_COMPONENTS
100
AcDbLine
 62
7
  6
BYLAYER
 10
52.4472050583
 20
241.428793493
 11
57.9043501243
 21
241.4288014184
  0
LINE
  5
29C
100
AcDbEntity
  8
00_COMPONENTS
100
AcDbLine
 62
7
  6
BYLAYER
 10
129.1130951657
 20
244.8740478951
 11
66.0709497773
 21
244.8740478919
  0
LINE
  5
29D
100
AcDbEntity
  8
00_COMPONENTS
100
AcDbLine
 62
7
  6
BYLAYER
 10
142.7370436176
 20
246.2949064592
 11
141.3150195349
 21
246.2948437397
  0
LINE
  5
29E
100
AcDbEntity
  8
00_COMPONENTS
100
AcDbLine
 62
7
  6
BYLAYER
 10
53.8690323313
 20
246.2957792637
 11
52.4472050583
 21
246.2957792637
  0
LINE
  5
29F
100
AcDbEntity
  8
00_COMPONENTS
100
AcDbLine
 62
7
  6
BYLAYER
 10
63.2385259331
 20
246.7628014247
 11
64.7625259331
 21
246.7628014247
  0
LINE
  5
2A0
100
AcDbEntity
  8
00_COMPONENTS
100
AcDbLine
 62
7
  6
BYLAYER
 10
130.4215259331
 20
246.7628014184
 11
131.9455259331
 21
246.7628014184
  0
LINE
  5
2A1
100
AcDbEntity
  8
00_COMPONENTS
100
AcDbLine
 62
7
  6
BYLAYER
 10
131.9455259336
 20
250.7982950202
 11
136.8125028787
 21
250.798291628
  0
LINE
  5
2A2
100
AcDbEntity
  8
00_COMPONENTS
100
AcDbLine
 62
7
  6
BYLAYER
 10
58.3724759216
 20
250.7981354912
 11
63.2385259327
 21
250.7982950202
  0
LINE
  5
2A3
100
AcDbEntity
  8
00_COMPONENTS
100
AcDbLine
 62
7
  6
BYLAYER
 10
58.3724208923
 20
252.2203191029
 11
63.2385259315
 21
252.2201143303
  0
LINE
  5
2A4
100
AcDbEntity
  8
00_COMPONENTS
100
AcDbLine
 62
7
  6
BYLAYER
 10
131.9455180077
 20
252.2201222932
 11
136.8125037783
 21
252.2201222932
  0
LINE
  5
2A5
100
AcDbEntity
  8
00_COMPONENTS
100
AcDbLine
 62
7
  6
BYLAYER
 10
58.2695115647
 20
252.7468486513
 11
136.9145402972
 21
252.7468486468
  0
LINE
  5
2A6
100
AcDbEntity
  8
00_COMPONENTS
100
AcDbLine
 62
7
  6
BYLAYER
 10
57.9045259331
 20
253.1128014184
 11
137.2795259331
 21
253.1128014184
  0
ARC
  5
2A7
100
AcDbEntity
  8
00_COMPONENTS
100
AcDbCircle
 62
7
  6
BYLAYER
 10
53.4684713379
 20
24.0606200677
 40
12.8180546441
100
AcDbArc
 50
359.9949958999
 51
10.5228672611
  0
ARC
  5
2A8
100
AcDbEntity
  8
00_COMPONENTS
100
AcDbCircle
 62
7
  6
BYLAYER
 10
57.4576892136
 20
20.1348126384
 40
12.7599904174
100
AcDbArc
 50
79.4531111767
 51
90.0290257312
  0
ARC
  5
2A9
100
AcDbEntity
  8
00_COMPONENTS
100
AcDbCircle
 62
7
  6
BYLAYER
 10
57.9045259331
 20
24.5128014184
 40
8.3820032897
100
AcDbArc
 50
13.0225416217
 51
76.9774583953
  0
ARC
  5
2AA
100
AcDbEntity
  8
00_COMPONENTS
100
AcDbCircle
 62
7
  6
BYLAYER
 10
57.9045259331
 20
24.5128014184
 40
6.858
100
AcDbArc
 50
0.0
 51
89.9999999989
  0
ARC
  5
2AB
100
AcDbEntity
  8
00_COMPONENTS
100
AcDbCircle
 62
7
  6
BYLAYER
 10
58.2747052634
 20
24.8825474083
 40
6.3538489037
100
AcDbArc
 50
180.0429351279
 51
269.9531737628
  0
ARC
  5
2AC
100
AcDbEntity
  8
00_COMPONENTS
100
AcDbCircle
 62
7
  6
BYLAYER
 10
57.9045259331
 20
24.5128014184
 40
6.35
100
AcDbArc
 50
180.0
 51
270.0
  0
ARC
  5
2AD
100
AcDbEntity
  8
00_COMPONENTS
100
AcDbCircle
 62
7
  6
BYLAYER
 10
57.9045259331
 20
24.5128014184
 40
5.3339767847
100
AcDbArc
 50
359.9981112773
 51
90.0018888654
  0
CIRCLE
  5
2AE
100
AcDbEntity
  8
00_COMPONENTS
100
AcDbCircle
 62
7
  6
BYLAYER
 10
57.9045259331
 20
24.5128014184
 40
2.9337
  0
CIRCLE
  5
2AF
100
AcDbEntity
  8
00_COMPONENTS
100
AcDbCircle
 62
7
  6
BYLAYER
 10
57.9045259331
 20
24.5128014184
 40
2.6722772711
  0
CIRCLE
  5
2B0
100
AcDbEntity
  8
00_COMPONENTS
100
AcDbCircle
 62
7
  6
BYLAYER
 10
57.9045259331
 20
24.5128014184
 40
2.5527
  0
ARC
  5
2B1
100
AcDbEntity
  8
00_COMPONENTS
100
AcDbCircle
 62
7
  6
BYLAYER
 10
57.9045259331
 20
24.5128014184
 40
2.3749
100
AcDbArc
 50
0.0
 51
358.9941017513
  0
CIRCLE
  5
2B2
100
AcDbEntity
  8
00_COMPONENTS
100
AcDbCircle
 62
7
  6
BYLAYER
 10
57.9045259331
 20
24.5128014184
 40
2.2479
  0
ARC
  5
2B3
100
AcDbEntity
  8
00_COMPONENTS
100
AcDbCircle
 62
7
  6
BYLAYER
 10
57.4571659874
 20
131.2541281619
 40
12.765674639
100
AcDbArc
 50
79.4554724579
 51
90.0266643841
  0
ARC
  5
2B4
100
AcDbEntity
  8
00_COMPONENTS
100
AcDbCircle
 62
7
  6
BYLAYER
 10
57.9045259331
 20
135.6378014184
 40
8.38199398
100
AcDbArc
 50
283.0225567485
 51
76.9774432485
  0
ARC
  5
2B5
100
AcDbEntity
  8
00_COMPONENTS
100
AcDbCircle
 62
7
  6
BYLAYER
 10
57.9045259331
 20
135.6378014184
 40
6.858
100
AcDbArc
 50
270.0000000007
 51
89.9999999955
  0
ARC
  5
2B6
100
AcDbEntity
  8
00_COMPONENTS
100
AcDbCircle
 62
7
  6
BYLAYER
 10
57.9045259331
 20
135.6378014184
 40
5.3339839767
100
AcDbArc
 50
270.0
 51
90.0012265877
  0
CIRCLE
  5
2B7
100
AcDbEntity
  8
00_COMPONENTS
100
AcDbCircle
 62
7
  6
BYLAYER
 10
57.9045259331
 20
135.6378014184
 40
2.9337
  0
CIRCLE
  5
2B8
100
AcDbEntity
  8
00_COMPONENTS
100
AcDbCircle
 62
7
  6
BYLAYER
 10
57.9045259331
 20
135.6378014184
 40
2.6722772711
  0
CIRCLE
  5
2B9
100
AcDbEntity
  8
00_COMPONENTS
100
AcDbCircle
 62
7
  6
BYLAYER
 10
57.9045259331
 20
135.6378014184
 40
2.5527
  0
ARC
  5
2BA
100
AcDbEntity
  8
00_COMPONENTS
100
AcDbCircle
 62
7
  6
BYLAYER
 10
57.9045259331
 20
135.6378014184
 40
2.3749
100
AcDbArc
 50
0.0
 51
358.9941017513
  0
CIRCLE
  5
2BB
100
AcDbEntity
  8
00_COMPONENTS
100
AcDbCircle
 62
7
  6
BYLAYER
 10
57.9045259331
 20
135.6378014184
 40
2.2479
  0
ARC
  5
2BC
100
AcDbEntity
  8
00_COMPONENTS
100
AcDbCircle
 62
7
  6
BYLAYER
 10
53.4704771259
 20
247.2147981453
 40
12.8160488735
100
AcDbArc
 50
349.4763065937
 51
0.0058302959
  0
ARC
  5
2BD
100
AcDbEntity
  8
00_COMPONENTS
100
AcDbCircle
 62
7
  6
BYLAYER
 10
57.4525640268
 20
140.071471934
 40
12.8156705855
100
AcDbArc
 50
269.9940138489
 51
280.5238492439
  0
ARC
  5
2BE
100
AcDbEntity
  8
00_COMPONENTS
100
AcDbCircle
 62
7
  6
BYLAYER
 10
57.4579193186
 20
251.1382902545
 40
12.7574905924
100
AcDbArc
 50
269.9699350838
 51
280.5479279519
  0
ARC
  5
2BF
100
AcDbEntity
  8
00_COMPONENTS
100
AcDbCircle
 62
7
  6
BYLAYER
 10
57.9045259331
 20
246.7628014184
 40
8.3819967633
100
AcDbArc
 50
283.0225522024
 51
346.9774477779
  0
ARC
  5
2C0
100
AcDbEntity
  8
00_COMPONENTS
100
AcDbCircle
 62
7
  6
BYLAYER
 10
57.9045259331
 20
246.7628014184
 40
6.858
100
AcDbArc
 50
270.0000000007
 51
360.0
  0
ARC
  5
2C1
100
AcDbEntity
  8
00_COMPONENTS
100
AcDbCircle
 62
7
  6
BYLAYER
 10
58.2742716286
 20
246.392621988
 40
6.3538488556
100
AcDbArc
 50
90.0429324729
 51
179.9531728574
  0
ARC
  5
2C2
100
AcDbEntity
  8
00_COMPONENTS
100
AcDbCircle
 62
7
  6
BYLAYER
 10
57.9045259331
 20
246.7628014184
 40
6.35
100
AcDbArc
 50
90.0
 51
180.0
  0
ARC
  5
2C3
100
AcDbEntity
  8
00_COMPONENTS
100
AcDbCircle
 62
7
  6
BYLAYER
 10
57.9045259331
 20
246.7628014184
 40
5.3339767878
100
AcDbArc
 50
269.9981115296
 51
0.0018886139
  0
CIRCLE
  5
2C4
100
AcDbEntity
  8
00_COMPONENTS
100
AcDbCircle
 62
7
  6
BYLAYER
 10
57.9045259331
 20
246.7628014184
 40
2.9337
  0
CIRCLE
  5
2C5
100
AcDbEntity
  8
00_COMPONENTS
100
AcDbCircle
 62
7
  6
BYLAYER
 10
57.9045259331
 20
246.7628014184
 40
2.6722772711
  0
CIRCLE
  5
2C6
100
AcDbEntity
  8
00_COMPONENTS
100
AcDbCircle
 62
7
  6
BYLAYER
 10
57.9045259331
 20
246.7628014184
 40
2.5527
  0
ARC
  5
2C7
100
AcDbEntity
  8
00_COMPONENTS
100
AcDbCircle
 62
7
  6
BYLAYER
 10
57.9045259331
 20
246.7628014184
 40
2.3749
100
AcDbArc
 50
0.0
 51
358.9941017513
  0
CIRCLE
  5
2C8
100
AcDbEntity
  8
00_COMPONENTS
100
AcDbCircle
 62
7
  6
BYLAYER
 10
57.9045259331
 20
246.7628014184
 40
2.2479
  0
CIRCLE
  5
2C9
100
AcDbEntity
  8
00_COMPONENTS
100
AcDbCircle
 62
7
  6
BYLAYER
 10
97.5920259331
 20
68.9628014184
 40
15.3416
  0
CIRCLE
  5
2CA
100
AcDbEntity
  8
00_COMPONENTS
100
AcDbCircle
 62
7
  6
BYLAYER
 10
97.5920259331
 20
113.4128014184
 40
15.3416
  0
ARC
  5
2CB
100
AcDbEntity
  8
00_COMPONENTS
100
AcDbCircle
 62
7
  6
BYLAYER
 10
141.71357475
 20
24.0608046915
 40
12.8160488833
100
AcDbArc
 50
169.4763066014
 51
180.0058302955
  0
ARC
  5
2CC
100
AcDbEntity
  8
00_COMPONENTS
100
AcDbCircle
 62
7
  6
BYLAYER
 10
137.7261325483
 20
20.1373125681
 40
12.7574906067
100
AcDbArc
 50
89.9699350873
 51
100.5479279435
  0
ARC
  5
2CD
100
AcDbEntity
  8
00_COMPONENTS
100
AcDbCircle
 62
7
  6
BYLAYER
 10
137.2795259331
 20
24.5128014184
 40
8.3819962371
100
AcDbArc
 50
103.0225530581
 51
166.9774469254
  0
ARC
  5
2CE
100
AcDbEntity
  8
00_COMPONENTS
100
AcDbCircle
 62
7
  6
BYLAYER
 10
137.2795259331
 20
24.5128014184
 40
6.858
100
AcDbArc
 50
90.0000000007
 51
180.0
  0
ARC
  5
2CF
100
AcDbEntity
  8
00_COMPONENTS
100
AcDbCircle
 62
7
  6
BYLAYER
 10
136.9097806192
 20
24.8829811049
 40
6.353848883
100
AcDbArc
 50
270.0429290301
 51
359.953170546
  0
ARC
  5
2D0
100
AcDbEntity
  8
00_COMPONENTS
100
AcDbCircle
 62
7
  6
BYLAYER
 10
137.2795259331
 20
24.5128014184
 40
6.35
100
AcDbArc
 50
270.0
 51
360.0
  0
ARC
  5
2D1
100
AcDbEntity
  8
00_COMPONENTS
100
AcDbCircle
 62
7
  6
BYLAYER
 10
137.2795259331
 20
24.5128014184
 40
5.3339767878
100
AcDbArc
 50
89.9981115296
 51
180.0018886139
  0
CIRCLE
  5
2D2
100
AcDbEntity
  8
00_COMPONENTS
100
AcDbCircle
 62
7
  6
BYLAYER
 10
137.2795259331
 20
24.5128014184
 40
2.9337
  0
CIRCLE
  5
2D3
100
AcDbEntity
  8
00_COMPONENTS
100
AcDbCircle
 62
7
  6
BYLAYER
 10
137.2795259331
 20
24.5128014184
 40
2.6722772711
  0
CIRCLE
  5
2D4
100
AcDbEntity
  8
00_COMPONENTS
100
AcDbCircle
 62
7
  6
BYLAYER
 10
137.2795259331
 20
24.5128014184
 40
2.5527
  0
ARC
  5
2D5
100
AcDbEntity
  8
00_COMPONENTS
100
AcDbCircle
 62
7
  6
BYLAYER
 10
137.2795259331
 20
24.5128014184
 40
2.3749
100
AcDbArc
 50
0.0
 51
358.9941017513
  0
CIRCLE
  5
2D6
100
AcDbEntity
  8
00_COMPONENTS
100
AcDbCircle
 62
7
  6
BYLAYER
 10
137.2795259331
 20
24.5128014184
 40
2.2479
  0
ARC
  5
2D7
100
AcDbEntity
  8
00_COMPONENTS
100
AcDbCircle
 62
7
  6
BYLAYER
 10
137.7314878394
 20
131.2041309062
 40
12.8156705822
100
AcDbArc
 50
89.9940138487
 51
100.5238492464
  0
ARC
  5
2D8
100
AcDbEntity
  8
00_COMPONENTS
100
AcDbCircle
 62
7
  6
BYLAYER
 10
137.2795259331
 20
135.6378014184
 40
8.3819926597
100
AcDbArc
 50
103.0225588967
 51
256.9774411014
  0
ARC
  5
2D9
100
AcDbEntity
  8
00_COMPONENTS
100
AcDbCircle
 62
7
  6
BYLAYER
 10
137.2795259331
 20
135.6378014184
 40
6.858
100
AcDbArc
 50
90.0000000007
 51
269.9999999955
  0
ARC
  5
2DA
100
AcDbEntity
  8
00_COMPONENTS
100
AcDbCircle
 62
7
  6
BYLAYER
 10
137.2795259331
 20
135.6378014184
 40
5.3339839767
100
AcDbArc
 50
90.0
 51
270.0012265877
  0
CIRCLE
  5
2DB
100
AcDbEntity
  8
00_COMPONENTS
100
AcDbCircle
 62
7
  6
BYLAYER
 10
137.2795259331
 20
135.6378014184
 40
2.9337
  0
CIRCLE
  5
2DC
100
AcDbEntity
  8
00_COMPONENTS
100
AcDbCircle
 62
7
  6
BYLAYER
 10
137.2795259331
 20
135.6378014184
 40
2.6722772711
  0
CIRCLE
  5
2DD
100
AcDbEntity
  8
00_COMPONENTS
100
AcDbCircle
 62
7
  6
BYLAYER
 10
137.2795259331
 20
135.6378014184
 40
2.5527
  0
ARC
  5
2DE
100
AcDbEntity
  8
00_COMPONENTS
100
AcDbCircle
 62
7
  6
BYLAYER
 10
137.2795259331
 20
135.6378014184
 40
2.3749
100
AcDbArc
 50
0.0
 51
358.9941017513
  0
CIRCLE
  5
2DF
100
AcDbEntity
  8
00_COMPONENTS
100
AcDbCircle
 62
7
  6
BYLAYER
 10
137.2795259331
 20
135.6378014184
 40
2.2479
  0
CIRCLE
  5
2E0
100
AcDbEntity
  8
00_COMPONENTS
100
AcDbCircle
 62
7
  6
BYLAYER
 10
97.5920259331
 20
157.8628014184
 40
15.3416
  0
CIRCLE
  5
2E1
100
AcDbEntity
  8
00_COMPONENTS
100
AcDbCircle
 62
7
  6
BYLAYER
 10
97.5920259331
 20
202.3128014184
 40
15.3416
  0
ARC
  5
2E2
100
AcDbEntity
  8
00_COMPONENTS
100
AcDbCircle
 62
7
  6
BYLAYER
 10
137.7268858793
 20
140.0214746793
 40
12.7656746433
100
AcDbArc
 50
259.4554724591
 51
270.0266643818
  0
ARC
  5
2E3
100
AcDbEntity
  8
00_COMPONENTS
100
AcDbCircle
 62
7
  6
BYLAYER
 10
137.7315620343
 20
251.1972779982
 40
12.8164766422
100
AcDbArc
 50
259.4764828078
 51
270.00565408
  0
ARC
  5
2E4
100
AcDbEntity
  8
00_COMPONENTS
100
AcDbCircle
 62
7
  6
BYLAYER
 10
141.6555423358
 20
247.2094565913
 40
12.7580181336
100
AcDbArc
 50
179.970154398
 51
190.5477086248
  0
ARC
  5
2E5
100
AcDbEntity
  8
00_COMPONENTS
100
AcDbCircle
 62
7
  6
BYLAYER
 10
137.2795259331
 20
246.7628014184
 40
8.3820033322
100
AcDbArc
 50
193.0225415372
 51
256.9774584349
  0
ARC
  5
2E6
100
AcDbEntity
  8
00_COMPONENTS
100
AcDbCircle
 62
7
  6
BYLAYER
 10
137.2795259331
 20
246.7628014184
 40
6.858
100
AcDbArc
 50
180.0
 51
269.9999999993
  0
ARC
  5
2E7
100
AcDbEntity
  8
00_COMPONENTS
100
AcDbCircle
 62
7
  6
BYLAYER
 10
136.9093462474
 20
246.3930561044
 40
6.3538488846
100
AcDbArc
 50
0.0429290311
 51
89.9531705529
  0
ARC
  5
2E8
100
AcDbEntity
  8
00_COMPONENTS
100
AcDbCircle
 62
7
  6
BYLAYER
 10
137.2795259331
 20
246.7628014184
 40
6.35
100
AcDbArc
 50
0.0
 51
90.0
  0
ARC
  5
2E9
100
AcDbEntity
  8
00_COMPONENTS
100
AcDbCircle
 62
7
  6
BYLAYER
 10
137.2795259331
 20
246.7628014184
 40
5.3339767847
100
AcDbArc
 50
179.9981112773
 51
270.0018888663
  0
CIRCLE
  5
2EA
100
AcDbEntity
  8
00_COMPONENTS
100
AcDbCircle
 62
7
  6
BYLAYER
 10
137.2795259331
 20
246.7628014184
 40
2.9337
  0
CIRCLE
  5
2EB
100
AcDbEntity
  8
00_COMPONENTS
100
AcDbCircle
 62
7
  6
BYLAYER
 10
137.2795259331
 20
246.7628014184
 40
2.6722772711
  0
CIRCLE
  5
2EC
100
AcDbEntity
  8
00_COMPONENTS
100
AcDbCircle
 62
7
  6
BYLAYER
 10
137.2795259331
 20
246.7628014184
 40
2.5527
  0
ARC
  5
2ED
100
AcDbEntity
  8
00_COMPONENTS
100
AcDbCircle
 62
7
  6
BYLAYER
 10
137.2795259331
 20
246.7628014184
 40
2.3749
100
AcDbArc
 50
0.0
 51
358.9941017513
  0
CIRCLE
  5
2EE
100
AcDbEntity
  8
00_COMPONENTS
100
AcDbCircle
 62
7
  6
BYLAYER
 10
137.2795259331
 20
246.7628014184
 40
2.2479
  0
SPLINE
  5
2EF
100
AcDbEntity
  8
00_COMPONENTS
100
AcDbSpline
 62
7
  6
BYLAYER
 70
0
 71
3
 72
14
 73
10
 74
0
 42
0.0000001
 43
0.0000001
 44
0.0000000001
 40
0.0
 40
0.0
 40
0.0
 40
0.0
 40
0.3372137166
 40
0.5029354027
 40
0.653424189
 40
0.7796756761
 40
0.8777874888
 40
0.9481259808
 40
1.0
 40
1.0
 40
1.0
 40
1.0
 10
137.7328105129
 20
32.894801417
 30
0.0
 10
137.7328115611
 20
32.7075106658
 30
0.0
 10
137.7182782419
 20
32.4276827251
 30
0.0
 10
137.6637517333
 20
32.0686461698
 30
0.0
 10
137.6080123204
 20
31.8289404203
 30
0.0
 10
137.5383343468
 20
31.6321103667
 30
0.0
 10
137.4605371771
 20
31.487177222
 30
0.0
 10
137.3761088743
 20
31.3953091251
 30
0.0
 10
137.308355446
 20
31.3707778993
 30
0.0
 10
137.2795442694
 20
31.3707749206
 30
0.0
  0
SPLINE
  5
2F0
100
AcDbEntity
  8
00_COMPONENTS
100
AcDbSpline
 62
7
  6
BYLAYER
 70
0
 71
3
 72
15
 73
11
 74
0
 42
0.0000001
 43
0.0000001
 44
0.0000000001
 40
0.0
 40
0.0
 40
0.0
 40
0.0
 40
0.1572512812
 40
0.3001661988
 40
0.4236498187
 40
0.5331925496
 40
0.6391734431
 40
0.7501763079
 40
0.8702141529
 40
1.0
 40
1.0
 40
1.0
 40
1.0
 10
142.7368428264
 20
29.8468014179
 30
0.0
 10
142.7368891588
 20
30.1115807942
 30
0.0
 10
142.7064499075
 20
30.6177041879
 30
0.0
 10
142.5622696692
 20
31.3196403378
 30
0.0
 10
142.3060269265
 20
31.9059159101
 30
0.0
 10
141.9297079797
 20
32.3477894369
 30
0.0
 10
141.4531785103
 20
32.6374153698
 30
0.0
 10
140.9065996501
 20
32.8039045736
 30
0.0
 10
140.3025788025
 20
32.8830140945
 30
0.0
 10
139.8816308511
 20
32.8947912122
 30
0.0
 10
139.6630977119
 20
32.8948014184
 30
0.0
  0
SPLINE
  5
2F1
100
AcDbEntity
  8
00_COMPONENTS
100
AcDbSpline
 62
7
  6
BYLAYER
 70
0
 71
3
 72
13
 73
9
 74
0
 42
0.0000001
 43
0.0000001
 44
0.0000000001
 40
0.0
 40
0.0
 40
0.0
 40
0.0
 40
0.2996662044
 40
0.5911069188
 40
0.7173966185
 40
0.8263688773
 40
0.9188244635
 40
1.0
 40
1.0
 40
1.0
 40
1.0
 10
139.6631075143
 20
32.8948014184
 30
0.0
 10
139.6631070101
 20
32.7068133879
 30
0.0
 10
139.6263787475
 20
32.3354816865
 30
0.0
 10
139.483492421
 20
31.9014342467
 30
0.0
 10
139.3016916359
 20
31.6233526064
 30
0.0
 10
139.1544080477
 20
31.4769298708
 30
0.0
 10
138.9967013775
 20
31.3902685305
 30
0.0
 10
138.8871196284
 20
31.3708061159
 30
0.0
 10
138.8361962042
 20
31.3708057944
 30
0.0
  0
SPLINE
  5
2F2
100
AcDbEntity
  8
00_COMPONENTS
100
AcDbSpline
 62
7
  6
BYLAYER
 70
0
 71
3
 72
14
 73
10
 74
0
 42
0.0000001
 43
0.0000001
 44
0.0000000001
 40
0.0
 40
0.0
 40
0.0
 40
0.0
 40
0.2588676266
 40
0.3830707852
 40
0.502887959
 40
0.6190612554
 40
0.7364827319
 40
0.8632872664
 40
1.0
 40
1.0
 40
1.0
 40
1.0
 10
138.8361960412
 20
31.3708014184
 30
0.0
 10
139.123503828
 20
31.3707983318
 30
0.0
 10
139.5496064134
 20
31.3601428298
 30
0.0
 10
140.1030273546
 20
31.2812455943
 30
0.0
 10
140.4898621061
 20
31.1741922544
 30
0.0
 10
140.8417818323
 20
30.9900604966
 30
0.0
 10
141.1217244871
 20
30.6916177586
 30
0.0
 10
141.2828289715
 20
30.2924201334
 30
0.0
 10
141.3149999228
 20
29.9985339202
 30
0.0
 10
141.3150195349
 20
29.8468014184
 30
0.0
  0
SPLINE
  5
2F3
100
AcDbEntity
  8
00_COMPONENTS
100
AcDbSpline
 62
7
  6
BYLAYER
 70
0
 71
3
 72
11
 73
7
 74
0
 42
0.0000001
 43
0.0000001
 44
0.0000000001
 40
0.0
 40
0.0
 40
0.0
 40
0.0
 40
0.2504986243
 40
0.5003243027
 40
0.7499942528
 40
1.0
 40
1.0
 40
1.0
 40
1.0
 10
141.3149428779
 20
24.9798244962
 30
0.0
 10
141.3147549412
 20
24.3923417863
 30
0.0
 10
141.0858141385
 20
23.2055191857
 30
0.0
 10
140.0846025944
 20
21.7042610801
 30
0.0
 10
138.5831435598
 20
20.7057004586
 30
0.0
 10
137.397902756
 20
20.4776388249
 30
0.0
 10
136.8115759381
 20
20.4776127028
 30
0.0
  0
SPLINE
  5
2F4
100
AcDbEntity
  8
00_COMPONENTS
100
AcDbSpline
 62
7
  6
BYLAYER
 70
0
 71
3
 72
15
 73
11
 74
0
 42
0.0000001
 43
0.0000001
 44
0.0000000001
 40
0.0
 40
0.0
 40
0.0
 40
0.0
 40
0.1249894798
 40
0.2499985575
 40
0.3749858082
 40
0.4999846349
 40
0.6249451872
 40
0.7499002054
 40
0.8749391324
 40
1.0
 40
1.0
 40
1.0
 40
1.0
 10
136.8116157653
 20
19.0555625189
 30
0.0
 10
137.1983473117
 20
19.0612446471
 30
0.0
 10
137.9733325218
 20
19.1375345722
 30
0.0
 10
139.0907643674
 20
19.47687172
 30
0.0
 10
140.1207438336
 20
20.0272319113
 30
0.0
 10
141.0241849485
 20
20.7672176245
 30
0.0
 10
141.7642320398
 20
21.6703295004
 30
0.0
 10
142.3159740991
 20
22.6995203552
 30
0.0
 10
142.6537190878
 20
23.8178459951
 30
0.0
 10
142.7297496773
 20
24.5928965092
 30
0.0
 10
142.7368489506
 20
24.9798255797
 30
0.0
  0
SPLINE
  5
2F5
100
AcDbEntity
  8
00_COMPONENTS
100
AcDbSpline
 62
7
  6
BYLAYER
 70
0
 71
3
 72
11
 73
7
 74
0
 42
0.0000001
 43
0.0000001
 44
0.0000000001
 40
0.0
 40
0.0
 40
0.0
 40
0.0
 40
0.0808208579
 40
0.2750829329
 40
0.5822226974
 40
1.0
 40
1.0
 40
1.0
 40
1.0
 10
136.9145402995
 20
18.5287541878
 30
0.0
 10
136.9104028666
 20
18.542606429
 30
0.0
 10
136.9013872338
 20
18.5911007962
 30
0.0
 10
136.8831197673
 20
18.6935302674
 30
0.0
 10
136.8525864568
 20
18.8551519147
 30
0.0
 10
136.8262977179
 20
18.9821155058
 30
0.0
 10
136.8115986724
 20
19.055386085
 30
0.0
  0
SPLINE
  5
2F6
100
AcDbEntity
  8
00_COMPONENTS
100
AcDbSpline
 62
7
  6
BYLAYER
 70
0
 71
3
 72
15
 73
11
 74
0
 42
0.0000001
 43
0.0000001
 44
0.0000000001
 40
0.0
 40
0.0
 40
0.0
 40
0.0
 40
0.1572500887
 40
0.3001652895
 40
0.4236503564
 40
0.5331920731
 40
0.6391728958
 40
0.7501757375
 40
0.8702137034
 40
1.0
 40
1.0
 40
1.0
 40
1.0
 10
131.9455259334
 20
19.0554372945
 30
0.0
 10
131.6807484446
 20
19.0553884667
 30
0.0
 10
131.1746296662
 20
19.0858939597
 30
0.0
 10
130.4726943281
 20
19.2300568876
 30
0.0
 10
129.8864082231
 20
19.4862896207
 30
0.0
 10
129.4445478907
 20
19.8626236775
 30
0.0
 10
129.1549105377
 20
20.3391426641
 30
0.0
 10
128.9884259676
 20
20.8857250961
 30
0.0
 10
128.9093203759
 20
21.4897466279
 30
0.0
 10
128.8975351815
 20
21.9106956452
 30
0.0
 10
128.8975259331
 20
22.129229641
 30
0.0
  0
SPLINE
  5
2F7
100
AcDbEntity
  8
00_COMPONENTS
100
AcDbSpline
 62
7
  6
BYLAYER
 70
0
 71
3
 72
13
 73
9
 74
0
 42
0.0000001
 43
0.0000001
 44
0.0000000001
 40
0.0
 40
0.0
 40
0.0
 40
0.0
 40
0.29966607
 40
0.5911067042
 40
0.7173964188
 40
0.8263687287
 40
0.9188243904
 40
1.0
 40
1.0
 40
1.0
 40
1.0
 10
128.8975259332
 20
22.1292159129
 30
0.0
 10
129.0855139101
 20
22.1292165297
 30
0.0
 10
129.4568455183
 20
22.1659450345
 30
0.0
 10
129.8908927913
 20
22.3088316987
 30
0.0
 10
130.1689743344
 20
22.4906327117
 30
0.0
 10
130.315397071
 20
22.6379164667
 30
0.0
 10
130.4020584597
 20
22.795623277
 30
0.0
 10
130.4215209518
 20
22.905205119
 30
0.0
 10
130.4215213126
 20
22.9561285974
 30
0.0
  0
SPLINE
  5
2F8
100
AcDbEntity
  8
00_COMPONENTS
100
AcDbSpline
 62
7
  6
BYLAYER
 70
0
 71
3
 72
14
 73
10
 74
0
 42
0.0000001
 43
0.0000001
 44
0.0000000001
 40
0.0
 40
0.0
 40
0.0
 40
0.0
 40
0.1367129046
 40
0.2635163136
 40
0.3809385412
 40
0.4971127762
 40
0.6169262573
 40
0.7411322559
 40
1.0
 40
1.0
 40
1.0
 40
1.0
 10
131.9455259331
 20
20.4773078166
 30
0.0
 10
131.7937929709
 20
20.4773280626
 30
0.0
 10
131.499909518
 20
20.5094958526
 30
0.0
 10
131.1006984176
 20
20.670578934
 30
0.0
 10
130.8022749747
 20
20.9505479014
 30
0.0
 10
130.6181473379
 20
21.3024628454
 30
0.0
 10
130.511068651
 20
21.6892925606
 30
0.0
 10
130.4321950192
 20
22.2427179735
 30
0.0
 10
130.4215287678
 20
22.6688228803
 30
0.0
 10
130.4215259331
 20
22.9561313104
 30
0.0
  0
SPLINE
  5
2F9
100
AcDbEntity
  8
00_COMPONENTS
100
AcDbSpline
 62
7
  6
BYLAYER
 70
0
 71
3
 72
14
 73
10
 74
0
 42
0.0000001
 43
0.0000001
 44
0.0000000001
 40
0.0
 40
0.0
 40
0.0
 40
0.0
 40
0.3372140411
 40
0.5029358378
 40
0.6534246669
 40
0.7796761146
 40
0.8777878104
 40
0.948126132
 40
1.0
 40
1.0
 40
1.0
 40
1.0
 10
128.8975259346
 20
24.0595267329
 30
0.0
 10
129.084816764
 20
24.0595254918
 30
0.0
 10
129.3646448077
 20
24.0740584863
 30
0.0
 10
129.7236815034
 20
24.1285845205
 30
0.0
 10
129.9633872639
 20
24.184323567
 30
0.0
 10
130.1602172585
 20
24.2540011849
 30
0.0
 10
130.3051502704
 20
24.3317980167
 30
0.0
 10
130.3970182333
 20
24.4162260377
 30
0.0
 10
130.421549275
 20
24.4839793297
 30
0.0
 10
130.4215521643
 20
24.5127904067
 30
0.0
  0
SPLINE
  5
2FA
100
AcDbEntity
  8
00_COMPONENTS
100
AcDbSpline
 62
7
  6
BYLAYER
 70
0
 71
3
 72
15
 73
11
 74
0
 42
0.0000001
 43
0.0000001
 44
0.0000000001
 40
0.0
 40
0.0
 40
0.0
 40
0.0
 40
0.1572501592
 40
0.3001668418
 40
0.4236516457
 40
0.5331857365
 40
0.6391653991
 40
0.7501765796
 40
0.8702129194
 40
1.0
 40
1.0
 40
1.0
 40
1.0
 10
142.7368388449
 20
140.9718014182
 30
0.0
 10
142.7373410452
 20
141.2365778415
 30
0.0
 10
142.7062686356
 20
141.7427044508
 30
0.0
 10
142.5623125744
 20
142.4446347689
 30
0.0
 10
142.3060640436
 20
143.0309258747
 30
0.0
 10
141.9296577632
 20
143.4727163958
 30
0.0
 10
141.4531466753
 20
143.7622690405
 30
0.0
 10
140.9066692776
 20
143.9292564471
 30
0.0
 10
140.3025579948
 20
144.0075635234
 30
0.0
 10
139.8816315183
 20
144.0204358852
 30
0.0
 10
139.6630977111
 20
144.0198014184
 30
0.0
  0
SPLINE
  5
2FB
100
AcDbEntity
  8
00_COMPONENTS
100
AcDbSpline
 62
7
  6
BYLAYER
 70
0
 71
3
 72
14
 73
10
 74
0
 42
0.0000001
 43
0.0000001
 44
0.0000000001
 40
0.0
 40
0.0
 40
0.0
 40
0.0
 40
0.3372137166
 40
0.5029354027
 40
0.653424189
 40
0.7796756761
 40
0.8777874888
 40
0.9481259808
 40
1.0
 40
1.0
 40
1.0
 40
1.0
 10
57.4512413533
 20
238.3808014199
 30
0.0
 10
57.4512403051
 20
238.5680921711
 30
0.0
 10
57.4657736243
 20
238.8479201117
 30
0.0
 10
57.5203001329
 20
239.2069566671
 30
0.0
 10
57.5760395458
 20
239.4466624165
 30
0.0
 10
57.6457175194
 20
239.6434924701
 30
0.0
 10
57.7235146891
 20
239.7884256149
 30
0.0
 10
57.8079429919
 20
239.8802937118
 30
0.0
 10
57.8756964201
 20
239.9048249376
 30
0.0
 10
57.9045075968
 20
239.9048279162
 30
0.0
  0
SPLINE
  5
2FC
100
AcDbEntity
  8
00_COMPONENTS
100
AcDbSpline
 62
7
  6
BYLAYER
 70
0
 71
3
 72
15
 73
11
 74
0
 42
0.0000001
 43
0.0000001
 44
0.0000000001
 40
0.0
 40
0.0
 40
0.0
 40
0.0
 40
0.1572512812
 40
0.3001661988
 40
0.4236498187
 40
0.5331925496
 40
0.6391734431
 40
0.7501763079
 40
0.8702141529
 40
1.0
 40
1.0
 40
1.0
 40
1.0
 10
52.4472090397
 20
241.4288014189
 30
0.0
 10
52.4471627073
 20
241.1640220427
 30
0.0
 10
52.4776019587
 20
240.657898649
 30
0.0
 10
52.621782197
 20
239.9559624991
 30
0.0
 10
52.8780249397
 20
239.3696869268
 30
0.0
 10
53.2543438865
 20
238.9278134
 30
0.0
 10
53.7308733558
 20
238.6381874671
 30
0.0
 10
54.2774522161
 20
238.4716982633
 30
0.0
 10
54.8814730637
 20
238.3925887424
 30
0.0
 10
55.3024210151
 20
238.3808116247
 30
0.0
 10
55.5209541542
 20
238.3808014184
 30
0.0
  0
SPLINE
  5
2FD
100
AcDbEntity
  8
00_COMPONENTS
100
AcDbSpline
 62
7
  6
BYLAYER
 70
0
 71
3
 72
15
 73
11
 74
0
 42
0.0000001
 43
0.0000001
 44
0.0000000001
 40
0.0
 40
0.0
 40
0.0
 40
0.0
 40
0.1249894798
 40
0.2499985575
 40
0.3749858082
 40
0.4999846349
 40
0.6249451872
 40
0.7499002054
 40
0.8749391324
 40
1.0
 40
1.0
 40
1.0
 40
1.0
 10
142.7367648326
 20
246.2948912506
 30
0.0
 10
142.7310827045
 20
246.6816227973
 30
0.0
 10
142.6547927793
 20
247.4566080079
 30
0.0
 10
142.3154556309
 20
248.5740398542
 30
0.0
 10
141.765095439
 20
249.604019321
 30
0.0
 10
141.0251097249
 20
250.5074604361
 30
0.0
 10
140.121997848
 20
251.2475075274
 30
0.0
 10
139.092806992
 20
251.7992495863
 30
0.0
 10
137.9744813511
 20
252.1369945743
 30
0.0
 10
137.1994308364
 20
252.2130251631
 30
0.0
 10
136.8125017657
 20
252.2201244362
 30
0.0
  0
SPLINE
  5
2FE
100
AcDbEntity
  8
00_COMPONENTS
100
AcDbSpline
 62
7
  6
BYLAYER
 70
0
 71
3
 72
11
 73
7
 74
0
 42
0.0000001
 43
0.0000001
 44
0.0000000001
 40
0.0
 40
0.0
 40
0.0
 40
0.0
 40
0.0808208579
 40
0.2750829329
 40
0.5822226974
 40
1.0
 40
1.0
 40
1.0
 40
1.0
 10
143.2635731637
 20
246.3978157848
 30
0.0
 10
143.2497209225
 20
246.3936783519
 30
0.0
 10
143.2012265553
 20
246.3846627191
 30
0.0
 10
143.0987970841
 20
246.3663952526
 30
0.0
 10
142.9371754368
 20
246.3358619421
 30
0.0
 10
142.8102118457
 20
246.3095732032
 30
0.0
 10
142.7369412665
 20
246.2948741577
 30
0.0
  0
SPLINE
  5
2FF
100
AcDbEntity
  8
00_COMPONENTS
100
AcDbSpline
 62
7
  6
BYLAYER
 70
0
 71
3
 72
11
 73
7
 74
0
 42
0.0000001
 43
0.0000001
 44
0.0000000001
 40
0.0
 40
0.0
 40
0.0
 40
0.0
 40
0.2504986243
 40
0.5003243027
 40
0.7499942528
 40
1.0
 40
1.0
 40
1.0
 40
1.0
 10
136.8125028553
 20
250.7982183632
 30
0.0
 10
137.3999855652
 20
250.7980304266
 30
0.0
 10
138.5868081659
 20
250.5690896238
 30
0.0
 10
140.0880662714
 20
249.5678780798
 30
0.0
 10
141.0866268929
 20
248.0664190451
 30
0.0
 10
141.3146885266
 20
246.8811782413
 30
0.0
 10
141.3147146487
 20
246.2948514235
 30
0.0
  0
SPLINE
  5
300
100
AcDbEntity
  8
00_COMPONENTS
100
AcDbSpline
 62
7
  6
BYLAYER
 70
0
 71
3
 72
14
 73
10
 74
0
 42
0.0000001
 43
0.0000001
 44
0.0000000001
 40
0.0
 40
0.0
 40
0.0
 40
0.0
 40
0.2588676266
 40
0.3830707852
 40
0.502887959
 40
0.6190612554
 40
0.7364827319
 40
0.8632872664
 40
1.0
 40
1.0
 40
1.0
 40
1.0
 10
130.4215259331
 20
248.3194715265
 30
0.0
 10
130.4215290198
 20
248.6067793134
 30
0.0
 10
130.4321845217
 20
249.0328818988
 30
0.0
 10
130.5110817572
 20
249.58630284
 30
0.0
 10
130.6181350972
 20
249.9731375914
 30
0.0
 10
130.8022668549
 20
250.3250573176
 30
0.0
 10
131.100709593
 20
250.6049999724
 30
0.0
 10
131.4999072181
 20
250.7661044569
 30
0.0
 10
131.7937934314
 20
250.7982754081
 30
0.0
 10
131.9455259331
 20
250.7982950202
 30
0.0
  0
SPLINE
  5
301
100
AcDbEntity
  8
00_COMPONENTS
100
AcDbSpline
 62
7
  6
BYLAYER
 70
0
 71
3
 72
15
 73
11
 74
0
 42
0.0000001
 43
0.0000001
 44
0.0000000001
 40
0.0
 40
0.0
 40
0.0
 40
0.0
 40
0.1572501592
 40
0.3001668418
 40
0.4236516457
 40
0.5331857365
 40
0.6391653991
 40
0.7501765796
 40
0.8702129194
 40
1.0
 40
1.0
 40
1.0
 40
1.0
 10
52.4472130212
 20
130.3038014186
 30
0.0
 10
52.446710821
 20
130.0390249954
 30
0.0
 10
52.4777832305
 20
129.5328983861
 30
0.0
 10
52.6217392917
 20
128.830968068
 30
0.0
 10
52.8779878225
 20
128.2446769621
 30
0.0
 10
53.254394103
 20
127.802886441
 30
0.0
 10
53.7309051908
 20
127.5133337964
 30
0.0
 10
54.2773825885
 20
127.3463463898
 30
0.0
 10
54.8814938714
 20
127.2680393135
 30
0.0
 10
55.3024203479
 20
127.2551669517
 30
0.0
 10
55.5209541551
 20
127.2558014184
 30
0.0
  0
SPLINE
  5
302
100
AcDbEntity
  8
00_COMPONENTS
100
AcDbSpline
 62
7
  6
BYLAYER
 70
0
 71
3
 72
14
 73
10
 74
0
 42
0.0000001
 43
0.0000001
 44
0.0000000001
 40
0.0
 40
0.0
 40
0.0
 40
0.0
 40
0.1367129046
 40
0.2635163136
 40
0.3809385412
 40
0.4971127762
 40
0.6169262573
 40
0.7411322559
 40
1.0
 40
1.0
 40
1.0
 40
1.0
 10
141.3150195349
 20
241.4288014184
 30
0.0
 10
141.3149992889
 20
241.2770684563
 30
0.0
 10
141.2828314989
 20
240.9831850033
 30
0.0
 10
141.1217484175
 20
240.583973903
 30
0.0
 10
140.8417794502
 20
240.2855504601
 30
0.0
 10
140.4898645062
 20
240.1014228233
 30
0.0
 10
140.1030347909
 20
239.9943441363
 30
0.0
 10
139.549609378
 20
239.9154705046
 30
0.0
 10
139.1235044712
 20
239.9048042532
 30
0.0
 10
138.8361960412
 20
239.9048014184
 30
0.0
  0
SPLINE
  5
303
100
AcDbEntity
  8
00_COMPONENTS
100
AcDbSpline
 62
7
  6
BYLAYER
 70
0
 71
3
 72
15
 73
11
 74
0
 42
0.0000001
 43
0.0000001
 44
0.0000000001
 40
0.0
 40
0.0
 40
0.0
 40
0.0
 40
0.1572500887
 40
0.3001652895
 40
0.4236503564
 40
0.5331920731
 40
0.6391728958
 40
0.7501757375
 40
0.8702137034
 40
1.0
 40
1.0
 40
1.0
 40
1.0
 10
142.736890057
 20
241.4288014187
 30
0.0
 10
142.7369388849
 20
241.1640239299
 30
0.0
 10
142.7064333918
 20
240.6579051515
 30
0.0
 10
142.5622704639
 20
239.9559698135
 30
0.0
 10
142.3060377308
 20
239.3696837084
 30
0.0
 10
141.929703674
 20
238.927823376
 30
0.0
 10
141.4531846874
 20
238.6381860231
 30
0.0
 10
140.9066022555
 20
238.4717014529
 30
0.0
 10
140.3025807236
 20
238.3925958612
 30
0.0
 10
139.8816317064
 20
238.3808106669
 30
0.0
 10
139.6630977105
 20
238.3808014184
 30
0.0
  0
SPLINE
  5
304
100
AcDbEntity
  8
00_COMPONENTS
100
AcDbSpline
 62
7
  6
BYLAYER
 70
0
 71
3
 72
13
 73
9
 74
0
 42
0.0000001
 43
0.0000001
 44
0.0000000001
 40
0.0
 40
0.0
 40
0.0
 40
0.0
 40
0.2996660842
 40
0.5911067245
 40
0.7173964359
 40
0.8263687393
 40
0.9188243942
 40
1.0
 40
1.0
 40
1.0
 40
1.0
 10
139.6631114387
 20
238.3808014185
 30
0.0
 10
139.6631108219
 20
238.5687894179
 30
0.0
 10
139.6263823088
 20
238.9401210657
 30
0.0
 10
139.4834956129
 20
239.3741683774
 30
0.0
 10
139.3016945601
 20
239.6522499214
 30
0.0
 10
139.154410779
 20
239.7986726401
 30
0.0
 10
138.9967039452
 20
239.8853339931
 30
0.0
 10
138.8871220955
 20
239.9047964532
 30
0.0
 10
138.8361986159
 20
239.904796798
 30
0.0
  0
SPLINE
  5
305
100
AcDbEntity
  8
00_COMPONENTS
100
AcDbSpline
 62
7
  6
BYLAYER
 70
0
 71
3
 72
14
 73
10
 74
0
 42
0.0000001
 43
0.0000001
 44
0.0000000001
 40
0.0
 40
0.0
 40
0.0
 40
0.0
 40
0.3372139907
 40
0.5029357749
 40
0.6534246106
 40
0.779676088
 40
0.8777878242
 40
0.9481261702
 40
1.0
 40
1.0
 40
1.0
 40
1.0
 10
137.7328001887
 20
238.3808014199
 30
0.0
 10
137.7328014063
 20
238.5680921744
 30
0.0
 10
137.7182684087
 20
238.8479201088
 30
0.0
 10
137.6637424645
 20
239.2069566934
 30
0.0
 10
137.6080035213
 20
239.4466624264
 30
0.0
 10
137.5383260494
 20
239.6434924578
 30
0.0
 10
137.4605293819
 20
239.7884255678
 30
0.0
 10
137.3761015856
 20
239.8802936804
 30
0.0
 10
137.3083484129
 20
239.9048249553
 30
0.0
 10
137.2795373643
 20
239.9048279351
 30
0.0
  0
SPLINE
  5
306
100
AcDbEntity
  8
00_COMPONENTS
100
AcDbSpline
 62
7
  6
BYLAYER
 70
0
 71
3
 72
13
 73
9
 74
0
 42
0.0000001
 43
0.0000001
 44
0.0000000001
 40
0.0
 40
0.0
 40
0.0
 40
0.0
 40
0.2996661901
 40
0.5911068984
 40
0.7173966014
 40
0.8263688667
 40
0.9188244596
 40
1.0
 40
1.0
 40
1.0
 40
1.0
 10
128.8975259332
 20
249.1463829994
 30
0.0
 10
129.0855139411
 20
249.1463824951
 30
0.0
 10
129.456845603
 20
249.1096542408
 30
0.0
 10
129.890893004
 20
248.966767946
 30
0.0
 10
130.1689746434
 20
248.7849672008
 30
0.0
 10
130.315397397
 20
248.6376836387
 30
0.0
 10
130.402058773
 20
248.479976992
 30
0.0
 10
130.4215212195
 20
248.3703952505
 30
0.0
 10
130.4215215571
 20
248.3194718276
 30
0.0
  0
SPLINE
  5
307
100
AcDbEntity
  8
00_COMPONENTS
100
AcDbSpline
 62
7
  6
BYLAYER
 70
0
 71
3
 72
15
 73
11
 74
0
 42
0.0000001
 43
0.0000001
 44
0.0000000001
 40
0.0
 40
0.0
 40
0.0
 40
0.0
 40
0.1572512812
 40
0.3001661988
 40
0.4236498187
 40
0.5331925496
 40
0.6391734431
 40
0.7501763079
 40
0.8702141529
 40
1.0
 40
1.0
 40
1.0
 40
1.0
 10
131.9455259336
 20
252.2201183118
 30
0.0
 10
131.6807465573
 20
252.2201646442
 30
0.0
 10
131.1746231636
 20
252.1897253929
 30
0.0
 10
130.4726870137
 20
252.0455451546
 30
0.0
 10
129.8864114414
 20
251.7893024118
 30
0.0
 10
129.4445379146
 20
251.4129834651
 30
0.0
 10
129.1549119818
 20
250.9364539957
 30
0.0
 10
128.988422778
 20
250.3898751354
 30
0.0
 10
128.9093132571
 20
249.7858542878
 30
0.0
 10
128.8975361393
 20
249.3649063364
 30
0.0
 10
128.8975259331
 20
249.1463731973
 30
0.0
  0
SPLINE
  5
308
100
AcDbEntity
  8
00_COMPONENTS
100
AcDbSpline
 62
7
  6
BYLAYER
 70
0
 71
3
 72
14
 73
10
 74
0
 42
0.0000001
 43
0.0000001
 44
0.0000000001
 40
0.0
 40
0.0
 40
0.0
 40
0.0
 40
0.3372140411
 40
0.5029358378
 40
0.6534246669
 40
0.7796761146
 40
0.8777878104
 40
0.948126132
 40
1.0
 40
1.0
 40
1.0
 40
1.0
 10
66.2865259316
 20
247.216076104
 30
0.0
 10
66.0992351022
 20
247.2160773451
 30
0.0
 10
65.8194070585
 20
247.2015443506
 30
0.0
 10
65.4603703628
 20
247.1470183164
 30
0.0
 10
65.2206646022
 20
247.0912792699
 30
0.0
 10
65.0238346077
 20
247.021601652
 30
0.0
 10
64.8789015958
 20
246.9438048202
 30
0.0
 10
64.7870336328
 20
246.8593767992
 30
0.0
 10
64.7625025912
 20
246.7916235072
 30
0.0
 10
64.7624997019
 20
246.7628124302
 30
0.0
  0
SPLINE
  5
309
100
AcDbEntity
  8
00_COMPONENTS
100
AcDbSpline
 62
7
  6
BYLAYER
 70
0
 71
3
 72
14
 73
10
 74
0
 42
0.0000001
 43
0.0000001
 44
0.0000000001
 40
0.0
 40
0.0
 40
0.0
 40
0.0
 40
0.1367129046
 40
0.2635163136
 40
0.3809385412
 40
0.4971127762
 40
0.6169262573
 40
0.7411322559
 40
1.0
 40
1.0
 40
1.0
 40
1.0
 10
63.2385259331
 20
250.7982950202
 30
0.0
 10
63.3902588953
 20
250.7982747743
 30
0.0
 10
63.6841423482
 20
250.7661069842
 30
0.0
 10
64.0833534486
 20
250.6050239028
 30
0.0
 10
64.3817768915
 20
250.3250549355
 30
0.0
 10
64.5659045283
 20
249.9731399915
 30
0.0
 10
64.6729832152
 20
249.5863102762
 30
0.0
 10
64.7518568469
 20
249.0328848634
 30
0.0
 10
64.7625230983
 20
248.6067799565
 30
0.0
 10
64.7625259331
 20
248.3194715265
 30
0.0
  0
SPLINE
  5
30A
100
AcDbEntity
  8
00_COMPONENTS
100
AcDbSpline
 62
7
  6
BYLAYER
 70
0
 71
3
 72
15
 73
11
 74
0
 42
0.0000001
 43
0.0000001
 44
0.0000000001
 40
0.0
 40
0.0
 40
0.0
 40
0.0
 40
0.1572500887
 40
0.3001652895
 40
0.4236503564
 40
0.5331920731
 40
0.6391728958
 40
0.7501757375
 40
0.8702137034
 40
1.0
 40
1.0
 40
1.0
 40
1.0
 10
63.2385259328
 20
252.2201655424
 30
0.0
 10
63.5033034216
 20
252.2202143702
 30
0.0
 10
64.0094222
 20
252.1897088772
 30
0.0
 10
64.7113575381
 20
252.0455459493
 30
0.0
 10
65.2976436431
 20
251.7893132162
 30
0.0
 10
65.7395039755
 20
251.4129791594
 30
0.0
 10
66.0291413284
 20
250.9364601728
 30
0.0
 10
66.1956258986
 20
250.3898777408
 30
0.0
 10
66.2747314903
 20
249.7858562089
 30
0.0
 10
66.2865166846
 20
249.3649071917
 30
0.0
 10
66.2865259331
 20
249.1463731958
 30
0.0
  0
SPLINE
  5
30B
100
AcDbEntity
  8
00_COMPONENTS
100
AcDbSpline
 62
7
  6
BYLAYER
 70
0
 71
3
 72
13
 73
9
 74
0
 42
0.0000001
 43
0.0000001
 44
0.0000000001
 40
0.0
 40
0.0
 40
0.0
 40
0.0
 40
0.29966607
 40
0.5911067042
 40
0.7173964188
 40
0.8263687287
 40
0.9188243904
 40
1.0
 40
1.0
 40
1.0
 40
1.0
 10
66.286525933
 20
249.146386924
 30
0.0
 10
66.0985379561
 20
249.1463863072
 30
0.0
 10
65.7272063479
 20
249.1096578024
 30
0.0
 10
65.2931590749
 20
248.9667711382
 30
0.0
 10
65.0150775317
 20
248.7849701252
 30
0.0
 10
64.8686547951
 20
248.6376863702
 30
0.0
 10
64.7819934064
 20
248.4799795599
 30
0.0
 10
64.7625309144
 20
248.3703977178
 30
0.0
 10
64.7625305536
 20
248.3194742395
 30
0.0
  0
SPLINE
  5
30C
100
AcDbEntity
  8
00_COMPONENTS
100
AcDbSpline
 62
7
  6
BYLAYER
 70
0
 71
3
 72
14
 73
10
 74
0
 42
0.0000001
 43
0.0000001
 44
0.0000000001
 40
0.0
 40
0.0
 40
0.0
 40
0.0
 40
0.2588676266
 40
0.3830707852
 40
0.502887959
 40
0.6190612554
 40
0.7364827319
 40
0.8632872664
 40
1.0
 40
1.0
 40
1.0
 40
1.0
 10
56.347855825
 20
239.9048014184
 30
0.0
 10
56.0605480382
 20
239.9048045051
 30
0.0
 10
55.6344454527
 20
239.915460007
 30
0.0
 10
55.0810245115
 20
239.9943572426
 30
0.0
 10
54.6941897601
 20
240.1014105825
 30
0.0
 10
54.3422700339
 20
240.2855423403
 30
0.0
 10
54.0623273791
 20
240.5839850783
 30
0.0
 10
53.9012228947
 20
240.9831827035
 30
0.0
 10
53.8690519434
 20
241.2770689167
 30
0.0
 10
53.8690323313
 20
241.4288014184
 30
0.0
  0
SPLINE
  5
30D
100
AcDbEntity
  8
00_COMPONENTS
100
AcDbSpline
 62
7
  6
BYLAYER
 70
0
 71
3
 72
13
 73
9
 74
0
 42
0.0000001
 43
0.0000001
 44
0.0000000001
 40
0.0
 40
0.0
 40
0.0
 40
0.0
 40
0.2996662044
 40
0.5911069188
 40
0.7173966185
 40
0.8263688773
 40
0.9188244635
 40
1.0
 40
1.0
 40
1.0
 40
1.0
 10
55.5209443518
 20
238.3808014185
 30
0.0
 10
55.5209448561
 20
238.568789449
 30
0.0
 10
55.5576731187
 20
238.9401211504
 30
0.0
 10
55.7005594452
 20
239.3741685902
 30
0.0
 10
55.8823602303
 20
239.6522502304
 30
0.0
 10
56.0296438185
 20
239.7986729661
 30
0.0
 10
56.1873504887
 20
239.8853343063
 30
0.0
 10
56.2969322378
 20
239.9047967209
 30
0.0
 10
56.3478556619
 20
239.9047970425
 30
0.0
  0
SPLINE
  5
30E
100
AcDbEntity
  8
00_COMPONENTS
100
AcDbSpline
 62
7
  6
BYLAYER
 70
0
 71
3
 72
11
 73
7
 74
0
 42
0.0000001
 43
0.0000001
 44
0.0000000001
 40
0.0
 40
0.0
 40
0.0
 40
0.0
 40
0.2504986243
 40
0.5003243027
 40
0.7499942528
 40
1.0
 40
1.0
 40
1.0
 40
1.0
 10
53.8691089883
 20
246.2957783406
 30
0.0
 10
53.869296925
 20
246.8832610506
 30
0.0
 10
54.0982377277
 20
248.0700836512
 30
0.0
 10
55.0994492717
 20
249.5713417568
 30
0.0
 10
56.6009083064
 20
250.5699023783
 30
0.0
 10
57.7861491102
 20
250.7979640119
 30
0.0
 10
58.3724759281
 20
250.7979901341
 30
0.0
  0
SPLINE
  5
30F
100
AcDbEntity
  8
00_COMPONENTS
100
AcDbSpline
 62
7
  6
BYLAYER
 70
0
 71
3
 72
15
 73
11
 74
0
 42
0.0000001
 43
0.0000001
 44
0.0000000001
 40
0.0
 40
0.0
 40
0.0
 40
0.0
 40
0.1249894798
 40
0.2499985575
 40
0.3749858082
 40
0.4999846349
 40
0.6249451872
 40
0.7499002054
 40
0.8749391324
 40
1.0
 40
1.0
 40
1.0
 40
1.0
 10
58.3724361009
 20
252.220040318
 30
0.0
 10
57.9857045544
 20
252.2143581898
 30
0.0
 10
57.2107193442
 20
252.1380682647
 30
0.0
 10
56.0932874984
 20
251.7987311167
 30
0.0
 10
55.0633080321
 20
251.2483709253
 30
0.0
 10
54.1598669172
 20
250.5083852119
 30
0.0
 10
53.4198198258
 20
249.6052733358
 30
0.0
 10
52.8680777667
 20
248.5760824806
 30
0.0
 10
52.5303327781
 20
247.4577568406
 30
0.0
 10
52.4543021888
 20
246.6827063262
 30
0.0
 10
52.4472029155
 20
246.2957772557
 30
0.0
  0
SPLINE
  5
310
100
AcDbEntity
  8
00_COMPONENTS
100
AcDbSpline
 62
7
  6
BYLAYER
 70
0
 71
3
 72
11
 73
7
 74
0
 42
0.0000001
 43
0.0000001
 44
0.0000000001
 40
0.0
 40
0.0
 40
0.0
 40
0.0
 40
0.0808208579
 40
0.2750829329
 40
0.5822226974
 40
1.0
 40
1.0
 40
1.0
 40
1.0
 10
58.2695115667
 20
252.7468486491
 30
0.0
 10
58.2736489996
 20
252.7329964079
 30
0.0
 10
58.2826646324
 20
252.6845020407
 30
0.0
 10
58.3009320989
 20
252.5820725695
 30
0.0
 10
58.3314654094
 20
252.4204509223
 30
0.0
 10
58.3577541483
 20
252.2934873312
 30
0.0
 10
58.3724531938
 20
252.220216752
 30
0.0
  0
SPLINE
  5
311
100
AcDbEntity
  8
00_COMPONENTS
100
AcDbSpline
 62
7
  6
BYLAYER
 70
0
 71
3
 72
14
 73
10
 74
0
 42
0.0000001
 43
0.0000001
 44
0.0000000001
 40
0.0
 40
0.0
 40
0.0
 40
0.0
 40
0.0518739847
 40
0.1222121136
 40
0.2203233707
 40
0.3465743543
 40
0.4970629148
 40
0.6627847637
 40
1.0
 40
1.0
 40
1.0
 40
1.0
 10
57.904508233
 20
142.4957803422
 30
0.0
 10
57.8756971206
 20
142.4957830584
 30
0.0
 10
57.8079437213
 20
142.5203132447
 30
0.0
 10
57.7235148518
 20
142.6121799227
 30
0.0
 10
57.6457170722
 20
142.7571115669
 30
0.0
 10
57.5760383133
 20
142.9539402524
 30
0.0
 10
57.5202980146
 20
143.1936450848
 30
0.0
 10
57.465770216
 20
143.5526816931
 30
0.0
 10
57.4512362143
 20
143.8325101159
 30
0.0
 10
57.4512368908
 20
144.0198014176
 30
0.0
  0
SPLINE
  5
312
100
AcDbEntity
  8
00_COMPONENTS
100
AcDbSpline
 62
7
  6
BYLAYER
 70
0
 71
3
 72
14
 73
10
 74
0
 42
0.0000001
 43
0.0000001
 44
0.0000000001
 40
0.0
 40
0.0
 40
0.0
 40
0.0
 40
0.0518738356
 40
0.1222122246
 40
0.2203240126
 40
0.3465755265
 40
0.4970643715
 40
0.6627861322
 40
1.0
 40
1.0
 40
1.0
 40
1.0
 10
57.904514289
 20
128.7798284498
 30
0.0
 10
57.8757032354
 20
128.7798254101
 30
0.0
 10
57.8079500901
 20
128.7552939772
 30
0.0
 10
57.7235223873
 20
128.663425709
 30
0.0
 10
57.6457258037
 20
128.5184924615
 30
0.0
 10
57.5760484319
 20
128.3216623256
 30
0.0
 10
57.5203095929
 20
128.0819565409
 30
0.0
 10
57.4657837889
 20
127.7229199902
 30
0.0
 10
57.4512508699
 20
127.4430921177
 30
0.0
 10
57.4512521319
 20
127.25580142
 30
0.0
  0
SPLINE
  5
313
100
AcDbEntity
  8
00_COMPONENTS
100
AcDbSpline
 62
7
  6
BYLAYER
 70
0
 71
3
 72
14
 73
10
 74
0
 42
0.0000001
 43
0.0000001
 44
0.0000000001
 40
0.0
 40
0.0
 40
0.0
 40
0.0
 40
0.1367133483
 40
0.2635171933
 40
0.3809412224
 40
0.4971238949
 40
0.6169185309
 40
0.7411487694
 40
1.0
 40
1.0
 40
1.0
 40
1.0
 10
53.8690323313
 20
130.3038014184
 30
0.0
 10
53.8690504582
 20
130.1520669365
 30
0.0
 10
53.9011887669
 20
129.8581782402
 30
0.0
 10
54.0622535237
 20
129.458952251
 30
0.0
 10
54.342251638
 20
129.160515129
 30
0.0
 10
54.6942124353
 20
128.976511996
 30
0.0
 10
55.081008619
 20
128.8692579041
 30
0.0
 10
55.6344640173
 20
128.7905871426
 30
0.0
 10
56.0605637785
 20
128.7797912732
 30
0.0
 10
56.347855825
 20
128.7798014184
 30
0.0
  0
SPLINE
  5
314
100
AcDbEntity
  8
00_COMPONENTS
100
AcDbSpline
 62
7
  6
BYLAYER
 70
0
 71
3
 72
13
 73
9
 74
0
 42
0.0000001
 43
0.0000001
 44
0.0000000001
 40
0.0
 40
0.0
 40
0.0
 40
0.0
 40
0.0811748336
 40
0.1736300365
 40
0.2826021684
 40
0.4088919118
 40
0.7003330455
 40
1.0
 40
1.0
 40
1.0
 40
1.0
 10
56.3478503703
 20
128.7797972385
 30
0.0
 10
56.2969276276
 20
128.7797962434
 30
0.0
 10
56.1873473627
 20
128.7603324591
 30
0.0
 10
56.0296432605
 20
128.6736699431
 30
0.0
 10
55.8823618731
 20
128.5272469013
 30
0.0
 10
55.7005632679
 20
128.2491655334
 30
0.0
 10
55.5576776801
 20
127.8151195548
 30
0.0
 10
55.5209484833
 20
127.4437890317
 30
0.0
 10
55.5209472287
 20
127.2558014185
 30
0.0
  0
SPLINE
  5
315
100
AcDbEntity
  8
00_COMPONENTS
100
AcDbSpline
 62
7
  6
BYLAYER
 70
0
 71
3
 72
15
 73
11
 74
0
 42
0.0000001
 43
0.0000001
 44
0.0000000001
 40
0.0
 40
0.0
 40
0.0
 40
0.0
 40
0.1574633806
 40
0.3004927352
 40
0.4239829827
 40
0.5334520911
 40
0.6394265149
 40
0.7503142326
 40
0.8703966277
 40
1.0
 40
1.0
 40
1.0
 40
1.0
 10
52.4472130212
 20
140.9718014177
 30
0.0
 10
52.4462298694
 20
141.2369409955
 30
0.0
 10
52.4781830459
 20
141.7436310049
 30
0.0
 10
52.6220710838
 20
142.4460733613
 30
0.0
 10
52.8787152456
 20
143.0324724703
 30
0.0
 10
53.2557569864
 20
143.47335749
 30
0.0
 10
53.7317168629
 20
143.7635640982
 30
0.0
 10
54.2790599994
 20
143.9270819546
 30
0.0
 10
54.8816302526
 20
144.0104102812
 30
0.0
 10
55.3027850631
 20
144.0249533462
 30
0.0
 10
55.5209541535
 20
144.0198014184
 30
0.0
  0
SPLINE
  5
316
100
AcDbEntity
  8
00_COMPONENTS
100
AcDbSpline
 62
7
  6
BYLAYER
 70
0
 71
3
 72
13
 73
9
 74
0
 42
0.0000001
 43
0.0000001
 44
0.0000000001
 40
0.0
 40
0.0
 40
0.0
 40
0.0
 40
0.2996662105
 40
0.5911074749
 40
0.7173973384
 40
0.8263695386
 40
0.9188248375
 40
1.0
 40
1.0
 40
1.0
 40
1.0
 10
55.5209502903
 20
144.0198014184
 30
0.0
 10
55.5209502565
 20
143.8318134342
 30
0.0
 10
55.5576772456
 20
143.4604814059
 30
0.0
 10
55.7005613328
 20
143.0264329396
 30
0.0
 10
55.8823605805
 20
142.748349916
 30
0.0
 10
56.0296431862
 20
142.6019264066
 30
0.0
 10
56.187349154
 20
142.5152647112
 30
0.0
 10
56.2969305484
 20
142.4958024776
 30
0.0
 10
56.3478537244
 20
142.495802354
 30
0.0
  0
SPLINE
  5
317
100
AcDbEntity
  8
00_COMPONENTS
100
AcDbSpline
 62
7
  6
BYLAYER
 70
0
 71
3
 72
15
 73
11
 74
0
 42
0.0000001
 43
0.0000001
 44
0.0000000001
 40
0.0
 40
0.0
 40
0.0
 40
0.0
 40
0.1572500636
 40
0.3001667718
 40
0.4236515991
 40
0.5331857043
 40
0.6391653749
 40
0.7501765618
 40
0.8702129095
 40
1.0
 40
1.0
 40
1.0
 40
1.0
 10
63.2385259327
 20
19.0554845257
 30
0.0
 10
63.5033022175
 20
19.0549867418
 30
0.0
 10
64.0094283658
 20
19.0860583626
 30
0.0
 10
64.7113587789
 20
19.2300146696
 30
0.0
 10
65.297650034
 20
19.4862630714
 30
0.0
 10
65.739440721
 20
19.8626693521
 30
0.0
 10
66.0289934723
 20
20.3391804669
 30
0.0
 10
66.1959809353
 20
20.8856579221
 30
0.0
 10
66.274288035
 20
21.4897692759
 30
0.0
 10
66.2871603999
 20
21.9106958049
 30
0.0
 10
66.2865259331
 20
22.1292296404
 30
0.0
  0
SPLINE
  5
318
100
AcDbEntity
  8
00_COMPONENTS
100
AcDbSpline
 62
7
  6
BYLAYER
 70
0
 71
3
 72
14
 73
10
 74
0
 42
0.0000001
 43
0.0000001
 44
0.0000000001
 40
0.0
 40
0.0
 40
0.0
 40
0.0
 40
0.1367119915
 40
0.263521218
 40
0.3809611412
 40
0.4971358673
 40
0.6169182401
 40
0.7411460786
 40
1.0
 40
1.0
 40
1.0
 40
1.0
 10
53.8690323313
 20
140.9718014184
 30
0.0
 10
53.8690481527
 20
141.1235361533
 30
0.0
 10
53.901177555
 20
141.4174120195
 30
0.0
 10
54.0620799493
 20
141.8167760261
 30
0.0
 10
54.3423362927
 20
142.1150127905
 30
0.0
 10
54.6942247104
 20
142.2990792933
 30
0.0
 10
55.081002929
 20
142.4063713864
 30
0.0
 10
55.6344520389
 20
142.4850236258
 30
0.0
 10
56.0605574621
 20
142.4957982006
 30
0.0
 10
56.347855825
 20
142.4958014184
 30
0.0
  0
SPLINE
  5
319
100
AcDbEntity
  8
00_COMPONENTS
100
AcDbSpline
 62
7
  6
BYLAYER
 70
0
 71
3
 72
14
 73
10
 74
0
 42
0.0000001
 43
0.0000001
 44
0.0000000001
 40
0.0
 40
0.0
 40
0.0
 40
0.0
 40
0.0518738079
 40
0.1222118022
 40
0.2203229899
 40
0.3465739656
 40
0.4970625722
 40
0.6627845117
 40
1.0
 40
1.0
 40
1.0
 40
1.0
 10
64.762504824
 20
24.5127902297
 30
0.0
 10
64.7625075446
 20
24.483979237
 30
0.0
 10
64.7870377854
 20
24.4162260791
 30
0.0
 10
64.8789044843
 20
24.3317976886
 30
0.0
 10
65.0238361012
 20
24.2540003832
 30
0.0
 10
65.2206647686
 20
24.1843220981
 30
0.0
 10
65.4603695857
 20
24.1285822431
 30
0.0
 10
65.8194062176
 20
24.0740549778
 30
0.0
 10
66.0992346305
 20
24.0595212795
 30
0.0
 10
66.2865259323
 20
24.0595221157
 30
0.0
  0
SPLINE
  5
31A
100
AcDbEntity
  8
00_COMPONENTS
100
AcDbSpline
 62
7
  6
BYLAYER
 70
0
 71
3
 72
14
 73
10
 74
0
 42
0.0000001
 43
0.0000001
 44
0.0000000001
 40
0.0
 40
0.0
 40
0.0
 40
0.0
 40
0.1367133483
 40
0.2635171933
 40
0.3809412224
 40
0.4971238949
 40
0.6169185309
 40
0.7411487694
 40
1.0
 40
1.0
 40
1.0
 40
1.0
 10
63.2385259331
 20
20.4773078166
 30
0.0
 10
63.390260415
 20
20.4773259435
 30
0.0
 10
63.6841491113
 20
20.5094642523
 30
0.0
 10
64.0833751006
 20
20.6705290091
 30
0.0
 10
64.3818122226
 20
20.9505271234
 30
0.0
 10
64.5658153555
 20
21.3024879207
 30
0.0
 10
64.6730694475
 20
21.6892841044
 30
0.0
 10
64.7517402089
 20
22.2427395027
 30
0.0
 10
64.7625360784
 20
22.6688392639
 30
0.0
 10
64.7625259331
 20
22.9561313104
 30
0.0
  0
SPLINE
  5
31B
100
AcDbEntity
  8
00_COMPONENTS
100
AcDbSpline
 62
7
  6
BYLAYER
 70
0
 71
3
 72
13
 73
9
 74
0
 42
0.0000001
 43
0.0000001
 44
0.0000000001
 40
0.0
 40
0.0
 40
0.0
 40
0.0
 40
0.0811748149
 40
0.1736299857
 40
0.282602086
 40
0.4088918143
 40
0.7003329771
 40
1.0
 40
1.0
 40
1.0
 40
1.0
 10
64.762530113
 20
22.9561265191
 30
0.0
 10
64.7625310309
 20
22.9052037705
 30
0.0
 10
64.7819946621
 20
22.795623469
 30
0.0
 10
64.8686570068
 20
22.637919254
 30
0.0
 10
65.0150799625
 20
22.4906377412
 30
0.0
 10
65.2931613345
 20
22.308838945
 30
0.0
 10
65.7272074991
 20
22.1659532051
 30
0.0
 10
66.0985382117
 20
22.1292239686
 30
0.0
 10
66.286525933
 20
22.129222714
 30
0.0
  0
SPLINE
  5
31C
100
AcDbEntity
  8
00_COMPONENTS
100
AcDbSpline
 62
7
  6
BYLAYER
 70
0
 71
3
 72
13
 73
9
 74
0
 42
0.0000001
 43
0.0000001
 44
0.0000000001
 40
0.0
 40
0.0
 40
0.0
 40
0.0
 40
0.1252853831
 40
0.2506009219
 40
0.4999657408
 40
0.7493206551
 40
0.8746635302
 40
1.0
 40
1.0
 40
1.0
 40
1.0
 10
52.4473121196
 20
24.9807228211
 30
0.0
 10
52.452734581
 20
24.5939978324
 30
0.0
 10
52.5293856404
 20
23.8187400503
 30
0.0
 10
52.9796812748
 20
22.3339253756
 30
0.0
 10
54.0759192166
 20
20.6854171159
 30
0.0
 10
55.7238509692
 20
19.5874388297
 30
0.0
 10
57.2093089517
 20
19.1382205743
 30
0.0
 10
57.9846784036
 20
19.061666381
 30
0.0
 10
58.3715496284
 20
19.0554784064
 30
0.0
  0
SPLINE
  5
31D
100
AcDbEntity
  8
00_COMPONENTS
100
AcDbSpline
 62
7
  6
BYLAYER
 70
0
 71
3
 72
11
 73
7
 74
0
 42
0.0000001
 43
0.0000001
 44
0.0000000001
 40
0.0
 40
0.0
 40
0.0
 40
0.0
 40
0.0808205985
 40
0.2750819714
 40
0.5822216353
 40
1.0
 40
1.0
 40
1.0
 40
1.0
 10
51.9204787025
 20
24.8777870521
 30
0.0
 10
51.9343310718
 20
24.8819252233
 30
0.0
 10
51.9828268274
 20
24.8909402934
 30
0.0
 10
52.085258836
 20
24.9092073879
 30
0.0
 10
52.2468845595
 20
24.9397431379
 30
0.0
 10
52.3738508699
 20
24.9660363551
 30
0.0
 10
52.447123164
 20
24.9807378183
 30
0.0
  0
SPLINE
  5
31E
100
AcDbEntity
  8
00_COMPONENTS
100
AcDbSpline
 62
7
  6
BYLAYER
 70
0
 71
3
 72
15
 73
11
 74
0
 42
0.0000001
 43
0.0000001
 44
0.0000000001
 40
0.0
 40
0.0
 40
0.0
 40
0.0
 40
0.1574603567
 40
0.3004907516
 40
0.4239815511
 40
0.5334510564
 40
0.6394257301
 40
0.7503136723
 40
0.8703963171
 40
1.0
 40
1.0
 40
1.0
 40
1.0
 10
52.4471680917
 20
29.8468014178
 30
0.0
 10
52.4462096659
 20
30.1119361369
 30
0.0
 10
52.4781943595
 20
30.618618255
 30
0.0
 10
52.6220633165
 20
31.3210619499
 30
0.0
 10
52.8787113461
 20
31.9074642498
 30
0.0
 10
53.2557512936
 20
32.3483533144
 30
0.0
 10
53.7317122142
 20
32.6385622664
 30
0.0
 10
54.2790565661
 20
32.8020813148
 30
0.0
 10
54.8816284421
 20
32.8854102059
 30
0.0
 10
55.3027844228
 20
32.8999533613
 30
0.0
 10
55.5209541535
 20
32.8948014184
 30
0.0
  0
SPLINE
  5
31F
100
AcDbEntity
  8
00_COMPONENTS
100
AcDbSpline
 62
7
  6
BYLAYER
 70
0
 71
3
 72
13
 73
9
 74
0
 42
0.0000001
 43
0.0000001
 44
0.0000000001
 40
0.0
 40
0.0
 40
0.0
 40
0.0
 40
0.2996661421
 40
0.5911073774
 40
0.717397256
 40
0.8263694878
 40
0.9188248188
 40
1.0
 40
1.0
 40
1.0
 40
1.0
 10
55.5209502925
 20
32.8948014184
 30
0.0
 10
55.5209502587
 20
32.7068135423
 30
0.0
 10
55.557677208
 20
32.3354817036
 30
0.0
 10
55.7005611429
 20
31.9014334234
 30
0.0
 10
55.8823601995
 20
31.6233504038
 30
0.0
 10
56.0296426796
 20
31.4769268083
 30
0.0
 10
56.1873485346
 20
31.3902649416
 30
0.0
 10
56.2969298924
 20
31.3708025548
 30
0.0
 10
56.3478530624
 20
31.370802354
 30
0.0
  0
SPLINE
  5
320
100
AcDbEntity
  8
00_COMPONENTS
100
AcDbSpline
 62
7
  6
BYLAYER
 70
0
 71
3
 72
14
 73
10
 74
0
 42
0.0000001
 43
0.0000001
 44
0.0000000001
 40
0.0
 40
0.0
 40
0.0
 40
0.0
 40
0.0518738356
 40
0.1222122246
 40
0.2203240126
 40
0.3465755265
 40
0.4970643715
 40
0.6627861322
 40
1.0
 40
1.0
 40
1.0
 40
1.0
 10
137.2795375772
 20
142.4957743871
 30
0.0
 10
137.3083486308
 20
142.4957774267
 30
0.0
 10
137.376101776
 20
142.5203088596
 30
0.0
 10
137.4605294788
 20
142.6121771279
 30
0.0
 10
137.5383260624
 20
142.7571103754
 30
0.0
 10
137.6080034343
 20
142.9539405113
 30
0.0
 10
137.6637422733
 20
143.1936462959
 30
0.0
 10
137.7182680773
 20
143.5526828466
 30
0.0
 10
137.7328009963
 20
143.8325107191
 30
0.0
 10
137.7327997343
 20
144.0198014169
 30
0.0
  0
SPLINE
  5
321
100
AcDbEntity
  8
00_COMPONENTS
100
AcDbSpline
 62
7
  6
BYLAYER
 70
0
 71
3
 72
14
 73
10
 74
0
 42
0.0000001
 43
0.0000001
 44
0.0000000001
 40
0.0
 40
0.0
 40
0.0
 40
0.0
 40
0.1367133483
 40
0.2635171933
 40
0.3809412224
 40
0.4971238949
 40
0.6169185309
 40
0.7411487694
 40
1.0
 40
1.0
 40
1.0
 40
1.0
 10
141.3150195349
 20
140.9718014184
 30
0.0
 10
141.315001408
 20
141.1235359004
 30
0.0
 10
141.2828630992
 20
141.4174245967
 30
0.0
 10
141.1217983425
 20
141.8166505859
 30
0.0
 10
140.8418002282
 20
142.1150877079
 30
0.0
 10
140.4898394309
 20
142.2990908408
 30
0.0
 10
140.1030432471
 20
142.4063449328
 30
0.0
 10
139.5495878488
 20
142.4850156942
 30
0.0
 10
139.1234880877
 20
142.4958115637
 30
0.0
 10
138.8361960412
 20
142.4958014184
 30
0.0
  0
SPLINE
  5
322
100
AcDbEntity
  8
00_COMPONENTS
100
AcDbSpline
 62
7
  6
BYLAYER
 70
0
 71
3
 72
13
 73
9
 74
0
 42
0.0000001
 43
0.0000001
 44
0.0000000001
 40
0.0
 40
0.0
 40
0.0
 40
0.0
 40
0.0811748336
 40
0.1736300365
 40
0.2826021684
 40
0.4088919118
 40
0.7003330455
 40
1.0
 40
1.0
 40
1.0
 40
1.0
 10
138.8362014959
 20
142.4958055984
 30
0.0
 10
138.8871242386
 20
142.4958065934
 30
0.0
 10
138.9967045035
 20
142.5152703778
 30
0.0
 10
139.1544086057
 20
142.6019328938
 30
0.0
 10
139.3016899931
 20
142.7483559356
 30
0.0
 10
139.4834885983
 20
143.0264373035
 30
0.0
 10
139.626374186
 20
143.4604832821
 30
0.0
 10
139.6631033829
 20
143.8318138051
 30
0.0
 10
139.6631046374
 20
144.0198014184
 30
0.0
  0
SPLINE
  5
323
100
AcDbEntity
  8
00_COMPONENTS
100
AcDbSpline
 62
7
  6
BYLAYER
 70
0
 71
3
 72
15
 73
11
 74
0
 42
0.0000001
 43
0.0000001
 44
0.0000000001
 40
0.0
 40
0.0
 40
0.0
 40
0.0
 40
0.1574633806
 40
0.3004927352
 40
0.4239829827
 40
0.5334520911
 40
0.6394265149
 40
0.7503142326
 40
0.8703966277
 40
1.0
 40
1.0
 40
1.0
 40
1.0
 10
142.7368388449
 20
130.3038014191
 30
0.0
 10
142.7378219968
 20
130.0386618413
 30
0.0
 10
142.7058688203
 20
129.531971832
 30
0.0
 10
142.5619807823
 20
128.8295294756
 30
0.0
 10
142.3053366206
 20
128.2431303665
 30
0.0
 10
141.9282948798
 20
127.8022453469
 30
0.0
 10
141.4523350033
 20
127.5120387386
 30
0.0
 10
140.9049918668
 20
127.3485208823
 30
0.0
 10
140.3024216136
 20
127.2651925557
 30
0.0
 10
139.8812668031
 20
127.2506494907
 30
0.0
 10
139.6630977126
 20
127.2558014184
 30
0.0
  0
SPLINE
  5
324
100
AcDbEntity
  8
00_COMPONENTS
100
AcDbSpline
 62
7
  6
BYLAYER
 70
0
 71
3
 72
13
 73
9
 74
0
 42
0.0000001
 43
0.0000001
 44
0.0000000001
 40
0.0
 40
0.0
 40
0.0
 40
0.0
 40
0.2996662105
 40
0.5911074749
 40
0.7173973384
 40
0.8263695386
 40
0.9188248375
 40
1.0
 40
1.0
 40
1.0
 40
1.0
 10
139.6631015759
 20
127.2558014184
 30
0.0
 10
139.6631016097
 20
127.4437894027
 30
0.0
 10
139.6263746206
 20
127.8151214309
 30
0.0
 10
139.4834905334
 20
128.2491698972
 30
0.0
 10
139.3016912857
 20
128.5272529209
 30
0.0
 10
139.15440868
 20
128.6736764303
 30
0.0
 10
138.9967027122
 20
128.7603381256
 30
0.0
 10
138.8871213177
 20
128.7798003593
 30
0.0
 10
138.8361981417
 20
128.7798004829
 30
0.0
  0
SPLINE
  5
325
100
AcDbEntity
  8
00_COMPONENTS
100
AcDbSpline
 62
7
  6
BYLAYER
 70
0
 71
3
 72
14
 73
10
 74
0
 42
0.0000001
 43
0.0000001
 44
0.0000000001
 40
0.0
 40
0.0
 40
0.0
 40
0.0
 40
0.0518739847
 40
0.1222121136
 40
0.2203233707
 40
0.3465743543
 40
0.4970629148
 40
0.6627847637
 40
1.0
 40
1.0
 40
1.0
 40
1.0
 10
137.2795436331
 20
128.7798224947
 30
0.0
 10
137.3083547456
 20
128.7798197784
 30
0.0
 10
137.3761081449
 20
128.7552895922
 30
0.0
 10
137.4605370143
 20
128.6634229142
 30
0.0
 10
137.5383347939
 20
128.51849127
 30
0.0
 10
137.6080135529
 20
128.3216625845
 30
0.0
 10
137.6637538516
 20
128.081957752
 30
0.0
 10
137.7182816502
 20
127.7229211437
 30
0.0
 10
137.7328156519
 20
127.443092721
 30
0.0
 10
137.7328149754
 20
127.2558014192
 30
0.0
  0
SPLINE
  5
326
100
AcDbEntity
  8
00_COMPONENTS
100
AcDbSpline
 62
7
  6
BYLAYER
 70
0
 71
3
 72
14
 73
10
 74
0
 42
0.0000001
 43
0.0000001
 44
0.0000000001
 40
0.0
 40
0.0
 40
0.0
 40
0.0
 40
0.051874025
 40
0.1222125603
 40
0.2203244251
 40
0.3465759489
 40
0.4970647445
 40
0.6627864069
 40
1.0
 40
1.0
 40
1.0
 40
1.0
 10
57.9045073931
 20
31.3707744026
 30
0.0
 10
57.8756962115
 20
31.3707774417
 30
0.0
 10
57.8079428112
 20
31.3953088271
 30
0.0
 10
57.723514603
 20
31.4871770809
 30
0.0
 10
57.6457175181
 20
31.632110364
 30
0.0
 10
57.5760396455
 20
31.8289405227
 30
0.0
 10
57.5203003378
 20
32.0686463238
 30
0.0
 10
57.4657739705
 20
32.4276828448
 30
0.0
 10
57.4512407303
 20
32.7075107229
 30
0.0
 10
57.4512418232
 20
32.8948014169
 30
0.0
  0
SPLINE
  5
327
100
AcDbEntity
  8
00_COMPONENTS
100
AcDbSpline
 62
7
  6
BYLAYER
 70
0
 71
3
 72
14
 73
10
 74
0
 42
0.0000001
 43
0.0000001
 44
0.0000000001
 40
0.0
 40
0.0
 40
0.0
 40
0.0
 40
0.1367119915
 40
0.263521218
 40
0.3809611412
 40
0.4971358673
 40
0.6169182401
 40
0.7411460786
 40
1.0
 40
1.0
 40
1.0
 40
1.0
 10
141.3150195349
 20
130.3038014184
 30
0.0
 10
141.3150037135
 20
130.1520666836
 30
0.0
 10
141.2828743112
 20
129.8581908174
 30
0.0
 10
141.1219719169
 20
129.4588268108
 30
0.0
 10
140.8417155734
 20
129.1605900464
 30
0.0
 10
140.4898271558
 20
128.9765235436
 30
0.0
 10
140.1030489372
 20
128.8692314505
 30
0.0
 10
139.5495998272
 20
128.7905792111
 30
0.0
 10
139.1234944041
 20
128.7798046363
 30
0.0
 10
138.8361960412
 20
128.7798014184
 30
0.0
  0
SPLINE
  5
328
100
AcDbEntity
  8
00_COMPONENTS
100
AcDbSpline
 62
7
  6
BYLAYER
 70
0
 71
3
 72
14
 73
10
 74
0
 42
0.0000001
 43
0.0000001
 44
0.0000000001
 40
0.0
 40
0.0
 40
0.0
 40
0.0
 40
0.3372137786
 40
0.5029354814
 40
0.6534242633
 40
0.7796757206
 40
0.8777874898
 40
0.9481259512
 40
1.0
 40
1.0
 40
1.0
 40
1.0
 10
128.8975259346
 20
247.2160859353
 30
0.0
 10
129.0848167601
 20
247.216087015
 30
0.0
 10
129.3646448089
 20
247.201553714
 30
0.0
 10
129.7236814759
 20
247.1470271424
 30
0.0
 10
129.963387252
 20
247.0912876487
 30
0.0
 10
130.1602172682
 20
247.0216095531
 30
0.0
 10
130.3051503144
 20
246.9438122431
 30
0.0
 10
130.397018264
 20
246.8593837399
 30
0.0
 10
130.4215492608
 20
246.7916302047
 30
0.0
 10
130.42155215
 20
246.7628190055
 30
0.0
  0
SPLINE
  5
329
100
AcDbEntity
  8
00_COMPONENTS
100
AcDbSpline
 62
7
  6
BYLAYER
 70
0
 71
3
 72
11
 73
7
 74
0
 42
0.0000001
 43
0.0000001
 44
0.0000000001
 40
0.0
 40
0.0
 40
0.0
 40
0.0
 40
0.2504651839
 40
0.500340454
 40
0.7500247141
 40
1.0
 40
1.0
 40
1.0
 40
1.0
 10
58.3715490149
 20
20.4774063949
 30
0.0
 10
57.784148466
 20
20.4775757899
 30
0.0
 10
56.5973001684
 20
20.7065231297
 30
0.0
 10
55.0959695708
 20
21.7077595801
 30
0.0
 10
54.097404973
 20
23.2093066721
 30
0.0
 10
53.8693832168
 20
24.3944997689
 30
0.0
 10
53.869358412
 20
24.9807514139
 30
0.0
  0
SPLINE
  5
32A
100
AcDbEntity
  8
00_COMPONENTS
100
AcDbSpline
 62
7
  6
BYLAYER
 70
0
 71
3
 72
14
 73
10
 74
0
 42
0.0000001
 43
0.0000001
 44
0.0000000001
 40
0.0
 40
0.0
 40
0.0
 40
0.0
 40
0.1367119915
 40
0.263521218
 40
0.3809611412
 40
0.4971358673
 40
0.6169182401
 40
0.7411460786
 40
1.0
 40
1.0
 40
1.0
 40
1.0
 10
53.8690323313
 20
29.8468014184
 30
0.0
 10
53.8690481527
 20
29.9985361533
 30
0.0
 10
53.901177555
 20
30.2924120195
 30
0.0
 10
54.0620799493
 20
30.6917760261
 30
0.0
 10
54.3423362927
 20
30.9900127905
 30
0.0
 10
54.6942247104
 20
31.1740792933
 30
0.0
 10
55.081002929
 20
31.2813713864
 30
0.0
 10
55.6344520389
 20
31.3600236258
 30
0.0
 10
56.0605574621
 20
31.3707982006
 30
0.0
 10
56.347855825
 20
31.3708014184
 30
0.0
  0
ELLIPSE
  5
32B
100
AcDbEntity
  8
00_COMPONENTS
100
AcDbEllipse
 62
7
  6
BYLAYER
 10
137.27855865
 20
24.5137687015
 30
0.0
 11
4.4914959012
 21
-4.4914959012
 31
0.0
 40
0.9996954599
 41
-0.7852615592
 42
0.7852615581
  0
ELLIPSE
  5
32C
100
AcDbEntity
  8
00_COMPONENTS
100
AcDbEllipse
 62
7
  6
BYLAYER
 10
137.27855865
 20
246.7618341354
 30
0.0
 11
4.4914959012
 21
4.4914959012
 31
0.0
 40
0.9996954599
 41
-0.7852615592
 42
0.7852615581
  0
ELLIPSE
  5
32D
100
AcDbEntity
  8
00_COMPONENTS
100
AcDbEllipse
 62
7
  6
BYLAYER
 10
57.9054932162
 20
246.7618341354
 30
0.0
 11
-4.4914959012
 21
4.4914959012
 31
0.0
 40
0.9996954599
 41
-0.7852584422
 42
0.7852584413
  0
ELLIPSE
  5
32E
100
AcDbEntity
  8
00_COMPONENTS
100
AcDbEllipse
 62
7
  6
BYLAYER
 10
57.9054932162
 20
24.5137687015
 30
0.0
 11
-4.4914959012
 21
-4.4914959012
 31
0.0
 40
0.9996954599
 41
-0.7852584422
 42
0.7852584413
  0
ENDSEC
  0
SECTION
  2
OBJECTS
  0
DICTIONARY
  5
C
100
AcDbDictionary
280
0
281
1
  3
ACAD_GROUP
350
D
  3
ACAD_MLINESTYLE
350
17
  3
ACAD_LAYOUT
350
1A
  3
ACAD_PLOTSETTINGS
350
19
  3
ACAD_PLOTSTYLENAME
350
E
  0
DICTIONARY
  5
D
102
{ACAD_REACTORS
330
C
102
}
100
AcDbDictionary
280
0
281
1
  0
ACDBDICTIONARYWDFLT
  5
E
102
{ACAD_REACTORS
330
C
102
}
100
AcDbDictionary
281
1
  3
Normal
350
F
100
AcDbDictionaryWithDefault
340
F
  0
DICTIONARY
  5
17
102
{ACAD_REACTORS
330
C
102
}
100
AcDbDictionary
280
0
281
1
  3
Standard
350
18
  0
DICTIONARY
  5
19
102
{ACAD_REACTORS
330
C
102
}
100
AcDbDictionary
281
1
  0
DICTIONARY
  5
1A
102
{ACAD_REACTORS
330
C
102
}
100
AcDbDictionary
281
1
  3
Model
350
32F
  3
Layout1
350
330
  0
ACDBPLACEHOLDER
  5
F
102
{ACAD_REACTORS
330
E
102
}
  0
MLINESTYLE
  5
18
102
{ACAD_REACTORS
330
17
102
}
100
AcDbMlineStyle
  2
STANDARD
 70
0
  3

 62
256
 51
90.0
 52
90.0
 71
2
 49
0.5
 62
256
  6
BYLAYER
 49
-0.5
 62
256
  6
BYLAYER
  0
LAYOUT
  5
32F
102
{ACAD_REACTORS
330
1A
102
}
100
AcDbPlotSettings
  1

  2
none_device
  4

  6

 40
0.0
 41
0.0
 42
0.0
 43
0.0
 44
210.0
 45
297.0
 46
0.0
 47
0.0
 48
0.0
 49
0.0
140
0.0
141
0.0
142
1.0
143
1.0
 70
1024
 72
1
 73
0
 74
0
  7

 75
0
147
1.0
148
0.0
149
0.0
100
AcDbLayout
  1
Model
 70
0
 71
0
 10
0.0
 20
0.0
 11
210.0
 21
297.0
 12
0.0
 22
0.0
 32
0.0
 14
0.0
 24
0.0
 34
0.0
 15
0.0
 25
0.0
 35
0.0
146
0.0
 13
0.0
 23
0.0
 33
0.0
 16
1.0
 26
0.0
 36
0.0
 17
0.0
 27
1.0
 37
0.0
 76
0
330
216
345
0
346
0
  0
LAYOUT
  5
330
102
{ACAD_REACTORS
330
1A
102
}
100
AcDbPlotSettings
  1

  2
none_device
  4

  6

 40
0.0
 41
0.0
 42
0.0
 43
0.0
 44
210.0
 45
297.0
 46
0.0
 47
0.0
 48
0.0
 49
0.0
140
0.0
141
0.0
142
1.0
143
1.0
 70
0
 72
1
 73
0
 74
0
  7

 75
0
147
1.0
148
0.0
149
0.0
100
AcDbLayout
  1
Layout1
 70
0
 71
1
 10
0.0
 20
0.0
 11
210.0
 21
297.0
 12
0.0
 22
0.0
 32
0.0
 14
0.0
 24
0.0
 34
0.0
 15
0.0
 25
0.0
 35
0.0
146
0.0
 13
0.0
 23
0.0
 33
0.0
 16
1.0
 26
0.0
 36
0.0
 17
0.0
 27
1.0
 37
0.0
 76
0
330
217
345
0
346
0
  0
ENDSEC
  0
EOF
