999
DXF file: C:\Users\sesa63760\Dev\_Creo\CAD\MCADID0005783_3D-CAD\mcadid0005783_3d-simplified_3.dxf
999
Pro/ENGINEER 2019471 by Parametric Technology Corporation
  0
SECTION
  2
HEADER
  9
$ACADVER
  1
AC1024
  9
$DWGCODEPAGE
  3
ANSI_1252
  9
$EXTMAX
 10
45.5443521748
 20
64.4127266473
 30
0.0
  9
$EXTMIN
 10
0.0
 20
0.0
 30
0.0
  9
$LIMMIN
 10
0.0
 20
0.0
  9
$LIMMAX
 10
45.5443521748
 20
64.4127266473
  9
$VIEWCTR
 10
22.7721760874
 20
32.2063633236
  9
$VIEWSIZE
 40
64.4127266473
  9
$CLAYER
  8
0
  9
$LTSCALE
 40
4.1987555148
  9
$CELTYPE
  6
BYLAYER
  9
$DIMSCALE
 40
1.0
  9
$DIMASZ
 40
0.5421946687
  9
$DIMEXO
 40
1.0
  9
$DIMDLI
 40
2.9009583557
  9
$DIMEXE
 40
1.0
  9
$DIMCEN
 40
0.6870690842
  9
$DIMLFAC
 40
1.0
  9
$DIMBLK
  1
_FILLED
  9
$DIMALT
 70
0
  9
$DIMALTF
 40
0.0393700787
  9
$DIMTXT
 40
0.7590725362
  9
$DIMTOL
 70
1
  9
$DIMLIM
 70
0
  9
$DIMTFAC
 40
1.0
  9
$DIMTP
 40
0.01
  9
$DIMTM
 40
0.01
  9
$DIMGAP
 40
0.625
  9
$DIMDSEP
 70
46
  9
$AUNITS
 70
0
  9
$PDMODE
 70
3
  9
$PDSIZE
 40
0.3125
  9
$HANDSEED
  5
285
  9
$TILEMODE
 70
1
  9
$MEASUREMENT
 70
1
  9
$INSUNITS
 70
4
  0
ENDSEC
  0
SECTION
  2
CLASSES
  0
CLASS
  1
ACDBDICTIONARYWDFLT
  2
AcDbDictionaryWithDefault
  3
AutoCAD 2000
 90
0
 91
1
280
0
281
0
  0
CLASS
  1
ACDBPLACEHOLDER
  2
AcDbPlaceHolder
  3
AutoCAD 2000
 90
0
 91
1
280
0
281
0
  0
CLASS
  1
LAYOUT
  2
AcDbLayout
  3
AutoCAD 2000
 90
0
 91
0
280
0
281
0
  0
ENDSEC
  0
SECTION
  2
TABLES
  0
TABLE
  2
VPORT
  5
8
100
AcDbSymbolTable
 70
2
  0
VPORT
  5
1F4
100
AcDbSymbolTableRecord
100
AcDbViewportTableRecord
  2
*ACTIVE
 70
0
 10
0.0
 20
0.0
 11
1.0
 21
1.0
 12
22.7721760874
 22
32.2063633236
 13
0.0
 23
0.0
 14
1.0
 24
1.0
 15
0.0
 25
0.0
 16
0.0
 26
0.0
 36
1.0
 17
0.0
 27
0.0
 37
0.0
 40
64.4127266473
 41
0.7070707071
 42
50.0
 43
0.0
 44
0.0
 50
0.0
 51
0.0
 71
0
 72
100
 73
1
 74
1
 75
0
 76
0
 77
0
 78
0
  0
ENDTAB
  0
TABLE
  2
LTYPE
  5
5
100
AcDbSymbolTable
 70
6
  0
LTYPE
  5
14
100
AcDbSymbolTableRecord
100
AcDbLinetypeTableRecord
  2
BYBLOCK
 70
0
  3

 72
65
 73
0
 40
0.0
  0
LTYPE
  5
15
100
AcDbSymbolTableRecord
100
AcDbLinetypeTableRecord
  2
BYLAYER
 70
0
  3

 72
65
 73
0
 40
0.0
  0
LTYPE
  5
16
100
AcDbSymbolTableRecord
100
AcDbLinetypeTableRecord
  2
CONTINUOUS
 70
64
  3
Solid line
 72
65
 73
0
 40
0.0
  0
LTYPE
  5
1F5
100
AcDbSymbolTableRecord
100
AcDbLinetypeTableRecord
  2
CENTER
 70
64
  3
____ _ ____ _ ____ _ ____ _ ____ _ ____ _ ____
 72
65
 73
4
 40
0.6
 49
0.375
 74
0
 49
-0.075
 74
0
 49
0.075
 74
0
 49
-0.075
 74
0
  0
LTYPE
  5
1F6
100
AcDbSymbolTableRecord
100
AcDbLinetypeTableRecord
  2
HIDDEN
 70
64
  3
- - - - - - - - - - - - - - - - - - - -
 72
65
 73
2
 40
0.2
 49
0.1
 74
0
 49
-0.1
 74
0
  0
LTYPE
  5
1F7
100
AcDbSymbolTableRecord
100
AcDbLinetypeTableRecord
  2
PHANTOM
 70
64
  3
_____ _ _ _____ _ _ _____ _ _ _____
 72
65
 73
6
 40
0.8
 49
0.45
 74
0
 49
-0.05
 74
0
 49
0.1
 74
0
 49
-0.05
 74
0
 49
0.1
 74
0
 49
-0.05
 74
0
  0
LTYPE
  5
1F8
100
AcDbSymbolTableRecord
100
AcDbLinetypeTableRecord
  2
DOT
 70
64
  3
. . . . . . . . . . . . . . . . . . . .
 72
65
 73
2
 40
0.2
 49
0.1
 74
0
 49
-0.1
 74
0
  0
LTYPE
  5
1F9
100
AcDbSymbolTableRecord
100
AcDbLinetypeTableRecord
  2
DASHED
 70
64
  3
- - - - - - - - - - - - - - - - - - - -
 72
65
 73
2
 40
0.2
 49
0.1
 74
0
 49
-0.1
 74
0
  0
ENDTAB
  0
TABLE
  2
LAYER
  5
2
100
AcDbSymbolTable
 70
36
  0
LAYER
  5
10
100
AcDbSymbolTableRecord
100
AcDbLayerTableRecord
  2
0
 70
0
 62
7
  6
CONTINUOUS
370
-3
390
F
  0
LAYER
  5
1FA
100
AcDbSymbolTableRecord
100
AcDbLayerTableRecord
  2
DEFAULT_1
 70
0
 62
7
  6
CENTER
370
-3
390
F
  0
LAYER
  5
1FB
100
AcDbSymbolTableRecord
100
AcDbLayerTableRecord
  2
DEFAULT_2
 70
0
 62
7
  6
HIDDEN
370
-3
390
F
  0
LAYER
  5
1FC
100
AcDbSymbolTableRecord
100
AcDbLayerTableRecord
  2
DEFAULT_3
 70
0
 62
7
  6
PHANTOM
370
-3
390
F
  0
LAYER
  5
1FD
100
AcDbSymbolTableRecord
100
AcDbLayerTableRecord
  2
00_COMPONENTS
 70
0
 62
7
  6
CONTINUOUS
370
-3
390
F
  0
LAYER
  5
1FE
100
AcDbSymbolTableRecord
100
AcDbLayerTableRecord
  2
01_1_DEFAULT_DATUMS
 70
0
 62
7
  6
CONTINUOUS
370
-3
390
F
  0
LAYER
  5
1FF
100
AcDbSymbolTableRecord
100
AcDbLayerTableRecord
  2
01_PLANES
 70
0
 62
7
  6
CONTINUOUS
370
-3
390
F
  0
LAYER
  5
200
100
AcDbSymbolTableRecord
100
AcDbLayerTableRecord
  2
02_COORD_SYS
 70
0
 62
7
  6
CONTINUOUS
370
-3
390
F
  0
LAYER
  5
201
100
AcDbSymbolTableRecord
100
AcDbLayerTableRecord
  2
03_AXES
 70
0
 62
7
  6
CONTINUOUS
370
-3
390
F
  0
LAYER
  5
202
100
AcDbSymbolTableRecord
100
AcDbLayerTableRecord
  2
04_POINTS
 70
0
 62
7
  6
CONTINUOUS
370
-3
390
F
  0
LAYER
  5
203
100
AcDbSymbolTableRecord
100
AcDbLayerTableRecord
  2
05_CURVES
 70
0
 62
7
  6
CONTINUOUS
370
-3
390
F
  0
LAYER
  5
204
100
AcDbSymbolTableRecord
100
AcDbLayerTableRecord
  2
06_SURFS
 70
0
 62
7
  6
CONTINUOUS
370
-3
390
F
  0
LAYER
  5
205
100
AcDbSymbolTableRecord
100
AcDbLayerTableRecord
  2
07_COSMETICS
 70
0
 62
7
  6
CONTINUOUS
370
-3
390
F
  0
LAYER
  5
206
100
AcDbSymbolTableRecord
100
AcDbLayerTableRecord
  2
10_NOTES
 70
0
 62
7
  6
CONTINUOUS
370
-3
390
F
  0
LAYER
  5
207
100
AcDbSymbolTableRecord
100
AcDbLayerTableRecord
  2
11_NOTES_PUB
 70
0
 62
7
  6
CONTINUOUS
370
-3
390
F
  0
LAYER
  5
208
100
AcDbSymbolTableRecord
100
AcDbLayerTableRecord
  2
13_REF_GTOL
 70
0
 62
7
  6
CONTINUOUS
370
-3
390
F
  0
LAYER
  5
209
100
AcDbSymbolTableRecord
100
AcDbLayerTableRecord
  2
16_MISC
 70
0
 62
7
  6
CONTINUOUS
370
-3
390
F
  0
LAYER
  5
20A
100
AcDbSymbolTableRecord
100
AcDbLayerTableRecord
  2
17_NO_PRINT
 70
0
 62
7
  6
CONTINUOUS
370
-3
390
F
  0
LAYER
  5
20B
100
AcDbSymbolTableRecord
100
AcDbLayerTableRecord
  2
18_DATUM_CAMS_JOINTS
 70
0
 62
7
  6
CONTINUOUS
370
-3
390
F
  0
LAYER
  5
20C
100
AcDbSymbolTableRecord
100
AcDbLayerTableRecord
  2
19_DATUM_FUNCTIONAL
 70
0
 62
7
  6
CONTINUOUS
370
-3
390
F
  0
LAYER
  5
20D
100
AcDbSymbolTableRecord
100
AcDbLayerTableRecord
  2
20_DATUM_KINEMATIC_SCHEME
 70
0
 62
7
  6
CONTINUOUS
370
-3
390
F
  0
ENDTAB
  0
TABLE
  2
STYLE
  5
3
100
AcDbSymbolTable
 70
1
  0
STYLE
  5
11
100
AcDbSymbolTableRecord
100
AcDbTextStyleTableRecord
  2
STANDARD
 70
0
 40
0.0
 41
1.0
 50
0.0
 71
0
 42
0.2
  3
ARIAL.TTF
  4

  0
STYLE
  5
20E
100
AcDbSymbolTableRecord
100
AcDbTextStyleTableRecord
  2
TEXTSTYLE_1
 70
0
 40
0.0
 41
0.8
 50
0.0
 71
0
 42
0.2
  3
gdt
  4

  0
ENDTAB
  0
TABLE
  2
VIEW
  5
6
100
AcDbSymbolTable
 70
0
  0
ENDTAB
  0
TABLE
  2
UCS
  5
7
100
AcDbSymbolTable
 70
0
  0
ENDTAB
  0
TABLE
  2
APPID
  5
9
100
AcDbSymbolTable
 70
1
  0
APPID
  5
20F
100
AcDbSymbolTableRecord
100
AcDbRegAppTableRecord
  2
ACAD
 70
0
  0
ENDTAB
  0
TABLE
  2
BLOCK_RECORD
  5
1
100
AcDbSymbolTable
 70
0
  0
BLOCK_RECORD
  5
210
100
AcDbSymbolTableRecord
100
AcDbBlockTableRecord
  2
*Model_Space
  0
BLOCK_RECORD
  5
211
100
AcDbSymbolTableRecord
100
AcDbBlockTableRecord
  2
*Paper_Space
  0
BLOCK_RECORD
  5
212
100
AcDbSymbolTableRecord
100
AcDbBlockTableRecord
  2
_FILLED
  0
ENDTAB
  0
TABLE
  2
DIMSTYLE
  5
A
100
AcDbSymbolTable
 70
1
100
AcDbDimStyleTable
 71
0
  0
DIMSTYLE
105
213
100
AcDbSymbolTableRecord
100
AcDbDimStyleTableRecord
  2
STANDARD
 70
0
  3

  4

 40
1.0
 41
0.5421946687
 42
1.0
 43
0.38
 44
1.0
 45
0.0
 46
0.0
 47
0.01
 48
0.01
140
0.7590725362
141
0.09
142
0.0
143
25.4
144
1.0
145
0.0
146
1.0
147
0.625
 71
1
 72
0
 73
0
 74
0
 75
0
 76
0
 77
1
 78
8
 79
2
170
0
171
1
172
0
173
0
174
0
175
0
176
0
177
0
178
0
270
2
179
2
271
2
272
2
273
2
274
2
275
0
280
0
281
0
282
0
283
1
284
8
285
0
286
0
287
3
288
0
340
11
278
46
341
212
342
212
343
212
344
212
  0
ENDTAB
  0
ENDSEC
  0
SECTION
  2
BLOCKS
  0
BLOCK
  5
20
100
AcDbEntity
  8
0
100
AcDbBlockBegin
  2
*Model_Space
 70
0
 10
0.0
 20
0.0
 30
0.0
  3
*Model_Space
  1

  0
ENDBLK
  5
21
100
AcDbEntity
  8
0
100
AcDbBlockEnd
  0
BLOCK
  5
1C
100
AcDbEntity
  8
0
100
AcDbBlockBegin
  2
*Paper_Space
 70
0
 10
0.0
 20
0.0
 30
0.0
  3
*Paper_Space
  1

  0
ENDBLK
  5
1D
100
AcDbEntity
  8
0
100
AcDbBlockEnd
  0
BLOCK
  5
214
100
AcDbEntity
  8
0
100
AcDbBlockBegin
  2
_FILLED
 70
64
 10
0.0
 20
0.0
  3
_FILLED
  1

  0
SOLID
  5
215
100
AcDbEntity
  8
0
  6
BYBLOCK
 62
0
100
AcDbTrace
 10
0.0
 20
0.0
 11
-1.0
 21
0.25
 12
-1.0
 22
-0.25
 13
-1.0
 23
-0.25
  0
ENDBLK
  5
216
100
AcDbEntity
  8
0
  6
BYBLOCK
 62
0
100
AcDbBlockEnd
  0
ENDSEC
  0
SECTION
  2
ENTITIES
  0
LINE
  5
217
100
AcDbEntity
  8
0
100
AcDbLine
 62
7
  6
BYLAYER
 10
18.502900461
 20
5.1640576986
 11
28.302900461
 21
5.1640576986
  0
LINE
  5
218
100
AcDbEntity
  8
0
100
AcDbLine
 62
7
  6
BYLAYER
 10
18.502900461
 20
9.2852738278
 11
28.302900461
 21
9.2852738278
  0
LINE
  5
219
100
AcDbEntity
  8
0
100
AcDbLine
 62
7
  6
BYLAYER
 10
19.9406723009
 20
11.2799737421
 11
26.2423198543
 21
11.2683436207
  0
LINE
  5
21A
100
AcDbEntity
  8
0
100
AcDbLine
 62
7
  6
BYLAYER
 10
26.202900461
 20
12.2788034944
 11
19.9359683096
 21
12.2483615642
  0
LINE
  5
21B
100
AcDbEntity
  8
0
100
AcDbLine
 62
7
  6
BYLAYER
 10
26.2260783172
 20
14.6119098946
 11
19.9245866837
 21
14.5914415442
  0
LINE
  5
21C
100
AcDbEntity
  8
0
100
AcDbLine
 62
7
  6
BYLAYER
 10
28.302900461
 20
15.1510800048
 11
18.502900461
 21
15.1510800048
  0
LINE
  5
21D
100
AcDbEntity
  8
0
100
AcDbLine
 62
7
  6
BYLAYER
 10
8.452900461
 20
35.6640576986
 11
8.452900461
 21
25.8640576986
  0
LINE
  5
21E
100
AcDbEntity
  8
0
100
AcDbLine
 62
7
  6
BYLAYER
 10
8.737900461
 20
35.6640576986
 11
8.737900461
 21
41.6640576986
  0
LINE
  5
21F
100
AcDbEntity
  8
0
100
AcDbLine
 62
7
  6
BYLAYER
 10
9.1529315288
 20
53.014057699
 11
9.1529315289
 21
56.158081934
  0
LINE
  5
220
100
AcDbEntity
  8
0
100
AcDbLine
 62
7
  6
BYLAYER
 10
9.1653676105
 20
49.514057699
 11
9.1653676106
 21
53.014057699
  0
LINE
  5
221
100
AcDbEntity
  8
0
100
AcDbLine
 62
7
  6
BYLAYER
 10
9.8279004605
 20
48.014057699
 11
9.8279004606
 21
49.514057699
  0
LINE
  5
222
100
AcDbEntity
  8
0
100
AcDbLine
 62
7
  6
BYLAYER
 10
23.8039265007
 20
47.2640576986
 11
22.2803715945
 21
46.4391847353
  0
LINE
  5
223
100
AcDbEntity
  8
0
100
AcDbLine
 62
7
  6
BYLAYER
 10
11.7778940242
 20
41.6640576986
 11
11.7778940242
 21
41.8640576986
  0
LINE
  5
224
100
AcDbEntity
  8
0
100
AcDbLine
 62
7
  6
BYLAYER
 10
12.528064654
 20
43.4640576989
 11
12.5280646541
 21
48.0140576989
  0
LINE
  5
225
100
AcDbEntity
  8
0
100
AcDbLine
 62
7
  6
BYLAYER
 10
12.537900461
 20
41.6640576986
 11
12.537900461
 21
35.6640576986
  0
LINE
  5
226
100
AcDbEntity
  8
0
100
AcDbLine
 62
7
  6
BYLAYER
 10
22.2803715945
 20
46.4391847353
 11
22.2073660113
 21
46.3725391713
  0
LINE
  5
227
100
AcDbEntity
  8
0
100
AcDbLine
 62
7
  6
BYLAYER
 10
13.9029004604
 20
41.8640576986
 11
13.9029004604
 21
43.4640576989
  0
LINE
  5
228
100
AcDbEntity
  8
0
100
AcDbLine
 62
7
  6
BYLAYER
 10
14.752900461
 20
32.1640576986
 11
14.752900461
 21
26.3143909086
  0
LINE
  5
229
100
AcDbEntity
  8
0
100
AcDbLine
 62
7
  6
BYLAYER
 10
14.8653364056
 20
41.6640576986
 11
14.8653364056
 21
41.8640576986
  0
LINE
  5
22A
100
AcDbEntity
  8
0
100
AcDbLine
 62
7
  6
BYLAYER
 10
16.652900461
 20
35.6640576986
 11
16.652900461
 21
41.6640576986
  0
LINE
  5
22B
100
AcDbEntity
  8
0
100
AcDbLine
 62
7
  6
BYLAYER
 10
16.752900461
 20
32.1640576986
 11
16.752900461
 21
26.6030660432
  0
LINE
  5
22C
100
AcDbEntity
  8
0
100
AcDbLine
 62
7
  6
BYLAYER
 10
22.2073660113
 20
46.3725391713
 11
21.808225889
 21
45.317202076
  0
LINE
  5
22D
100
AcDbEntity
  8
0
100
AcDbLine
 62
7
  6
BYLAYER
 10
18.502900461
 20
24.9640576986
 11
19.502900461
 21
24.9640576986
  0
LINE
  5
22E
100
AcDbEntity
  8
0
100
AcDbLine
 62
7
  6
BYLAYER
 10
27.302900461
 20
24.9640576986
 11
28.302900461
 21
24.9640576986
  0
LINE
  5
22F
100
AcDbEntity
  8
0
100
AcDbLine
 62
7
  6
BYLAYER
 10
8.452900461
 20
25.8640576986
 11
21.0729492636
 21
25.8640576986
  0
LINE
  5
230
100
AcDbEntity
  8
0
100
AcDbLine
 62
7
  6
BYLAYER
 10
26.5349037379
 20
25.8640576986
 11
38.352900461
 21
25.8640576986
  0
LINE
  5
231
100
AcDbEntity
  8
0
100
AcDbLine
 62
7
  6
BYLAYER
 10
8.452900461
 20
26.3143909086
 11
14.752900461
 21
26.3143909086
  0
LINE
  5
232
100
AcDbEntity
  8
0
100
AcDbLine
 62
7
  6
BYLAYER
 10
32.052900461
 20
26.3143909086
 11
38.352900461
 21
26.3143909086
  0
LINE
  5
233
100
AcDbEntity
  8
0
100
AcDbLine
 62
7
  6
BYLAYER
 10
18.502900461
 20
25.8640576986
 11
18.502900461
 21
5.1640576986
  0
LINE
  5
234
100
AcDbEntity
  8
0
100
AcDbLine
 62
7
  6
BYLAYER
 10
19.502900461
 20
25.8640576986
 11
19.502900461
 21
24.9640576986
  0
LINE
  5
235
100
AcDbEntity
  8
0
100
AcDbLine
 62
7
  6
BYLAYER
 10
21.808225889
 20
45.317202076
 11
21.8039265007
 21
45.2944421926
  0
LINE
  5
236
100
AcDbEntity
  8
0
100
AcDbLine
 62
7
  6
BYLAYER
 10
14.752900461
 20
26.6030660432
 11
16.752900461
 21
26.6030660432
  0
LINE
  5
237
100
AcDbEntity
  8
0
100
AcDbLine
 62
7
  6
BYLAYER
 10
30.052900461
 20
27.1804163124
 11
32.052900461
 21
27.1804163124
  0
LINE
  5
238
100
AcDbEntity
  8
0
100
AcDbLine
 62
7
  6
BYLAYER
 10
21.1763032966
 20
28.3640576986
 11
25.6294975608
 21
28.3640576986
  0
LINE
  5
239
100
AcDbEntity
  8
0
100
AcDbLine
 62
7
  6
BYLAYER
 10
19.9245866837
 20
14.5914415442
 11
19.9406723009
 21
11.2799737421
  0
LINE
  5
23A
100
AcDbEntity
  8
0
100
AcDbLine
 62
7
  6
BYLAYER
 10
20.452900461
 20
41.6640576986
 11
20.452900461
 21
35.6640576986
  0
LINE
  5
23B
100
AcDbEntity
  8
0
100
AcDbLine
 62
7
  6
BYLAYER
 10
20.7704111447
 20
41.8640576986
 11
20.7704111447
 21
41.6640576986
  0
LINE
  5
23C
100
AcDbEntity
  8
0
100
AcDbLine
 62
7
  6
BYLAYER
 10
21.0729492636
 20
26.5830948854
 11
21.0729492636
 21
24.1210755028
  0
LINE
  5
23D
100
AcDbEntity
  8
0
100
AcDbLine
 62
7
  6
BYLAYER
 10
16.752900461
 20
27.1804163124
 11
21.1763032966
 21
28.3640576986
  0
LINE
  5
23E
100
AcDbEntity
  8
0
100
AcDbLine
 62
7
  6
BYLAYER
 10
22.6863658929
 20
30.535640094
 11
24.1194349424
 21
30.535640094
  0
LINE
  5
23F
100
AcDbEntity
  8
0
100
AcDbLine
 62
7
  6
BYLAYER
 10
25.6294975608
 20
28.3640576986
 11
30.052900461
 21
27.1804163124
  0
LINE
  5
240
100
AcDbEntity
  8
0
100
AcDbLine
 62
7
  6
BYLAYER
 10
22.6863658929
 20
30.535640094
 11
20.9602668582
 21
32.1640576986
  0
LINE
  5
241
100
AcDbEntity
  8
0
100
AcDbLine
 62
7
  6
BYLAYER
 10
21.8039265007
 20
45.2944421926
 11
21.8039265007
 21
41.6640576986
  0
LINE
  5
242
100
AcDbEntity
  8
0
100
AcDbLine
 62
7
  6
BYLAYER
 10
21.8039265007
 20
35.6640576986
 11
21.8039265007
 21
32.1640576986
  0
LINE
  5
243
100
AcDbEntity
  8
0
100
AcDbLine
 62
7
  6
BYLAYER
 10
22.0039265007
 20
27.6769095079
 11
22.0039265007
 21
26.9253777894
  0
LINE
  5
244
100
AcDbEntity
  8
0
100
AcDbLine
 62
7
  6
BYLAYER
 10
22.6863658929
 20
28.3640576986
 11
22.6863658929
 21
30.535640094
  0
LINE
  5
245
100
AcDbEntity
  8
0
100
AcDbLine
 62
7
  6
BYLAYER
 10
38.352900461
 20
32.1640576986
 11
8.452900461
 21
32.1640576986
  0
LINE
  5
246
100
AcDbEntity
  8
0
100
AcDbLine
 62
7
  6
BYLAYER
 10
26.202900461
 20
12.2788034944
 11
26.2423198543
 21
11.2683436207
  0
LINE
  5
247
100
AcDbEntity
  8
0
100
AcDbLine
 62
7
  6
BYLAYER
 10
24.1194349424
 20
30.535640094
 11
24.1194349424
 21
28.3640576986
  0
LINE
  5
248
100
AcDbEntity
  8
0
100
AcDbLine
 62
7
  6
BYLAYER
 10
25.6039265007
 20
27.3264830085
 11
25.6039265007
 21
26.9317966167
  0
LINE
  5
249
100
AcDbEntity
  8
0
100
AcDbLine
 62
7
  6
BYLAYER
 10
25.8455340024
 20
32.1640576986
 11
24.1194349424
 21
30.535640094
  0
LINE
  5
24A
100
AcDbEntity
  8
0
100
AcDbLine
 62
7
  6
BYLAYER
 10
38.352900461
 20
33.6640576986
 11
25.8039265007
 21
33.6640576986
  0
LINE
  5
24B
100
AcDbEntity
  8
0
100
AcDbLine
 62
7
  6
BYLAYER
 10
21.8039265007
 20
33.6640576986
 11
8.452900461
 21
33.6640576986
  0
LINE
  5
24C
100
AcDbEntity
  8
0
100
AcDbLine
 62
7
  6
BYLAYER
 10
26.2423198543
 20
11.2683436207
 11
26.2260783172
 21
14.6119098946
  0
LINE
  5
24D
100
AcDbEntity
  8
0
100
AcDbLine
 62
7
  6
BYLAYER
 10
25.8039265007
 20
45.2944421926
 11
25.8039265007
 21
41.6640576986
  0
LINE
  5
24E
100
AcDbEntity
  8
0
100
AcDbLine
 62
7
  6
BYLAYER
 10
25.8039265007
 20
35.6640576986
 11
25.8039265007
 21
32.1640576986
  0
LINE
  5
24F
100
AcDbEntity
  8
0
100
AcDbLine
 62
7
  6
BYLAYER
 10
26.0353897772
 20
41.6640576986
 11
26.0353897772
 21
41.8640576986
  0
LINE
  5
250
100
AcDbEntity
  8
0
100
AcDbLine
 62
7
  6
BYLAYER
 10
26.202900461
 20
14.6119098946
 11
26.202900461
 21
12.2788034944
  0
LINE
  5
251
100
AcDbEntity
  8
0
100
AcDbLine
 62
7
  6
BYLAYER
 10
26.352900461
 20
35.6640576986
 11
26.352900461
 21
41.6640576986
  0
LINE
  5
252
100
AcDbEntity
  8
0
100
AcDbLine
 62
7
  6
BYLAYER
 10
26.5349037379
 20
26.5830948854
 11
26.5349037379
 21
24.1210755028
  0
LINE
  5
253
100
AcDbEntity
  8
0
100
AcDbLine
 62
7
  6
BYLAYER
 10
27.302900461
 20
24.9640576986
 11
27.302900461
 21
25.8640576986
  0
LINE
  5
254
100
AcDbEntity
  8
0
100
AcDbLine
 62
7
  6
BYLAYER
 10
8.452900461
 20
35.6640576986
 11
38.352900461
 21
35.6640576986
  0
LINE
  5
255
100
AcDbEntity
  8
0
100
AcDbLine
 62
7
  6
BYLAYER
 10
28.302900461
 20
5.1640576986
 11
28.302900461
 21
25.8640576986
  0
LINE
  5
256
100
AcDbEntity
  8
0
100
AcDbLine
 62
7
  6
BYLAYER
 10
25.8039265007
 20
45.2944421926
 11
25.7996271125
 21
45.317202076
  0
LINE
  5
257
100
AcDbEntity
  8
0
100
AcDbLine
 62
7
  6
BYLAYER
 10
30.052900461
 20
27.1804163124
 11
30.052900461
 21
32.1640576986
  0
LINE
  5
258
100
AcDbEntity
  8
0
100
AcDbLine
 62
7
  6
BYLAYER
 10
30.152900461
 20
41.6640576986
 11
30.152900461
 21
35.6640576986
  0
LINE
  5
259
100
AcDbEntity
  8
0
100
AcDbLine
 62
7
  6
BYLAYER
 10
31.9404645164
 20
41.8640576986
 11
31.9404645164
 21
41.6640576986
  0
LINE
  5
25A
100
AcDbEntity
  8
0
100
AcDbLine
 62
7
  6
BYLAYER
 10
25.4004869901
 20
46.3725391713
 11
25.7996271125
 21
45.317202076
  0
LINE
  5
25B
100
AcDbEntity
  8
0
100
AcDbLine
 62
7
  6
BYLAYER
 10
32.052900461
 20
26.3143909086
 11
32.052900461
 21
32.1640576986
  0
LINE
  5
25C
100
AcDbEntity
  8
0
100
AcDbLine
 62
7
  6
BYLAYER
 10
32.9029004604
 20
43.4640576984
 11
32.9029004604
 21
41.8640576986
  0
LINE
  5
25D
100
AcDbEntity
  8
0
100
AcDbLine
 62
7
  6
BYLAYER
 10
8.737900461
 20
41.6640576986
 11
38.067900461
 21
41.6640576986
  0
LINE
  5
25E
100
AcDbEntity
  8
0
100
AcDbLine
 62
7
  6
BYLAYER
 10
35.027900461
 20
41.8640576986
 11
25.8039265007
 21
41.8640576986
  0
LINE
  5
25F
100
AcDbEntity
  8
0
100
AcDbLine
 62
7
  6
BYLAYER
 10
21.8039265007
 20
41.8640576986
 11
11.7778940242
 21
41.8640576986
  0
LINE
  5
260
100
AcDbEntity
  8
0
100
AcDbLine
 62
7
  6
BYLAYER
 10
34.267900461
 20
35.6640576986
 11
34.267900461
 21
41.6640576986
  0
LINE
  5
261
100
AcDbEntity
  8
0
100
AcDbLine
 62
7
  6
BYLAYER
 10
34.277736267
 20
48.0140576983
 11
34.2777362669
 21
43.4640576983
  0
LINE
  5
262
100
AcDbEntity
  8
0
100
AcDbLine
 62
7
  6
BYLAYER
 10
35.027900461
 20
41.8640576986
 11
35.027900461
 21
41.6640576986
  0
LINE
  5
263
100
AcDbEntity
  8
0
100
AcDbLine
 62
7
  6
BYLAYER
 10
12.528064654
 20
43.4640576989
 11
21.8039265007
 21
43.4640576987
  0
LINE
  5
264
100
AcDbEntity
  8
0
100
AcDbLine
 62
7
  6
BYLAYER
 10
25.8039265007
 20
43.4640576986
 11
34.2777362669
 21
43.4640576983
  0
LINE
  5
265
100
AcDbEntity
  8
0
100
AcDbLine
 62
7
  6
BYLAYER
 10
25.4004869901
 20
46.3725391713
 11
25.327481407
 21
46.4391847353
  0
LINE
  5
266
100
AcDbEntity
  8
0
100
AcDbLine
 62
7
  6
BYLAYER
 10
36.9779004606
 20
49.5140576983
 11
36.9779004605
 21
48.0140576983
  0
LINE
  5
267
100
AcDbEntity
  8
0
100
AcDbLine
 62
7
  6
BYLAYER
 10
37.6404333108
 20
53.0140576983
 11
37.6404333107
 21
49.5140576983
  0
LINE
  5
268
100
AcDbEntity
  8
0
100
AcDbLine
 62
7
  6
BYLAYER
 10
37.6528693926
 20
56.1580819333
 11
37.6528693925
 21
53.0140576983
  0
LINE
  5
269
100
AcDbEntity
  8
0
100
AcDbLine
 62
7
  6
BYLAYER
 10
38.067900461
 20
41.6640576986
 11
38.067900461
 21
35.6640576986
  0
LINE
  5
26A
100
AcDbEntity
  8
0
100
AcDbLine
 62
7
  6
BYLAYER
 10
23.8039265007
 20
47.2640576986
 11
25.327481407
 21
46.4391847353
  0
LINE
  5
26B
100
AcDbEntity
  8
0
100
AcDbLine
 62
7
  6
BYLAYER
 10
38.352900461
 20
25.8640576986
 11
38.352900461
 21
35.6640576986
  0
LINE
  5
26C
100
AcDbEntity
  8
0
100
AcDbLine
 62
7
  6
BYLAYER
 10
9.8279004605
 20
48.014057699
 11
36.9779004605
 21
48.0140576983
  0
LINE
  5
26D
100
AcDbEntity
  8
0
100
AcDbLine
 62
7
  6
BYLAYER
 10
9.1653676105
 20
49.514057699
 11
37.6404333107
 21
49.5140576983
  0
LINE
  5
26E
100
AcDbEntity
  8
0
100
AcDbLine
 62
7
  6
BYLAYER
 10
9.1529315288
 20
53.014057699
 11
37.6528693925
 21
53.0140576983
  0
LINE
  5
26F
100
AcDbEntity
  8
0
100
AcDbLine
 62
7
  6
BYLAYER
 10
37.6528693926
 20
56.1580819333
 11
9.1529315289
 21
56.158081934
  0
LINE
  5
270
100
AcDbEntity
  8
0
100
AcDbLine
 62
7
  6
BYLAYER
 10
37.0044137212
 20
57.0942384834
 11
9.8013872007
 21
57.0942384834
  0
ARC
  5
271
100
AcDbEntity
  8
0
100
AcDbCircle
 62
7
  6
BYLAYER
 10
23.402900461
 20
20.8763922574
 40
38.6876407683
100
AcDbArc
 50
69.4164693281
 51
110.583530672
  0
ARC
  5
272
100
AcDbEntity
  8
0
100
AcDbCircle
 62
7
  6
BYLAYER
 10
36.6528426849
 20
56.1580819333
 40
0.9999956396
100
AcDbArc
 50
0.0
 51
69.4164693267
  0
ARC
  5
273
100
AcDbEntity
  8
0
100
AcDbCircle
 62
7
  6
BYLAYER
 10
10.1529582367
 20
56.158081934
 40
0.9999956396
100
AcDbArc
 50
110.5835306703
 51
179.9999999985
  0
SPLINE
  5
274
100
AcDbEntity
  8
0
100
AcDbSpline
 62
7
  6
BYLAYER
 70
0
 71
3
 72
23
 73
19
 74
0
 42
0.0000001
 43
0.0000001
 44
0.0000000001
 40
0.0
 40
0.0
 40
0.0
 40
0.0
 40
0.0082750806
 40
0.0171566533
 40
0.0271330946
 40
0.0385458057
 40
0.051617536
 40
0.0664815244
 40
0.1018171175
 40
0.1447960026
 40
0.1953071154
 40
0.253035228
 40
0.3175612557
 40
0.3883383401
 40
0.4647678912
 40
0.6317166179
 40
0.8123887811
 40
1.0
 40
1.0
 40
1.0
 40
1.0
 10
26.5348949316
 20
24.1210755028
 30
0.0
 10
26.5348945141
 20
24.1132417032
 30
0.0
 10
26.5324883222
 20
24.0969238573
 30
0.0
 10
26.5220415347
 20
24.0731977933
 30
0.0
 10
26.5050606255
 20
24.0499024433
 30
0.0
 10
26.481701556
 20
24.0269736028
 30
0.0
 10
26.4520115895
 20
24.0043552978
 30
0.0
 10
26.4010319784
 20
23.9727788946
 30
0.0
 10
26.3209518707
 20
23.9351925966
 30
0.0
 10
26.2060938777
 20
23.8939151391
 30
0.0
 10
26.0683384654
 20
23.854649014
 30
0.0
 10
25.9089467759
 20
23.8177708794
 30
0.0
 10
25.729370144
 20
23.7837146608
 30
0.0
 10
25.5312994848
 20
23.7527818052
 30
0.0
 10
25.2362650735
 20
23.7150839942
 30
0.0
 10
24.8363241135
 20
23.6788366326
 30
0.0
 10
24.3302099793
 20
23.6527021551
 30
0.0
 10
23.9815330706
 20
23.6468462824
 30
0.0
 10
23.8039265007
 20
23.6468462824
 30
0.0
  0
SPLINE
  5
275
100
AcDbEntity
  8
0
100
AcDbSpline
 62
7
  6
BYLAYER
 70
0
 71
3
 72
23
 73
19
 74
0
 42
0.0000001
 43
0.0000001
 44
0.0000000001
 40
0.0
 40
0.0
 40
0.0
 40
0.0
 40
0.0082747076
 40
0.0171566208
 40
0.0271343639
 40
0.0385478179
 40
0.0516177448
 40
0.0664810249
 40
0.1018195903
 40
0.1447965393
 40
0.1953095168
 40
0.2530385276
 40
0.3175663445
 40
0.388345178
 40
0.4647730317
 40
0.631721558
 40
0.8123862062
 40
1.0
 40
1.0
 40
1.0
 40
1.0
 10
26.5348951362
 20
26.5830948884
 30
0.0
 10
26.5348975969
 20
26.5909283416
 30
0.0
 10
26.5324980082
 20
26.6072477852
 30
0.0
 10
26.5220453668
 20
26.6309735684
 30
0.0
 10
26.5050585151
 20
26.6542670099
 30
0.0
 10
26.4816978604
 20
26.6771941281
 30
0.0
 10
26.4520139508
 20
26.6998174824
 30
0.0
 10
26.4010337812
 20
26.7313947293
 30
0.0
 10
26.3209499834
 20
26.7689735893
 30
0.0
 10
26.2060924871
 20
26.8102602212
 30
0.0
 10
26.068334149
 20
26.8495204847
 30
0.0
 10
25.9089388705
 20
26.8864020052
 30
0.0
 10
25.7293575838
 20
26.9204577181
 30
0.0
 10
25.5312849136
 20
26.9513898194
 30
0.0
 10
25.2362506642
 20
26.9890900768
 30
0.0
 10
24.8363178437
 20
27.0253330328
 30
0.0
 10
24.3302082729
 20
27.051469277
 30
0.0
 10
23.9815356713
 20
27.0573241058
 30
0.0
 10
23.8039265007
 20
27.0573241058
 30
0.0
  0
SPLINE
  5
276
100
AcDbEntity
  8
0
100
AcDbSpline
 62
7
  6
BYLAYER
 70
0
 71
3
 72
14
 73
10
 74
0
 42
0.0000001
 43
0.0000001
 44
0.0000000001
 40
0.0
 40
0.0
 40
0.0
 40
0.0
 40
0.1000760665
 40
0.2029509672
 40
0.3113503027
 40
0.4276147742
 40
0.5535952228
 40
0.6906278341
 40
1.0
 40
1.0
 40
1.0
 40
1.0
 10
21.3565484405
 20
26.8048483845
 30
0.0
 10
21.3560766176
 20
26.8516989694
 30
0.0
 10
21.3647572651
 20
26.9470699773
 30
0.0
 10
21.4064936808
 20
27.0876211929
 30
0.0
 10
21.4767332921
 20
27.2248348318
 30
0.0
 10
21.5751302123
 20
27.3570694511
 30
0.0
 10
21.7013446925
 20
27.4828019515
 30
0.0
 10
21.9146163842
 20
27.6459828499
 30
0.0
 10
22.1023833186
 20
27.7424124703
 30
0.0
 10
22.2364229519
 20
27.7972937721
 30
0.0
  0
SPLINE
  5
277
100
AcDbEntity
  8
0
100
AcDbSpline
 62
7
  6
BYLAYER
 70
0
 71
3
 72
23
 73
19
 74
0
 42
0.0000001
 43
0.0000001
 44
0.0000000001
 40
0.0
 40
0.0
 40
0.0
 40
0.0
 40
0.1876110725
 40
0.3682791663
 40
0.5352261121
 40
0.6116544779
 40
0.6824314596
 40
0.7469579614
 40
0.8046869126
 40
0.8552000629
 40
0.8981796005
 40
0.9335170707
 40
0.9483815261
 40
0.9614531722
 40
0.9728661956
 40
0.9828430632
 40
0.9917248704
 40
1.0
 40
1.0
 40
1.0
 40
1.0
 10
23.8039265007
 20
23.6468462824
 30
0.0
 10
23.6263200412
 20
23.6468462824
 30
0.0
 10
23.2776470576
 20
23.6527018355
 30
0.0
 10
22.7715385392
 20
23.6788361703
 30
0.0
 10
22.3716040256
 20
23.7150816034
 30
0.0
 10
22.0765724488
 20
23.7527790858
 30
0.0
 10
21.8785024181
 20
23.7837110355
 30
0.0
 10
21.6989243637
 20
23.8177662655
 30
0.0
 10
21.5395297558
 20
23.8546456996
 30
0.0
 10
21.4017702055
 20
23.8939098107
 30
0.0
 10
21.2869087632
 20
23.9351904857
 30
0.0
 10
21.2068252433
 20
23.9727759805
 30
0.0
 10
21.1558431817
 20
24.0043526909
 30
0.0
 10
21.1261536089
 20
24.0269726175
 30
0.0
 10
21.1027939496
 20
24.0499016313
 30
0.0
 10
21.0858115273
 20
24.0731969818
 30
0.0
 10
21.0753633868
 20
24.0969232549
 30
0.0
 10
21.0729576523
 20
24.1132416557
 30
0.0
 10
21.0729580698
 20
24.1210755029
 30
0.0
  0
SPLINE
  5
278
100
AcDbEntity
  8
0
100
AcDbSpline
 62
7
  6
BYLAYER
 70
0
 71
3
 72
15
 73
11
 74
0
 42
0.0000001
 43
0.0000001
 44
0.0000000001
 40
0.0
 40
0.0
 40
0.0
 40
0.0
 40
0.3080200413
 40
0.4542643072
 40
0.5914126907
 40
0.7167770069
 40
0.8279215516
 40
0.9228219966
 40
0.9637003741
 40
1.0
 40
1.0
 40
1.0
 40
1.0
 10
23.8039265007
 20
27.0573241058
 30
0.0
 10
23.5449890448
 20
27.0573241058
 30
0.0
 10
23.16299791
 20
27.0481214144
 30
0.0
 10
22.6668120553
 20
27.0160467341
 30
0.0
 10
22.3246624193
 20
26.9836381067
 30
0.0
 10
22.0130725882
 20
26.9432565625
 30
0.0
 10
21.7384645371
 20
26.8957599723
 30
0.0
 10
21.5359837255
 20
26.8492136514
 30
0.0
 10
21.3972502247
 20
26.8080941742
 30
0.0
 10
21.3360115945
 20
26.7865312063
 30
0.0
 10
21.3075963554
 20
26.775406483
 30
0.0
  0
SPLINE
  5
279
100
AcDbEntity
  8
0
100
AcDbSpline
 62
7
  6
BYLAYER
 70
0
 71
3
 72
14
 73
10
 74
0
 42
0.0000001
 43
0.0000001
 44
0.0000000001
 40
0.0
 40
0.0
 40
0.0
 40
0.0
 40
0.3515812893
 40
0.49884126
 40
0.6277249882
 40
0.739445526
 40
0.8361644099
 40
0.9213190427
 40
1.0
 40
1.0
 40
1.0
 40
1.0
 10
21.3075963554
 20
26.775406483
 30
0.0
 10
21.2728948943
 20
26.761820669
 30
0.0
 10
21.2243015809
 20
26.7405340622
 30
0.0
 10
21.1666993136
 20
26.7070972206
 30
0.0
 10
21.1331795272
 20
26.6831561381
 30
0.0
 10
21.1067898667
 20
26.6588566407
 30
0.0
 10
21.0875751339
 20
26.6341346087
 30
0.0
 10
21.0757075787
 20
26.6088894286
 30
0.0
 10
21.0729576253
 20
26.591434738
 30
0.0
 10
21.0729580698
 20
26.5830948853
 30
0.0
  0
SPLINE
  5
27A
100
AcDbEntity
  8
0
100
AcDbSpline
 62
7
  6
BYLAYER
 70
0
 71
3
 72
15
 73
11
 74
0
 42
0.0000001
 43
0.0000001
 44
0.0000000001
 40
0.0
 40
0.0
 40
0.0
 40
0.0
 40
0.0309694141
 40
0.0672308232
 40
0.1553736856
 40
0.263111538
 40
0.3882434971
 40
0.5278776254
 40
0.6788103092
 40
1.0
 40
1.0
 40
1.0
 40
1.0
 10
25.3274741733
 20
46.4391843322
 30
0.0
 10
25.3134509672
 20
46.4467727858
 30
0.0
 10
25.2820223001
 20
46.4614276093
 30
0.0
 10
25.2070563087
 20
46.4894824122
 30
0.0
 10
25.0915661535
 20
46.5210662101
 30
0.0
 10
24.9294161031
 20
46.5533910402
 30
0.0
 10
24.7395647861
 20
46.5810814268
 30
0.0
 10
24.5266694964
 20
46.6034789532
 30
0.0
 10
24.2124559729
 20
46.6258167435
 30
0.0
 10
23.9692925024
 20
46.6321683488
 30
0.0
 10
23.8039265007
 20
46.6321683488
 30
0.0
  0
SPLINE
  5
27B
100
AcDbEntity
  8
0
100
AcDbSpline
 62
7
  6
BYLAYER
 70
0
 71
3
 72
23
 73
19
 74
0
 42
0.0000001
 43
0.0000001
 44
0.0000000001
 40
0.0
 40
0.0
 40
0.0
 40
0.0
 40
0.1876110725
 40
0.3682791663
 40
0.5352261121
 40
0.6116544779
 40
0.6824314596
 40
0.7469579614
 40
0.8046869126
 40
0.8552000629
 40
0.8981796005
 40
0.9335170707
 40
0.9483815261
 40
0.9614531722
 40
0.9728661956
 40
0.9828430632
 40
0.9917248704
 40
1.0
 40
1.0
 40
1.0
 40
1.0
 10
23.8039265007
 20
24.5953047233
 30
0.0
 10
23.9815329603
 20
24.5953047233
 30
0.0
 10
24.3302059439
 20
24.5894491702
 30
0.0
 10
24.8363144623
 20
24.5633148353
 30
0.0
 10
25.2362489759
 20
24.5270694022
 30
0.0
 10
25.5312805527
 20
24.4893719198
 30
0.0
 10
25.7293505834
 20
24.4584399701
 30
0.0
 10
25.9089286377
 20
24.4243847402
 30
0.0
 10
26.0683232457
 20
24.3875053061
 30
0.0
 10
26.206082796
 20
24.348241195
 30
0.0
 10
26.3209442383
 20
24.30696052
 30
0.0
 10
26.4010277582
 20
24.2693750252
 30
0.0
 10
26.4520098198
 20
24.2377983148
 30
0.0
 10
26.4816993926
 20
24.2151783882
 30
0.0
 10
26.5050590519
 20
24.1922493744
 30
0.0
 10
26.5220414742
 20
24.1689540239
 30
0.0
 10
26.5324896147
 20
24.1452277508
 30
0.0
 10
26.5348953492
 20
24.12890935
 30
0.0
 10
26.5348949316
 20
24.1210755028
 30
0.0
  0
SPLINE
  5
27C
100
AcDbEntity
  8
0
100
AcDbSpline
 62
7
  6
BYLAYER
 70
0
 71
3
 72
9
 73
5
 74
0
 42
0.0000001
 43
0.0000001
 44
0.0000000001
 40
0.0
 40
0.0
 40
0.0
 40
0.0
 40
0.2386766055
 40
1.0
 40
1.0
 40
1.0
 40
1.0
 10
25.7996180793
 20
45.3172019732
 30
0.0
 10
25.7990076573
 20
45.3188187852
 30
0.0
 10
25.7962104616
 20
45.3255020563
 30
0.0
 10
25.7925031849
 20
45.331786438
 30
0.0
 10
25.7893442489
 20
45.3363041423
 30
0.0
  0
SPLINE
  5
27D
100
AcDbEntity
  8
0
100
AcDbSpline
 62
7
  6
BYLAYER
 70
0
 71
3
 72
18
 73
14
 74
0
 42
0.0000001
 43
0.0000001
 44
0.0000000001
 40
0.0
 40
0.0
 40
0.0
 40
0.0
 40
0.0212038098
 40
0.0483127212
 40
0.0819299816
 40
0.1222152718
 40
0.16906153
 40
0.2222571014
 40
0.346252571
 40
0.49072004
 40
0.651211795
 40
0.8228523312
 40
1.0
 40
1.0
 40
1.0
 40
1.0
 10
25.7893442489
 20
45.3363041423
 30
0.0
 10
25.7811029564
 20
45.348090302
 30
0.0
 10
25.757176665
 20
45.3712299327
 30
0.0
 10
25.7101236546
 20
45.4010571028
 30
0.0
 10
25.6479133046
 20
45.4301179131
 30
0.0
 10
25.5708827451
 20
45.4581203342
 30
0.0
 10
25.4795043786
 20
45.4849267104
 30
0.0
 10
25.3317251323
 20
45.5204973777
 30
0.0
 10
25.1167763349
 20
45.5588532551
 30
0.0
 10
24.8279923125
 20
45.5949123163
 30
0.0
 10
24.5057577154
 20
45.6216423532
 30
0.0
 10
24.160665019
 20
45.6380559408
 30
0.0
 10
23.9240784703
 20
45.6417385479
 30
0.0
 10
23.8039265007
 20
45.6417385479
 30
0.0
  0
SPLINE
  5
27E
100
AcDbEntity
  8
0
100
AcDbSpline
 62
7
  6
BYLAYER
 70
0
 71
3
 72
23
 73
19
 74
0
 42
0.0000001
 43
0.0000001
 44
0.0000000001
 40
0.0
 40
0.0
 40
0.0
 40
0.0
 40
0.0082750806
 40
0.0171566533
 40
0.0271330946
 40
0.0385458057
 40
0.051617536
 40
0.0664815244
 40
0.1018171175
 40
0.1447960026
 40
0.1953071154
 40
0.253035228
 40
0.3175612557
 40
0.3883383401
 40
0.4647678912
 40
0.6317166179
 40
0.8123887811
 40
1.0
 40
1.0
 40
1.0
 40
1.0
 10
21.0729580698
 20
24.1210755029
 30
0.0
 10
21.0729584874
 20
24.1289093025
 30
0.0
 10
21.0753646793
 20
24.1452271484
 30
0.0
 10
21.0858114668
 20
24.1689532124
 30
0.0
 10
21.102792376
 20
24.1922485624
 30
0.0
 10
21.1261514454
 20
24.2151774028
 30
0.0
 10
21.155841412
 20
24.2377957079
 30
0.0
 10
21.2068210231
 20
24.2693721111
 30
0.0
 10
21.2869011308
 20
24.3069584091
 30
0.0
 10
21.4017591238
 20
24.3482358666
 30
0.0
 10
21.539514536
 20
24.3875019917
 30
0.0
 10
21.6989062256
 20
24.4243801262
 30
0.0
 10
21.8784828575
 20
24.4584363448
 30
0.0
 10
22.0765535167
 20
24.4893692005
 30
0.0
 10
22.371587928
 20
24.5270670114
 30
0.0
 10
22.771528888
 20
24.5633143731
 30
0.0
 10
23.2776430222
 20
24.5894488506
 30
0.0
 10
23.6263199308
 20
24.5953047233
 30
0.0
 10
23.8039265007
 20
24.5953047233
 30
0.0
  0
SPLINE
  5
27F
100
AcDbEntity
  8
0
100
AcDbSpline
 62
7
  6
BYLAYER
 70
0
 71
3
 72
15
 73
11
 74
0
 42
0.0000001
 43
0.0000001
 44
0.0000000001
 40
0.0
 40
0.0
 40
0.0
 40
0.0
 40
0.3211896908
 40
0.4721223746
 40
0.6117565029
 40
0.736888462
 40
0.8446263144
 40
0.9327691768
 40
0.9690305859
 40
1.0
 40
1.0
 40
1.0
 40
1.0
 10
23.8039265007
 20
46.6321683488
 30
0.0
 10
23.6385604991
 20
46.6321683488
 30
0.0
 10
23.3953970285
 20
46.6258167435
 30
0.0
 10
23.0811835051
 20
46.6034789532
 30
0.0
 10
22.8682882154
 20
46.5810814268
 30
0.0
 10
22.6784368984
 20
46.5533910402
 30
0.0
 10
22.516286848
 20
46.5210662101
 30
0.0
 10
22.4007966927
 20
46.4894824122
 30
0.0
 10
22.3258307014
 20
46.4614276093
 30
0.0
 10
22.2944020343
 20
46.4467727858
 30
0.0
 10
22.2803788281
 20
46.4391843322
 30
0.0
  0
SPLINE
  5
280
100
AcDbEntity
  8
0
100
AcDbSpline
 62
7
  6
BYLAYER
 70
0
 71
3
 72
18
 73
14
 74
0
 42
0.0000001
 43
0.0000001
 44
0.0000000001
 40
0.0
 40
0.0
 40
0.0
 40
0.0
 40
0.1771476688
 40
0.348788205
 40
0.50927996
 40
0.653747429
 40
0.7777428986
 40
0.83093847
 40
0.8777847282
 40
0.9180700184
 40
0.9516872788
 40
0.9787961902
 40
1.0
 40
1.0
 40
1.0
 40
1.0
 10
23.8039265007
 20
45.6417385479
 30
0.0
 10
23.6837745312
 20
45.6417385479
 30
0.0
 10
23.4471879825
 20
45.6380559408
 30
0.0
 10
23.102095286
 20
45.6216423532
 30
0.0
 10
22.779860689
 20
45.5949123163
 30
0.0
 10
22.4910766665
 20
45.5588532551
 30
0.0
 10
22.2761278692
 20
45.5204973777
 30
0.0
 10
22.1283486229
 20
45.4849267104
 30
0.0
 10
22.0369702564
 20
45.4581203342
 30
0.0
 10
21.9599396969
 20
45.4301179131
 30
0.0
 10
21.8977293469
 20
45.4010571028
 30
0.0
 10
21.8506763365
 20
45.3712299327
 30
0.0
 10
21.8267500451
 20
45.348090302
 30
0.0
 10
21.8185087525
 20
45.3363041423
 30
0.0
  0
SPLINE
  5
281
100
AcDbEntity
  8
0
100
AcDbSpline
 62
7
  6
BYLAYER
 70
0
 71
3
 72
9
 73
5
 74
0
 42
0.0000001
 43
0.0000001
 44
0.0000000001
 40
0.0
 40
0.0
 40
0.0
 40
0.0
 40
0.2627438069
 40
1.0
 40
1.0
 40
1.0
 40
1.0
 10
21.8185087525
 20
45.3363041423
 30
0.0
 10
21.8174186569
 20
45.3347451586
 30
0.0
 10
21.8134295229
 20
45.3287039638
 30
0.0
 10
21.8101203036
 20
45.3221957437
 30
0.0
 10
21.8082349222
 20
45.3172019732
 30
0.0
  0
ELLIPSE
  5
282
100
AcDbEntity
  8
0
100
AcDbEllipse
 62
7
  6
BYLAYER
 10
23.8039265007
 20
27.3264830085
 30
0.0
 11
1.8
 21
-0.0
 31
0.0
 40
0.5320888862
 41
6.2831854
 42
8.9108806479
  0
ENDSEC
  0
SECTION
  2
OBJECTS
  0
DICTIONARY
  5
C
100
AcDbDictionary
280
0
281
1
  3
ACAD_GROUP
350
D
  3
ACAD_MLINESTYLE
350
17
  3
ACAD_LAYOUT
350
1A
  3
ACAD_PLOTSETTINGS
350
19
  3
ACAD_PLOTSTYLENAME
350
E
  0
DICTIONARY
  5
D
102
{ACAD_REACTORS
330
C
102
}
100
AcDbDictionary
280
0
281
1
  0
ACDBDICTIONARYWDFLT
  5
E
102
{ACAD_REACTORS
330
C
102
}
100
AcDbDictionary
281
1
  3
Normal
350
F
100
AcDbDictionaryWithDefault
340
F
  0
DICTIONARY
  5
17
102
{ACAD_REACTORS
330
C
102
}
100
AcDbDictionary
280
0
281
1
  3
Standard
350
18
  0
DICTIONARY
  5
19
102
{ACAD_REACTORS
330
C
102
}
100
AcDbDictionary
281
1
  0
DICTIONARY
  5
1A
102
{ACAD_REACTORS
330
C
102
}
100
AcDbDictionary
281
1
  3
Model
350
283
  3
Layout1
350
284
  0
ACDBPLACEHOLDER
  5
F
102
{ACAD_REACTORS
330
E
102
}
  0
MLINESTYLE
  5
18
102
{ACAD_REACTORS
330
17
102
}
100
AcDbMlineStyle
  2
STANDARD
 70
0
  3

 62
256
 51
90.0
 52
90.0
 71
2
 49
0.5
 62
256
  6
BYLAYER
 49
-0.5
 62
256
  6
BYLAYER
  0
LAYOUT
  5
283
102
{ACAD_REACTORS
330
1A
102
}
100
AcDbPlotSettings
  1

  2
none_device
  4

  6

 40
0.0
 41
0.0
 42
0.0
 43
0.0
 44
210.0
 45
297.0
 46
0.0
 47
0.0
 48
0.0
 49
0.0
140
0.0
141
0.0
142
1.0
143
1.0
 70
1024
 72
1
 73
0
 74
0
  7

 75
0
147
1.0
148
0.0
149
0.0
100
AcDbLayout
  1
Model
 70
0
 71
0
 10
0.0
 20
0.0
 11
210.0
 21
297.0
 12
0.0
 22
0.0
 32
0.0
 14
0.0
 24
0.0
 34
0.0
 15
0.0
 25
0.0
 35
0.0
146
0.0
 13
0.0
 23
0.0
 33
0.0
 16
1.0
 26
0.0
 36
0.0
 17
0.0
 27
1.0
 37
0.0
 76
0
330
210
345
0
346
0
  0
LAYOUT
  5
284
102
{ACAD_REACTORS
330
1A
102
}
100
AcDbPlotSettings
  1

  2
none_device
  4

  6

 40
0.0
 41
0.0
 42
0.0
 43
0.0
 44
210.0
 45
297.0
 46
0.0
 47
0.0
 48
0.0
 49
0.0
140
0.0
141
0.0
142
1.0
143
1.0
 70
0
 72
1
 73
0
 74
0
  7

 75
0
147
1.0
148
0.0
149
0.0
100
AcDbLayout
  1
Layout1
 70
0
 71
1
 10
0.0
 20
0.0
 11
210.0
 21
297.0
 12
0.0
 22
0.0
 32
0.0
 14
0.0
 24
0.0
 34
0.0
 15
0.0
 25
0.0
 35
0.0
146
0.0
 13
0.0
 23
0.0
 33
0.0
 16
1.0
 26
0.0
 36
0.0
 17
0.0
 27
1.0
 37
0.0
 76
0
330
211
345
0
346
0
  0
ENDSEC
  0
EOF
