999
DXF file: C:\Users\sesa63760\Dev\_Creo\CAD\MCADPP0003157_3D-CAD\drw0001_1.dxf
999
Pro/ENGINEER 2019471 by Parametric Technology Corporation
  0
SECTION
  2
HEADER
  9
$ACADVER
  1
AC1024
  9
$DWGCODEPAGE
  3
ANSI_1252
  9
$EXTMAX
 10
398.3591553428
 20
563.3936625562
 30
0.0
  9
$EXTMIN
 10
0.0
 20
0.0
 30
0.0
  9
$LIMMIN
 10
0.0
 20
0.0
  9
$LIMMAX
 10
398.3591553428
 20
563.3936625562
  9
$VIEWCTR
 10
199.1795776714
 20
281.6968312781
  9
$VIEWSIZE
 40
563.3936625562
  9
$CLAYER
  8
0
  9
$LTSCALE
 40
36.7249202259
  9
$CELTYPE
  6
BYLAYER
  9
$DIMSCALE
 40
1.0
  9
$DIMASZ
 40
4.7423708969
  9
$DIMEXO
 40
1.0
  9
$DIMDLI
 40
25.373581247
  9
$DIMEXE
 40
1.0
  9
$DIMCEN
 40
6.0095324006
  9
$DIMLFAC
 40
1.0
  9
$DIMBLK
  1
_FILLED
  9
$DIMALT
 70
0
  9
$DIMALTF
 40
0.0393700787
  9
$DIMTXT
 40
6.6393192557
  9
$DIMTOL
 70
1
  9
$DIMLIM
 70
0
  9
$DIMTFAC
 40
1.0
  9
$DIMTP
 40
0.01
  9
$DIMTM
 40
0.01
  9
$DIMGAP
 40
0.625
  9
$DIMDSEP
 70
46
  9
$AUNITS
 70
0
  9
$PDMODE
 70
3
  9
$PDSIZE
 40
0.3125
  9
$HANDSEED
  5
38D
  9
$TILEMODE
 70
1
  9
$MEASUREMENT
 70
1
  9
$INSUNITS
 70
4
  0
ENDSEC
  0
SECTION
  2
CLASSES
  0
CLASS
  1
ACDBDICTIONARYWDFLT
  2
AcDbDictionaryWithDefault
  3
AutoCAD 2000
 90
0
 91
1
280
0
281
0
  0
CLASS
  1
ACDBPLACEHOLDER
  2
AcDbPlaceHolder
  3
AutoCAD 2000
 90
0
 91
1
280
0
281
0
  0
CLASS
  1
LAYOUT
  2
AcDbLayout
  3
AutoCAD 2000
 90
0
 91
0
280
0
281
0
  0
ENDSEC
  0
SECTION
  2
TABLES
  0
TABLE
  2
VPORT
  5
8
100
AcDbSymbolTable
 70
2
  0
VPORT
  5
1F4
100
AcDbSymbolTableRecord
100
AcDbViewportTableRecord
  2
*ACTIVE
 70
0
 10
0.0
 20
0.0
 11
1.0
 21
1.0
 12
199.1795776714
 22
281.6968312781
 13
0.0
 23
0.0
 14
1.0
 24
1.0
 15
0.0
 25
0.0
 16
0.0
 26
0.0
 36
1.0
 17
0.0
 27
0.0
 37
0.0
 40
563.3936625562
 41
0.7070707071
 42
50.0
 43
0.0
 44
0.0
 50
0.0
 51
0.0
 71
0
 72
100
 73
1
 74
1
 75
0
 76
0
 77
0
 78
0
  0
ENDTAB
  0
TABLE
  2
LTYPE
  5
5
100
AcDbSymbolTable
 70
6
  0
LTYPE
  5
14
100
AcDbSymbolTableRecord
100
AcDbLinetypeTableRecord
  2
BYBLOCK
 70
0
  3

 72
65
 73
0
 40
0.0
  0
LTYPE
  5
15
100
AcDbSymbolTableRecord
100
AcDbLinetypeTableRecord
  2
BYLAYER
 70
0
  3

 72
65
 73
0
 40
0.0
  0
LTYPE
  5
16
100
AcDbSymbolTableRecord
100
AcDbLinetypeTableRecord
  2
CONTINUOUS
 70
64
  3
Solid line
 72
65
 73
0
 40
0.0
  0
LTYPE
  5
1F5
100
AcDbSymbolTableRecord
100
AcDbLinetypeTableRecord
  2
CENTER
 70
64
  3
____ _ ____ _ ____ _ ____ _ ____ _ ____ _ ____
 72
65
 73
4
 40
0.6
 49
0.375
 74
0
 49
-0.075
 74
0
 49
0.075
 74
0
 49
-0.075
 74
0
  0
LTYPE
  5
1F6
100
AcDbSymbolTableRecord
100
AcDbLinetypeTableRecord
  2
HIDDEN
 70
64
  3
- - - - - - - - - - - - - - - - - - - -
 72
65
 73
2
 40
0.2
 49
0.1
 74
0
 49
-0.1
 74
0
  0
LTYPE
  5
1F7
100
AcDbSymbolTableRecord
100
AcDbLinetypeTableRecord
  2
PHANTOM
 70
64
  3
_____ _ _ _____ _ _ _____ _ _ _____
 72
65
 73
6
 40
0.8
 49
0.45
 74
0
 49
-0.05
 74
0
 49
0.1
 74
0
 49
-0.05
 74
0
 49
0.1
 74
0
 49
-0.05
 74
0
  0
LTYPE
  5
1F8
100
AcDbSymbolTableRecord
100
AcDbLinetypeTableRecord
  2
DOT
 70
64
  3
. . . . . . . . . . . . . . . . . . . .
 72
65
 73
2
 40
0.2
 49
0.1
 74
0
 49
-0.1
 74
0
  0
LTYPE
  5
1F9
100
AcDbSymbolTableRecord
100
AcDbLinetypeTableRecord
  2
DASHED
 70
64
  3
- - - - - - - - - - - - - - - - - - - -
 72
65
 73
2
 40
0.2
 49
0.1
 74
0
 49
-0.1
 74
0
  0
ENDTAB
  0
TABLE
  2
LAYER
  5
2
100
AcDbSymbolTable
 70
36
  0
LAYER
  5
10
100
AcDbSymbolTableRecord
100
AcDbLayerTableRecord
  2
0
 70
0
 62
7
  6
CONTINUOUS
370
-3
390
F
  0
LAYER
  5
1FA
100
AcDbSymbolTableRecord
100
AcDbLayerTableRecord
  2
DEFAULT_1
 70
0
 62
7
  6
CENTER
370
-3
390
F
  0
LAYER
  5
1FB
100
AcDbSymbolTableRecord
100
AcDbLayerTableRecord
  2
DEFAULT_2
 70
0
 62
8
  6
HIDDEN
370
-3
390
F
  0
LAYER
  5
1FC
100
AcDbSymbolTableRecord
100
AcDbLayerTableRecord
  2
DEFAULT_3
 70
0
 62
7
  6
PHANTOM
370
-3
390
F
  0
LAYER
  5
1FD
100
AcDbSymbolTableRecord
100
AcDbLayerTableRecord
  2
00_COMPONENTS
 70
0
 62
7
  6
CONTINUOUS
370
-3
390
F
  0
LAYER
  5
1FE
100
AcDbSymbolTableRecord
100
AcDbLayerTableRecord
  2
01_1_DEFAULT_DATUMS
 70
0
 62
7
  6
CONTINUOUS
370
-3
390
F
  0
LAYER
  5
1FF
100
AcDbSymbolTableRecord
100
AcDbLayerTableRecord
  2
01_PLANES
 70
0
 62
7
  6
CONTINUOUS
370
-3
390
F
  0
LAYER
  5
200
100
AcDbSymbolTableRecord
100
AcDbLayerTableRecord
  2
02_COORD_SYS
 70
0
 62
7
  6
CONTINUOUS
370
-3
390
F
  0
LAYER
  5
201
100
AcDbSymbolTableRecord
100
AcDbLayerTableRecord
  2
03_AXES
 70
0
 62
7
  6
CONTINUOUS
370
-3
390
F
  0
LAYER
  5
202
100
AcDbSymbolTableRecord
100
AcDbLayerTableRecord
  2
04_POINTS
 70
0
 62
7
  6
CONTINUOUS
370
-3
390
F
  0
LAYER
  5
203
100
AcDbSymbolTableRecord
100
AcDbLayerTableRecord
  2
05_CURVES
 70
0
 62
7
  6
CONTINUOUS
370
-3
390
F
  0
LAYER
  5
204
100
AcDbSymbolTableRecord
100
AcDbLayerTableRecord
  2
06_SURFS
 70
0
 62
7
  6
CONTINUOUS
370
-3
390
F
  0
LAYER
  5
205
100
AcDbSymbolTableRecord
100
AcDbLayerTableRecord
  2
07_COSMETICS
 70
0
 62
7
  6
CONTINUOUS
370
-3
390
F
  0
LAYER
  5
206
100
AcDbSymbolTableRecord
100
AcDbLayerTableRecord
  2
10_NOTES
 70
0
 62
7
  6
CONTINUOUS
370
-3
390
F
  0
LAYER
  5
207
100
AcDbSymbolTableRecord
100
AcDbLayerTableRecord
  2
11_NOTES_PUB
 70
0
 62
7
  6
CONTINUOUS
370
-3
390
F
  0
LAYER
  5
208
100
AcDbSymbolTableRecord
100
AcDbLayerTableRecord
  2
13_REF_GTOL
 70
0
 62
7
  6
CONTINUOUS
370
-3
390
F
  0
LAYER
  5
209
100
AcDbSymbolTableRecord
100
AcDbLayerTableRecord
  2
16_MISC
 70
0
 62
7
  6
CONTINUOUS
370
-3
390
F
  0
LAYER
  5
20A
100
AcDbSymbolTableRecord
100
AcDbLayerTableRecord
  2
17_NO_PRINT
 70
0
 62
7
  6
CONTINUOUS
370
-3
390
F
  0
LAYER
  5
20B
100
AcDbSymbolTableRecord
100
AcDbLayerTableRecord
  2
18_DATUM_CAMS_JOINTS
 70
0
 62
7
  6
CONTINUOUS
370
-3
390
F
  0
LAYER
  5
20C
100
AcDbSymbolTableRecord
100
AcDbLayerTableRecord
  2
19_DATUM_FUNCTIONAL
 70
0
 62
7
  6
CONTINUOUS
370
-3
390
F
  0
LAYER
  5
20D
100
AcDbSymbolTableRecord
100
AcDbLayerTableRecord
  2
20_DATUM_KINEMATIC_SCHEME
 70
0
 62
7
  6
CONTINUOUS
370
-3
390
F
  0
LAYER
  5
20E
100
AcDbSymbolTableRecord
100
AcDbLayerTableRecord
  2
SHELL173
 70
0
 62
7
  6
CONTINUOUS
370
-3
390
F
  0
ENDTAB
  0
TABLE
  2
STYLE
  5
3
100
AcDbSymbolTable
 70
1
  0
STYLE
  5
11
100
AcDbSymbolTableRecord
100
AcDbTextStyleTableRecord
  2
STANDARD
 70
0
 40
0.0
 41
0.8
 50
0.0
 71
0
 42
0.2
  3
txt
  4

  0
STYLE
  5
20F
100
AcDbSymbolTableRecord
100
AcDbTextStyleTableRecord
  2
TEXTSTYLE_1
 70
0
 40
0.0
 41
0.8
 50
0.0
 71
0
 42
0.2
  3
gdt
  4

  0
ENDTAB
  0
TABLE
  2
VIEW
  5
6
100
AcDbSymbolTable
 70
0
  0
ENDTAB
  0
TABLE
  2
UCS
  5
7
100
AcDbSymbolTable
 70
0
  0
ENDTAB
  0
TABLE
  2
APPID
  5
9
100
AcDbSymbolTable
 70
1
  0
APPID
  5
210
100
AcDbSymbolTableRecord
100
AcDbRegAppTableRecord
  2
ACAD
 70
0
  0
ENDTAB
  0
TABLE
  2
BLOCK_RECORD
  5
1
100
AcDbSymbolTable
 70
0
  0
BLOCK_RECORD
  5
211
100
AcDbSymbolTableRecord
100
AcDbBlockTableRecord
  2
*Model_Space
  0
BLOCK_RECORD
  5
212
100
AcDbSymbolTableRecord
100
AcDbBlockTableRecord
  2
*Paper_Space
  0
BLOCK_RECORD
  5
213
100
AcDbSymbolTableRecord
100
AcDbBlockTableRecord
  2
_FILLED
  0
ENDTAB
  0
TABLE
  2
DIMSTYLE
  5
A
100
AcDbSymbolTable
 70
1
100
AcDbDimStyleTable
 71
0
  0
DIMSTYLE
105
214
100
AcDbSymbolTableRecord
100
AcDbDimStyleTableRecord
  2
STANDARD
 70
0
  3

  4

 40
1.0
 41
4.7423708969
 42
1.0
 43
0.38
 44
1.0
 45
0.0
 46
0.0
 47
0.01
 48
0.01
140
6.6393192557
141
0.09
142
0.0
143
25.4
144
1.0
145
0.0
146
1.0
147
0.625
 71
1
 72
0
 73
0
 74
0
 75
0
 76
0
 77
1
 78
8
 79
2
170
0
171
1
172
0
173
0
174
0
175
0
176
0
177
0
178
0
270
2
179
2
271
2
272
2
273
2
274
2
275
0
280
0
281
0
282
0
283
1
284
8
285
0
286
0
287
3
288
0
340
11
278
46
341
213
342
213
343
213
344
213
  0
ENDTAB
  0
ENDSEC
  0
SECTION
  2
BLOCKS
  0
BLOCK
  5
20
100
AcDbEntity
  8
0
100
AcDbBlockBegin
  2
*Model_Space
 70
0
 10
0.0
 20
0.0
 30
0.0
  3
*Model_Space
  1

  0
ENDBLK
  5
21
100
AcDbEntity
  8
0
100
AcDbBlockEnd
  0
BLOCK
  5
1C
100
AcDbEntity
  8
0
100
AcDbBlockBegin
  2
*Paper_Space
 70
0
 10
0.0
 20
0.0
 30
0.0
  3
*Paper_Space
  1

  0
ENDBLK
  5
1D
100
AcDbEntity
  8
0
100
AcDbBlockEnd
  0
BLOCK
  5
215
100
AcDbEntity
  8
0
100
AcDbBlockBegin
  2
_FILLED
 70
64
 10
0.0
 20
0.0
  3
_FILLED
  1

  0
SOLID
  5
216
100
AcDbEntity
  8
0
  6
BYBLOCK
 62
0
100
AcDbTrace
 10
0.0
 20
0.0
 11
-1.0
 21
0.25
 12
-1.0
 22
-0.25
 13
-1.0
 23
-0.25
  0
ENDBLK
  5
217
100
AcDbEntity
  8
0
  6
BYBLOCK
 62
0
100
AcDbBlockEnd
  0
ENDSEC
  0
SECTION
  2
ENTITIES
  0
LINE
  5
218
100
AcDbEntity
  8
0
100
AcDbLine
 62
7
  6
CONTINUOUS
 10
46.2142452507
 20
356.1375480851
 11
46.2142452507
 21
356.9540505022
  0
LINE
  5
219
100
AcDbEntity
  8
0
100
AcDbLine
 62
7
  6
CONTINUOUS
 10
49.0426605996
 20
358.7503276011
 11
49.0426605996
 21
362.9144899285
  0
LINE
  5
21A
100
AcDbEntity
  8
0
100
AcDbLine
 62
7
  6
CONTINUOUS
 10
49.8911852042
 20
364.3841858137
 11
52.5781797856
 21
365.9355135984
  0
LINE
  5
21B
100
AcDbEntity
  8
0
100
AcDbLine
 62
7
  6
CONTINUOUS
 10
56.1136989717
 20
367.9767343677
 11
61.0634258322
 21
370.8344434448
  0
LINE
  5
21C
100
AcDbEntity
  8
0
100
AcDbLine
 62
7
  6
CONTINUOUS
 10
64.5989450183
 20
372.8756642142
 11
67.2859395997
 21
374.4269919989
  0
LINE
  5
21D
100
AcDbEntity
  8
0
100
AcDbLine
 62
7
  6
CONTINUOUS
 10
63.1847608956
 20
368.7932362729
 11
59.6492417095
 21
366.7520155035
  0
LINE
  5
21E
100
AcDbEntity
  8
0
100
AcDbLine
 62
7
  6
CONTINUOUS
 10
60.0028117353
 20
366.1396456175
 11
63.1847608956
 21
367.9767338558
  0
LINE
  5
21F
100
AcDbEntity
  8
0
100
AcDbLine
 62
7
  6
CONTINUOUS
 10
59.6492417095
 20
366.3437730455
 11
59.6492417095
 21
366.7520155035
  0
LINE
  5
220
100
AcDbEntity
  8
0
100
AcDbLine
 62
7
  6
CONTINUOUS
 10
63.1847608956
 20
368.7932362729
 11
63.1847608956
 21
367.9767338558
  0
LINE
  5
221
100
AcDbEntity
  8
0
100
AcDbLine
 62
7
  6
CONTINUOUS
 10
63.8918676767
 20
367.9767355554
 11
63.8918676767
 21
368.7932379726
  0
LINE
  5
222
100
AcDbEntity
  8
0
100
AcDbLine
 62
7
  6
CONTINUOUS
 10
46.2142452507
 20
356.9540505022
 11
48.9012398321
 21
358.5053782869
  0
LINE
  5
223
100
AcDbEntity
  8
0
100
AcDbLine
 62
7
  6
CONTINUOUS
 10
72.3772167621
 20
359.4036819222
 11
75.9127359482
 21
361.4449026915
  0
LINE
  5
224
100
AcDbEntity
  8
0
100
AcDbLine
 62
7
  6
CONTINUOUS
 10
75.9127330042
 20
361.8531451457
 11
75.9127330042
 21
361.4449026856
  0
LINE
  5
225
100
AcDbEntity
  8
0
100
AcDbLine
 62
7
  6
CONTINUOUS
 10
77.3269848382
 20
356.1377541825
 11
77.3269848382
 21
356.5459966405
  0
LINE
  5
226
100
AcDbEntity
  8
0
100
AcDbLine
 62
7
  6
CONTINUOUS
 10
80.8625040242
 20
358.5872174099
 11
80.8625040242
 21
357.7707149927
  0
LINE
  5
227
100
AcDbEntity
  8
0
100
AcDbLine
 62
7
  6
CONTINUOUS
 10
81.5696108054
 20
357.7707166924
 11
81.5696108054
 21
358.5872191096
  0
LINE
  5
228
100
AcDbEntity
  8
0
100
AcDbLine
 62
7
  6
CONTINUOUS
 10
80.8625040242
 20
358.5872174099
 11
77.3269848382
 21
356.5459966405
  0
LINE
  5
229
100
AcDbEntity
  8
0
100
AcDbLine
 62
7
  6
CONTINUOUS
 10
77.6805548639
 20
355.9336267544
 11
80.8625040242
 21
357.7707149927
  0
LINE
  5
22A
100
AcDbEntity
  8
0
100
AcDbLine
 62
7
  6
CONTINUOUS
 10
93.5904761329
 20
351.6471262827
 11
93.5904761329
 21
351.2388838226
  0
LINE
  5
22B
100
AcDbEntity
  8
0
100
AcDbLine
 62
7
  6
CONTINUOUS
 10
95.0047279668
 20
345.9317353195
 11
95.0047279668
 21
346.3399777775
  0
LINE
  5
22C
100
AcDbEntity
  8
0
100
AcDbLine
 62
7
  6
CONTINUOUS
 10
90.0549598908
 20
349.1976630592
 11
93.5904790769
 21
351.2388838285
  0
LINE
  5
22D
100
AcDbEntity
  8
0
100
AcDbLine
 62
7
  6
CONTINUOUS
 10
98.5402471529
 20
348.3811985469
 11
95.0047279668
 21
346.3399777775
  0
LINE
  5
22E
100
AcDbEntity
  8
0
100
AcDbLine
 62
7
  6
CONTINUOUS
 10
95.3582979926
 20
345.7276078914
 11
98.5402471529
 21
347.5646961297
  0
LINE
  5
22F
100
AcDbEntity
  8
0
100
AcDbLine
 62
7
  6
CONTINUOUS
 10
98.5402471529
 20
348.3811985469
 11
98.5402471529
 21
347.5646961297
  0
LINE
  5
230
100
AcDbEntity
  8
0
100
AcDbLine
 62
7
  6
CONTINUOUS
 10
99.2473539341
 20
347.5646978294
 11
99.2473539341
 21
348.3812002465
  0
LINE
  5
231
100
AcDbEntity
  8
0
100
AcDbLine
 62
7
  6
CONTINUOUS
 10
107.7327030195
 20
338.9916441961
 11
111.2682222056
 21
341.0328649655
  0
LINE
  5
232
100
AcDbEntity
  8
0
100
AcDbLine
 62
7
  6
CONTINUOUS
 10
111.2682192616
 20
341.4411074197
 11
111.2682192616
 21
341.0328649596
  0
LINE
  5
233
100
AcDbEntity
  8
0
100
AcDbLine
 62
7
  6
CONTINUOUS
 10
112.6824710955
 20
335.7257164565
 11
112.6824710955
 21
336.1339589145
  0
LINE
  5
234
100
AcDbEntity
  8
0
100
AcDbLine
 62
7
  6
CONTINUOUS
 10
116.2179902816
 20
338.1751796839
 11
116.2179902816
 21
337.3586772667
  0
LINE
  5
235
100
AcDbEntity
  8
0
100
AcDbLine
 62
7
  6
CONTINUOUS
 10
116.9250970628
 20
337.3586789664
 11
116.9250970628
 21
338.1751813835
  0
LINE
  5
236
100
AcDbEntity
  8
0
100
AcDbLine
 62
7
  6
CONTINUOUS
 10
116.2179902816
 20
338.1751796839
 11
112.6824710955
 21
336.1339589145
  0
LINE
  5
237
100
AcDbEntity
  8
0
100
AcDbLine
 62
7
  6
CONTINUOUS
 10
113.0360411213
 20
335.5215890284
 11
116.2179902816
 21
337.3586772667
  0
LINE
  5
238
100
AcDbEntity
  8
0
100
AcDbLine
 62
7
  6
CONTINUOUS
 10
355.0453004672
 20
202.9063121314
 11
355.6452772715
 21
202.9657230488
  0
LINE
  5
239
100
AcDbEntity
  8
0
100
AcDbLine
 62
7
  6
CONTINUOUS
 10
355.2553087037
 20
208.5773602792
 11
354.6553318994
 21
208.5179493619
  0
LINE
  5
23A
100
AcDbEntity
  8
0
100
AcDbLine
 62
7
  6
CONTINUOUS
 10
128.9459623903
 20
331.2350885567
 11
128.9459623903
 21
330.8268460966
  0
LINE
  5
23B
100
AcDbEntity
  8
0
100
AcDbLine
 62
7
  6
CONTINUOUS
 10
130.3602142242
 20
325.5196975934
 11
130.3602142242
 21
325.9279400515
  0
LINE
  5
23C
100
AcDbEntity
  8
0
100
AcDbLine
 62
7
  6
CONTINUOUS
 10
125.4104461482
 20
328.7856253331
 11
128.9459653342
 21
330.8268461025
  0
LINE
  5
23D
100
AcDbEntity
  8
0
100
AcDbLine
 62
7
  6
CONTINUOUS
 10
133.8957334103
 20
327.9691608209
 11
130.3602142242
 21
325.9279400515
  0
LINE
  5
23E
100
AcDbEntity
  8
0
100
AcDbLine
 62
7
  6
CONTINUOUS
 10
130.71378425
 20
325.3155701654
 11
133.8957334103
 21
327.1526584037
  0
LINE
  5
23F
100
AcDbEntity
  8
0
100
AcDbLine
 62
7
  6
CONTINUOUS
 10
133.8957334103
 20
327.9691608209
 11
133.8957334103
 21
327.1526584037
  0
LINE
  5
240
100
AcDbEntity
  8
0
100
AcDbLine
 62
7
  6
CONTINUOUS
 10
134.6028401914
 20
327.1526601034
 11
134.6028401914
 21
327.9691625205
  0
LINE
  5
241
100
AcDbEntity
  8
0
100
AcDbLine
 62
7
  6
CONTINUOUS
 10
143.0881892768
 20
318.5796064701
 11
146.6237084629
 21
320.6208272395
  0
LINE
  5
242
100
AcDbEntity
  8
0
100
AcDbLine
 62
7
  6
CONTINUOUS
 10
146.6237055189
 20
321.0290696937
 11
146.6237055189
 21
320.6208272336
  0
LINE
  5
243
100
AcDbEntity
  8
0
100
AcDbLine
 62
7
  6
CONTINUOUS
 10
148.0379573529
 20
315.3136787304
 11
148.0379573529
 21
315.7219211885
  0
LINE
  5
244
100
AcDbEntity
  8
0
100
AcDbLine
 62
7
  6
CONTINUOUS
 10
151.5734765389
 20
317.7631419578
 11
151.5734765389
 21
316.9466395407
  0
LINE
  5
245
100
AcDbEntity
  8
0
100
AcDbLine
 62
7
  6
CONTINUOUS
 10
152.2805833201
 20
316.9466412404
 11
152.2805833201
 21
317.7631436575
  0
LINE
  5
246
100
AcDbEntity
  8
0
100
AcDbLine
 62
7
  6
CONTINUOUS
 10
151.5734765389
 20
317.7631419578
 11
148.0379573529
 21
315.7219211885
  0
LINE
  5
247
100
AcDbEntity
  8
0
100
AcDbLine
 62
7
  6
CONTINUOUS
 10
148.3915273786
 20
315.1095513024
 11
151.5734765389
 21
316.9466395407
  0
LINE
  5
248
100
AcDbEntity
  8
0
100
AcDbLine
 62
7
  6
CONTINUOUS
 10
164.3014486476
 20
310.8230508307
 11
164.3014486476
 21
310.4148083706
  0
LINE
  5
249
100
AcDbEntity
  8
0
100
AcDbLine
 62
7
  6
CONTINUOUS
 10
165.7157004815
 20
305.1076598674
 11
165.7157004815
 21
305.5159023255
  0
LINE
  5
24A
100
AcDbEntity
  8
0
100
AcDbLine
 62
7
  6
CONTINUOUS
 10
160.7659324055
 20
308.3735876071
 11
164.3014515916
 21
310.4148083765
  0
LINE
  5
24B
100
AcDbEntity
  8
0
100
AcDbLine
 62
7
  6
CONTINUOUS
 10
169.2512196676
 20
307.5571230948
 11
165.7157004815
 21
305.5159023255
  0
LINE
  5
24C
100
AcDbEntity
  8
0
100
AcDbLine
 62
7
  6
CONTINUOUS
 10
166.0692705073
 20
304.9035324394
 11
169.2512196676
 21
306.7406206777
  0
LINE
  5
24D
100
AcDbEntity
  8
0
100
AcDbLine
 62
7
  6
CONTINUOUS
 10
169.2512196676
 20
307.5571230948
 11
169.2512196676
 21
306.7406206777
  0
LINE
  5
24E
100
AcDbEntity
  8
0
100
AcDbLine
 62
7
  6
CONTINUOUS
 10
169.9583264488
 20
306.7406223774
 11
169.9583264488
 21
307.5571247945
  0
LINE
  5
24F
100
AcDbEntity
  8
0
100
AcDbLine
 62
7
  6
CONTINUOUS
 10
178.4436755342
 20
298.1675687441
 11
181.9791947203
 21
300.2087895135
  0
LINE
  5
250
100
AcDbEntity
  8
0
100
AcDbLine
 62
7
  6
CONTINUOUS
 10
181.9791917763
 20
300.6170319677
 11
181.9791917763
 21
300.2087895075
  0
LINE
  5
251
100
AcDbEntity
  8
0
100
AcDbLine
 62
7
  6
CONTINUOUS
 10
183.3934436102
 20
294.9016410044
 11
183.3934436102
 21
295.3098834625
  0
LINE
  5
252
100
AcDbEntity
  8
0
100
AcDbLine
 62
7
  6
CONTINUOUS
 10
186.9289627963
 20
297.3511042318
 11
186.9289627963
 21
296.5346018147
  0
LINE
  5
253
100
AcDbEntity
  8
0
100
AcDbLine
 62
7
  6
CONTINUOUS
 10
187.6360695775
 20
296.5346035144
 11
187.6360695775
 21
297.3511059315
  0
LINE
  5
254
100
AcDbEntity
  8
0
100
AcDbLine
 62
7
  6
CONTINUOUS
 10
186.9289627963
 20
297.3511042318
 11
183.3934436102
 21
295.3098834625
  0
LINE
  5
255
100
AcDbEntity
  8
0
100
AcDbLine
 62
7
  6
CONTINUOUS
 10
183.747013636
 20
294.6975135764
 11
186.9289627963
 21
296.5346018147
  0
LINE
  5
256
100
AcDbEntity
  8
0
100
AcDbLine
 62
7
  6
CONTINUOUS
 10
333.5836375504
 20
190.228505448
 11
46.2142452507
 21
356.1375480851
  0
LINE
  5
257
100
AcDbEntity
  8
0
100
AcDbLine
 62
7
  6
CONTINUOUS
 10
333.5836375504
 20
191.0450078651
 11
46.2142452507
 21
356.9540505022
  0
LINE
  5
258
100
AcDbEntity
  8
0
100
AcDbLine
 62
7
  6
CONTINUOUS
 10
48.9012398321
 20
358.5053782869
 11
336.2706321318
 21
192.5963356499
  0
LINE
  5
259
100
AcDbEntity
  8
0
100
AcDbLine
 62
7
  6
CONTINUOUS
 10
336.4120528993
 20
192.8412849641
 11
49.0426605996
 21
358.7503276011
  0
LINE
  5
25A
100
AcDbEntity
  8
0
100
AcDbLine
 62
7
  6
CONTINUOUS
 10
199.656934905
 20
290.4110131047
 11
199.656934905
 21
290.0027706445
  0
LINE
  5
25B
100
AcDbEntity
  8
0
100
AcDbLine
 62
7
  6
CONTINUOUS
 10
201.0711867389
 20
284.6956221414
 11
201.0711867389
 21
285.1038645995
  0
LINE
  5
25C
100
AcDbEntity
  8
0
100
AcDbLine
 62
7
  6
CONTINUOUS
 10
196.1214186629
 20
287.9615498811
 11
199.6569378489
 21
290.0027706505
  0
LINE
  5
25D
100
AcDbEntity
  8
0
100
AcDbLine
 62
7
  6
CONTINUOUS
 10
204.606705925
 20
287.1450853688
 11
201.0711867389
 21
285.1038645995
  0
LINE
  5
25E
100
AcDbEntity
  8
0
100
AcDbLine
 62
7
  6
CONTINUOUS
 10
201.4247567647
 20
284.4914947134
 11
204.606705925
 21
286.3285829517
  0
LINE
  5
25F
100
AcDbEntity
  8
0
100
AcDbLine
 62
7
  6
CONTINUOUS
 10
49.0426605996
 20
362.9144899285
 11
336.4120528993
 21
197.0054472914
  0
LINE
  5
260
100
AcDbEntity
  8
0
100
AcDbLine
 62
7
  6
CONTINUOUS
 10
337.2605775039
 20
198.4751431766
 11
49.8911852042
 21
364.3841858137
  0
LINE
  5
261
100
AcDbEntity
  8
0
100
AcDbLine
 62
7
  6
CONTINUOUS
 10
339.8491980022
 20
199.1531725798
 11
339.8983863033
 21
199.1247743434
  0
LINE
  5
262
100
AcDbEntity
  8
0
100
AcDbLine
 62
7
  6
CONTINUOUS
 10
52.5781797856
 20
365.9355135984
 11
339.9475720854
 21
200.0264709613
  0
LINE
  5
263
100
AcDbEntity
  8
0
100
AcDbLine
 62
7
  6
CONTINUOUS
 10
343.4830912714
 20
202.0676917307
 11
56.1136989717
 21
367.9767343677
  0
LINE
  5
264
100
AcDbEntity
  8
0
100
AcDbLine
 62
7
  6
CONTINUOUS
 10
59.6492446535
 20
366.3437730493
 11
71.670109981
 21
359.4036802225
  0
LINE
  5
265
100
AcDbEntity
  8
0
100
AcDbLine
 62
7
  6
CONTINUOUS
 10
77.3269877821
 20
356.1377541863
 11
89.3478531096
 21
349.1976613595
  0
LINE
  5
266
100
AcDbEntity
  8
0
100
AcDbLine
 62
7
  6
CONTINUOUS
 10
95.0047309108
 20
345.9317353233
 11
107.0255962383
 21
338.9916424965
  0
LINE
  5
267
100
AcDbEntity
  8
0
100
AcDbLine
 62
7
  6
CONTINUOUS
 10
112.6824740395
 20
335.7257164603
 11
124.703339367
 21
328.7856236335
  0
LINE
  5
268
100
AcDbEntity
  8
0
100
AcDbLine
 62
7
  6
CONTINUOUS
 10
130.3602171682
 20
325.5196975973
 11
142.3810824957
 21
318.5796047705
  0
LINE
  5
269
100
AcDbEntity
  8
0
100
AcDbLine
 62
7
  6
CONTINUOUS
 10
148.0379602968
 20
315.3136787343
 11
160.0588256243
 21
308.3735859074
  0
LINE
  5
26A
100
AcDbEntity
  8
0
100
AcDbLine
 62
7
  6
CONTINUOUS
 10
165.7157034255
 20
305.1076598713
 11
177.736568753
 21
298.1675670444
  0
LINE
  5
26B
100
AcDbEntity
  8
0
100
AcDbLine
 62
7
  6
CONTINUOUS
 10
183.3934465542
 20
294.9016410083
 11
195.4143118817
 21
287.9615481814
  0
LINE
  5
26C
100
AcDbEntity
  8
0
100
AcDbLine
 62
7
  6
CONTINUOUS
 10
201.0711896829
 20
284.6956221453
 11
213.0920550104
 21
277.7555293184
  0
LINE
  5
26D
100
AcDbEntity
  8
0
100
AcDbLine
 62
7
  6
CONTINUOUS
 10
218.7489328115
 20
274.4896032823
 11
230.769798139
 21
267.5495104554
  0
LINE
  5
26E
100
AcDbEntity
  8
0
100
AcDbLine
 62
7
  6
CONTINUOUS
 10
236.4266759402
 20
264.2835844193
 11
248.4475412677
 21
257.3434915924
  0
LINE
  5
26F
100
AcDbEntity
  8
0
100
AcDbLine
 62
7
  6
CONTINUOUS
 10
254.1044190689
 20
254.0775655562
 11
266.1252843964
 21
247.1374727294
  0
LINE
  5
270
100
AcDbEntity
  8
0
100
AcDbLine
 62
7
  6
CONTINUOUS
 10
271.7821621976
 20
243.8715466932
 11
283.8030275251
 21
236.9314538664
  0
LINE
  5
271
100
AcDbEntity
  8
0
100
AcDbLine
 62
7
  6
CONTINUOUS
 10
289.4599053262
 20
233.6655278302
 11
301.4807706537
 21
226.7254350034
  0
LINE
  5
272
100
AcDbEntity
  8
0
100
AcDbLine
 62
7
  6
CONTINUOUS
 10
307.1376484549
 20
223.4595089672
 11
319.1585137824
 21
216.5194161404
  0
LINE
  5
273
100
AcDbEntity
  8
0
100
AcDbLine
 62
7
  6
CONTINUOUS
 10
324.8153915836
 20
213.2534901042
 11
336.8362569111
 21
206.3133972774
  0
LINE
  5
274
100
AcDbEntity
  8
0
100
AcDbLine
 62
7
  6
CONTINUOUS
 10
342.4931347123
 20
203.0474712412
 11
343.83664319
 21
202.2718138076
  0
LINE
  5
275
100
AcDbEntity
  8
0
100
AcDbLine
 62
7
  6
CONTINUOUS
 10
204.606705925
 20
287.1450853688
 11
204.606705925
 21
286.3285829517
  0
LINE
  5
276
100
AcDbEntity
  8
0
100
AcDbLine
 62
7
  6
CONTINUOUS
 10
205.3138127061
 20
286.3285846514
 11
205.3138127061
 21
287.1450870685
  0
LINE
  5
277
100
AcDbEntity
  8
0
100
AcDbLine
 62
7
  6
CONTINUOUS
 10
213.7991617915
 20
277.7555310181
 11
217.3346809776
 21
279.7967517875
  0
LINE
  5
278
100
AcDbEntity
  8
0
100
AcDbLine
 62
7
  6
CONTINUOUS
 10
63.8918676767
 20
367.9767355554
 11
75.5591659224
 21
361.2407701605
  0
LINE
  5
279
100
AcDbEntity
  8
0
100
AcDbLine
 62
7
  6
CONTINUOUS
 10
81.5696108054
 20
357.7707166924
 11
93.2369090511
 21
351.0347512975
  0
LINE
  5
27A
100
AcDbEntity
  8
0
100
AcDbLine
 62
7
  6
CONTINUOUS
 10
99.2473539341
 20
347.5646978294
 11
110.9146521798
 21
340.8287324345
  0
LINE
  5
27B
100
AcDbEntity
  8
0
100
AcDbLine
 62
7
  6
CONTINUOUS
 10
116.9250970628
 20
337.3586789664
 11
128.5923953085
 21
330.6227135714
  0
LINE
  5
27C
100
AcDbEntity
  8
0
100
AcDbLine
 62
7
  6
CONTINUOUS
 10
134.6028401914
 20
327.1526601034
 11
146.2701384371
 21
320.4166947084
  0
LINE
  5
27D
100
AcDbEntity
  8
0
100
AcDbLine
 62
7
  6
CONTINUOUS
 10
152.2805833201
 20
316.9466412404
 11
163.9478815658
 21
310.2106758454
  0
LINE
  5
27E
100
AcDbEntity
  8
0
100
AcDbLine
 62
7
  6
CONTINUOUS
 10
169.9583264488
 20
306.7406223774
 11
181.6256246945
 21
300.0046569824
  0
LINE
  5
27F
100
AcDbEntity
  8
0
100
AcDbLine
 62
7
  6
CONTINUOUS
 10
187.6360695775
 20
296.5346035144
 11
199.3033678232
 21
289.7986381194
  0
LINE
  5
280
100
AcDbEntity
  8
0
100
AcDbLine
 62
7
  6
CONTINUOUS
 10
205.3138127061
 20
286.3285846514
 11
216.9811109518
 21
279.5926192564
  0
LINE
  5
281
100
AcDbEntity
  8
0
100
AcDbLine
 62
7
  6
CONTINUOUS
 10
222.9915558348
 20
276.1225657884
 11
234.6588540805
 21
269.3866003934
  0
LINE
  5
282
100
AcDbEntity
  8
0
100
AcDbLine
 62
7
  6
CONTINUOUS
 10
240.6692989635
 20
265.9165469254
 11
252.3365972092
 21
259.1805815304
  0
LINE
  5
283
100
AcDbEntity
  8
0
100
AcDbLine
 62
7
  6
CONTINUOUS
 10
258.3470420922
 20
255.7105280623
 11
270.0143403379
 21
248.9745626674
  0
LINE
  5
284
100
AcDbEntity
  8
0
100
AcDbLine
 62
7
  6
CONTINUOUS
 10
276.0247852208
 20
245.5045091993
 11
287.6920834665
 21
238.7685438044
  0
LINE
  5
285
100
AcDbEntity
  8
0
100
AcDbLine
 62
7
  6
CONTINUOUS
 10
293.7025283495
 20
235.2984903363
 11
305.3698265952
 21
228.5625249414
  0
LINE
  5
286
100
AcDbEntity
  8
0
100
AcDbLine
 62
7
  6
CONTINUOUS
 10
311.3802714782
 20
225.0924714733
 11
323.0475697239
 21
218.3565060784
  0
LINE
  5
287
100
AcDbEntity
  8
0
100
AcDbLine
 62
7
  6
CONTINUOUS
 10
329.0580146069
 20
214.8864526103
 11
340.7253128525
 21
208.1504872154
  0
LINE
  5
288
100
AcDbEntity
  8
0
100
AcDbLine
 62
7
  6
CONTINUOUS
 10
346.7357577355
 20
204.6804337473
 11
348.0792662133
 21
203.9047763137
  0
LINE
  5
289
100
AcDbEntity
  8
0
100
AcDbLine
 62
7
  6
CONTINUOUS
 10
348.3344440487
 20
204.0521024263
 11
348.3836323499
 21
204.0237041898
  0
LINE
  5
28A
100
AcDbEntity
  8
0
100
AcDbLine
 62
7
  6
CONTINUOUS
 10
348.0792662133
 20
204.7212787308
 11
346.7357577355
 21
205.4969361644
  0
LINE
  5
28B
100
AcDbEntity
  8
0
100
AcDbLine
 62
7
  6
CONTINUOUS
 10
341.0788799344
 20
208.7628622006
 11
329.0580146069
 21
215.7029550274
  0
LINE
  5
28C
100
AcDbEntity
  8
0
100
AcDbLine
 62
7
  6
CONTINUOUS
 10
323.4011368057
 20
218.9688810636
 11
311.3802714782
 21
225.9089738905
  0
LINE
  5
28D
100
AcDbEntity
  8
0
100
AcDbLine
 62
7
  6
CONTINUOUS
 10
305.723393677
 20
229.1748999266
 11
293.7025283495
 21
236.1149927535
  0
LINE
  5
28E
100
AcDbEntity
  8
0
100
AcDbLine
 62
7
  6
CONTINUOUS
 10
288.0456505483
 20
239.3809187896
 11
276.0247852208
 21
246.3210116165
  0
LINE
  5
28F
100
AcDbEntity
  8
0
100
AcDbLine
 62
7
  6
CONTINUOUS
 10
270.3679074197
 20
249.5869376526
 11
258.3470420922
 21
256.5270304795
  0
LINE
  5
290
100
AcDbEntity
  8
0
100
AcDbLine
 62
7
  6
CONTINUOUS
 10
252.690164291
 20
259.7929565156
 11
240.6692989635
 21
266.7330493425
  0
LINE
  5
291
100
AcDbEntity
  8
0
100
AcDbLine
 62
7
  6
CONTINUOUS
 10
235.0124211623
 20
269.9989753786
 11
222.9915558348
 21
276.9390682055
  0
LINE
  5
292
100
AcDbEntity
  8
0
100
AcDbLine
 62
7
  6
CONTINUOUS
 10
217.3346780336
 20
280.2049942417
 11
205.3138127061
 21
287.1450870685
  0
LINE
  5
293
100
AcDbEntity
  8
0
100
AcDbLine
 62
7
  6
CONTINUOUS
 10
199.656934905
 20
290.4110131047
 11
187.6360695775
 21
297.3511059315
  0
LINE
  5
294
100
AcDbEntity
  8
0
100
AcDbLine
 62
7
  6
CONTINUOUS
 10
181.9791917763
 20
300.6170319677
 11
169.9583264488
 21
307.5571247945
  0
LINE
  5
295
100
AcDbEntity
  8
0
100
AcDbLine
 62
7
  6
CONTINUOUS
 10
164.3014486476
 20
310.8230508307
 11
152.2805833201
 21
317.7631436575
  0
LINE
  5
296
100
AcDbEntity
  8
0
100
AcDbLine
 62
7
  6
CONTINUOUS
 10
146.6237055189
 20
321.0290696937
 11
134.6028401914
 21
327.9691625205
  0
LINE
  5
297
100
AcDbEntity
  8
0
100
AcDbLine
 62
7
  6
CONTINUOUS
 10
128.9459623903
 20
331.2350885567
 11
116.9250970628
 21
338.1751813835
  0
LINE
  5
298
100
AcDbEntity
  8
0
100
AcDbLine
 62
7
  6
CONTINUOUS
 10
111.2682192616
 20
341.4411074197
 11
99.2473539341
 21
348.3812002465
  0
LINE
  5
299
100
AcDbEntity
  8
0
100
AcDbLine
 62
7
  6
CONTINUOUS
 10
93.5904761329
 20
351.6471262827
 11
81.5696108054
 21
358.5872191096
  0
LINE
  5
29A
100
AcDbEntity
  8
0
100
AcDbLine
 62
7
  6
CONTINUOUS
 10
75.9127330042
 20
361.8531451457
 11
63.8918676767
 21
368.7932379726
  0
LINE
  5
29B
100
AcDbEntity
  8
0
100
AcDbLine
 62
7
  6
CONTINUOUS
 10
61.0634258322
 20
370.8344434448
 11
348.4328181319
 21
204.9254008078
  0
LINE
  5
29C
100
AcDbEntity
  8
0
100
AcDbLine
 62
7
  6
CONTINUOUS
 10
351.3329452289
 20
205.0495628817
 11
355.0452874517
 21
202.9062895873
  0
LINE
  5
29D
100
AcDbEntity
  8
0
100
AcDbLine
 62
7
  6
CONTINUOUS
 10
354.7967526668
 20
203.4556329647
 11
351.5086836105
 21
205.3539575736
  0
LINE
  5
29E
100
AcDbEntity
  8
0
100
AcDbLine
 62
7
  6
CONTINUOUS
 10
355.6452772715
 20
203.7822254659
 11
355.5038546934
 21
203.8638739823
  0
LINE
  5
29F
100
AcDbEntity
  8
0
100
AcDbLine
 62
7
  6
CONTINUOUS
 10
351.968337318
 20
206.9666215771
 11
64.5989450183
 21
372.8756642142
  0
LINE
  5
2A0
100
AcDbEntity
  8
0
100
AcDbLine
 62
7
  6
CONTINUOUS
 10
358.3322718529
 20
205.3335532506
 11
355.5038565041
 21
206.9665026714
  0
LINE
  5
2A1
100
AcDbEntity
  8
0
100
AcDbLine
 62
7
  6
CONTINUOUS
 10
354.6553300887
 20
207.7014438085
 11
354.7967526668
 21
207.6197952921
  0
LINE
  5
2A2
100
AcDbEntity
  8
0
100
AcDbLine
 62
7
  6
CONTINUOUS
 10
67.2859395997
 20
374.4269919989
 11
354.6553318994
 21
208.5179493619
  0
LINE
  5
2A3
100
AcDbEntity
  8
0
100
AcDbLine
 62
7
  6
CONTINUOUS
 10
67.8859294195
 20
374.4864254604
 11
355.2553217192
 21
208.5773828233
  0
LINE
  5
2A4
100
AcDbEntity
  8
0
100
AcDbLine
 62
7
  6
CONTINUOUS
 10
217.3346780336
 20
280.2049942417
 11
217.3346780336
 21
279.7967517815
  0
LINE
  5
2A5
100
AcDbEntity
  8
0
100
AcDbLine
 62
7
  6
CONTINUOUS
 10
218.7489298676
 20
274.4896032784
 11
218.7489298676
 21
274.8978457365
  0
LINE
  5
2A6
100
AcDbEntity
  8
0
100
AcDbLine
 62
7
  6
CONTINUOUS
 10
222.2844490536
 20
276.9390665058
 11
222.2844490536
 21
276.1225640887
  0
LINE
  5
2A7
100
AcDbEntity
  8
0
100
AcDbLine
 62
7
  6
CONTINUOUS
 10
222.9915558348
 20
276.1225657884
 11
222.9915558348
 21
276.9390682055
  0
LINE
  5
2A8
100
AcDbEntity
  8
0
100
AcDbLine
 62
7
  6
CONTINUOUS
 10
222.2844490536
 20
276.9390665058
 11
218.7489298676
 21
274.8978457365
  0
LINE
  5
2A9
100
AcDbEntity
  8
0
100
AcDbLine
 62
7
  6
CONTINUOUS
 10
219.1024998933
 20
274.2854758504
 11
222.2844490536
 21
276.1225640887
  0
LINE
  5
2AA
100
AcDbEntity
  8
0
100
AcDbLine
 62
7
  6
CONTINUOUS
 10
235.0124211623
 20
269.9989753786
 11
235.0124211623
 21
269.5907329185
  0
LINE
  5
2AB
100
AcDbEntity
  8
0
100
AcDbLine
 62
7
  6
CONTINUOUS
 10
236.4266729962
 20
264.2835844154
 11
236.4266729962
 21
264.6918268735
  0
LINE
  5
2AC
100
AcDbEntity
  8
0
100
AcDbLine
 62
7
  6
CONTINUOUS
 10
239.9621921823
 20
266.7330476428
 11
239.9621921823
 21
265.9165452257
  0
LINE
  5
2AD
100
AcDbEntity
  8
0
100
AcDbLine
 62
7
  6
CONTINUOUS
 10
231.4769049202
 20
267.5495121551
 11
235.0124241063
 21
269.5907329245
  0
LINE
  5
2AE
100
AcDbEntity
  8
0
100
AcDbLine
 62
7
  6
CONTINUOUS
 10
239.9621921823
 20
266.7330476428
 11
236.4266729962
 21
264.6918268735
  0
LINE
  5
2AF
100
AcDbEntity
  8
0
100
AcDbLine
 62
7
  6
CONTINUOUS
 10
236.780243022
 20
264.0794569874
 11
239.9621921823
 21
265.9165452257
  0
LINE
  5
2B0
100
AcDbEntity
  8
0
100
AcDbLine
 62
7
  6
CONTINUOUS
 10
339.9475720854
 20
199.2099685442
 11
340.2722717524
 21
198.9095868793
  0
LINE
  5
2B1
100
AcDbEntity
  8
0
100
AcDbLine
 62
7
  6
CONTINUOUS
 10
340.272273092
 20
199.7260916013
 11
339.9475720854
 21
200.0264709613
  0
LINE
  5
2B2
100
AcDbEntity
  8
0
100
AcDbLine
 62
7
  6
CONTINUOUS
 10
240.6692989635
 20
265.9165469254
 11
240.6692989635
 21
266.7330493425
  0
LINE
  5
2B3
100
AcDbEntity
  8
0
100
AcDbLine
 62
7
  6
CONTINUOUS
 10
249.1546480489
 20
257.3434932921
 11
252.690167235
 21
259.3847140614
  0
LINE
  5
2B4
100
AcDbEntity
  8
0
100
AcDbLine
 62
7
  6
CONTINUOUS
 10
348.4328181319
 20
204.1088983907
 11
348.757517799
 21
203.8085167257
  0
LINE
  5
2B5
100
AcDbEntity
  8
0
100
AcDbLine
 62
7
  6
CONTINUOUS
 10
348.7575191385
 20
204.6250214477
 11
348.4328181319
 21
204.9254008078
  0
LINE
  5
2B6
100
AcDbEntity
  8
0
100
AcDbLine
 62
7
  6
CONTINUOUS
 10
252.690164291
 20
259.7929565156
 11
252.690164291
 21
259.3847140555
  0
LINE
  5
2B7
100
AcDbEntity
  8
0
100
AcDbLine
 62
7
  6
CONTINUOUS
 10
254.1044161249
 20
254.0775655524
 11
254.1044161249
 21
254.4858080104
  0
LINE
  5
2B8
100
AcDbEntity
  8
0
100
AcDbLine
 62
7
  6
CONTINUOUS
 10
257.639935311
 20
256.5270287798
 11
257.639935311
 21
255.7105263627
  0
LINE
  5
2B9
100
AcDbEntity
  8
0
100
AcDbLine
 62
7
  6
CONTINUOUS
 10
258.3470420922
 20
255.7105280623
 11
258.3470420922
 21
256.5270304795
  0
LINE
  5
2BA
100
AcDbEntity
  8
0
100
AcDbLine
 62
7
  6
CONTINUOUS
 10
257.639935311
 20
256.5270287798
 11
254.1044161249
 21
254.4858080104
  0
LINE
  5
2BB
100
AcDbEntity
  8
0
100
AcDbLine
 62
7
  6
CONTINUOUS
 10
254.4579861507
 20
253.8734381244
 11
257.639935311
 21
255.7105263627
  0
LINE
  5
2BC
100
AcDbEntity
  8
0
100
AcDbLine
 62
7
  6
CONTINUOUS
 10
270.3679074197
 20
249.5869376526
 11
270.3679074197
 21
249.1786951925
  0
LINE
  5
2BD
100
AcDbEntity
  8
0
100
AcDbLine
 62
7
  6
CONTINUOUS
 10
271.7821592536
 20
243.8715466894
 11
271.7821592536
 21
244.2797891474
  0
LINE
  5
2BE
100
AcDbEntity
  8
0
100
AcDbLine
 62
7
  6
CONTINUOUS
 10
275.3176784397
 20
246.3210099168
 11
275.3176784397
 21
245.5045074997
  0
LINE
  5
2BF
100
AcDbEntity
  8
0
100
AcDbLine
 62
7
  6
CONTINUOUS
 10
276.0247852208
 20
245.5045091993
 11
276.0247852208
 21
246.3210116165
  0
LINE
  5
2C0
100
AcDbEntity
  8
0
100
AcDbLine
 62
7
  6
CONTINUOUS
 10
266.8323911776
 20
247.1374744291
 11
270.3679103636
 21
249.1786951984
  0
LINE
  5
2C1
100
AcDbEntity
  8
0
100
AcDbLine
 62
7
  6
CONTINUOUS
 10
275.3176784397
 20
246.3210099168
 11
271.7821592536
 21
244.2797891474
  0
LINE
  5
2C2
100
AcDbEntity
  8
0
100
AcDbLine
 62
7
  6
CONTINUOUS
 10
272.1357292794
 20
243.6674192614
 11
275.3176784397
 21
245.5045074997
  0
LINE
  5
2C3
100
AcDbEntity
  8
0
100
AcDbLine
 62
7
  6
CONTINUOUS
 10
288.0456505483
 20
239.3809187896
 11
288.0456505483
 21
238.9726763295
  0
LINE
  5
2C4
100
AcDbEntity
  8
0
100
AcDbLine
 62
7
  6
CONTINUOUS
 10
284.5101343062
 20
236.9314555661
 11
288.0456534923
 21
238.9726763354
  0
LINE
  5
2C5
100
AcDbEntity
  8
0
100
AcDbLine
 62
7
  6
CONTINUOUS
 10
292.9954215683
 20
236.1149910538
 11
289.4599023823
 21
234.0737702844
  0
LINE
  5
2C6
100
AcDbEntity
  8
0
100
AcDbLine
 62
7
  6
CONTINUOUS
 10
289.813472408
 20
233.4614003984
 11
292.9954215683
 21
235.2984886367
  0
LINE
  5
2C7
100
AcDbEntity
  8
0
100
AcDbLine
 62
7
  6
CONTINUOUS
 10
289.4599023823
 20
233.6655278264
 11
289.4599023823
 21
234.0737702844
  0
LINE
  5
2C8
100
AcDbEntity
  8
0
100
AcDbLine
 62
7
  6
CONTINUOUS
 10
292.9954215683
 20
236.1149910538
 11
292.9954215683
 21
235.2984886367
  0
LINE
  5
2C9
100
AcDbEntity
  8
0
100
AcDbLine
 62
7
  6
CONTINUOUS
 10
293.7025283495
 20
235.2984903363
 11
293.7025283495
 21
236.1149927535
  0
LINE
  5
2CA
100
AcDbEntity
  8
0
100
AcDbLine
 62
7
  6
CONTINUOUS
 10
302.1878774349
 20
226.7254367031
 11
305.723396621
 21
228.7666574724
  0
LINE
  5
2CB
100
AcDbEntity
  8
0
100
AcDbLine
 62
7
  6
CONTINUOUS
 10
305.723393677
 20
229.1748999266
 11
305.723393677
 21
228.7666574665
  0
LINE
  5
2CC
100
AcDbEntity
  8
0
100
AcDbLine
 62
7
  6
CONTINUOUS
 10
307.1376455109
 20
223.4595089634
 11
307.1376455109
 21
223.8677514214
  0
LINE
  5
2CD
100
AcDbEntity
  8
0
100
AcDbLine
 62
7
  6
CONTINUOUS
 10
310.673164697
 20
225.9089721908
 11
310.673164697
 21
225.0924697736
  0
LINE
  5
2CE
100
AcDbEntity
  8
0
100
AcDbLine
 62
7
  6
CONTINUOUS
 10
311.3802714782
 20
225.0924714733
 11
311.3802714782
 21
225.9089738905
  0
LINE
  5
2CF
100
AcDbEntity
  8
0
100
AcDbLine
 62
7
  6
CONTINUOUS
 10
310.673164697
 20
225.9089721908
 11
307.1376455109
 21
223.8677514214
  0
LINE
  5
2D0
100
AcDbEntity
  8
0
100
AcDbLine
 62
7
  6
CONTINUOUS
 10
307.4912155367
 20
223.2553815353
 11
310.673164697
 21
225.0924697736
  0
LINE
  5
2D1
100
AcDbEntity
  8
0
100
AcDbLine
 62
7
  6
CONTINUOUS
 10
67.2859395997
 20
374.4269919989
 11
67.8859164039
 21
374.4864029163
  0
LINE
  5
2D2
100
AcDbEntity
  8
0
100
AcDbLine
 62
7
  6
CONTINUOUS
 10
354.7967526668
 20
203.4556329647
 11
355.0453004672
 21
202.9063121314
  0
LINE
  5
2D3
100
AcDbEntity
  8
0
100
AcDbLine
 62
7
  6
CONTINUOUS
 10
355.5038565041
 20
208.0280394459
 11
355.2553087037
 21
208.5773602792
  0
LINE
  5
2D4
100
AcDbEntity
  8
0
100
AcDbLine
 62
7
  6
CONTINUOUS
 10
323.4011368057
 20
218.9688810636
 11
323.4011368057
 21
218.5606386035
  0
LINE
  5
2D5
100
AcDbEntity
  8
0
100
AcDbLine
 62
7
  6
CONTINUOUS
 10
319.8656205636
 20
216.5194178401
 11
323.4011397497
 21
218.5606386094
  0
LINE
  5
2D6
100
AcDbEntity
  8
0
100
AcDbLine
 62
7
  6
CONTINUOUS
 10
328.3509078257
 20
215.7029533278
 11
324.8153886396
 21
213.6617325584
  0
LINE
  5
2D7
100
AcDbEntity
  8
0
100
AcDbLine
 62
7
  6
CONTINUOUS
 10
325.1689586654
 20
213.0493626723
 11
328.3509078257
 21
214.8864509106
  0
LINE
  5
2D8
100
AcDbEntity
  8
0
100
AcDbLine
 62
7
  6
CONTINUOUS
 10
324.8153886396
 20
213.2534901004
 11
324.8153886396
 21
213.6617325584
  0
LINE
  5
2D9
100
AcDbEntity
  8
0
100
AcDbLine
 62
7
  6
CONTINUOUS
 10
328.3509078257
 20
215.7029533278
 11
328.3509078257
 21
214.8864509106
  0
LINE
  5
2DA
100
AcDbEntity
  8
0
100
AcDbLine
 62
7
  6
CONTINUOUS
 10
329.0580146069
 20
214.8864526103
 11
329.0580146069
 21
215.7029550274
  0
LINE
  5
2DB
100
AcDbEntity
  8
0
100
AcDbLine
 62
7
  6
CONTINUOUS
 10
333.5836375504
 20
191.0450078651
 11
333.5836375504
 21
190.228505448
  0
LINE
  5
2DC
100
AcDbEntity
  8
0
100
AcDbLine
 62
7
  6
CONTINUOUS
 10
336.4120528993
 20
197.0054472914
 11
336.4120528993
 21
192.8412849641
  0
LINE
  5
2DD
100
AcDbEntity
  8
0
100
AcDbLine
 62
7
  6
CONTINUOUS
 10
337.5433636923
 20
206.313398977
 11
341.0788828783
 21
208.3546197464
  0
LINE
  5
2DE
100
AcDbEntity
  8
0
100
AcDbLine
 62
7
  6
CONTINUOUS
 10
337.1191567365
 20
193.2495291179
 11
337.1191567365
 21
197.4136914453
  0
LINE
  5
2DF
100
AcDbEntity
  8
0
100
AcDbLine
 62
7
  6
CONTINUOUS
 10
341.0788799344
 20
208.7628622006
 11
341.0788799344
 21
208.3546197405
  0
LINE
  5
2E0
100
AcDbEntity
  8
0
100
AcDbLine
 62
7
  6
CONTINUOUS
 10
342.4931317683
 20
203.0474712412
 11
342.4931317683
 21
203.4557136954
  0
LINE
  5
2E1
100
AcDbEntity
  8
0
100
AcDbLine
 62
7
  6
CONTINUOUS
 10
343.83664319
 20
202.2718138076
 11
343.83664319
 21
201.4553113905
  0
LINE
  5
2E2
100
AcDbEntity
  8
0
100
AcDbLine
 62
7
  6
CONTINUOUS
 10
346.0286509544
 20
205.4969344648
 11
346.0286509544
 21
204.6804320476
  0
LINE
  5
2E3
100
AcDbEntity
  8
0
100
AcDbLine
 62
7
  6
CONTINUOUS
 10
346.7357577355
 20
204.6804337473
 11
346.7357577355
 21
205.4969361644
  0
LINE
  5
2E4
100
AcDbEntity
  8
0
100
AcDbLine
 62
7
  6
CONTINUOUS
 10
348.0792662133
 20
203.9047763137
 11
348.0792662133
 21
204.7212787308
  0
LINE
  5
2E5
100
AcDbEntity
  8
0
100
AcDbLine
 62
7
  6
CONTINUOUS
 10
346.0286509544
 20
205.4969344648
 11
342.4931317683
 21
203.4557136954
  0
LINE
  5
2E6
100
AcDbEntity
  8
0
100
AcDbLine
 62
7
  6
CONTINUOUS
 10
342.8467017941
 20
202.8433438093
 11
346.0286509544
 21
204.6804320476
  0
LINE
  5
2E7
100
AcDbEntity
  8
0
100
AcDbLine
 62
7
  6
CONTINUOUS
 10
354.6553318994
 20
208.5179493619
 11
351.968337318
 21
206.9666215771
  0
LINE
  5
2E8
100
AcDbEntity
  8
0
100
AcDbLine
 62
7
  6
CONTINUOUS
 10
348.4328181319
 20
204.9254008078
 11
348.0792662133
 21
204.7212787308
  0
LINE
  5
2E9
100
AcDbEntity
  8
0
100
AcDbLine
 62
7
  6
CONTINUOUS
 10
343.83664319
 20
202.2718138076
 11
343.4830912714
 21
202.0676917307
  0
LINE
  5
2EA
100
AcDbEntity
  8
0
100
AcDbLine
 62
7
  6
CONTINUOUS
 10
339.9475720854
 20
200.0264709613
 11
337.2605775039
 21
198.4751431766
  0
LINE
  5
2EB
100
AcDbEntity
  8
0
100
AcDbLine
 62
7
  6
CONTINUOUS
 10
337.2605775039
 20
197.6586407595
 11
339.9475720854
 21
199.2099685442
  0
LINE
  5
2EC
100
AcDbEntity
  8
0
100
AcDbLine
 62
7
  6
CONTINUOUS
 10
343.4830912714
 20
201.2511893136
 11
343.83664319
 21
201.4553113905
  0
LINE
  5
2ED
100
AcDbEntity
  8
0
100
AcDbLine
 62
7
  6
CONTINUOUS
 10
348.0792662133
 20
203.9047763137
 11
348.4328181319
 21
204.1088983907
  0
LINE
  5
2EE
100
AcDbEntity
  8
0
100
AcDbLine
 62
7
  6
CONTINUOUS
 10
351.968337318
 20
206.15011916
 11
354.6553318994
 21
207.7014469447
  0
LINE
  5
2EF
100
AcDbEntity
  8
0
100
AcDbLine
 62
7
  6
CONTINUOUS
 10
358.3322718529
 20
205.3335532506
 11
355.6452772715
 21
203.7822254659
  0
LINE
  5
2F0
100
AcDbEntity
  8
0
100
AcDbLine
 62
7
  6
CONTINUOUS
 10
336.2706321318
 20
192.5963356499
 11
333.5836375504
 21
191.0450078651
  0
LINE
  5
2F1
100
AcDbEntity
  8
0
100
AcDbLine
 62
7
  6
CONTINUOUS
 10
333.5836375504
 20
190.228505448
 11
336.2706321318
 21
191.7798332327
  0
LINE
  5
2F2
100
AcDbEntity
  8
0
100
AcDbLine
 62
7
  6
CONTINUOUS
 10
355.6452772715
 20
202.9657230488
 11
358.3322718529
 21
204.5170508335
  0
LINE
  5
2F3
100
AcDbEntity
  8
0
100
AcDbLine
 62
7
  6
CONTINUOUS
 10
354.7967526668
 20
207.6197952921
 11
354.7967526668
 21
203.4556329647
  0
LINE
  5
2F4
100
AcDbEntity
  8
0
100
AcDbLine
 62
7
  6
CONTINUOUS
 10
355.5038565041
 20
203.8638771186
 11
355.5038565041
 21
208.0280394459
  0
LINE
  5
2F5
100
AcDbEntity
  8
0
100
AcDbLine
 62
7
  6
CONTINUOUS
 10
358.3322718529
 20
204.5170508335
 11
358.3322718529
 21
205.3335532506
  0
SPLINE
  5
2F6
100
AcDbEntity
  8
0
100
AcDbSpline
 62
7
  6
CONTINUOUS
 70
0
 71
3
 72
9
 73
5
 74
0
 42
0.0000001
 43
0.0000001
 44
0.0000000001
 40
0.0
 40
0.0
 40
0.0
 40
0.0
 40
0.2940756765
 40
1.0
 40
1.0
 40
1.0
 40
1.0
 10
354.6553318994
 20
207.7014469447
 30
0.0
 10
354.6640632962
 20
207.7064879889
 30
0.0
 10
354.694523452
 20
207.7213469847
 30
0.0
 10
354.7343893497
 20
207.7234870297
 30
0.0
 10
354.7553459665
 20
207.7113809305
 30
0.0
  0
SPLINE
  5
2F7
100
AcDbEntity
  8
0
100
AcDbSpline
 62
7
  6
CONTINUOUS
 70
0
 71
3
 72
9
 73
5
 74
0
 42
0.0000001
 43
0.0000001
 44
0.0000000001
 40
0.0
 40
0.0
 40
0.0
 40
0.0
 40
0.4999986752
 40
1.0
 40
1.0
 40
1.0
 40
1.0
 10
346.7357577458
 20
204.6804337414
 30
0.0
 10
346.6308157091
 20
204.7410206833
 30
0.0
 10
346.3822045444
 20
204.7889982626
 30
0.0
 10
346.1335931036
 20
204.7410200635
 30
0.0
 10
346.0286509477
 20
204.6804320438
 30
0.0
  0
SPLINE
  5
2F8
100
AcDbEntity
  8
0
100
AcDbSpline
 62
7
  6
CONTINUOUS
 70
0
 71
3
 72
8
 73
4
 74
0
 42
0.0000001
 43
0.0000001
 44
0.0000000001
 40
0.0
 40
0.0
 40
0.0
 40
0.0
 40
1.0
 40
1.0
 40
1.0
 40
1.0
 10
341.2253741581
 20
208.5587401124
 30
0.0
 10
341.2253741709
 20
208.5334006028
 30
0.0
 10
341.2192047306
 20
208.50759389
 30
0.0
 10
341.2085356635
 20
208.4846099445
 30
0.0
  0
SPLINE
  5
2F9
100
AcDbEntity
  8
0
100
AcDbSpline
 62
7
  6
CONTINUOUS
 70
0
 71
3
 72
9
 73
5
 74
0
 42
0.0000001
 43
0.0000001
 44
0.0000000001
 40
0.0
 40
0.0
 40
0.0
 40
0.0
 40
0.2254913531
 40
1.0
 40
1.0
 40
1.0
 40
1.0
 10
341.2085356635
 20
208.4846099445
 30
0.0
 10
341.2026720058
 20
208.4719781008
 30
0.0
 10
341.1706696004
 20
208.4187256903
 30
0.0
 10
341.1203083934
 20
208.3785366361
 30
0.0
 10
341.0788828681
 20
208.3546197405
 30
0.0
  0
SPLINE
  5
2FA
100
AcDbEntity
  8
0
100
AcDbSpline
 62
7
  6
CONTINUOUS
 70
0
 71
3
 72
9
 73
5
 74
0
 42
0.0000001
 43
0.0000001
 44
0.0000000001
 40
0.0
 40
0.0
 40
0.0
 40
0.0
 40
0.4999986752
 40
1.0
 40
1.0
 40
1.0
 40
1.0
 10
329.0580146171
 20
214.8864526044
 30
0.0
 10
328.9530725804
 20
214.9470395463
 30
0.0
 10
328.7044614157
 20
214.9950171256
 30
0.0
 10
328.455849975
 20
214.9470389265
 30
0.0
 10
328.350907819
 20
214.8864509068
 30
0.0
  0
SPLINE
  5
2FB
100
AcDbEntity
  8
0
100
AcDbSpline
 62
7
  6
CONTINUOUS
 70
0
 71
3
 72
9
 73
5
 74
0
 42
0.0000001
 43
0.0000001
 44
0.0000000001
 40
0.0
 40
0.0
 40
0.0
 40
0.0
 40
0.4999986752
 40
1.0
 40
1.0
 40
1.0
 40
1.0
 10
311.3802714885
 20
225.0924714674
 30
0.0
 10
311.2753294517
 20
225.1530584093
 30
0.0
 10
311.026718287
 20
225.2010359887
 30
0.0
 10
310.7781068463
 20
225.1530577895
 30
0.0
 10
310.6731646903
 20
225.0924697698
 30
0.0
  0
SPLINE
  5
2FC
100
AcDbEntity
  8
0
100
AcDbSpline
 62
7
  6
CONTINUOUS
 70
0
 71
3
 72
8
 73
4
 74
0
 42
0.0000001
 43
0.0000001
 44
0.0000000001
 40
0.0
 40
0.0
 40
0.0
 40
0.0
 40
1.0
 40
1.0
 40
1.0
 40
1.0
 10
323.5476310294
 20
218.7647589754
 30
0.0
 10
323.5476310423
 20
218.7394194659
 30
0.0
 10
323.5414616019
 20
218.713612753
 30
0.0
 10
323.5307925348
 20
218.6906288075
 30
0.0
  0
SPLINE
  5
2FD
100
AcDbEntity
  8
0
100
AcDbSpline
 62
7
  6
CONTINUOUS
 70
0
 71
3
 72
9
 73
5
 74
0
 42
0.0000001
 43
0.0000001
 44
0.0000000001
 40
0.0
 40
0.0
 40
0.0
 40
0.0
 40
0.2254913531
 40
1.0
 40
1.0
 40
1.0
 40
1.0
 10
323.5307925348
 20
218.6906288075
 30
0.0
 10
323.5249288771
 20
218.6779969638
 30
0.0
 10
323.4929264717
 20
218.6247445533
 30
0.0
 10
323.4425652647
 20
218.5845554991
 30
0.0
 10
323.4011397394
 20
218.5606386035
 30
0.0
  0
SPLINE
  5
2FE
100
AcDbEntity
  8
0
100
AcDbSpline
 62
7
  6
CONTINUOUS
 70
0
 71
3
 72
9
 73
5
 74
0
 42
0.0000001
 43
0.0000001
 44
0.0000000001
 40
0.0
 40
0.0
 40
0.0
 40
0.0
 40
0.4999986752
 40
1.0
 40
1.0
 40
1.0
 40
1.0
 10
293.7025283598
 20
235.2984903304
 30
0.0
 10
293.597586323
 20
235.3590772723
 30
0.0
 10
293.3489751583
 20
235.4070548517
 30
0.0
 10
293.1003637176
 20
235.3590766525
 30
0.0
 10
292.9954215617
 20
235.2984886328
 30
0.0
  0
SPLINE
  5
2FF
100
AcDbEntity
  8
0
100
AcDbSpline
 62
7
  6
CONTINUOUS
 70
0
 71
3
 72
8
 73
4
 74
0
 42
0.0000001
 43
0.0000001
 44
0.0000000001
 40
0.0
 40
0.0
 40
0.0
 40
0.0
 40
1.0
 40
1.0
 40
1.0
 40
1.0
 10
305.8698879007
 20
228.9707778384
 30
0.0
 10
305.8698879136
 20
228.9454383289
 30
0.0
 10
305.8637184733
 20
228.919631616
 30
0.0
 10
305.8530494062
 20
228.8966476706
 30
0.0
  0
SPLINE
  5
300
100
AcDbEntity
  8
0
100
AcDbSpline
 62
7
  6
CONTINUOUS
 70
0
 71
3
 72
9
 73
5
 74
0
 42
0.0000001
 43
0.0000001
 44
0.0000000001
 40
0.0
 40
0.0
 40
0.0
 40
0.0
 40
0.2254913531
 40
1.0
 40
1.0
 40
1.0
 40
1.0
 10
305.8530494062
 20
228.8966476706
 30
0.0
 10
305.8471857485
 20
228.8840158268
 30
0.0
 10
305.815183343
 20
228.8307634163
 30
0.0
 10
305.764822136
 20
228.7905743622
 30
0.0
 10
305.7233966107
 20
228.7666574665
 30
0.0
  0
SPLINE
  5
301
100
AcDbEntity
  8
0
100
AcDbSpline
 62
7
  6
CONTINUOUS
 70
0
 71
3
 72
9
 73
5
 74
0
 42
0.0000001
 43
0.0000001
 44
0.0000000001
 40
0.0
 40
0.0
 40
0.0
 40
0.0
 40
0.4999986752
 40
1.0
 40
1.0
 40
1.0
 40
1.0
 10
276.0247852311
 20
245.5045091934
 30
0.0
 10
275.9198431944
 20
245.5650961353
 30
0.0
 10
275.6712320297
 20
245.6130737147
 30
0.0
 10
275.4226205889
 20
245.5650955155
 30
0.0
 10
275.317678433
 20
245.5045074958
 30
0.0
  0
SPLINE
  5
302
100
AcDbEntity
  8
0
100
AcDbSpline
 62
7
  6
CONTINUOUS
 70
0
 71
3
 72
9
 73
5
 74
0
 42
0.0000001
 43
0.0000001
 44
0.0000000001
 40
0.0
 40
0.0
 40
0.0
 40
0.0
 40
0.4999986752
 40
1.0
 40
1.0
 40
1.0
 40
1.0
 10
258.3470421024
 20
255.7105280564
 30
0.0
 10
258.2421000657
 20
255.7711149983
 30
0.0
 10
257.993488901
 20
255.8190925777
 30
0.0
 10
257.7448774603
 20
255.7711143785
 30
0.0
 10
257.6399353043
 20
255.7105263588
 30
0.0
  0
SPLINE
  5
303
100
AcDbEntity
  8
0
100
AcDbSpline
 62
7
  6
CONTINUOUS
 70
0
 71
3
 72
8
 73
4
 74
0
 42
0.0000001
 43
0.0000001
 44
0.0000000001
 40
0.0
 40
0.0
 40
0.0
 40
0.0
 40
1.0
 40
1.0
 40
1.0
 40
1.0
 10
288.1921447721
 20
239.1767967014
 30
0.0
 10
288.1921447849
 20
239.1514571919
 30
0.0
 10
288.1859753446
 20
239.125650479
 30
0.0
 10
288.1753062775
 20
239.1026665336
 30
0.0
  0
SPLINE
  5
304
100
AcDbEntity
  8
0
100
AcDbSpline
 62
7
  6
CONTINUOUS
 70
0
 71
3
 72
9
 73
5
 74
0
 42
0.0000001
 43
0.0000001
 44
0.0000000001
 40
0.0
 40
0.0
 40
0.0
 40
0.0
 40
0.2254913531
 40
1.0
 40
1.0
 40
1.0
 40
1.0
 10
288.1753062775
 20
239.1026665336
 30
0.0
 10
288.1694426198
 20
239.0900346898
 30
0.0
 10
288.1374402143
 20
239.0367822793
 30
0.0
 10
288.0870790073
 20
238.9965932252
 30
0.0
 10
288.045653482
 20
238.9726763295
 30
0.0
  0
SPLINE
  5
305
100
AcDbEntity
  8
0
100
AcDbSpline
 62
7
  6
CONTINUOUS
 70
0
 71
3
 72
9
 73
5
 74
0
 42
0.0000001
 43
0.0000001
 44
0.0000000001
 40
0.0
 40
0.0
 40
0.0
 40
0.0
 40
0.4999986752
 40
1.0
 40
1.0
 40
1.0
 40
1.0
 10
240.6692989738
 20
265.9165469194
 30
0.0
 10
240.564356937
 20
265.9771338613
 30
0.0
 10
240.3157457723
 20
266.0251114407
 30
0.0
 10
240.0671343316
 20
265.9771332415
 30
0.0
 10
239.9621921756
 20
265.9165452218
 30
0.0
  0
SPLINE
  5
306
100
AcDbEntity
  8
0
100
AcDbSpline
 62
7
  6
CONTINUOUS
 70
0
 71
3
 72
8
 73
4
 74
0
 42
0.0000001
 43
0.0000001
 44
0.0000000001
 40
0.0
 40
0.0
 40
0.0
 40
0.0
 40
1.0
 40
1.0
 40
1.0
 40
1.0
 10
270.5144016434
 20
249.3828155644
 30
0.0
 10
270.5144016562
 20
249.3574760549
 30
0.0
 10
270.5082322159
 20
249.331669342
 30
0.0
 10
270.4975631488
 20
249.3086853966
 30
0.0
  0
SPLINE
  5
307
100
AcDbEntity
  8
0
100
AcDbSpline
 62
7
  6
CONTINUOUS
 70
0
 71
3
 72
9
 73
5
 74
0
 42
0.0000001
 43
0.0000001
 44
0.0000000001
 40
0.0
 40
0.0
 40
0.0
 40
0.0
 40
0.2254913531
 40
1.0
 40
1.0
 40
1.0
 40
1.0
 10
270.4975631488
 20
249.3086853966
 30
0.0
 10
270.4916994911
 20
249.2960535528
 30
0.0
 10
270.4596970857
 20
249.2428011423
 30
0.0
 10
270.4093358787
 20
249.2026120882
 30
0.0
 10
270.3679103534
 20
249.1786951925
 30
0.0
  0
SPLINE
  5
308
100
AcDbEntity
  8
0
100
AcDbSpline
 62
7
  6
CONTINUOUS
 70
0
 71
3
 72
9
 73
5
 74
0
 42
0.0000001
 43
0.0000001
 44
0.0000000001
 40
0.0
 40
0.0
 40
0.0
 40
0.0
 40
0.4999986752
 40
1.0
 40
1.0
 40
1.0
 40
1.0
 10
222.9915558451
 20
276.1225657824
 30
0.0
 10
222.8866138083
 20
276.1831527243
 30
0.0
 10
222.6380026436
 20
276.2311303037
 30
0.0
 10
222.3893912029
 20
276.1831521045
 30
0.0
 10
222.284449047
 20
276.1225640848
 30
0.0
  0
SPLINE
  5
309
100
AcDbEntity
  8
0
100
AcDbSpline
 62
7
  6
CONTINUOUS
 70
0
 71
3
 72
9
 73
5
 74
0
 42
0.0000001
 43
0.0000001
 44
0.0000000001
 40
0.0
 40
0.0
 40
0.0
 40
0.0
 40
0.4999986752
 40
1.0
 40
1.0
 40
1.0
 40
1.0
 10
205.3138127164
 20
286.3285846454
 30
0.0
 10
205.2088706797
 20
286.3891715873
 30
0.0
 10
204.960259515
 20
286.4371491667
 30
0.0
 10
204.7116480742
 20
286.3891709675
 30
0.0
 10
204.6067059183
 20
286.3285829478
 30
0.0
  0
SPLINE
  5
30A
100
AcDbEntity
  8
0
100
AcDbSpline
 62
7
  6
CONTINUOUS
 70
0
 71
3
 72
8
 73
4
 74
0
 42
0.0000001
 43
0.0000001
 44
0.0000000001
 40
0.0
 40
0.0
 40
0.0
 40
0.0
 40
1.0
 40
1.0
 40
1.0
 40
1.0
 10
252.8366585147
 20
259.5888344274
 30
0.0
 10
252.8366585276
 20
259.5634949179
 30
0.0
 10
252.8304890872
 20
259.537688205
 30
0.0
 10
252.8198200201
 20
259.5147042596
 30
0.0
  0
SPLINE
  5
30B
100
AcDbEntity
  8
0
100
AcDbSpline
 62
7
  6
CONTINUOUS
 70
0
 71
3
 72
9
 73
5
 74
0
 42
0.0000001
 43
0.0000001
 44
0.0000000001
 40
0.0
 40
0.0
 40
0.0
 40
0.0
 40
0.2254913531
 40
1.0
 40
1.0
 40
1.0
 40
1.0
 10
252.8198200201
 20
259.5147042596
 30
0.0
 10
252.8139563624
 20
259.5020724158
 30
0.0
 10
252.781953957
 20
259.4488200053
 30
0.0
 10
252.73159275
 20
259.4086309512
 30
0.0
 10
252.6901672247
 20
259.3847140555
 30
0.0
  0
SPLINE
  5
30C
100
AcDbEntity
  8
0
100
AcDbSpline
 62
7
  6
CONTINUOUS
 70
0
 71
3
 72
9
 73
5
 74
0
 42
0.0000001
 43
0.0000001
 44
0.0000000001
 40
0.0
 40
0.0
 40
0.0
 40
0.0
 40
0.4999986752
 40
1.0
 40
1.0
 40
1.0
 40
1.0
 10
187.6360695877
 20
296.5346035084
 30
0.0
 10
187.531127551
 20
296.5951904503
 30
0.0
 10
187.2825163863
 20
296.6431680297
 30
0.0
 10
187.0339049456
 20
296.5951898306
 30
0.0
 10
186.9289627896
 20
296.5346018108
 30
0.0
  0
SPLINE
  5
30D
100
AcDbEntity
  8
0
100
AcDbSpline
 62
7
  6
CONTINUOUS
 70
0
 71
3
 72
8
 73
4
 74
0
 42
0.0000001
 43
0.0000001
 44
0.0000000001
 40
0.0
 40
0.0
 40
0.0
 40
0.0
 40
1.0
 40
1.0
 40
1.0
 40
1.0
 10
235.158915386
 20
269.7948532904
 30
0.0
 10
235.1589153989
 20
269.7695137809
 30
0.0
 10
235.1527459586
 20
269.7437070681
 30
0.0
 10
235.1420768915
 20
269.7207231226
 30
0.0
  0
SPLINE
  5
30E
100
AcDbEntity
  8
0
100
AcDbSpline
 62
7
  6
CONTINUOUS
 70
0
 71
3
 72
9
 73
5
 74
0
 42
0.0000001
 43
0.0000001
 44
0.0000000001
 40
0.0
 40
0.0
 40
0.0
 40
0.0
 40
0.2254913531
 40
1.0
 40
1.0
 40
1.0
 40
1.0
 10
235.1420768915
 20
269.7207231226
 30
0.0
 10
235.1362132338
 20
269.7080912788
 30
0.0
 10
235.1042108283
 20
269.6548388683
 30
0.0
 10
235.0538496213
 20
269.6146498142
 30
0.0
 10
235.012424096
 20
269.5907329185
 30
0.0
  0
SPLINE
  5
30F
100
AcDbEntity
  8
0
100
AcDbSpline
 62
7
  6
CONTINUOUS
 70
0
 71
3
 72
9
 73
5
 74
0
 42
0.0000001
 43
0.0000001
 44
0.0000000001
 40
0.0
 40
0.0
 40
0.0
 40
0.0
 40
0.4999986752
 40
1.0
 40
1.0
 40
1.0
 40
1.0
 10
169.9583264591
 20
306.7406223715
 30
0.0
 10
169.8533844223
 20
306.8012093133
 30
0.0
 10
169.6047732576
 20
306.8491868927
 30
0.0
 10
169.3561618169
 20
306.8012086936
 30
0.0
 10
169.2512196609
 20
306.7406206739
 30
0.0
  0
SPLINE
  5
310
100
AcDbEntity
  8
0
100
AcDbSpline
 62
7
  6
CONTINUOUS
 70
0
 71
3
 72
9
 73
5
 74
0
 42
0.0000001
 43
0.0000001
 44
0.0000000001
 40
0.0
 40
0.0
 40
0.0
 40
0.0
 40
0.4999986752
 40
1.0
 40
1.0
 40
1.0
 40
1.0
 10
152.2805833304
 20
316.9466412345
 30
0.0
 10
152.1756412936
 20
317.0072281764
 30
0.0
 10
151.9270301289
 20
317.0552057557
 30
0.0
 10
151.6784186882
 20
317.0072275566
 30
0.0
 10
151.5734765323
 20
316.9466395369
 30
0.0
  0
SPLINE
  5
311
100
AcDbEntity
  8
0
100
AcDbSpline
 62
7
  6
CONTINUOUS
 70
0
 71
3
 72
8
 73
4
 74
0
 42
0.0000001
 43
0.0000001
 44
0.0000000001
 40
0.0
 40
0.0
 40
0.0
 40
0.0
 40
1.0
 40
1.0
 40
1.0
 40
1.0
 10
217.4811722574
 20
280.0008721534
 30
0.0
 10
217.4811722702
 20
279.9755326439
 30
0.0
 10
217.4750028299
 20
279.9497259311
 30
0.0
 10
217.4643337628
 20
279.9267419856
 30
0.0
  0
SPLINE
  5
312
100
AcDbEntity
  8
0
100
AcDbSpline
 62
7
  6
CONTINUOUS
 70
0
 71
3
 72
9
 73
5
 74
0
 42
0.0000001
 43
0.0000001
 44
0.0000000001
 40
0.0
 40
0.0
 40
0.0
 40
0.0
 40
0.2254913531
 40
1.0
 40
1.0
 40
1.0
 40
1.0
 10
217.4643337628
 20
279.9267419856
 30
0.0
 10
217.4584701051
 20
279.9141101418
 30
0.0
 10
217.4264676996
 20
279.8608577313
 30
0.0
 10
217.3761064926
 20
279.8206686772
 30
0.0
 10
217.3346809673
 20
279.7967517815
 30
0.0
  0
SPLINE
  5
313
100
AcDbEntity
  8
0
100
AcDbSpline
 62
7
  6
CONTINUOUS
 70
0
 71
3
 72
9
 73
5
 74
0
 42
0.0000001
 43
0.0000001
 44
0.0000000001
 40
0.0
 40
0.0
 40
0.0
 40
0.0
 40
0.4999986752
 40
1.0
 40
1.0
 40
1.0
 40
1.0
 10
134.6028402017
 20
327.1526600975
 30
0.0
 10
134.497898165
 20
327.2132470394
 30
0.0
 10
134.2492870003
 20
327.2612246187
 30
0.0
 10
134.0006755595
 20
327.2132464196
 30
0.0
 10
133.8957334036
 20
327.1526583999
 30
0.0
  0
SPLINE
  5
314
100
AcDbEntity
  8
0
100
AcDbSpline
 62
7
  6
CONTINUOUS
 70
0
 71
3
 72
8
 73
4
 74
0
 42
0.0000001
 43
0.0000001
 44
0.0000000001
 40
0.0
 40
0.0
 40
0.0
 40
0.0
 40
1.0
 40
1.0
 40
1.0
 40
1.0
 10
199.8034291287
 20
290.2068910164
 30
0.0
 10
199.8034291415
 20
290.1815515069
 30
0.0
 10
199.7972597012
 20
290.1557447941
 30
0.0
 10
199.7865906341
 20
290.1327608486
 30
0.0
  0
SPLINE
  5
315
100
AcDbEntity
  8
0
100
AcDbSpline
 62
7
  6
CONTINUOUS
 70
0
 71
3
 72
9
 73
5
 74
0
 42
0.0000001
 43
0.0000001
 44
0.0000000001
 40
0.0
 40
0.0
 40
0.0
 40
0.0
 40
0.2254913531
 40
1.0
 40
1.0
 40
1.0
 40
1.0
 10
199.7865906341
 20
290.1327608486
 30
0.0
 10
199.7807269764
 20
290.1201290048
 30
0.0
 10
199.748724571
 20
290.0668765943
 30
0.0
 10
199.698363364
 20
290.0266875402
 30
0.0
 10
199.6569378387
 20
290.0027706445
 30
0.0
  0
SPLINE
  5
316
100
AcDbEntity
  8
0
100
AcDbSpline
 62
7
  6
CONTINUOUS
 70
0
 71
3
 72
9
 73
5
 74
0
 42
0.0000001
 43
0.0000001
 44
0.0000000001
 40
0.0
 40
0.0
 40
0.0
 40
0.0
 40
0.4999986752
 40
1.0
 40
1.0
 40
1.0
 40
1.0
 10
116.925097073
 20
337.3586789605
 30
0.0
 10
116.8201550363
 20
337.4192659024
 30
0.0
 10
116.5715438716
 20
337.4672434817
 30
0.0
 10
116.3229324309
 20
337.4192652826
 30
0.0
 10
116.2179902749
 20
337.3586772629
 30
0.0
  0
SPLINE
  5
317
100
AcDbEntity
  8
0
100
AcDbSpline
 62
7
  6
CONTINUOUS
 70
0
 71
3
 72
9
 73
5
 74
0
 42
0.0000001
 43
0.0000001
 44
0.0000000001
 40
0.0
 40
0.0
 40
0.0
 40
0.0
 40
0.4999986752
 40
1.0
 40
1.0
 40
1.0
 40
1.0
 10
99.2473539444
 20
347.5646978235
 30
0.0
 10
99.1424119076
 20
347.6252847654
 30
0.0
 10
98.8938007429
 20
347.6732623447
 30
0.0
 10
98.6451893022
 20
347.6252841456
 30
0.0
 10
98.5402471462
 20
347.5646961259
 30
0.0
  0
SPLINE
  5
318
100
AcDbEntity
  8
0
100
AcDbSpline
 62
7
  6
CONTINUOUS
 70
0
 71
3
 72
8
 73
4
 74
0
 42
0.0000001
 43
0.0000001
 44
0.0000000001
 40
0.0
 40
0.0
 40
0.0
 40
0.0
 40
1.0
 40
1.0
 40
1.0
 40
1.0
 10
182.125686
 20
300.4129098794
 30
0.0
 10
182.1256860129
 20
300.3875703699
 30
0.0
 10
182.1195165725
 20
300.3617636571
 30
0.0
 10
182.1088475054
 20
300.3387797116
 30
0.0
  0
SPLINE
  5
319
100
AcDbEntity
  8
0
100
AcDbSpline
 62
7
  6
CONTINUOUS
 70
0
 71
3
 72
9
 73
5
 74
0
 42
0.0000001
 43
0.0000001
 44
0.0000000001
 40
0.0
 40
0.0
 40
0.0
 40
0.0
 40
0.2254913531
 40
1.0
 40
1.0
 40
1.0
 40
1.0
 10
182.1088475054
 20
300.3387797116
 30
0.0
 10
182.1029838477
 20
300.3261478678
 30
0.0
 10
182.0709814423
 20
300.2728954574
 30
0.0
 10
182.0206202353
 20
300.2327064032
 30
0.0
 10
181.97919471
 20
300.2087895075
 30
0.0
  0
SPLINE
  5
31A
100
AcDbEntity
  8
0
100
AcDbSpline
 62
7
  6
CONTINUOUS
 70
0
 71
3
 72
9
 73
5
 74
0
 42
0.0000001
 43
0.0000001
 44
0.0000000001
 40
0.0
 40
0.0
 40
0.0
 40
0.0
 40
0.4999986752
 40
1.0
 40
1.0
 40
1.0
 40
1.0
 10
81.5696108157
 20
357.7707166865
 30
0.0
 10
81.4646687789
 20
357.8313036284
 30
0.0
 10
81.2160576142
 20
357.8792812078
 30
0.0
 10
80.9674461735
 20
357.8313030086
 30
0.0
 10
80.8625040176
 20
357.7707149889
 30
0.0
  0
SPLINE
  5
31B
100
AcDbEntity
  8
0
100
AcDbSpline
 62
7
  6
CONTINUOUS
 70
0
 71
3
 72
8
 73
4
 74
0
 42
0.0000001
 43
0.0000001
 44
0.0000000001
 40
0.0
 40
0.0
 40
0.0
 40
0.0
 40
1.0
 40
1.0
 40
1.0
 40
1.0
 10
164.4479428713
 20
310.6189287424
 30
0.0
 10
164.4479428842
 20
310.5935892329
 30
0.0
 10
164.4417734439
 20
310.5677825201
 30
0.0
 10
164.4311043768
 20
310.5447985746
 30
0.0
  0
SPLINE
  5
31C
100
AcDbEntity
  8
0
100
AcDbSpline
 62
7
  6
CONTINUOUS
 70
0
 71
3
 72
9
 73
5
 74
0
 42
0.0000001
 43
0.0000001
 44
0.0000000001
 40
0.0
 40
0.0
 40
0.0
 40
0.0
 40
0.2254913531
 40
1.0
 40
1.0
 40
1.0
 40
1.0
 10
164.4311043768
 20
310.5447985746
 30
0.0
 10
164.4252407191
 20
310.5321667308
 30
0.0
 10
164.3932383136
 20
310.4789143204
 30
0.0
 10
164.3428771066
 20
310.4387252662
 30
0.0
 10
164.3014515813
 20
310.4148083706
 30
0.0
  0
SPLINE
  5
31D
100
AcDbEntity
  8
0
100
AcDbSpline
 62
7
  6
CONTINUOUS
 70
0
 71
3
 72
9
 73
5
 74
0
 42
0.0000001
 43
0.0000001
 44
0.0000000001
 40
0.0
 40
0.0
 40
0.0
 40
0.0
 40
0.4999986752
 40
1.0
 40
1.0
 40
1.0
 40
1.0
 10
63.891867687
 20
367.9767355495
 30
0.0
 10
63.7869256503
 20
368.0373224914
 30
0.0
 10
63.5383144856
 20
368.0853000708
 30
0.0
 10
63.2897030448
 20
368.0373218716
 30
0.0
 10
63.1847608889
 20
367.9767338519
 30
0.0
  0
SPLINE
  5
31E
100
AcDbEntity
  8
0
100
AcDbSpline
 62
7
  6
CONTINUOUS
 70
0
 71
3
 72
9
 73
5
 74
0
 42
0.0000001
 43
0.0000001
 44
0.0000000001
 40
0.0
 40
0.0
 40
0.0
 40
0.0
 40
0.2403734273
 40
1.0
 40
1.0
 40
1.0
 40
1.0
 10
337.1191567365
 20
197.4136914453
 30
0.0
 10
337.1191567365
 20
197.4368404177
 30
0.0
 10
337.1363120216
 20
197.5320100336
 30
0.0
 10
337.1972231174
 20
197.6220633057
 30
0.0
 10
337.2605775039
 20
197.6586407595
 30
0.0
  0
SPLINE
  5
31F
100
AcDbEntity
  8
0
100
AcDbSpline
 62
7
  6
CONTINUOUS
 70
0
 71
3
 72
9
 73
5
 74
0
 42
0.0000001
 43
0.0000001
 44
0.0000000001
 40
0.0
 40
0.0
 40
0.0
 40
0.0
 40
0.2314888844
 40
1.0
 40
1.0
 40
1.0
 40
1.0
 10
336.2706321318
 20
191.7798332327
 30
0.0
 10
336.3099499005
 20
191.8025332216
 30
0.0
 10
336.4737243159
 20
191.9110178831
 30
0.0
 10
336.61386647
 20
192.0529719724
 30
0.0
 10
336.7070868957
 20
192.1714083375
 30
0.0
  0
SPLINE
  5
320
100
AcDbEntity
  8
0
100
AcDbSpline
 62
7
  6
CONTINUOUS
 70
0
 71
3
 72
9
 73
5
 74
0
 42
0.0000001
 43
0.0000001
 44
0.0000000001
 40
0.0
 40
0.0
 40
0.0
 40
0.0
 40
0.2633793509
 40
1.0
 40
1.0
 40
1.0
 40
1.0
 10
336.7070868957
 20
192.1714083375
 30
0.0
 10
336.7703312913
 20
192.2517602161
 30
0.0
 10
336.9854864628
 20
192.5739311079
 30
0.0
 10
337.1191567365
 20
192.9635391982
 30
0.0
 10
337.1191567365
 20
193.2495291179
 30
0.0
  0
SPLINE
  5
321
100
AcDbEntity
  8
0
100
AcDbSpline
 62
7
  6
CONTINUOUS
 70
0
 71
3
 72
8
 73
4
 74
0
 42
0.0000001
 43
0.0000001
 44
0.0000000001
 40
0.0
 40
0.0
 40
0.0
 40
0.0
 40
1.0
 40
1.0
 40
1.0
 40
1.0
 10
146.7701997427
 20
320.8249476054
 30
0.0
 10
146.7701997555
 20
320.7996080959
 30
0.0
 10
146.7640303152
 20
320.7738013831
 30
0.0
 10
146.7533612481
 20
320.7508174376
 30
0.0
  0
SPLINE
  5
322
100
AcDbEntity
  8
0
100
AcDbSpline
 62
7
  6
CONTINUOUS
 70
0
 71
3
 72
9
 73
5
 74
0
 42
0.0000001
 43
0.0000001
 44
0.0000000001
 40
0.0
 40
0.0
 40
0.0
 40
0.0
 40
0.2254913531
 40
1.0
 40
1.0
 40
1.0
 40
1.0
 10
146.7533612481
 20
320.7508174376
 30
0.0
 10
146.7474975904
 20
320.7381855939
 30
0.0
 10
146.715495185
 20
320.6849331834
 30
0.0
 10
146.6651339779
 20
320.6447441292
 30
0.0
 10
146.6237084526
 20
320.6208272336
 30
0.0
  0
SPLINE
  5
323
100
AcDbEntity
  8
0
100
AcDbSpline
 62
7
  6
CONTINUOUS
 70
0
 71
3
 72
8
 73
4
 74
0
 42
0.0000001
 43
0.0000001
 44
0.0000000001
 40
0.0
 40
0.0
 40
0.0
 40
0.0
 40
1.0
 40
1.0
 40
1.0
 40
1.0
 10
129.092456614
 20
331.0309664684
 30
0.0
 10
129.0924566268
 20
331.0056269589
 30
0.0
 10
129.0862871865
 20
330.9798202461
 30
0.0
 10
129.0756181194
 20
330.9568363006
 30
0.0
  0
SPLINE
  5
324
100
AcDbEntity
  8
0
100
AcDbSpline
 62
7
  6
CONTINUOUS
 70
0
 71
3
 72
9
 73
5
 74
0
 42
0.0000001
 43
0.0000001
 44
0.0000000001
 40
0.0
 40
0.0
 40
0.0
 40
0.0
 40
0.2254913531
 40
1.0
 40
1.0
 40
1.0
 40
1.0
 10
129.0756181194
 20
330.9568363006
 30
0.0
 10
129.0697544617
 20
330.9442044569
 30
0.0
 10
129.0377520563
 20
330.8909520464
 30
0.0
 10
128.9873908493
 20
330.8507629922
 30
0.0
 10
128.945965324
 20
330.8268460966
 30
0.0
  0
SPLINE
  5
325
100
AcDbEntity
  8
0
100
AcDbSpline
 62
7
  6
CONTINUOUS
 70
0
 71
3
 72
9
 73
5
 74
0
 42
0.0000001
 43
0.0000001
 44
0.0000000001
 40
0.0
 40
0.0
 40
0.0
 40
0.0
 40
0.5000016721
 40
1.0
 40
1.0
 40
1.0
 40
1.0
 10
49.0426605996
 20
362.9144899285
 30
0.0
 10
49.0426605996
 20
363.2053080708
 30
0.0
 10
49.241403834
 20
363.7795413695
 30
0.0
 10
49.6393306137
 20
364.238778366
 30
0.0
 10
49.8911852042
 20
364.3841858137
 30
0.0
  0
SPLINE
  5
326
100
AcDbEntity
  8
0
100
AcDbSpline
 62
7
  6
CONTINUOUS
 70
0
 71
3
 72
9
 73
5
 74
0
 42
0.0000001
 43
0.0000001
 44
0.0000000001
 40
0.0
 40
0.0
 40
0.0
 40
0.0
 40
0.2403710055
 40
1.0
 40
1.0
 40
1.0
 40
1.0
 10
48.9012398321
 20
358.5053782869
 30
0.0
 10
48.9212872613
 20
358.5169526065
 30
0.0
 10
48.9951288861
 20
358.5793945892
 30
0.0
 10
49.0426605996
 20
358.6771721215
 30
0.0
 10
49.0426605996
 20
358.7503276011
 30
0.0
  0
SPLINE
  5
327
100
AcDbEntity
  8
0
100
AcDbSpline
 62
7
  6
CONTINUOUS
 70
0
 71
3
 72
8
 73
4
 74
0
 42
0.0000001
 43
0.0000001
 44
0.0000000001
 40
0.0
 40
0.0
 40
0.0
 40
0.0
 40
1.0
 40
1.0
 40
1.0
 40
1.0
 10
111.4147134853
 20
341.2369853315
 30
0.0
 10
111.4147134982
 20
341.2116458219
 30
0.0
 10
111.4085440578
 20
341.1858391091
 30
0.0
 10
111.3978749907
 20
341.1628551636
 30
0.0
  0
SPLINE
  5
328
100
AcDbEntity
  8
0
100
AcDbSpline
 62
7
  6
CONTINUOUS
 70
0
 71
3
 72
9
 73
5
 74
0
 42
0.0000001
 43
0.0000001
 44
0.0000000001
 40
0.0
 40
0.0
 40
0.0
 40
0.0
 40
0.2254913531
 40
1.0
 40
1.0
 40
1.0
 40
1.0
 10
111.3978749907
 20
341.1628551636
 30
0.0
 10
111.392011333
 20
341.1502233199
 30
0.0
 10
111.3600089276
 20
341.0969709094
 30
0.0
 10
111.3096477206
 20
341.0567818552
 30
0.0
 10
111.2682221953
 20
341.0328649596
 30
0.0
  0
SPLINE
  5
329
100
AcDbEntity
  8
0
100
AcDbSpline
 62
7
  6
CONTINUOUS
 70
0
 71
3
 72
8
 73
4
 74
0
 42
0.0000001
 43
0.0000001
 44
0.0000000001
 40
0.0
 40
0.0
 40
0.0
 40
0.0
 40
1.0
 40
1.0
 40
1.0
 40
1.0
 10
93.7369703566
 20
351.4430041945
 30
0.0
 10
93.7369703695
 20
351.417664685
 30
0.0
 10
93.7308009292
 20
351.3918579721
 30
0.0
 10
93.7201318621
 20
351.3688740266
 30
0.0
  0
SPLINE
  5
32A
100
AcDbEntity
  8
0
100
AcDbSpline
 62
7
  6
CONTINUOUS
 70
0
 71
3
 72
9
 73
5
 74
0
 42
0.0000001
 43
0.0000001
 44
0.0000000001
 40
0.0
 40
0.0
 40
0.0
 40
0.0
 40
0.2254913531
 40
1.0
 40
1.0
 40
1.0
 40
1.0
 10
93.7201318621
 20
351.3688740266
 30
0.0
 10
93.7142682044
 20
351.3562421829
 30
0.0
 10
93.6822657989
 20
351.3029897724
 30
0.0
 10
93.6319045919
 20
351.2628007182
 30
0.0
 10
93.5904790666
 20
351.2388838226
 30
0.0
  0
SPLINE
  5
32B
100
AcDbEntity
  8
0
100
AcDbSpline
 62
7
  6
CONTINUOUS
 70
0
 71
3
 72
8
 73
4
 74
0
 42
0.0000001
 43
0.0000001
 44
0.0000000001
 40
0.0
 40
0.0
 40
0.0
 40
0.0
 40
1.0
 40
1.0
 40
1.0
 40
1.0
 10
76.059227228
 20
361.6490230575
 30
0.0
 10
76.0592272408
 20
361.623683548
 30
0.0
 10
76.0530578005
 20
361.5978768351
 30
0.0
 10
76.0423887334
 20
361.5748928897
 30
0.0
  0
SPLINE
  5
32C
100
AcDbEntity
  8
0
100
AcDbSpline
 62
7
  6
CONTINUOUS
 70
0
 71
3
 72
9
 73
5
 74
0
 42
0.0000001
 43
0.0000001
 44
0.0000000001
 40
0.0
 40
0.0
 40
0.0
 40
0.0
 40
0.2254913531
 40
1.0
 40
1.0
 40
1.0
 40
1.0
 10
76.0423887334
 20
361.5748928897
 30
0.0
 10
76.0365250757
 20
361.5622610459
 30
0.0
 10
76.0045226703
 20
361.5090086354
 30
0.0
 10
75.9541614632
 20
361.4688195813
 30
0.0
 10
75.9127359379
 20
361.4449026856
 30
0.0
  0
SPLINE
  5
32D
100
AcDbEntity
  8
0
100
AcDbSpline
 62
7
  6
CONTINUOUS
 70
0
 71
3
 72
11
 73
7
 74
0
 42
0.0000001
 43
0.0000001
 44
0.0000000001
 40
0.0
 40
0.0
 40
0.0
 40
0.0
 40
0.4213682414
 40
0.5593475872
 40
0.7045936764
 40
1.0
 40
1.0
 40
1.0
 40
1.0
 10
53.1455561814
 20
365.5351964457
 30
0.0
 10
53.6973802245
 20
365.3905935588
 30
0.0
 10
54.5165668248
 20
365.8050123863
 30
0.0
 10
55.1895716717
 20
366.4579246684
 30
0.0
 10
55.6834735652
 20
367.0727847407
 30
0.0
 10
55.9690375389
 20
367.6038884109
 30
0.0
 10
56.1136989717
 20
367.9767343677
 30
0.0
  0
SPLINE
  5
32E
100
AcDbEntity
  8
0
100
AcDbSpline
 62
7
  6
CONTINUOUS
 70
0
 71
3
 72
11
 73
7
 74
0
 42
0.0000001
 43
0.0000001
 44
0.0000000001
 40
0.0
 40
0.0
 40
0.0
 40
0.0
 40
0.4213682414
 40
0.5593475872
 40
0.7045936764
 40
1.0
 40
1.0
 40
1.0
 40
1.0
 10
61.630802228
 20
370.4341262921
 30
0.0
 10
62.1826262711
 20
370.2895234053
 30
0.0
 10
63.0018128713
 20
370.7039422327
 30
0.0
 10
63.6748177183
 20
371.3568545149
 30
0.0
 10
64.1687196118
 20
371.9717145871
 30
0.0
 10
64.4542835855
 20
372.5028182574
 30
0.0
 10
64.5989450183
 20
372.8756642142
 30
0.0
  0
SPLINE
  5
32F
100
AcDbEntity
  8
0
100
AcDbSpline
 62
7
  6
CONTINUOUS
 70
0
 71
3
 72
9
 73
5
 74
0
 42
0.0000001
 43
0.0000001
 44
0.0000000001
 40
0.0
 40
0.0
 40
0.0
 40
0.0
 40
0.7062822851
 40
1.0
 40
1.0
 40
1.0
 40
1.0
 10
355.5452632044
 20
203.7722914802
 30
0.0
 10
355.5242976573
 20
203.7844027382
 30
0.0
 10
355.5062687753
 20
203.8200073964
 30
0.0
 10
355.5038565041
 20
203.8538080722
 30
0.0
 10
355.5038565041
 20
203.8638771186
 30
0.0
  0
SPLINE
  5
330
100
AcDbEntity
  8
0
100
AcDbSpline
 62
7
  6
CONTINUOUS
 70
0
 71
3
 72
13
 73
9
 74
0
 42
0.0000001
 43
0.0000001
 44
0.0000000001
 40
0.0
 40
0.0
 40
0.0
 40
0.0
 40
0.0882594578
 40
0.184664268
 40
0.2943483213
 40
0.4184682239
 40
0.7004657711
 40
1.0
 40
1.0
 40
1.0
 40
1.0
 10
348.7573224225
 20
203.8081786097
 30
0.0
 10
348.8687371058
 20
203.743687141
 30
0.0
 10
349.1324388415
 20
203.6572144205
 30
0.0
 10
349.5683402347
 20
203.6801544962
 30
0.0
 10
350.0280425591
 20
203.8393759699
 30
0.0
 10
350.6733738781
 20
204.2344999881
 30
0.0
 10
351.3943814592
 20
204.9918656697
 30
0.0
 10
351.8103033417
 20
205.7428072182
 30
0.0
 10
351.968337318
 20
206.15011916
 30
0.0
  0
SPLINE
  5
331
100
AcDbEntity
  8
0
100
AcDbSpline
 62
7
  6
CONTINUOUS
 70
0
 71
3
 72
9
 73
5
 74
0
 42
0.0000001
 43
0.0000001
 44
0.0000000001
 40
0.0
 40
0.0
 40
0.0
 40
0.0
 40
0.2939127522
 40
1.0
 40
1.0
 40
1.0
 40
1.0
 10
342.4931347189
 20
203.0474712374
 30
0.0
 10
342.4713200065
 20
203.0600656826
 30
0.0
 10
342.401088739
 20
203.1074543737
 30
0.0
 10
342.3466405192
 20
203.1910792622
 30
0.0
 10
342.3466404885
 20
203.2515933295
 30
0.0
  0
SPLINE
  5
332
100
AcDbEntity
  8
0
100
AcDbSpline
 62
7
  6
CONTINUOUS
 70
0
 71
3
 72
9
 73
5
 74
0
 42
0.0000001
 43
0.0000001
 44
0.0000000001
 40
0.0
 40
0.0
 40
0.0
 40
0.0
 40
0.2939127522
 40
1.0
 40
1.0
 40
1.0
 40
1.0
 10
59.6492446601
 20
366.3437730455
 30
0.0
 10
59.6274299477
 20
366.3563674908
 30
0.0
 10
59.5571986802
 20
366.4037561818
 30
0.0
 10
59.5027504604
 20
366.4873810703
 30
0.0
 10
59.5027504297
 20
366.5478951376
 30
0.0
  0
SPLINE
  5
333
100
AcDbEntity
  8
0
100
AcDbSpline
 62
7
  6
CONTINUOUS
 70
0
 71
3
 72
9
 73
5
 74
0
 42
0.0000001
 43
0.0000001
 44
0.0000000001
 40
0.0
 40
0.0
 40
0.0
 40
0.0
 40
0.4999975889
 40
1.0
 40
1.0
 40
1.0
 40
1.0
 10
72.3772167688
 20
359.403681926
 30
0.0
 10
72.272275397
 20
359.343094359
 30
0.0
 10
72.0236642586
 20
359.2951157072
 30
0.0
 10
71.7750527915
 20
359.3430928338
 30
0.0
 10
71.6701099707
 20
359.4036802284
 30
0.0
  0
SPLINE
  5
334
100
AcDbEntity
  8
0
100
AcDbSpline
 62
7
  6
CONTINUOUS
 70
0
 71
3
 72
9
 73
5
 74
0
 42
0.0000001
 43
0.0000001
 44
0.0000000001
 40
0.0
 40
0.0
 40
0.0
 40
0.0
 40
0.2939127522
 40
1.0
 40
1.0
 40
1.0
 40
1.0
 10
77.3269877888
 20
356.1377541825
 30
0.0
 10
77.3051730764
 20
356.1503486278
 30
0.0
 10
77.2349418089
 20
356.1977373188
 30
0.0
 10
77.1804935891
 20
356.2813622073
 30
0.0
 10
77.1804935584
 20
356.3418762746
 30
0.0
  0
SPLINE
  5
335
100
AcDbEntity
  8
0
100
AcDbSpline
 62
7
  6
CONTINUOUS
 70
0
 71
3
 72
9
 73
5
 74
0
 42
0.0000001
 43
0.0000001
 44
0.0000000001
 40
0.0
 40
0.0
 40
0.0
 40
0.0
 40
0.4999975889
 40
1.0
 40
1.0
 40
1.0
 40
1.0
 10
90.0549598975
 20
349.197663063
 30
0.0
 10
89.9500185256
 20
349.137075496
 30
0.0
 10
89.7014073872
 20
349.0890968442
 30
0.0
 10
89.4527959202
 20
349.1370739708
 30
0.0
 10
89.3478530994
 20
349.1976613654
 30
0.0
  0
SPLINE
  5
336
100
AcDbEntity
  8
0
100
AcDbSpline
 62
7
  6
CONTINUOUS
 70
0
 71
3
 72
9
 73
5
 74
0
 42
0.0000001
 43
0.0000001
 44
0.0000000001
 40
0.0
 40
0.0
 40
0.0
 40
0.0
 40
0.2939127522
 40
1.0
 40
1.0
 40
1.0
 40
1.0
 10
95.0047309175
 20
345.9317353195
 30
0.0
 10
94.9829162051
 20
345.9443297647
 30
0.0
 10
94.9126849376
 20
345.9917184558
 30
0.0
 10
94.8582367178
 20
346.0753433443
 30
0.0
 10
94.8582366871
 20
346.1358574116
 30
0.0
  0
SPLINE
  5
337
100
AcDbEntity
  8
0
100
AcDbSpline
 62
7
  6
CONTINUOUS
 70
0
 71
3
 72
9
 73
5
 74
0
 42
0.0000001
 43
0.0000001
 44
0.0000000001
 40
0.0
 40
0.0
 40
0.0
 40
0.0
 40
0.4999975889
 40
1.0
 40
1.0
 40
1.0
 40
1.0
 10
107.7327030262
 20
338.9916442
 30
0.0
 10
107.6277616543
 20
338.931056633
 30
0.0
 10
107.3791505159
 20
338.8830779811
 30
0.0
 10
107.1305390489
 20
338.9310551078
 30
0.0
 10
107.025596228
 20
338.9916425024
 30
0.0
  0
SPLINE
  5
338
100
AcDbEntity
  8
0
100
AcDbSpline
 62
7
  6
CONTINUOUS
 70
0
 71
3
 72
9
 73
5
 74
0
 42
0.0000001
 43
0.0000001
 44
0.0000000001
 40
0.0
 40
0.0
 40
0.0
 40
0.0
 40
0.2939127522
 40
1.0
 40
1.0
 40
1.0
 40
1.0
 10
112.6824740462
 20
335.7257164565
 30
0.0
 10
112.6606593337
 20
335.7383109017
 30
0.0
 10
112.5904280663
 20
335.7856995928
 30
0.0
 10
112.5359798465
 20
335.8693244813
 30
0.0
 10
112.5359798158
 20
335.9298385486
 30
0.0
  0
SPLINE
  5
339
100
AcDbEntity
  8
0
100
AcDbSpline
 62
7
  6
CONTINUOUS
 70
0
 71
3
 72
9
 73
5
 74
0
 42
0.0000001
 43
0.0000001
 44
0.0000000001
 40
0.0
 40
0.0
 40
0.0
 40
0.0
 40
0.4999975889
 40
1.0
 40
1.0
 40
1.0
 40
1.0
 10
125.4104461548
 20
328.785625337
 30
0.0
 10
125.305504783
 20
328.72503777
 30
0.0
 10
125.0568936446
 20
328.6770591181
 30
0.0
 10
124.8082821776
 20
328.7250362448
 30
0.0
 10
124.7033393567
 20
328.7856236394
 30
0.0
  0
SPLINE
  5
33A
100
AcDbEntity
  8
0
100
AcDbSpline
 62
7
  6
CONTINUOUS
 70
0
 71
3
 72
9
 73
5
 74
0
 42
0.0000001
 43
0.0000001
 44
0.0000000001
 40
0.0
 40
0.0
 40
0.0
 40
0.0
 40
0.2939127522
 40
1.0
 40
1.0
 40
1.0
 40
1.0
 10
130.3602171748
 20
325.5196975934
 30
0.0
 10
130.3384024624
 20
325.5322920387
 30
0.0
 10
130.2681711949
 20
325.5796807297
 30
0.0
 10
130.2137229751
 20
325.6633056183
 30
0.0
 10
130.2137229444
 20
325.7238196855
 30
0.0
  0
SPLINE
  5
33B
100
AcDbEntity
  8
0
100
AcDbSpline
 62
7
  6
CONTINUOUS
 70
0
 71
3
 72
9
 73
5
 74
0
 42
0.0000001
 43
0.0000001
 44
0.0000000001
 40
0.0
 40
0.0
 40
0.0
 40
0.0
 40
0.4999975889
 40
1.0
 40
1.0
 40
1.0
 40
1.0
 10
143.0881892835
 20
318.579606474
 30
0.0
 10
142.9832479117
 20
318.519018907
 30
0.0
 10
142.7346367733
 20
318.4710402551
 30
0.0
 10
142.4860253062
 20
318.5190173818
 30
0.0
 10
142.3810824854
 20
318.5796047764
 30
0.0
  0
SPLINE
  5
33C
100
AcDbEntity
  8
0
100
AcDbSpline
 62
7
  6
CONTINUOUS
 70
0
 71
3
 72
9
 73
5
 74
0
 42
0.0000001
 43
0.0000001
 44
0.0000000001
 40
0.0
 40
0.0
 40
0.0
 40
0.0
 40
0.2939127522
 40
1.0
 40
1.0
 40
1.0
 40
1.0
 10
148.0379603035
 20
315.3136787304
 30
0.0
 10
148.0161455911
 20
315.3262731757
 30
0.0
 10
147.9459143236
 20
315.3736618667
 30
0.0
 10
147.8914661038
 20
315.4572867553
 30
0.0
 10
147.8914660731
 20
315.5178008225
 30
0.0
  0
SPLINE
  5
33D
100
AcDbEntity
  8
0
100
AcDbSpline
 62
7
  6
CONTINUOUS
 70
0
 71
3
 72
9
 73
5
 74
0
 42
0.0000001
 43
0.0000001
 44
0.0000000001
 40
0.0
 40
0.0
 40
0.0
 40
0.0
 40
0.4999975889
 40
1.0
 40
1.0
 40
1.0
 40
1.0
 10
160.7659324122
 20
308.373587611
 30
0.0
 10
160.6609910403
 20
308.313000044
 30
0.0
 10
160.4123799019
 20
308.2650213921
 30
0.0
 10
160.1637684349
 20
308.3129985188
 30
0.0
 10
160.0588256141
 20
308.3735859134
 30
0.0
  0
SPLINE
  5
33E
100
AcDbEntity
  8
0
100
AcDbSpline
 62
7
  6
CONTINUOUS
 70
0
 71
3
 72
9
 73
5
 74
0
 42
0.0000001
 43
0.0000001
 44
0.0000000001
 40
0.0
 40
0.0
 40
0.0
 40
0.0
 40
0.2939127522
 40
1.0
 40
1.0
 40
1.0
 40
1.0
 10
165.7157034322
 20
305.1076598674
 30
0.0
 10
165.6938887198
 20
305.1202543127
 30
0.0
 10
165.6236574523
 20
305.1676430037
 30
0.0
 10
165.5692092325
 20
305.2512678923
 30
0.0
 10
165.5692092018
 20
305.3117819595
 30
0.0
  0
SPLINE
  5
33F
100
AcDbEntity
  8
0
100
AcDbSpline
 62
7
  6
CONTINUOUS
 70
0
 71
3
 72
9
 73
5
 74
0
 42
0.0000001
 43
0.0000001
 44
0.0000000001
 40
0.0
 40
0.0
 40
0.0
 40
0.0
 40
0.4999975889
 40
1.0
 40
1.0
 40
1.0
 40
1.0
 10
178.4436755409
 20
298.167568748
 30
0.0
 10
178.338734169
 20
298.106981181
 30
0.0
 10
178.0901230306
 20
298.0590025291
 30
0.0
 10
177.8415115636
 20
298.1069796558
 30
0.0
 10
177.7365687427
 20
298.1675670504
 30
0.0
  0
SPLINE
  5
340
100
AcDbEntity
  8
0
100
AcDbSpline
 62
7
  6
CONTINUOUS
 70
0
 71
3
 72
9
 73
5
 74
0
 42
0.0000001
 43
0.0000001
 44
0.0000000001
 40
0.0
 40
0.0
 40
0.0
 40
0.0
 40
0.2939127522
 40
1.0
 40
1.0
 40
1.0
 40
1.0
 10
183.3934465609
 20
294.9016410044
 30
0.0
 10
183.3716318484
 20
294.9142354497
 30
0.0
 10
183.301400581
 20
294.9616241407
 30
0.0
 10
183.2469523612
 20
295.0452490293
 30
0.0
 10
183.2469523305
 20
295.1057630965
 30
0.0
  0
SPLINE
  5
341
100
AcDbEntity
  8
0
100
AcDbSpline
 62
7
  6
CONTINUOUS
 70
0
 71
3
 72
9
 73
5
 74
0
 42
0.0000001
 43
0.0000001
 44
0.0000000001
 40
0.0
 40
0.0
 40
0.0
 40
0.0
 40
0.4999975889
 40
1.0
 40
1.0
 40
1.0
 40
1.0
 10
196.1214186695
 20
287.961549885
 30
0.0
 10
196.0164772977
 20
287.900962318
 30
0.0
 10
195.7678661593
 20
287.8529836661
 30
0.0
 10
195.5192546923
 20
287.9009607928
 30
0.0
 10
195.4143118714
 20
287.9615481874
 30
0.0
  0
SPLINE
  5
342
100
AcDbEntity
  8
0
100
AcDbSpline
 62
7
  6
CONTINUOUS
 70
0
 71
3
 72
9
 73
5
 74
0
 42
0.0000001
 43
0.0000001
 44
0.0000000001
 40
0.0
 40
0.0
 40
0.0
 40
0.0
 40
0.2939127522
 40
1.0
 40
1.0
 40
1.0
 40
1.0
 10
201.0711896895
 20
284.6956221414
 30
0.0
 10
201.0493749771
 20
284.7082165867
 30
0.0
 10
200.9791437096
 20
284.7556052777
 30
0.0
 10
200.9246954898
 20
284.8392301663
 30
0.0
 10
200.9246954591
 20
284.8997442335
 30
0.0
  0
SPLINE
  5
343
100
AcDbEntity
  8
0
100
AcDbSpline
 62
7
  6
CONTINUOUS
 70
0
 71
3
 72
9
 73
5
 74
0
 42
0.0000001
 43
0.0000001
 44
0.0000000001
 40
0.0
 40
0.0
 40
0.0
 40
0.0
 40
0.4999975889
 40
1.0
 40
1.0
 40
1.0
 40
1.0
 10
213.7991617982
 20
277.755531022
 30
0.0
 10
213.6942204264
 20
277.6949434549
 30
0.0
 10
213.445609288
 20
277.6469648031
 30
0.0
 10
213.1969978209
 20
277.6949419298
 30
0.0
 10
213.0920550001
 20
277.7555293244
 30
0.0
  0
SPLINE
  5
344
100
AcDbEntity
  8
0
100
AcDbSpline
 62
7
  6
CONTINUOUS
 70
0
 71
3
 72
9
 73
5
 74
0
 42
0.0000001
 43
0.0000001
 44
0.0000000001
 40
0.0
 40
0.0
 40
0.0
 40
0.0
 40
0.2939127522
 40
1.0
 40
1.0
 40
1.0
 40
1.0
 10
218.7489328182
 20
274.4896032784
 30
0.0
 10
218.7271181058
 20
274.5021977237
 30
0.0
 10
218.6568868383
 20
274.5495864147
 30
0.0
 10
218.6024386185
 20
274.6332113033
 30
0.0
 10
218.6024385878
 20
274.6937253705
 30
0.0
  0
SPLINE
  5
345
100
AcDbEntity
  8
0
100
AcDbSpline
 62
7
  6
CONTINUOUS
 70
0
 71
3
 72
9
 73
5
 74
0
 42
0.0000001
 43
0.0000001
 44
0.0000000001
 40
0.0
 40
0.0
 40
0.0
 40
0.0
 40
0.4999975889
 40
1.0
 40
1.0
 40
1.0
 40
1.0
 10
231.4769049269
 20
267.5495121589
 30
0.0
 10
231.371963555
 20
267.4889245919
 30
0.0
 10
231.1233524166
 20
267.4409459401
 30
0.0
 10
230.8747409496
 20
267.4889230668
 30
0.0
 10
230.7697981288
 20
267.5495104613
 30
0.0
  0
SPLINE
  5
346
100
AcDbEntity
  8
0
100
AcDbSpline
 62
7
  6
CONTINUOUS
 70
0
 71
3
 72
9
 73
5
 74
0
 42
0.0000001
 43
0.0000001
 44
0.0000000001
 40
0.0
 40
0.0
 40
0.0
 40
0.0
 40
0.2939127522
 40
1.0
 40
1.0
 40
1.0
 40
1.0
 10
236.4266759469
 20
264.2835844154
 30
0.0
 10
236.4048612345
 20
264.2961788607
 30
0.0
 10
236.334629967
 20
264.3435675517
 30
0.0
 10
236.2801817472
 20
264.4271924402
 30
0.0
 10
236.2801817165
 20
264.4877065075
 30
0.0
  0
SPLINE
  5
347
100
AcDbEntity
  8
0
100
AcDbSpline
 62
7
  6
CONTINUOUS
 70
0
 71
3
 72
9
 73
5
 74
0
 42
0.0000001
 43
0.0000001
 44
0.0000000001
 40
0.0
 40
0.0
 40
0.0
 40
0.0
 40
0.4999975889
 40
1.0
 40
1.0
 40
1.0
 40
1.0
 10
249.1546480556
 20
257.3434932959
 30
0.0
 10
249.0497066837
 20
257.2829057289
 30
0.0
 10
248.8010955453
 20
257.2349270771
 30
0.0
 10
248.5524840783
 20
257.2829042038
 30
0.0
 10
248.4475412574
 20
257.3434915983
 30
0.0
  0
SPLINE
  5
348
100
AcDbEntity
  8
0
100
AcDbSpline
 62
7
  6
CONTINUOUS
 70
0
 71
3
 72
9
 73
5
 74
0
 42
0.0000001
 43
0.0000001
 44
0.0000000001
 40
0.0
 40
0.0
 40
0.0
 40
0.0
 40
0.2939127522
 40
1.0
 40
1.0
 40
1.0
 40
1.0
 10
254.1044190756
 20
254.0775655524
 30
0.0
 10
254.0826043631
 20
254.0901599977
 30
0.0
 10
254.0123730957
 20
254.1375486887
 30
0.0
 10
253.9579248759
 20
254.2211735772
 30
0.0
 10
253.9579248452
 20
254.2816876445
 30
0.0
  0
SPLINE
  5
349
100
AcDbEntity
  8
0
100
AcDbSpline
 62
7
  6
CONTINUOUS
 70
0
 71
3
 72
9
 73
5
 74
0
 42
0.0000001
 43
0.0000001
 44
0.0000000001
 40
0.0
 40
0.0
 40
0.0
 40
0.0
 40
0.4999975889
 40
1.0
 40
1.0
 40
1.0
 40
1.0
 10
266.8323911842
 20
247.1374744329
 30
0.0
 10
266.7274498124
 20
247.0768868659
 30
0.0
 10
266.478838674
 20
247.0289082141
 30
0.0
 10
266.230227207
 20
247.0768853407
 30
0.0
 10
266.1252843861
 20
247.1374727353
 30
0.0
  0
SPLINE
  5
34A
100
AcDbEntity
  8
0
100
AcDbSpline
 62
7
  6
CONTINUOUS
 70
0
 71
3
 72
9
 73
5
 74
0
 42
0.0000001
 43
0.0000001
 44
0.0000000001
 40
0.0
 40
0.0
 40
0.0
 40
0.0
 40
0.2939127522
 40
1.0
 40
1.0
 40
1.0
 40
1.0
 10
271.7821622042
 20
243.8715466894
 30
0.0
 10
271.7603474918
 20
243.8841411347
 30
0.0
 10
271.6901162243
 20
243.9315298257
 30
0.0
 10
271.6356680045
 20
244.0151547142
 30
0.0
 10
271.6356679738
 20
244.0756687815
 30
0.0
  0
SPLINE
  5
34B
100
AcDbEntity
  8
0
100
AcDbSpline
 62
7
  6
CONTINUOUS
 70
0
 71
3
 72
9
 73
5
 74
0
 42
0.0000001
 43
0.0000001
 44
0.0000000001
 40
0.0
 40
0.0
 40
0.0
 40
0.0
 40
0.4999975889
 40
1.0
 40
1.0
 40
1.0
 40
1.0
 10
284.5101343129
 20
236.9314555699
 30
0.0
 10
284.4051929411
 20
236.8708680029
 30
0.0
 10
284.1565818027
 20
236.8228893511
 30
0.0
 10
283.9079703356
 20
236.8708664777
 30
0.0
 10
283.8030275148
 20
236.9314538723
 30
0.0
  0
SPLINE
  5
34C
100
AcDbEntity
  8
0
100
AcDbSpline
 62
7
  6
CONTINUOUS
 70
0
 71
3
 72
9
 73
5
 74
0
 42
0.0000001
 43
0.0000001
 44
0.0000000001
 40
0.0
 40
0.0
 40
0.0
 40
0.0
 40
0.2939127522
 40
1.0
 40
1.0
 40
1.0
 40
1.0
 10
289.4599053329
 20
233.6655278264
 30
0.0
 10
289.4380906205
 20
233.6781222717
 30
0.0
 10
289.367859353
 20
233.7255109627
 30
0.0
 10
289.3134111332
 20
233.8091358512
 30
0.0
 10
289.3134111025
 20
233.8696499185
 30
0.0
  0
SPLINE
  5
34D
100
AcDbEntity
  8
0
100
AcDbSpline
 62
7
  6
CONTINUOUS
 70
0
 71
3
 72
9
 73
5
 74
0
 42
0.0000001
 43
0.0000001
 44
0.0000000001
 40
0.0
 40
0.0
 40
0.0
 40
0.0
 40
0.4999975889
 40
1.0
 40
1.0
 40
1.0
 40
1.0
 10
302.1878774416
 20
226.7254367069
 30
0.0
 10
302.0829360697
 20
226.6648491399
 30
0.0
 10
301.8343249313
 20
226.6168704881
 30
0.0
 10
301.5857134643
 20
226.6648476147
 30
0.0
 10
301.4807706435
 20
226.7254350093
 30
0.0
  0
SPLINE
  5
34E
100
AcDbEntity
  8
0
100
AcDbSpline
 62
7
  6
CONTINUOUS
 70
0
 71
3
 72
9
 73
5
 74
0
 42
0.0000001
 43
0.0000001
 44
0.0000000001
 40
0.0
 40
0.0
 40
0.0
 40
0.0
 40
0.2939127522
 40
1.0
 40
1.0
 40
1.0
 40
1.0
 10
307.1376484616
 20
223.4595089634
 30
0.0
 10
307.1158337492
 20
223.4721034087
 30
0.0
 10
307.0456024817
 20
223.5194920997
 30
0.0
 10
306.9911542619
 20
223.6031169882
 30
0.0
 10
306.9911542312
 20
223.6636310555
 30
0.0
  0
SPLINE
  5
34F
100
AcDbEntity
  8
0
100
AcDbSpline
 62
7
  6
CONTINUOUS
 70
0
 71
3
 72
9
 73
5
 74
0
 42
0.0000001
 43
0.0000001
 44
0.0000000001
 40
0.0
 40
0.0
 40
0.0
 40
0.0
 40
0.4999975889
 40
1.0
 40
1.0
 40
1.0
 40
1.0
 10
319.8656205703
 20
216.5194178439
 30
0.0
 10
319.7606791984
 20
216.4588302769
 30
0.0
 10
319.51206806
 20
216.4108516251
 30
0.0
 10
319.263456593
 20
216.4588287517
 30
0.0
 10
319.1585137721
 20
216.5194161463
 30
0.0
  0
SPLINE
  5
350
100
AcDbEntity
  8
0
100
AcDbSpline
 62
7
  6
CONTINUOUS
 70
0
 71
3
 72
9
 73
5
 74
0
 42
0.0000001
 43
0.0000001
 44
0.0000000001
 40
0.0
 40
0.0
 40
0.0
 40
0.0
 40
0.2939127522
 40
1.0
 40
1.0
 40
1.0
 40
1.0
 10
324.8153915903
 20
213.2534901004
 30
0.0
 10
324.7935768778
 20
213.2660845456
 30
0.0
 10
324.7233456104
 20
213.3134732367
 30
0.0
 10
324.6688973906
 20
213.3970981252
 30
0.0
 10
324.6688973599
 20
213.4576121925
 30
0.0
  0
SPLINE
  5
351
100
AcDbEntity
  8
0
100
AcDbSpline
 62
7
  6
CONTINUOUS
 70
0
 71
3
 72
9
 73
5
 74
0
 42
0.0000001
 43
0.0000001
 44
0.0000000001
 40
0.0
 40
0.0
 40
0.0
 40
0.0
 40
0.4999975889
 40
1.0
 40
1.0
 40
1.0
 40
1.0
 10
337.5433636989
 20
206.3133989809
 30
0.0
 10
337.4384223271
 20
206.2528114139
 30
0.0
 10
337.1898111887
 20
206.204832762
 30
0.0
 10
336.9411997217
 20
206.2528098887
 30
0.0
 10
336.8362569008
 20
206.3133972833
 30
0.0
  0
SPLINE
  5
352
100
AcDbEntity
  8
0
100
AcDbSpline
 62
7
  6
CONTINUOUS
 70
0
 71
3
 72
13
 73
9
 74
0
 42
0.0000001
 43
0.0000001
 44
0.0000000001
 40
0.0
 40
0.0
 40
0.0
 40
0.0
 40
0.0882594578
 40
0.184664268
 40
0.2943483213
 40
0.4184682239
 40
0.7004657711
 40
1.0
 40
1.0
 40
1.0
 40
1.0
 10
340.272076376
 20
198.9092487632
 30
0.0
 10
340.3834910592
 20
198.8447572946
 30
0.0
 10
340.647192795
 20
198.7582845741
 30
0.0
 10
341.0830941882
 20
198.7812246497
 30
0.0
 10
341.5427965125
 20
198.9404461235
 30
0.0
 10
342.1881278315
 20
199.3355701416
 30
0.0
 10
342.9091354126
 20
200.0929358232
 30
0.0
 10
343.3250572952
 20
200.8438773718
 30
0.0
 10
343.4830912714
 20
201.2511893136
 30
0.0
  0
SPLINE
  5
353
100
AcDbEntity
  8
0
100
AcDbSpline
 62
7
  6
CONTINUOUS
 70
0
 71
3
 72
9
 73
5
 74
0
 42
0.0000001
 43
0.0000001
 44
0.0000000001
 40
0.0
 40
0.0
 40
0.0
 40
0.0
 40
0.4999983279
 40
1.0
 40
1.0
 40
1.0
 40
1.0
 10
337.2605775039
 20
198.4751431766
 30
0.0
 10
337.0087229134
 20
198.3297357289
 30
0.0
 10
336.6107961337
 20
197.8704987325
 30
0.0
 10
336.4120528993
 20
197.2962654338
 30
0.0
 10
336.4120528993
 20
197.0054472914
 30
0.0
  0
SPLINE
  5
354
100
AcDbEntity
  8
0
100
AcDbSpline
 62
7
  6
CONTINUOUS
 70
0
 71
3
 72
13
 73
9
 74
0
 42
0.0000001
 43
0.0000001
 44
0.0000000001
 40
0.0
 40
0.0
 40
0.0
 40
0.0
 40
0.2995338918
 40
0.5815313965
 40
0.7056513316
 40
0.8153354758
 40
0.9117403889
 40
1.0
 40
1.0
 40
1.0
 40
1.0
 10
343.4830912714
 20
202.0676917307
 30
0.0
 10
343.3250574743
 20
201.6603802507
 30
0.0
 10
342.9091359223
 20
200.9094392504
 30
0.0
 10
342.1881291942
 20
200.1520734036
 30
0.0
 10
341.5427977836
 20
199.7569493566
 30
0.0
 10
341.0830953705
 20
199.5977272301
 30
0.0
 10
340.6471934244
 20
199.5747867853
 30
0.0
 10
340.3834913494
 20
199.6612597557
 30
0.0
 10
340.2720764785
 20
199.7257513446
 30
0.0
  0
SPLINE
  5
355
100
AcDbEntity
  8
0
100
AcDbSpline
 62
7
  6
CONTINUOUS
 70
0
 71
3
 72
9
 73
5
 74
0
 42
0.0000001
 43
0.0000001
 44
0.0000000001
 40
0.0
 40
0.0
 40
0.0
 40
0.0
 40
0.7062822851
 40
1.0
 40
1.0
 40
1.0
 40
1.0
 10
354.7553459665
 20
207.7113809305
 30
0.0
 10
354.7763115136
 20
207.6992696725
 30
0.0
 10
354.7943403956
 20
207.6636650142
 30
0.0
 10
354.7967526668
 20
207.6298643385
 30
0.0
 10
354.7967526668
 20
207.6197952921
 30
0.0
  0
SPLINE
  5
356
100
AcDbEntity
  8
0
100
AcDbSpline
 62
7
  6
CONTINUOUS
 70
0
 71
3
 72
9
 73
5
 74
0
 42
0.0000001
 43
0.0000001
 44
0.0000000001
 40
0.0
 40
0.0
 40
0.0
 40
0.0
 40
0.2208527033
 40
1.0
 40
1.0
 40
1.0
 40
1.0
 10
183.2469523305
 20
295.1057630965
 30
0.0
 10
183.2469523208
 20
295.1247983324
 30
0.0
 10
183.262387666
 20
295.2115743908
 30
0.0
 10
183.335286032
 20
295.2763063691
 30
0.0
 10
183.3934436205
 20
295.3098834684
 30
0.0
  0
SPLINE
  5
357
100
AcDbEntity
  8
0
100
AcDbSpline
 62
7
  6
CONTINUOUS
 70
0
 71
3
 72
9
 73
5
 74
0
 42
0.0000001
 43
0.0000001
 44
0.0000000001
 40
0.0
 40
0.0
 40
0.0
 40
0.0
 40
0.4999975889
 40
1.0
 40
1.0
 40
1.0
 40
1.0
 10
346.0286509477
 20
205.4969344609
 30
0.0
 10
346.1335923195
 20
205.5575220279
 30
0.0
 10
346.3822034579
 20
205.6055006798
 30
0.0
 10
346.630814925
 20
205.5575235531
 30
0.0
 10
346.7357577458
 20
205.4969361585
 30
0.0
  0
SPLINE
  5
358
100
AcDbEntity
  8
0
100
AcDbSpline
 62
7
  6
CONTINUOUS
 70
0
 71
3
 72
9
 73
5
 74
0
 42
0.0000001
 43
0.0000001
 44
0.0000000001
 40
0.0
 40
0.0
 40
0.0
 40
0.0
 40
0.4999975889
 40
1.0
 40
1.0
 40
1.0
 40
1.0
 10
63.1847608889
 20
368.793236269
 30
0.0
 10
63.2897022607
 20
368.853823836
 30
0.0
 10
63.5383133991
 20
368.9018024879
 30
0.0
 10
63.7869248662
 20
368.8538253612
 30
0.0
 10
63.891867687
 20
368.7932379666
 30
0.0
  0
SPLINE
  5
359
100
AcDbEntity
  8
0
100
AcDbSpline
 62
7
  6
CONTINUOUS
 70
0
 71
3
 72
9
 73
5
 74
0
 42
0.0000001
 43
0.0000001
 44
0.0000000001
 40
0.0
 40
0.0
 40
0.0
 40
0.0
 40
0.2208527033
 40
1.0
 40
1.0
 40
1.0
 40
1.0
 10
130.2137229444
 20
325.7238196855
 30
0.0
 10
130.2137229348
 20
325.7428549214
 30
0.0
 10
130.2291582799
 20
325.8296309798
 30
0.0
 10
130.302056646
 20
325.8943629581
 30
0.0
 10
130.3602142345
 20
325.9279400574
 30
0.0
  0
SPLINE
  5
35A
100
AcDbEntity
  8
0
100
AcDbSpline
 62
7
  6
CONTINUOUS
 70
0
 71
3
 72
9
 73
5
 74
0
 42
0.0000001
 43
0.0000001
 44
0.0000000001
 40
0.0
 40
0.0
 40
0.0
 40
0.0
 40
0.2939127522
 40
1.0
 40
1.0
 40
1.0
 40
1.0
 10
75.9127329976
 20
361.8531451496
 30
0.0
 10
75.93454771
 20
361.8405507043
 30
0.0
 10
76.0047789775
 20
361.7931620133
 30
0.0
 10
76.0592271973
 20
361.7095371247
 30
0.0
 10
76.059227228
 20
361.6490230575
 30
0.0
  0
SPLINE
  5
35B
100
AcDbEntity
  8
0
100
AcDbSpline
 62
7
  6
CONTINUOUS
 70
0
 71
3
 72
9
 73
5
 74
0
 42
0.0000001
 43
0.0000001
 44
0.0000000001
 40
0.0
 40
0.0
 40
0.0
 40
0.0
 40
0.4999975889
 40
1.0
 40
1.0
 40
1.0
 40
1.0
 10
80.8625040176
 20
358.587217406
 30
0.0
 10
80.9674453894
 20
358.647804973
 30
0.0
 10
81.2160565278
 20
358.6957836249
 30
0.0
 10
81.4646679948
 20
358.6478064982
 30
0.0
 10
81.5696108157
 20
358.5872191036
 30
0.0
  0
SPLINE
  5
35C
100
AcDbEntity
  8
0
100
AcDbSpline
 62
7
  6
CONTINUOUS
 70
0
 71
3
 72
9
 73
5
 74
0
 42
0.0000001
 43
0.0000001
 44
0.0000000001
 40
0.0
 40
0.0
 40
0.0
 40
0.0
 40
0.2208527033
 40
1.0
 40
1.0
 40
1.0
 40
1.0
 10
271.6356679738
 20
244.0756687815
 30
0.0
 10
271.6356679642
 20
244.0947040174
 30
0.0
 10
271.6511033093
 20
244.1814800757
 30
0.0
 10
271.7240016754
 20
244.2462120541
 30
0.0
 10
271.7821592639
 20
244.2797891534
 30
0.0
  0
SPLINE
  5
35D
100
AcDbEntity
  8
0
100
AcDbSpline
 62
7
  6
CONTINUOUS
 70
0
 71
3
 72
9
 73
5
 74
0
 42
0.0000001
 43
0.0000001
 44
0.0000000001
 40
0.0
 40
0.0
 40
0.0
 40
0.0
 40
0.2939127522
 40
1.0
 40
1.0
 40
1.0
 40
1.0
 10
93.5904761262
 20
351.6471262866
 30
0.0
 10
93.6122908386
 20
351.6345318413
 30
0.0
 10
93.6825221061
 20
351.5871431503
 30
0.0
 10
93.7369703259
 20
351.5035182617
 30
0.0
 10
93.7369703566
 20
351.4430041945
 30
0.0
  0
SPLINE
  5
35E
100
AcDbEntity
  8
0
100
AcDbSpline
 62
7
  6
CONTINUOUS
 70
0
 71
3
 72
9
 73
5
 74
0
 42
0.0000001
 43
0.0000001
 44
0.0000000001
 40
0.0
 40
0.0
 40
0.0
 40
0.0
 40
0.4999975889
 40
1.0
 40
1.0
 40
1.0
 40
1.0
 10
98.5402471462
 20
348.381198543
 30
0.0
 10
98.6451885181
 20
348.44178611
 30
0.0
 10
98.8937996565
 20
348.4897647619
 30
0.0
 10
99.1424111235
 20
348.4417876352
 30
0.0
 10
99.2473539444
 20
348.3812002406
 30
0.0
  0
SPLINE
  5
35F
100
AcDbEntity
  8
0
100
AcDbSpline
 62
7
  6
CONTINUOUS
 70
0
 71
3
 72
9
 73
5
 74
0
 42
0.0000001
 43
0.0000001
 44
0.0000000001
 40
0.0
 40
0.0
 40
0.0
 40
0.0
 40
0.2208527033
 40
1.0
 40
1.0
 40
1.0
 40
1.0
 10
165.5692092018
 20
305.3117819595
 30
0.0
 10
165.5692091921
 20
305.3308171954
 30
0.0
 10
165.5846445373
 20
305.4175932538
 30
0.0
 10
165.6575429033
 20
305.4823252321
 30
0.0
 10
165.7157004918
 20
305.5159023314
 30
0.0
  0
SPLINE
  5
360
100
AcDbEntity
  8
0
100
AcDbSpline
 62
7
  6
CONTINUOUS
 70
0
 71
3
 72
9
 73
5
 74
0
 42
0.0000001
 43
0.0000001
 44
0.0000000001
 40
0.0
 40
0.0
 40
0.0
 40
0.0
 40
0.2939127522
 40
1.0
 40
1.0
 40
1.0
 40
1.0
 10
111.2682192549
 20
341.4411074236
 30
0.0
 10
111.2900339673
 20
341.4285129783
 30
0.0
 10
111.3602652348
 20
341.3811242873
 30
0.0
 10
111.4147134546
 20
341.2974993987
 30
0.0
 10
111.4147134853
 20
341.2369853315
 30
0.0
  0
SPLINE
  5
361
100
AcDbEntity
  8
0
100
AcDbSpline
 62
7
  6
CONTINUOUS
 70
0
 71
3
 72
9
 73
5
 74
0
 42
0.0000001
 43
0.0000001
 44
0.0000000001
 40
0.0
 40
0.0
 40
0.0
 40
0.0
 40
0.4999975889
 40
1.0
 40
1.0
 40
1.0
 40
1.0
 10
116.2179902749
 20
338.17517968
 30
0.0
 10
116.3229316468
 20
338.235767247
 30
0.0
 10
116.5715427851
 20
338.2837458989
 30
0.0
 10
116.8201542522
 20
338.2357687722
 30
0.0
 10
116.925097073
 20
338.1751813776
 30
0.0
  0
SPLINE
  5
362
100
AcDbEntity
  8
0
100
AcDbSpline
 62
7
  6
CONTINUOUS
 70
0
 71
3
 72
9
 73
5
 74
0
 42
0.0000001
 43
0.0000001
 44
0.0000000001
 40
0.0
 40
0.0
 40
0.0
 40
0.0
 40
0.2208527033
 40
1.0
 40
1.0
 40
1.0
 40
1.0
 10
112.5359798158
 20
335.9298385486
 30
0.0
 10
112.5359798061
 20
335.9488737844
 30
0.0
 10
112.5514151513
 20
336.0356498428
 30
0.0
 10
112.6243135173
 20
336.1003818212
 30
0.0
 10
112.6824711058
 20
336.1339589204
 30
0.0
  0
SPLINE
  5
363
100
AcDbEntity
  8
0
100
AcDbSpline
 62
7
  6
CONTINUOUS
 70
0
 71
3
 72
9
 73
5
 74
0
 42
0.0000001
 43
0.0000001
 44
0.0000000001
 40
0.0
 40
0.0
 40
0.0
 40
0.0
 40
0.2208527033
 40
1.0
 40
1.0
 40
1.0
 40
1.0
 10
306.9911542312
 20
223.6636310555
 30
0.0
 10
306.9911542215
 20
223.6826662913
 30
0.0
 10
307.0065895667
 20
223.7694423497
 30
0.0
 10
307.0794879327
 20
223.8341743281
 30
0.0
 10
307.1376455212
 20
223.8677514273
 30
0.0
  0
SPLINE
  5
364
100
AcDbEntity
  8
0
100
AcDbSpline
 62
7
  6
CONTINUOUS
 70
0
 71
3
 72
9
 73
5
 74
0
 42
0.0000001
 43
0.0000001
 44
0.0000000001
 40
0.0
 40
0.0
 40
0.0
 40
0.0
 40
0.2939127522
 40
1.0
 40
1.0
 40
1.0
 40
1.0
 10
128.9459623836
 20
331.2350885605
 30
0.0
 10
128.967777096
 20
331.2224941153
 30
0.0
 10
129.0380083635
 20
331.1751054242
 30
0.0
 10
129.0924565833
 20
331.0914805357
 30
0.0
 10
129.092456614
 20
331.0309664684
 30
0.0
  0
SPLINE
  5
365
100
AcDbEntity
  8
0
100
AcDbSpline
 62
7
  6
CONTINUOUS
 70
0
 71
3
 72
9
 73
5
 74
0
 42
0.0000001
 43
0.0000001
 44
0.0000000001
 40
0.0
 40
0.0
 40
0.0
 40
0.0
 40
0.4999975889
 40
1.0
 40
1.0
 40
1.0
 40
1.0
 10
133.8957334036
 20
327.969160817
 30
0.0
 10
134.0006747754
 20
328.029748384
 30
0.0
 10
134.2492859138
 20
328.0777270359
 30
0.0
 10
134.4978973809
 20
328.0297499092
 30
0.0
 10
134.6028402017
 20
327.9691625146
 30
0.0
  0
SPLINE
  5
366
100
AcDbEntity
  8
0
100
AcDbSpline
 62
7
  6
CONTINUOUS
 70
0
 71
3
 72
9
 73
5
 74
0
 42
0.0000001
 43
0.0000001
 44
0.0000000001
 40
0.0
 40
0.0
 40
0.0
 40
0.0
 40
0.2208527033
 40
1.0
 40
1.0
 40
1.0
 40
1.0
 10
218.6024385878
 20
274.6937253705
 30
0.0
 10
218.6024385782
 20
274.7127606064
 30
0.0
 10
218.6178739233
 20
274.7995366648
 30
0.0
 10
218.6907722894
 20
274.8642686431
 30
0.0
 10
218.7489298778
 20
274.8978457424
 30
0.0
  0
SPLINE
  5
367
100
AcDbEntity
  8
0
100
AcDbSpline
 62
7
  6
CONTINUOUS
 70
0
 71
3
 72
9
 73
5
 74
0
 42
0.0000001
 43
0.0000001
 44
0.0000000001
 40
0.0
 40
0.0
 40
0.0
 40
0.0
 40
0.2939127522
 40
1.0
 40
1.0
 40
1.0
 40
1.0
 10
146.6237055123
 20
321.0290696975
 30
0.0
 10
146.6455202247
 20
321.0164752523
 30
0.0
 10
146.7157514922
 20
320.9690865612
 30
0.0
 10
146.7701997119
 20
320.8854616727
 30
0.0
 10
146.7701997427
 20
320.8249476054
 30
0.0
  0
SPLINE
  5
368
100
AcDbEntity
  8
0
100
AcDbSpline
 62
7
  6
CONTINUOUS
 70
0
 71
3
 72
9
 73
5
 74
0
 42
0.0000001
 43
0.0000001
 44
0.0000000001
 40
0.0
 40
0.0
 40
0.0
 40
0.0
 40
0.4999975889
 40
1.0
 40
1.0
 40
1.0
 40
1.0
 10
151.5734765323
 20
317.763141954
 30
0.0
 10
151.6784179041
 20
317.823729521
 30
0.0
 10
151.9270290425
 20
317.8717081728
 30
0.0
 10
152.1756405095
 20
317.8237310462
 30
0.0
 10
152.2805833304
 20
317.7631436516
 30
0.0
  0
SPLINE
  5
369
100
AcDbEntity
  8
0
100
AcDbSpline
 62
7
  6
CONTINUOUS
 70
0
 71
3
 72
9
 73
5
 74
0
 42
0.0000001
 43
0.0000001
 44
0.0000000001
 40
0.0
 40
0.0
 40
0.0
 40
0.0
 40
0.2939127522
 40
1.0
 40
1.0
 40
1.0
 40
1.0
 10
164.3014486409
 20
310.8230508345
 30
0.0
 10
164.3232633533
 20
310.8104563892
 30
0.0
 10
164.3934946208
 20
310.7630676982
 30
0.0
 10
164.4479428406
 20
310.6794428097
 30
0.0
 10
164.4479428713
 20
310.6189287424
 30
0.0
  0
SPLINE
  5
36A
100
AcDbEntity
  8
0
100
AcDbSpline
 62
7
  6
CONTINUOUS
 70
0
 71
3
 72
9
 73
5
 74
0
 42
0.0000001
 43
0.0000001
 44
0.0000000001
 40
0.0
 40
0.0
 40
0.0
 40
0.0
 40
0.4999975889
 40
1.0
 40
1.0
 40
1.0
 40
1.0
 10
169.2512196609
 20
307.557123091
 30
0.0
 10
169.3561610328
 20
307.617710658
 30
0.0
 10
169.6047721712
 20
307.6656893098
 30
0.0
 10
169.8533836382
 20
307.6177121832
 30
0.0
 10
169.9583264591
 20
307.5571247886
 30
0.0
  0
SPLINE
  5
36B
100
AcDbEntity
  8
0
100
AcDbSpline
 62
7
  6
CONTINUOUS
 70
0
 71
3
 72
13
 73
9
 74
0
 42
0.0000001
 43
0.0000001
 44
0.0000000001
 40
0.0
 40
0.0
 40
0.0
 40
0.0
 40
0.2995338918
 40
0.5815313965
 40
0.7056513316
 40
0.8153354758
 40
0.9117403889
 40
1.0
 40
1.0
 40
1.0
 40
1.0
 10
351.968337318
 20
206.9666215771
 30
0.0
 10
351.8103035209
 20
206.5593100972
 30
0.0
 10
351.3943819688
 20
205.8083690969
 30
0.0
 10
350.6733752407
 20
205.0510032501
 30
0.0
 10
350.0280438302
 20
204.655879203
 30
0.0
 10
349.568341417
 20
204.4966570766
 30
0.0
 10
349.132439471
 20
204.4737166318
 30
0.0
 10
348.8687373959
 20
204.5601896022
 30
0.0
 10
348.7573225251
 20
204.624681191
 30
0.0
  0
SPLINE
  5
36C
100
AcDbEntity
  8
0
100
AcDbSpline
 62
7
  6
CONTINUOUS
 70
0
 71
3
 72
9
 73
5
 74
0
 42
0.0000001
 43
0.0000001
 44
0.0000000001
 40
0.0
 40
0.0
 40
0.0
 40
0.0
 40
0.2208527033
 40
1.0
 40
1.0
 40
1.0
 40
1.0
 10
200.9246954591
 20
284.8997442335
 30
0.0
 10
200.9246954495
 20
284.9187794694
 30
0.0
 10
200.9401307946
 20
285.0055555278
 30
0.0
 10
201.0130291607
 20
285.0702875061
 30
0.0
 10
201.0711867492
 20
285.1038646054
 30
0.0
  0
SPLINE
  5
36D
100
AcDbEntity
  8
0
100
AcDbSpline
 62
7
  6
CONTINUOUS
 70
0
 71
3
 72
9
 73
5
 74
0
 42
0.0000001
 43
0.0000001
 44
0.0000000001
 40
0.0
 40
0.0
 40
0.0
 40
0.0
 40
0.2939127522
 40
1.0
 40
1.0
 40
1.0
 40
1.0
 10
181.9791917696
 20
300.6170319715
 30
0.0
 10
182.001006482
 20
300.6044375262
 30
0.0
 10
182.0712377495
 20
300.5570488352
 30
0.0
 10
182.1256859693
 20
300.4734239467
 30
0.0
 10
182.125686
 20
300.4129098794
 30
0.0
  0
SPLINE
  5
36E
100
AcDbEntity
  8
0
100
AcDbSpline
 62
7
  6
CONTINUOUS
 70
0
 71
3
 72
9
 73
5
 74
0
 42
0.0000001
 43
0.0000001
 44
0.0000000001
 40
0.0
 40
0.0
 40
0.0
 40
0.0
 40
0.4999975889
 40
1.0
 40
1.0
 40
1.0
 40
1.0
 10
186.9289627896
 20
297.351104228
 30
0.0
 10
187.0339041614
 20
297.411691795
 30
0.0
 10
187.2825152998
 20
297.4596704468
 30
0.0
 10
187.5311267669
 20
297.4116933202
 30
0.0
 10
187.6360695877
 20
297.3511059256
 30
0.0
  0
SPLINE
  5
36F
100
AcDbEntity
  8
0
100
AcDbSpline
 62
7
  6
CONTINUOUS
 70
0
 71
3
 72
9
 73
5
 74
0
 42
0.0000001
 43
0.0000001
 44
0.0000000001
 40
0.0
 40
0.0
 40
0.0
 40
0.0
 40
0.2208527033
 40
1.0
 40
1.0
 40
1.0
 40
1.0
 10
147.8914660731
 20
315.5178008225
 30
0.0
 10
147.8914660635
 20
315.5368360584
 30
0.0
 10
147.9069014086
 20
315.6236121168
 30
0.0
 10
147.9797997747
 20
315.6883440951
 30
0.0
 10
148.0379573631
 20
315.7219211944
 30
0.0
  0
SPLINE
  5
370
100
AcDbEntity
  8
0
100
AcDbSpline
 62
7
  6
CONTINUOUS
 70
0
 71
3
 72
9
 73
5
 74
0
 42
0.0000001
 43
0.0000001
 44
0.0000000001
 40
0.0
 40
0.0
 40
0.0
 40
0.0
 40
0.2208527033
 40
1.0
 40
1.0
 40
1.0
 40
1.0
 10
253.9579248452
 20
254.2816876445
 30
0.0
 10
253.9579248355
 20
254.3007228804
 30
0.0
 10
253.9733601807
 20
254.3874989387
 30
0.0
 10
254.0462585467
 20
254.4522309171
 30
0.0
 10
254.1044161352
 20
254.4858080164
 30
0.0
  0
SPLINE
  5
371
100
AcDbEntity
  8
0
100
AcDbSpline
 62
7
  6
CONTINUOUS
 70
0
 71
3
 72
9
 73
5
 74
0
 42
0.0000001
 43
0.0000001
 44
0.0000000001
 40
0.0
 40
0.0
 40
0.0
 40
0.0
 40
0.2939127522
 40
1.0
 40
1.0
 40
1.0
 40
1.0
 10
199.6569348983
 20
290.4110131085
 30
0.0
 10
199.6787496107
 20
290.3984186632
 30
0.0
 10
199.7489808782
 20
290.3510299722
 30
0.0
 10
199.803429098
 20
290.2674050837
 30
0.0
 10
199.8034291287
 20
290.2068910164
 30
0.0
  0
SPLINE
  5
372
100
AcDbEntity
  8
0
100
AcDbSpline
 62
7
  6
CONTINUOUS
 70
0
 71
3
 72
9
 73
5
 74
0
 42
0.0000001
 43
0.0000001
 44
0.0000000001
 40
0.0
 40
0.0
 40
0.0
 40
0.0
 40
0.4999975889
 40
1.0
 40
1.0
 40
1.0
 40
1.0
 10
204.6067059183
 20
287.145085365
 30
0.0
 10
204.7116472901
 20
287.205672932
 30
0.0
 10
204.9602584285
 20
287.2536515838
 30
0.0
 10
205.2088698956
 20
287.2056744572
 30
0.0
 10
205.3138127164
 20
287.1450870626
 30
0.0
  0
SPLINE
  5
373
100
AcDbEntity
  8
0
100
AcDbSpline
 62
7
  6
CONTINUOUS
 70
0
 71
3
 72
9
 73
5
 74
0
 42
0.0000001
 43
0.0000001
 44
0.0000000001
 40
0.0
 40
0.0
 40
0.0
 40
0.0
 40
0.2208527033
 40
1.0
 40
1.0
 40
1.0
 40
1.0
 10
94.8582366871
 20
346.1358574116
 30
0.0
 10
94.8582366774
 20
346.1548926474
 30
0.0
 10
94.8736720226
 20
346.2416687058
 30
0.0
 10
94.9465703886
 20
346.3064006842
 30
0.0
 10
95.0047279771
 20
346.3399777834
 30
0.0
  0
SPLINE
  5
374
100
AcDbEntity
  8
0
100
AcDbSpline
 62
7
  6
CONTINUOUS
 70
0
 71
3
 72
9
 73
5
 74
0
 42
0.0000001
 43
0.0000001
 44
0.0000000001
 40
0.0
 40
0.0
 40
0.0
 40
0.0
 40
0.2939127522
 40
1.0
 40
1.0
 40
1.0
 40
1.0
 10
217.334678027
 20
280.2049942455
 30
0.0
 10
217.3564927394
 20
280.1923998002
 30
0.0
 10
217.4267240069
 20
280.1450111092
 30
0.0
 10
217.4811722266
 20
280.0613862207
 30
0.0
 10
217.4811722574
 20
280.0008721534
 30
0.0
  0
SPLINE
  5
375
100
AcDbEntity
  8
0
100
AcDbSpline
 62
7
  6
CONTINUOUS
 70
0
 71
3
 72
9
 73
5
 74
0
 42
0.0000001
 43
0.0000001
 44
0.0000000001
 40
0.0
 40
0.0
 40
0.0
 40
0.0
 40
0.4999975889
 40
1.0
 40
1.0
 40
1.0
 40
1.0
 10
222.284449047
 20
276.939066502
 30
0.0
 10
222.3893904188
 20
276.999654069
 30
0.0
 10
222.6380015572
 20
277.0476327208
 30
0.0
 10
222.8866130242
 20
276.9996555941
 30
0.0
 10
222.9915558451
 20
276.9390681996
 30
0.0
  0
SPLINE
  5
376
100
AcDbEntity
  8
0
100
AcDbSpline
 62
7
  6
CONTINUOUS
 70
0
 71
3
 72
9
 73
5
 74
0
 42
0.0000001
 43
0.0000001
 44
0.0000000001
 40
0.0
 40
0.0
 40
0.0
 40
0.0
 40
0.2940756765
 40
1.0
 40
1.0
 40
1.0
 40
1.0
 10
355.6452772715
 20
203.7822254659
 30
0.0
 10
355.6365458747
 20
203.7771844217
 30
0.0
 10
355.6060857189
 20
203.7623254259
 30
0.0
 10
355.5662198212
 20
203.7601853809
 30
0.0
 10
355.5452632044
 20
203.7722914802
 30
0.0
  0
SPLINE
  5
377
100
AcDbEntity
  8
0
100
AcDbSpline
 62
7
  6
CONTINUOUS
 70
0
 71
3
 72
9
 73
5
 74
0
 42
0.0000001
 43
0.0000001
 44
0.0000000001
 40
0.0
 40
0.0
 40
0.0
 40
0.0
 40
0.2208527033
 40
1.0
 40
1.0
 40
1.0
 40
1.0
 10
77.1804935584
 20
356.3418762746
 30
0.0
 10
77.1804935488
 20
356.3609115104
 30
0.0
 10
77.1959288939
 20
356.4476875688
 30
0.0
 10
77.26882726
 20
356.5124195472
 30
0.0
 10
77.3269848484
 20
356.5459966464
 30
0.0
  0
SPLINE
  5
378
100
AcDbEntity
  8
0
100
AcDbSpline
 62
7
  6
CONTINUOUS
 70
0
 71
3
 72
9
 73
5
 74
0
 42
0.0000001
 43
0.0000001
 44
0.0000000001
 40
0.0
 40
0.0
 40
0.0
 40
0.0
 40
0.2939127522
 40
1.0
 40
1.0
 40
1.0
 40
1.0
 10
235.0124211556
 20
269.9989753825
 30
0.0
 10
235.034235868
 20
269.9863809372
 30
0.0
 10
235.1044671355
 20
269.9389922462
 30
0.0
 10
235.1589153553
 20
269.8553673577
 30
0.0
 10
235.158915386
 20
269.7948532904
 30
0.0
  0
SPLINE
  5
379
100
AcDbEntity
  8
0
100
AcDbSpline
 62
7
  6
CONTINUOUS
 70
0
 71
3
 72
9
 73
5
 74
0
 42
0.0000001
 43
0.0000001
 44
0.0000000001
 40
0.0
 40
0.0
 40
0.0
 40
0.0
 40
0.4999975889
 40
1.0
 40
1.0
 40
1.0
 40
1.0
 10
239.9621921756
 20
266.733047639
 30
0.0
 10
240.0671335475
 20
266.793635206
 30
0.0
 10
240.3157446859
 20
266.8416138578
 30
0.0
 10
240.5643561529
 20
266.7936367311
 30
0.0
 10
240.6692989738
 20
266.7330493366
 30
0.0
  0
SPLINE
  5
37A
100
AcDbEntity
  8
0
100
AcDbSpline
 62
7
  6
CONTINUOUS
 70
0
 71
3
 72
9
 73
5
 74
0
 42
0.0000001
 43
0.0000001
 44
0.0000000001
 40
0.0
 40
0.0
 40
0.0
 40
0.0
 40
0.2208527033
 40
1.0
 40
1.0
 40
1.0
 40
1.0
 10
289.3134111025
 20
233.8696499185
 30
0.0
 10
289.3134110929
 20
233.8886851544
 30
0.0
 10
289.328846438
 20
233.9754612127
 30
0.0
 10
289.4017448041
 20
234.0401931911
 30
0.0
 10
289.4599023925
 20
234.0737702904
 30
0.0
  0
SPLINE
  5
37B
100
AcDbEntity
  8
0
100
AcDbSpline
 62
7
  6
CONTINUOUS
 70
0
 71
3
 72
9
 73
5
 74
0
 42
0.0000001
 43
0.0000001
 44
0.0000000001
 40
0.0
 40
0.0
 40
0.0
 40
0.0
 40
0.2939127522
 40
1.0
 40
1.0
 40
1.0
 40
1.0
 10
252.6901642843
 20
259.7929565195
 30
0.0
 10
252.7119789967
 20
259.7803620742
 30
0.0
 10
252.7822102642
 20
259.7329733832
 30
0.0
 10
252.836658484
 20
259.6493484946
 30
0.0
 10
252.8366585147
 20
259.5888344274
 30
0.0
  0
SPLINE
  5
37C
100
AcDbEntity
  8
0
100
AcDbSpline
 62
7
  6
CONTINUOUS
 70
0
 71
3
 72
9
 73
5
 74
0
 42
0.0000001
 43
0.0000001
 44
0.0000000001
 40
0.0
 40
0.0
 40
0.0
 40
0.0
 40
0.4999975889
 40
1.0
 40
1.0
 40
1.0
 40
1.0
 10
257.6399353043
 20
256.5270287759
 30
0.0
 10
257.7448766761
 20
256.587616343
 30
0.0
 10
257.9934878145
 20
256.6355949948
 30
0.0
 10
258.2420992816
 20
256.5876178681
 30
0.0
 10
258.3470421024
 20
256.5270304735
 30
0.0
  0
SPLINE
  5
37D
100
AcDbEntity
  8
0
100
AcDbSpline
 62
7
  6
CONTINUOUS
 70
0
 71
3
 72
9
 73
5
 74
0
 42
0.0000001
 43
0.0000001
 44
0.0000000001
 40
0.0
 40
0.0
 40
0.0
 40
0.0
 40
0.2208527033
 40
1.0
 40
1.0
 40
1.0
 40
1.0
 10
59.5027504297
 20
366.5478951376
 30
0.0
 10
59.5027504201
 20
366.5669303735
 30
0.0
 10
59.5181857652
 20
366.6537064318
 30
0.0
 10
59.5910841313
 20
366.7184384102
 30
0.0
 10
59.6492417198
 20
366.7520155095
 30
0.0
  0
SPLINE
  5
37E
100
AcDbEntity
  8
0
100
AcDbSpline
 62
7
  6
CONTINUOUS
 70
0
 71
3
 72
9
 73
5
 74
0
 42
0.0000001
 43
0.0000001
 44
0.0000000001
 40
0.0
 40
0.0
 40
0.0
 40
0.0
 40
0.2208527033
 40
1.0
 40
1.0
 40
1.0
 40
1.0
 10
342.3466404885
 20
203.2515933295
 30
0.0
 10
342.3466404789
 20
203.2706285653
 30
0.0
 10
342.362075824
 20
203.3574046237
 30
0.0
 10
342.4349741901
 20
203.4221366021
 30
0.0
 10
342.4931317786
 20
203.4557137013
 30
0.0
  0
SPLINE
  5
37F
100
AcDbEntity
  8
0
100
AcDbSpline
 62
7
  6
CONTINUOUS
 70
0
 71
3
 72
9
 73
5
 74
0
 42
0.0000001
 43
0.0000001
 44
0.0000000001
 40
0.0
 40
0.0
 40
0.0
 40
0.0
 40
0.2939127522
 40
1.0
 40
1.0
 40
1.0
 40
1.0
 10
270.367907413
 20
249.5869376565
 30
0.0
 10
270.3897221254
 20
249.5743432112
 30
0.0
 10
270.4599533929
 20
249.5269545202
 30
0.0
 10
270.5144016127
 20
249.4433296316
 30
0.0
 10
270.5144016434
 20
249.3828155644
 30
0.0
  0
SPLINE
  5
380
100
AcDbEntity
  8
0
100
AcDbSpline
 62
7
  6
CONTINUOUS
 70
0
 71
3
 72
9
 73
5
 74
0
 42
0.0000001
 43
0.0000001
 44
0.0000000001
 40
0.0
 40
0.0
 40
0.0
 40
0.0
 40
0.4999975889
 40
1.0
 40
1.0
 40
1.0
 40
1.0
 10
275.317678433
 20
246.3210099129
 30
0.0
 10
275.4226198048
 20
246.3815974799
 30
0.0
 10
275.6712309432
 20
246.4295761318
 30
0.0
 10
275.9198424103
 20
246.3815990051
 30
0.0
 10
276.0247852311
 20
246.3210116105
 30
0.0
  0
SPLINE
  5
381
100
AcDbEntity
  8
0
100
AcDbSpline
 62
7
  6
CONTINUOUS
 70
0
 71
3
 72
9
 73
5
 74
0
 42
0.0000001
 43
0.0000001
 44
0.0000000001
 40
0.0
 40
0.0
 40
0.0
 40
0.0
 40
0.2208527033
 40
1.0
 40
1.0
 40
1.0
 40
1.0
 10
324.6688973599
 20
213.4576121925
 30
0.0
 10
324.6688973502
 20
213.4766474283
 30
0.0
 10
324.6843326954
 20
213.5634234867
 30
0.0
 10
324.7572310614
 20
213.6281554651
 30
0.0
 10
324.8153886499
 20
213.6617325643
 30
0.0
  0
SPLINE
  5
382
100
AcDbEntity
  8
0
100
AcDbSpline
 62
7
  6
CONTINUOUS
 70
0
 71
3
 72
9
 73
5
 74
0
 42
0.0000001
 43
0.0000001
 44
0.0000000001
 40
0.0
 40
0.0
 40
0.0
 40
0.0
 40
0.2208527033
 40
1.0
 40
1.0
 40
1.0
 40
1.0
 10
236.2801817165
 20
264.4877065075
 30
0.0
 10
236.2801817068
 20
264.5067417434
 30
0.0
 10
236.295617052
 20
264.5935178018
 30
0.0
 10
236.368515418
 20
264.6582497801
 30
0.0
 10
236.4266730065
 20
264.6918268794
 30
0.0
  0
SPLINE
  5
383
100
AcDbEntity
  8
0
100
AcDbSpline
 62
7
  6
CONTINUOUS
 70
0
 71
3
 72
9
 73
5
 74
0
 42
0.0000001
 43
0.0000001
 44
0.0000000001
 40
0.0
 40
0.0
 40
0.0
 40
0.0
 40
0.2939127522
 40
1.0
 40
1.0
 40
1.0
 40
1.0
 10
288.0456505417
 20
239.3809187935
 30
0.0
 10
288.0674652541
 20
239.3683243482
 30
0.0
 10
288.1376965216
 20
239.3209356572
 30
0.0
 10
288.1921447413
 20
239.2373107686
 30
0.0
 10
288.1921447721
 20
239.1767967014
 30
0.0
  0
SPLINE
  5
384
100
AcDbEntity
  8
0
100
AcDbSpline
 62
7
  6
CONTINUOUS
 70
0
 71
3
 72
9
 73
5
 74
0
 42
0.0000001
 43
0.0000001
 44
0.0000000001
 40
0.0
 40
0.0
 40
0.0
 40
0.0
 40
0.4999975889
 40
1.0
 40
1.0
 40
1.0
 40
1.0
 10
292.9954215617
 20
236.1149910499
 30
0.0
 10
293.1003629335
 20
236.1755786169
 30
0.0
 10
293.3489740719
 20
236.2235572688
 30
0.0
 10
293.5975855389
 20
236.1755801421
 30
0.0
 10
293.7025283598
 20
236.1149927475
 30
0.0
  0
SPLINE
  5
385
100
AcDbEntity
  8
0
100
AcDbSpline
 62
7
  6
CONTINUOUS
 70
0
 71
3
 72
9
 73
5
 74
0
 42
0.0000001
 43
0.0000001
 44
0.0000000001
 40
0.0
 40
0.0
 40
0.0
 40
0.0
 40
0.2939127522
 40
1.0
 40
1.0
 40
1.0
 40
1.0
 10
305.7233936703
 20
229.1748999305
 30
0.0
 10
305.7452083827
 20
229.1623054852
 30
0.0
 10
305.8154396502
 20
229.1149167942
 30
0.0
 10
305.86988787
 20
229.0312919056
 30
0.0
 10
305.8698879007
 20
228.9707778384
 30
0.0
  0
SPLINE
  5
386
100
AcDbEntity
  8
0
100
AcDbSpline
 62
7
  6
CONTINUOUS
 70
0
 71
3
 72
9
 73
5
 74
0
 42
0.0000001
 43
0.0000001
 44
0.0000000001
 40
0.0
 40
0.0
 40
0.0
 40
0.0
 40
0.4999975889
 40
1.0
 40
1.0
 40
1.0
 40
1.0
 10
310.6731646903
 20
225.9089721869
 30
0.0
 10
310.7781060622
 20
225.9695597539
 30
0.0
 10
311.0267172006
 20
226.0175384058
 30
0.0
 10
311.2753286676
 20
225.9695612791
 30
0.0
 10
311.3802714885
 20
225.9089738845
 30
0.0
  0
SPLINE
  5
387
100
AcDbEntity
  8
0
100
AcDbSpline
 62
7
  6
CONTINUOUS
 70
0
 71
3
 72
9
 73
5
 74
0
 42
0.0000001
 43
0.0000001
 44
0.0000000001
 40
0.0
 40
0.0
 40
0.0
 40
0.0
 40
0.2403734273
 40
1.0
 40
1.0
 40
1.0
 40
1.0
 10
336.4120528993
 20
192.8412849641
 30
0.0
 10
336.4120528993
 20
192.8181359916
 30
0.0
 10
336.3948976142
 20
192.7229663758
 30
0.0
 10
336.3339865184
 20
192.6329131036
 30
0.0
 10
336.2706321318
 20
192.5963356499
 30
0.0
  0
SPLINE
  5
388
100
AcDbEntity
  8
0
100
AcDbSpline
 62
7
  6
CONTINUOUS
 70
0
 71
3
 72
9
 73
5
 74
0
 42
0.0000001
 43
0.0000001
 44
0.0000000001
 40
0.0
 40
0.0
 40
0.0
 40
0.0
 40
0.2939127522
 40
1.0
 40
1.0
 40
1.0
 40
1.0
 10
323.401136799
 20
218.9688810675
 30
0.0
 10
323.4229515114
 20
218.9562866222
 30
0.0
 10
323.4931827789
 20
218.9088979312
 30
0.0
 10
323.5476309987
 20
218.8252730426
 30
0.0
 10
323.5476310294
 20
218.7647589754
 30
0.0
  0
SPLINE
  5
389
100
AcDbEntity
  8
0
100
AcDbSpline
 62
7
  6
CONTINUOUS
 70
0
 71
3
 72
9
 73
5
 74
0
 42
0.0000001
 43
0.0000001
 44
0.0000000001
 40
0.0
 40
0.0
 40
0.0
 40
0.0
 40
0.4999975889
 40
1.0
 40
1.0
 40
1.0
 40
1.0
 10
328.350907819
 20
215.7029533239
 30
0.0
 10
328.4558491908
 20
215.7635408909
 30
0.0
 10
328.7044603292
 20
215.8115195428
 30
0.0
 10
328.9530717963
 20
215.7635424161
 30
0.0
 10
329.0580146171
 20
215.7029550215
 30
0.0
  0
SPLINE
  5
38A
100
AcDbEntity
  8
0
100
AcDbSpline
 62
7
  6
CONTINUOUS
 70
0
 71
3
 72
9
 73
5
 74
0
 42
0.0000001
 43
0.0000001
 44
0.0000000001
 40
0.0
 40
0.0
 40
0.0
 40
0.0
 40
0.2939127522
 40
1.0
 40
1.0
 40
1.0
 40
1.0
 10
341.0788799277
 20
208.7628622045
 30
0.0
 10
341.1006946401
 20
208.7502677592
 30
0.0
 10
341.1709259076
 20
208.7028790682
 30
0.0
 10
341.2253741274
 20
208.6192541796
 30
0.0
 10
341.2253741581
 20
208.5587401124
 30
0.0
  0
ENDSEC
  0
SECTION
  2
OBJECTS
  0
DICTIONARY
  5
C
100
AcDbDictionary
280
0
281
1
  3
ACAD_GROUP
350
D
  3
ACAD_MLINESTYLE
350
17
  3
ACAD_LAYOUT
350
1A
  3
ACAD_PLOTSETTINGS
350
19
  3
ACAD_PLOTSTYLENAME
350
E
  0
DICTIONARY
  5
D
102
{ACAD_REACTORS
330
C
102
}
100
AcDbDictionary
280
0
281
1
  0
ACDBDICTIONARYWDFLT
  5
E
102
{ACAD_REACTORS
330
C
102
}
100
AcDbDictionary
281
1
  3
Normal
350
F
100
AcDbDictionaryWithDefault
340
F
  0
DICTIONARY
  5
17
102
{ACAD_REACTORS
330
C
102
}
100
AcDbDictionary
280
0
281
1
  3
Standard
350
18
  0
DICTIONARY
  5
19
102
{ACAD_REACTORS
330
C
102
}
100
AcDbDictionary
281
1
  0
DICTIONARY
  5
1A
102
{ACAD_REACTORS
330
C
102
}
100
AcDbDictionary
281
1
  3
Model
350
38B
  3
Layout1
350
38C
  0
ACDBPLACEHOLDER
  5
F
102
{ACAD_REACTORS
330
E
102
}
  0
MLINESTYLE
  5
18
102
{ACAD_REACTORS
330
17
102
}
100
AcDbMlineStyle
  2
STANDARD
 70
0
  3

 62
256
 51
90.0
 52
90.0
 71
2
 49
0.5
 62
256
  6
BYLAYER
 49
-0.5
 62
256
  6
BYLAYER
  0
LAYOUT
  5
38B
102
{ACAD_REACTORS
330
1A
102
}
100
AcDbPlotSettings
  1

  2
none_device
  4

  6

 40
0.0
 41
0.0
 42
0.0
 43
0.0
 44
210.0
 45
297.0
 46
0.0
 47
0.0
 48
0.0
 49
0.0
140
0.0
141
0.0
142
1.0
143
1.0
 70
1024
 72
1
 73
0
 74
0
  7

 75
0
147
1.0
148
0.0
149
0.0
100
AcDbLayout
  1
Model
 70
0
 71
0
 10
0.0
 20
0.0
 11
210.0
 21
297.0
 12
0.0
 22
0.0
 32
0.0
 14
0.0
 24
0.0
 34
0.0
 15
0.0
 25
0.0
 35
0.0
146
0.0
 13
0.0
 23
0.0
 33
0.0
 16
1.0
 26
0.0
 36
0.0
 17
0.0
 27
1.0
 37
0.0
 76
0
330
211
345
0
346
0
  0
LAYOUT
  5
38C
102
{ACAD_REACTORS
330
1A
102
}
100
AcDbPlotSettings
  1

  2
none_device
  4

  6

 40
0.0
 41
0.0
 42
0.0
 43
0.0
 44
210.0
 45
297.0
 46
0.0
 47
0.0
 48
0.0
 49
0.0
140
0.0
141
0.0
142
1.0
143
1.0
 70
0
 72
1
 73
0
 74
0
  7

 75
0
147
1.0
148
0.0
149
0.0
100
AcDbLayout
  1
Layout1
 70
0
 71
1
 10
0.0
 20
0.0
 11
210.0
 21
297.0
 12
0.0
 22
0.0
 32
0.0
 14
0.0
 24
0.0
 34
0.0
 15
0.0
 25
0.0
 35
0.0
146
0.0
 13
0.0
 23
0.0
 33
0.0
 16
1.0
 26
0.0
 36
0.0
 17
0.0
 27
1.0
 37
0.0
 76
0
330
212
345
0
346
0
  0
ENDSEC
  0
EOF
